0
SECTION
2
HEADER
9
$INSUNITS
70
4
9
$ACADVER
1
AC1014
9
$HANDSEED
5
FFFF
0
ENDSEC
0
SECTION
2
TABLES
0
TABLE
2
VPORT
5
8
100
AcDbSymbolTable
0
ENDTAB
0
TABLE
2
LTYPE
5
5
100
AcDbSymbolTable
0
LTYPE
5
14
100
AcDbSymbolTableRecord
100
AcDbLinetypeTableRecord
2
BYBLOCK
70
0
0
LTYPE
5
15
100
AcDbSymbolTableRecord
100
AcDbLinetypeTableRecord
2
BYLAYER
70
0
0
ENDTAB
0
TABLE
2
LAYER
5
2
100
AcDbSymbolTable
70
2
0
LAYER
5
50
100
AcDbSymbolTableRecord
100
AcDbLayerTableRecord
2
0
70
0
6
CONTINUOUS
0
ENDTAB
0
TABLE
2
STYLE
5
3
100
AcDbSymbolTable
70
1
0
STYLE
5
11
100
AcDbSymbolTableRecord
100
AcDbTextStyleTableRecord
2
STANDARD
70
0
0
ENDTAB
0
TABLE
2
VIEW
5
6
100
AcDbSymbolTable
70
0
0
ENDTAB
0
TABLE
2
UCS
5
7
100
AcDbSymbolTable
70
0
0
ENDTAB
0
TABLE
2
APPID
5
9
100
AcDbSymbolTable
70
2
0
APPID
5
12
100
AcDbSymbolTableRecord
100
AcDbRegAppTableRecord
2
ACAD
70
0
0
ENDTAB
0
TABLE
2
DIMSTYLE
5
A
100
AcDbSymbolTable
70
1
0
ENDTAB
0
TABLE
2
BLOCK_RECORD
5
1
100
AcDbSymbolTable
70
1
0
BLOCK_RECORD
5
1F
100
AcDbSymbolTableRecord
100
AcDbBlockTableRecord
2
*MODEL_SPACE
0
BLOCK_RECORD
5
1B
100
AcDbSymbolTableRecord
100
AcDbBlockTableRecord
2
*PAPER_SPACE
0
ENDTAB
0
ENDSEC
0
SECTION
2
BLOCKS
0
BLOCK
5
20
100
AcDbEntity
100
AcDbBlockBegin
2
*MODEL_SPACE
0
ENDBLK
5
21
100
AcDbEntity
100
AcDbBlockEnd
0
BLOCK
5
1C
100
AcDbEntity
100
AcDbBlockBegin
2
*PAPER_SPACE
0
ENDBLK
5
1D
100
AcDbEntity
100
AcDbBlockEnd
0
ENDSEC
0
SECTION
2
ENTITIES
0
SPLINE
5
100
100
AcDbEntity
8
0
100
AcDbSpline
70
1064
71
3
72
33
73
29
74
0
42
0.000000001
43
0.0000000001
44
0.0000000001
40
0
40
0
40
0
40
0
40
1
40
1
40
1
40
2
40
2
40
2
40
3
40
3
40
3
40
4
40
4
40
4
40
5
40
5
40
5
40
6
40
6
40
6
40
7
40
7
40
8
40
8
40
8
40
9
40
9
40
10
40
10
40
10
40
10
10
166.08239046819079
20
-149.29041371321992
30
0
10
166.08239046819079
20
-182.09579717534194
30
0
10
139.93517079563691
20
-208.68982420048599
30
0
10
107.12978733351491
20
-208.68982420048599
30
0
10
74.324382339546077
20
-208.68982420048599
30
0
10
47.283569493658717
20
-182.09579717534194
30
0
10
47.283569493658717
20
-149.29041371321992
30
0
10
47.283569493658717
20
-120.5443001339807
30
0
10
70.586905906832442
20
-97.24096372080696
30
0
10
99.33304101791849
20
-97.24096372080696
30
0
10
128.0791545971577
20
-97.24096372080696
30
0
10
151.38249101033151
20
-120.5443001339807
30
0
10
151.38249101033151
20
-149.29041371321992
30
0
10
151.38249101033151
20
-173.97749425989102
30
0
10
131.8168463483392
20
-193.99031231586866
30
0
10
107.12978733351491
20
-193.99031231586866
30
0
10
82.442706786843786
20
-193.99031231586866
30
0
10
61.98346895151802
20
-173.97749425989102
30
0
10
61.98346895151802
20
-149.29041371321992
30
0
10
61.98346895151802
20
-128.6628183678994
30
0
10
78.705445672597946
20
-111.94084164681951
30
0
10
119.96063636323902
20
-111.94084164681951
30
0
10
136.68259155247222
20
-128.6628183678994
30
0
10
136.68259155247222
20
-149.29041371321992
30
0
10
136.68259155247222
20
-165.85895449412558
30
0
10
123.69832811442051
20
-179.29041285800938
30
0
10
90.561246552609276
20
-179.29041285800938
30
0
10
77.129788188725371
20
-165.85895449412558
30
0
10
77.129788188725371
20
-149.29041371321992
30
0
0
LINE
5
101
100
AcDbEntity
8
0
100
AcDbLine
10
77.129788188725371
20
-149.29041371321992
30
0
11
77.127850322514931
21
-149.29041371321992
31
0
0
SPLINE
5
102
100
AcDbEntity
8
0
100
AcDbSpline
70
1064
71
3
72
11
73
7
74
0
42
0.000000001
43
0.0000000001
44
0.0000000001
40
11
40
11
40
11
40
11
40
12
40
12
40
12
40
13
40
13
40
13
40
13
10
77.127850322514931
20
-149.29041371321992
30
0
10
77.127850322514931
20
-137.026821186989
30
0
10
87.06944849168751
20
-127.0852230178164
30
0
10
99.33304101791849
20
-127.0852230178164
30
0
10
111.5966120123027
20
-127.0852230178164
30
0
10
121.53823171332199
20
-137.026821186989
30
0
10
121.53823171332199
20
-149.29041371321992
30
0
0
LINE
5
103
100
AcDbEntity
8
0
100
AcDbLine
10
121.53823171332199
20
-149.29041371321992
30
0
11
124.9827027750152
21
-149.29041371321992
31
0
0
SPLINE
5
104
100
AcDbEntity
8
0
100
AcDbSpline
70
1064
71
3
72
11
73
7
74
0
42
0.000000001
43
0.0000000001
44
0.0000000001
40
14
40
14
40
14
40
14
40
15
40
15
40
15
40
16
40
16
40
16
40
16
10
124.9827027750152
20
-149.29041371321992
30
0
10
124.9827027750152
20
-135.12450405557439
30
0
10
113.4989506755641
20
-123.64075195612318
30
0
10
99.33304101791849
20
-123.64075195612318
30
0
10
85.167109828426092
20
-123.64075195612318
30
0
10
73.683357728974997
20
-135.12450405557439
30
0
10
73.683357728974997
20
-149.29041371321992
30
0
0
LINE
5
105
100
AcDbEntity
8
0
100
AcDbLine
10
73.683357728974997
20
-149.29041371321992
30
0
11
73.685058744870844
21
-149.29041371321992
31
0
0
SPLINE
5
106
100
AcDbEntity
8
0
100
AcDbSpline
70
1064
71
3
72
10
73
6
74
0
42
0.000000001
43
0.0000000001
44
0.0000000001
40
17
40
17
40
17
40
17
40
18
40
18
40
19
40
19
40
19
40
19
10
73.685058744870844
20
-149.29041371321992
30
0
10
73.685058744870844
20
-167.51559325374836
30
0
10
88.45950145629223
20
-182.29003596516964
30
0
10
124.90986053734892
20
-182.29003596516964
30
0
10
139.68428171692361
20
-167.51559325374836
30
0
10
139.68428171692361
20
-149.29041371321992
30
0
0
LINE
5
107
100
AcDbEntity
8
0
100
AcDbLine
10
139.68428171692361
20
-149.29041371321992
30
0
11
139.6826022328745
21
-149.29041371321992
31
0
0
SPLINE
5
108
100
AcDbEntity
8
0
100
AcDbSpline
70
1064
71
3
72
10
73
6
74
0
42
0.000000001
43
0.0000000001
44
0.0000000001
40
20
40
20
40
20
40
20
40
21
40
21
40
22
40
22
40
22
40
22
10
139.6826022328745
20
-149.29041371321992
30
0
10
139.6826022328745
20
-127.00596428980879
30
0
10
121.61749044132959
20
-108.94085249826389
30
0
10
77.048591594507386
20
-108.94085249826389
30
0
10
58.983479802962464
20
-127.00596428980879
30
0
10
58.983479802962464
20
-149.29041371321992
30
0
0
LINE
5
109
100
AcDbEntity
8
0
100
AcDbLine
10
58.983479802962464
20
-149.29041371321992
30
0
11
58.985159287011527
21
-149.29041371321992
31
0
0
SPLINE
5
110
100
AcDbEntity
8
0
100
AcDbSpline
70
1064
71
3
72
11
73
7
74
0
42
0.000000001
43
0.0000000001
44
0.0000000001
40
23
40
23
40
23
40
23
40
24
40
24
40
24
40
25
40
25
40
25
40
25
10
58.985159287011527
20
-149.29041371321992
30
0
10
58.985159287011527
20
-175.63413301951383
30
0
10
80.34096169052674
20
-196.98993542302898
30
0
10
106.68468099682059
20
-196.98993542302898
30
0
10
133.02837877126771
20
-196.98993542302898
30
0
10
154.3841811747829
20
-175.63413301951383
30
0
10
154.3841811747829
20
-149.29041371321992
30
0
0
LINE
5
111
100
AcDbEntity
8
0
100
AcDbLine
10
154.3841811747829
20
-149.29041371321992
30
0
11
154.38250169073382
21
-149.29041371321992
31
0
0
SPLINE
5
112
100
AcDbEntity
8
0
100
AcDbSpline
70
1064
71
3
72
11
73
7
74
0
42
0.000000001
43
0.0000000001
44
0.0000000001
40
26
40
26
40
26
40
26
40
27
40
27
40
27
40
28
40
28
40
28
40
28
10
154.38250169073382
20
-149.29041371321992
30
0
10
154.38250169073382
20
-118.88744605589011
30
0
10
129.73600867524829
20
-94.240953040404605
30
0
10
99.33304101791849
20
-94.240953040404605
30
0
10
68.930051828741881
20
-94.240953040404605
30
0
10
44.283580345103147
20
-118.88744605589011
30
0
10
44.283580345103147
20
-149.29041371321992
30
0
0
LINE
5
113
100
AcDbEntity
8
0
100
AcDbLine
10
44.283580345103147
20
-149.29041371321992
30
0
11
44.28525982915221
21
-149.29041371321992
31
0
0
SPLINE
5
114
100
AcDbEntity
8
0
100
AcDbSpline
70
1064
71
3
72
10
73
6
74
0
42
0.000000001
43
0.0000000001
44
0.0000000001
40
29
40
29
40
29
40
29
40
30
40
30
40
31
40
31
40
31
40
31
10
44.28525982915221
20
-149.29041371321992
30
0
10
44.28525982915221
20
-183.7526512534325
30
0
10
72.222443456608005
20
-211.68981334904149
30
0
10
141.14691853703309
20
-211.68981334904149
30
0
10
169.08408063264218
20
-183.7526512534325
30
0
10
169.08408063264218
20
-149.29041371321992
30
0
0
LINE
5
115
100
AcDbEntity
8
0
100
AcDbLine
10
169.08408063264218
20
-149.29041371321992
30
0
11
166.08239046819079
21
-149.29041371321992
31
0
0
ENDSEC
0
SECTION
2
OBJECTS
0
DICTIONARY
5
C
100
AcDbDictionary
3
ACAD_GROUP
350
D
3
ACAD_MLINESTYLE
350
17
0
DICTIONARY
5
D
100
AcDbDictionary
0
DICTIONARY
5
1A
330
C
100
AcDbDictionary
0
DICTIONARY
5
17
100
AcDbDictionary
0
ENDSEC
0
EOF
