  0
SECTION
  2
BLOCKS
  0
ENDSEC
  0
SECTION
  2
ENTITIES
  0
LINE
  8
0
 10
0
 11
0
 20
0
 21
30
  0
LINE
  8
0
 10
0
 11
225
 20
30
 21
30
  0
LINE
  8
0
 10
225
 11
225
 20
30
 21
0
  0
LINE
  8
0
 10
225
 11
216
 20
0
 21
0
  0
LINE
  8
0
 10
216
 11
216
 20
0
 21
15
  0
LINE
  8
0
 10
216
 11
210
 20
15
 21
15
  0
LINE
  8
0
 10
210
 11
210
 20
15
 21
0
  0
LINE
  8
0
 10
210
 11
196.05
 20
0
 21
0
  0
LINE
  8
0
 10
196.05
 11
196.05
 20
0
 21
15
  0
LINE
  8
0
 10
196.05
 11
190
 20
15
 21
15
  0
LINE
  8
0
 10
190
 11
190
 20
15
 21
0
  0
LINE
  8
0
 10
190
 11
176.1
 20
0
 21
0
  0
LINE
  8
0
 10
176.1
 11
176.1
 20
0
 21
15
  0
LINE
  8
0
 10
176.1
 11
170
 20
15
 21
15
  0
LINE
  8
0
 10
170
 11
170
 20
15
 21
0
  0
LINE
  8
0
 10
170
 11
156.15
 20
0
 21
0
  0
LINE
  8
0
 10
156.15
 11
156.15
 20
0
 21
15
  0
LINE
  8
0
 10
156.15
 11
150
 20
15
 21
15
  0
LINE
  8
0
 10
150
 11
150
 20
15
 21
0
  0
LINE
  8
0
 10
150
 11
136.2
 20
0
 21
0
  0
LINE
  8
0
 10
136.2
 11
136.2
 20
0
 21
15
  0
LINE
  8
0
 10
136.2
 11
130
 20
15
 21
15
  0
LINE
  8
0
 10
130
 11
130
 20
15
 21
0
  0
LINE
  8
0
 10
130
 11
116.25
 20
0
 21
0
  0
LINE
  8
0
 10
116.25
 11
116.25
 20
0
 21
15
  0
LINE
  8
0
 10
116.25
 11
110
 20
15
 21
15
  0
LINE
  8
0
 10
110
 11
110
 20
15
 21
0
  0
LINE
  8
0
 10
110
 11
96.3
 20
0
 21
0
  0
LINE
  8
0
 10
96.3
 11
96.3
 20
0
 21
15
  0
LINE
  8
0
 10
96.3
 11
90
 20
15
 21
15
  0
LINE
  8
0
 10
90
 11
90
 20
15
 21
0
  0
LINE
  8
0
 10
90
 11
76.35
 20
0
 21
0
  0
LINE
  8
0
 10
76.35
 11
76.35
 20
0
 21
15
  0
LINE
  8
0
 10
76.35
 11
70
 20
15
 21
15
  0
LINE
  8
0
 10
70
 11
70
 20
15
 21
0
  0
LINE
  8
0
 10
70
 11
56.4
 20
0
 21
0
  0
LINE
  8
0
 10
56.4
 11
56.4
 20
0
 21
15
  0
LINE
  8
0
 10
56.4
 11
50
 20
15
 21
15
  0
LINE
  8
0
 10
50
 11
50
 20
15
 21
0
  0
LINE
  8
0
 10
50
 11
36.45
 20
0
 21
0
  0
LINE
  8
0
 10
36.45
 11
36.45
 20
0
 21
15
  0
LINE
  8
0
 10
36.45
 11
30
 20
15
 21
15
  0
LINE
  8
0
 10
30
 11
30
 20
15
 21
0
  0
LINE
  8
0
 10
30
 11
16.5
 20
0
 21
0
  0
LINE
  8
0
 10
16.5
 11
16.5
 20
0
 21
15
  0
LINE
  8
0
 10
16.5
 11
10
 20
15
 21
15
  0
LINE
  8
0
 10
10
 11
10
 20
15
 21
0
  0
LINE
  8
0
 10
10
 11
0
 20
0
 21
0
  0
ENDSEC
  0
SECTION
  2
OBJECTS
  0
DICTIONARY
  0
ENDSEC
  0
EOF
