0
SECTION
2
HEADER
9
$INSUNITS
70
4
9
$ACADVER
1
AC1014
9
$HANDSEED
5
FFFF
0
ENDSEC
0
SECTION
2
TABLES
0
TABLE
2
VPORT
5
8
100
AcDbSymbolTable
0
ENDTAB
0
TABLE
2
LTYPE
5
5
100
AcDbSymbolTable
0
LTYPE
5
14
100
AcDbSymbolTableRecord
100
AcDbLinetypeTableRecord
2
BYBLOCK
70
0
0
LTYPE
5
15
100
AcDbSymbolTableRecord
100
AcDbLinetypeTableRecord
2
BYLAYER
70
0
0
ENDTAB
0
TABLE
2
LAYER
5
2
100
AcDbSymbolTable
70
2
0
LAYER
5
50
100
AcDbSymbolTableRecord
100
AcDbLayerTableRecord
2
0
70
0
6
CONTINUOUS
0
ENDTAB
0
TABLE
2
STYLE
5
3
100
AcDbSymbolTable
70
1
0
STYLE
5
11
100
AcDbSymbolTableRecord
100
AcDbTextStyleTableRecord
2
STANDARD
70
0
0
ENDTAB
0
TABLE
2
VIEW
5
6
100
AcDbSymbolTable
70
0
0
ENDTAB
0
TABLE
2
UCS
5
7
100
AcDbSymbolTable
70
0
0
ENDTAB
0
TABLE
2
APPID
5
9
100
AcDbSymbolTable
70
2
0
APPID
5
12
100
AcDbSymbolTableRecord
100
AcDbRegAppTableRecord
2
ACAD
70
0
0
ENDTAB
0
TABLE
2
DIMSTYLE
5
A
100
AcDbSymbolTable
70
1
0
ENDTAB
0
TABLE
2
BLOCK_RECORD
5
1
100
AcDbSymbolTable
70
1
0
BLOCK_RECORD
5
1F
100
AcDbSymbolTableRecord
100
AcDbBlockTableRecord
2
*MODEL_SPACE
0
BLOCK_RECORD
5
1B
100
AcDbSymbolTableRecord
100
AcDbBlockTableRecord
2
*PAPER_SPACE
0
ENDTAB
0
ENDSEC
0
SECTION
2
BLOCKS
0
BLOCK
5
20
100
AcDbEntity
100
AcDbBlockBegin
2
*MODEL_SPACE
0
ENDBLK
5
21
100
AcDbEntity
100
AcDbBlockEnd
0
BLOCK
5
1C
100
AcDbEntity
100
AcDbBlockBegin
2
*PAPER_SPACE
0
ENDBLK
5
1D
100
AcDbEntity
100
AcDbBlockEnd
0
ENDSEC
0
SECTION
2
ENTITIES
0
LWPOLYLINE
5
100
100
AcDbEntity
8
0
100
AcDbPolyline
90
4
70
1
43
0.0
10
600
20
0
10
0
20
0
10
0
20
300
10
600
20
300
0
LINE
5
101
100
AcDbEntity
8
0
100
AcDbLine
10
600
20
0
30
0
11
580
21
0
31
0
0
LINE
5
102
100
AcDbEntity
8
0
100
AcDbLine
10
600
20
20
30
0
11
600
21
0
31
0
0
LWPOLYLINE
5
103
100
AcDbEntity
8
0
100
AcDbPolyline
90
4
70
1
43
0.0
10
380
20
15
10
585
20
15
10
585
20
55
10
380
20
55
0
CIRCLE
5
104
100
AcDbEntity
8
0
100
AcDbCircle
10
447.40256532526217
20
255.67292890700671
30
0
40
35
0
LWPOLYLINE
5
105
100
AcDbEntity
8
0
100
AcDbPolyline
90
8
70
1
43
0.0
10
447.01932825729989
20
107.13394007603254
10
546.84149100577224
20
107.13394007603249
42
0.53693763908259917
10
556.05116351645779
20
121.03033998439955
10
509.51270197799613
20
231.03033998439946
42
0.30128897174632135
10
500.30302946731058
20
237.1339400760325
10
493.55778979576144
20
237.1339400760325
42
0.3012889717463087
10
484.34811728507589
20
231.03033998439955
10
437.80965574661445
20
121.03033998439955
42
0.53693763908259917
0
CIRCLE
5
106
100
AcDbEntity
8
0
100
AcDbCircle
10
552.34810295781551
20
252.50220254974221
30
0
40
39.999999999999993
0
LWPOLYLINE
5
107
100
AcDbEntity
8
0
100
AcDbPolyline
90
4
70
1
43
0.0
10
380
20
95
10
380
20
70
10
585
20
70
10
585
20
95
0
LWPOLYLINE
5
108
100
AcDbEntity
8
0
100
AcDbPolyline
90
4
70
1
43
0.0
10
404.02450694029829
20
289.29410139073451
10
314.02450694029829
20
289.29410139073451
10
314.02450694029829
20
109.29410139073451
10
404.02450694029829
20
109.29410139073451
0
CIRCLE
5
109
100
AcDbEntity
8
0
100
AcDbCircle
10
339.74266286800048
20
52.297644667989616
30
0
40
27.5
0
LWPOLYLINE
5
110
100
AcDbEntity
8
0
100
AcDbPolyline
90
8
70
1
43
0.0
10
256.05116351645779
20
121.03033998439955
10
209.51270197799616
20
231.03033998439946
42
0.30128897174632135
10
200.30302946731055
20
237.1339400760325
10
193.55778979576144
20
237.1339400760325
42
0.3012889717463087
10
184.34811728507589
20
231.03033998439955
10
137.80965574661445
20
121.03033998439955
42
0.53693763908259917
10
147.01932825729989
20
107.13394007603254
10
246.8414910057723
20
107.13394007603249
42
0.53693763908259917
0
LWPOLYLINE
5
111
100
AcDbEntity
8
0
100
AcDbPolyline
90
4
70
1
43
0.0
10
285
20
55
10
80
20
55
10
80
20
15
10
285
20
15
0
LWPOLYLINE
5
112
100
AcDbEntity
8
0
100
AcDbPolyline
90
4
70
1
43
0.0
10
14.024506940298309
20
289.29410139073451
10
14.024506940298309
20
109.29410139073451
10
104.02450694029831
20
109.29410139073451
10
104.02450694029831
20
289.29410139073451
0
CIRCLE
5
113
100
AcDbEntity
8
0
100
AcDbCircle
10
147.40256532526217
20
255.67292890700671
30
0
40
35
0
CIRCLE
5
114
100
AcDbEntity
8
0
100
AcDbCircle
10
39.742662868000451
20
52.297644667989616
30
0
40
27.5
0
LWPOLYLINE
5
115
100
AcDbEntity
8
0
100
AcDbPolyline
90
4
70
1
43
0.0
10
80
20
95
10
80
20
70
10
285
20
70
10
285
20
95
0
CIRCLE
5
116
100
AcDbEntity
8
0
100
AcDbCircle
10
252.34810295781551
20
252.50220254974221
30
0
40
39.999999999999993
0
ENDSEC
0
SECTION
2
OBJECTS
0
DICTIONARY
5
C
100
AcDbDictionary
3
ACAD_GROUP
350
D
3
ACAD_MLINESTYLE
350
17
0
DICTIONARY
5
D
100
AcDbDictionary
0
DICTIONARY
5
1A
330
C
100
AcDbDictionary
0
DICTIONARY
5
17
100
AcDbDictionary
0
ENDSEC
0
EOF
