0
SECTION
2
HEADER
9
$ACADVER
1
AC1009
0
ENDSEC
0
SECTION
2
TABLES
0
TABLE
2
VPORT
70
1
0
VPORT
2
ACTIVE
70
0
10
0.0
20
0.0
11
0.0
21
0.0
12
0.0
22
0.0
13
0.0
23
0.0
14
0.0
24
0.0
15
0.0
25
0.0
16
0.0
26
0.0
36
0.0
17
0.0
27
0.0
37
0.0
40
0.0
41
0.0
42
0.0
43
0.0
44
0.0
50
0.0
51
0.0
71
0
72
1000
73
1
74
3
75
0
76
0
77
0
78
0
0
ENDTAB
0
ENDSEC
0
SECTION
2
ENTITIES
0
LINE
8
hole
62
5
39
2
10
48.892749
20
61.124768
11
46.599155
21
63.927108
0
LINE
8
hole
62
5
39
2
10
46.599155
20
63.927108
11
45.258860
21
65.859179
0
LINE
8
hole
62
5
39
2
10
45.258860
20
65.859179
11
42.523062
21
69.802909
0
LINE
8
hole
62
5
39
2
10
42.523062
20
69.802909
11
41.848650
21
70.962842
0
LINE
8
hole
62
5
39
2
10
41.848650
20
70.962842
11
38.938157
21
75.968633
0
LINE
8
hole
62
5
39
2
10
38.938157
20
75.968633
11
38.724273
21
76.415507
0
LINE
8
hole
62
5
39
2
10
38.724273
20
76.415507
11
36.778350
21
80.481200
0
LINE
8
hole
62
5
39
2
10
36.778350
20
80.481200
11
35.973590
21
82.194641
0
LINE
8
hole
62
5
39
2
10
35.973590
20
82.194641
11
35.883586
21
82.386271
0
LINE
8
hole
62
5
39
2
10
35.883586
20
82.386271
11
33.668935
21
88.278550
0
LINE
8
hole
62
5
39
2
10
33.668935
20
88.278550
11
33.391665
21
89.016250
0
LINE
8
hole
62
5
39
2
10
33.391665
20
89.016250
11
31.777132
21
94.635292
0
LINE
8
hole
62
5
39
2
10
31.777132
20
94.635292
11
31.437388
21
95.817697
0
LINE
8
hole
62
5
39
2
10
31.437388
20
95.817697
11
30.340255
21
101.231550
0
LINE
8
hole
62
5
39
2
10
30.340255
20
101.231550
11
30.032804
21
102.748678
0
LINE
8
hole
62
5
39
2
10
30.032804
20
102.748678
11
29.395687
21
108.032286
0
LINE
8
hole
62
5
39
2
10
29.395687
20
108.032286
11
29.186573
21
109.766461
0
LINE
8
hole
62
5
39
2
10
29.186573
20
109.766461
11
28.977041
21
115.000959
0
LINE
8
hole
62
5
39
2
10
28.977041
20
115.000959
11
28.903915
21
116.827779
0
LINE
8
hole
62
5
39
2
10
28.903915
20
116.827779
11
29.114962
21
122.100109
0
LINE
8
hole
62
5
39
2
10
29.114962
20
122.100109
11
29.186573
21
123.889097
0
LINE
8
hole
62
5
39
2
10
29.186573
20
123.889097
11
29.838038
21
129.291694
0
LINE
8
hole
62
5
39
2
10
29.838038
20
129.291694
11
30.032804
21
130.906879
0
LINE
8
hole
62
5
39
2
10
30.032804
20
130.906879
11
31.173902
21
136.537681
0
LINE
8
hole
62
5
39
2
10
31.173902
20
136.537681
11
31.437388
21
137.837861
0
LINE
8
hole
62
5
39
2
10
31.437388
20
137.837861
11
33.150623
21
143.800414
0
LINE
8
hole
62
5
39
2
10
33.150623
20
143.800414
11
33.391665
21
144.639308
0
LINE
8
hole
62
5
39
2
10
33.391665
20
144.639308
11
35.798729
21
151.043519
0
LINE
8
hole
62
5
39
2
10
35.798729
20
151.043519
11
35.883586
21
151.269288
0
LINE
8
hole
62
5
39
2
10
35.883586
20
151.269288
11
36.778350
21
153.174358
0
LINE
8
hole
62
5
39
2
10
36.778350
20
153.174358
11
38.938157
21
157.686925
0
LINE
8
hole
62
5
39
2
10
38.938157
20
157.686925
11
39.286832
21
158.286617
0
LINE
8
hole
62
5
39
2
10
39.286832
20
158.286617
11
42.523061
21
163.852649
0
LINE
8
hole
62
5
39
2
10
42.523061
20
163.852649
11
43.671161
21
165.507667
0
LINE
8
hole
62
5
39
2
10
43.671161
20
165.507667
11
46.599155
21
169.728450
0
LINE
8
hole
62
5
39
2
10
46.599155
20
169.728450
11
49.015754
21
172.681074
0
LINE
8
hole
62
5
39
2
10
49.015754
20
172.681074
11
51.141309
21
175.278099
0
LINE
8
hole
62
5
39
2
10
51.141309
20
175.278099
11
55.500659
21
179.820460
0
LINE
8
hole
62
5
39
2
10
55.500659
20
179.820460
11
56.121524
21
180.467390
0
LINE
8
hole
62
5
39
2
10
56.121524
20
180.467390
11
57.666860
21
181.843312
0
LINE
8
hole
62
5
39
2
10
57.666860
20
181.843312
11
61.608450
21
185.264312
0
LINE
8
hole
62
5
39
2
10
61.608450
20
185.264312
11
64.706226
21
187.557229
0
LINE
8
hole
62
5
39
2
10
64.706226
20
187.557229
11
67.519155
21
189.639311
0
LINE
8
hole
62
5
39
2
10
67.519155
20
189.639311
11
70.409313
21
191.452488
0
LINE
8
hole
62
5
39
2
10
70.409313
20
191.452488
11
73.888661
21
193.565392
0
LINE
8
hole
62
5
39
2
10
73.888661
20
193.565392
11
79.082680
21
196.209034
0
LINE
8
hole
62
5
39
2
10
79.082680
20
196.209034
11
80.737773
21
197.018372
0
LINE
8
hole
62
5
39
2
10
80.737773
20
197.018372
11
85.435165
21
198.909237
0
LINE
8
hole
62
5
39
2
10
85.435165
20
198.909237
11
88.218468
21
199.976931
0
LINE
8
hole
62
5
39
2
10
88.218468
20
199.976931
11
90.341657
21
200.628711
0
LINE
8
hole
62
5
39
2
10
90.341657
20
200.628711
11
92.108380
21
201.140958
0
LINE
8
hole
62
5
39
2
10
92.108380
20
201.140958
11
94.289054
21
201.773226
0
LINE
8
hole
62
5
39
2
10
94.289054
20
201.773226
11
96.685203
21
202.422857
0
LINE
8
hole
62
5
39
2
10
96.685203
20
202.422857
11
97.570346
21
202.606312
0
LINE
8
hole
62
5
39
2
10
97.570346
20
202.606312
11
97.860973
21
202.661993
0
LINE
8
hole
62
5
39
2
10
97.860973
20
202.661993
11
100.372848
21
203.143245
0
LINE
8
hole
62
5
39
2
10
100.372848
20
203.143245
11
101.387304
21
203.320506
0
LINE
8
hole
62
5
39
2
10
101.387304
20
203.320506
11
102.822306
21
203.571254
0
LINE
8
hole
62
5
39
2
10
102.822306
20
203.571254
11
104.285968
21
203.800770
0
LINE
8
hole
62
5
39
2
10
104.285968
20
203.800770
11
105.006806
21
203.913803
0
LINE
8
hole
62
5
39
2
10
105.006806
20
203.913803
11
106.752088
21
204.154497
0
LINE
8
hole
62
5
39
2
10
106.752088
20
204.154497
11
106.990283
21
204.187346
0
LINE
8
hole
62
5
39
2
10
106.990283
20
204.187346
11
108.291167
21
204.341066
0
LINE
8
hole
62
5
39
2
10
108.291167
20
204.341066
11
108.820820
21
204.385208
0
LINE
8
hole
62
5
39
2
10
108.820820
20
204.385208
11
108.861534
21
204.388013
0
LINE
8
hole
62
5
39
2
10
108.861534
20
204.388013
11
110.535778
21
204.503371
0
LINE
8
hole
62
5
39
2
10
110.535778
20
204.503371
11
110.679036
21
204.511112
0
LINE
8
hole
62
5
39
2
10
110.679036
20
204.511112
11
112.165208
21
204.591414
0
LINE
8
hole
62
5
39
2
10
112.165208
20
204.591414
11
112.378314
21
204.599689
0
LINE
8
hole
62
5
39
2
10
112.378314
20
204.599689
11
113.734214
21
204.652350
0
LINE
8
hole
62
5
39
2
10
113.734214
20
204.652350
11
113.991622
21
204.658374
0
LINE
8
hole
62
5
39
2
10
113.991622
20
204.658374
11
115.264581
21
204.688158
0
LINE
8
hole
62
5
39
2
10
115.264581
20
204.688158
11
115.545305
21
204.690352
0
LINE
8
hole
62
5
39
2
10
115.545305
20
204.690352
11
116.776107
21
204.699971
0
LINE
8
hole
62
5
39
2
10
116.776107
20
204.699971
11
117.061884
21
204.697738
0
LINE
8
hole
62
5
39
2
10
117.061884
20
204.697738
11
118.287633
21
204.688158
0
LINE
8
hole
62
5
39
2
10
118.287633
20
204.688158
11
118.561444
21
204.681750
0
LINE
8
hole
62
5
39
2
10
118.561444
20
204.681750
11
119.818000
21
204.652350
0
LINE
8
hole
62
5
39
2
10
119.818000
20
204.652350
11
120.062808
21
204.642843
0
LINE
8
hole
62
5
39
2
10
120.062808
20
204.642843
11
121.387005
21
204.591413
0
LINE
8
hole
62
5
39
2
10
121.387005
20
204.591413
11
121.584498
21
204.580742
0
LINE
8
hole
62
5
39
2
10
121.584498
20
204.580742
11
123.016435
21
204.503370
0
LINE
8
hole
62
5
39
2
10
123.016435
20
204.503370
11
124.609125
21
204.394159
0
LINE
8
hole
62
5
39
2
10
124.609125
20
204.394159
11
124.653708
21
204.391098
0
LINE
8
hole
62
5
39
2
10
124.653708
20
204.391098
11
124.730258
21
204.385294
0
LINE
8
hole
62
5
39
2
10
124.730258
20
204.385294
11
124.731393
21
204.385208
0
LINE
8
hole
62
5
39
2
10
124.731393
20
204.385208
11
124.767095
21
204.382232
0
LINE
8
hole
62
5
39
2
10
124.767095
20
204.382232
11
125.261047
21
204.341066
0
LINE
8
hole
62
5
39
2
10
125.261047
20
204.341066
11
126.391402
21
204.207497
0
LINE
8
hole
62
5
39
2
10
126.391402
20
204.207497
11
126.561930
21
204.187347
0
LINE
8
hole
62
5
39
2
10
126.561930
20
204.187347
11
128.063957
21
203.980201
0
LINE
8
hole
62
5
39
2
10
128.063957
20
203.980201
11
128.545407
21
203.913804
0
LINE
8
hole
62
5
39
2
10
128.545407
20
203.913804
11
129.843026
21
203.710324
0
LINE
8
hole
62
5
39
2
10
129.843026
20
203.710324
11
130.729908
21
203.571254
0
LINE
8
hole
62
5
39
2
10
130.729908
20
203.571254
11
131.758790
21
203.391472
0
LINE
8
hole
62
5
39
2
10
131.758790
20
203.391472
11
133.179365
21
203.143245
0
LINE
8
hole
62
5
39
2
10
133.179365
20
203.143245
11
133.848597
21
203.015027
0
LINE
8
hole
62
5
39
2
10
133.848597
20
203.015027
11
135.981867
21
202.606312
0
LINE
8
hole
62
5
39
2
10
135.981867
20
202.606312
11
136.159964
21
202.569400
0
LINE
8
hole
62
5
39
2
10
136.159964
20
202.569400
11
136.867011
21
202.422857
0
LINE
8
hole
62
5
39
2
10
136.867011
20
202.422857
11
138.506857
21
201.978271
0
LINE
8
hole
62
5
39
2
10
138.506857
20
201.978271
11
139.263160
21
201.773226
0
LINE
8
hole
62
5
39
2
10
139.263160
20
201.773226
11
141.027829
21
201.261575
0
LINE
8
hole
62
5
39
2
10
141.027829
20
201.261575
11
143.210557
21
200.628711
0
LINE
8
hole
62
5
39
2
10
143.210557
20
200.628711
11
143.885390
21
200.421549
0
LINE
8
hole
62
5
39
2
10
143.885390
20
200.421549
11
145.333746
21
199.976931
0
LINE
8
hole
62
5
39
2
10
145.333746
20
199.976931
11
146.883883
21
199.382288
0
LINE
8
hole
62
5
39
2
10
146.883883
20
199.382288
11
148.117048
21
198.909237
0
LINE
8
hole
62
5
39
2
10
148.117048
20
198.909237
11
150.057205
21
198.128256
0
LINE
8
hole
62
5
39
2
10
150.057205
20
198.128256
11
152.814440
21
197.018372
0
LINE
8
hole
62
5
39
2
10
152.814440
20
197.018372
11
153.583929
21
196.642093
0
LINE
8
hole
62
5
39
2
10
153.583929
20
196.642093
11
154.469533
21
196.209034
0
LINE
8
hole
62
5
39
2
10
154.469533
20
196.209034
11
157.118527
21
194.860754
0
LINE
8
hole
62
5
39
2
10
157.118527
20
194.860754
11
159.663553
21
193.565391
0
LINE
8
hole
62
5
39
2
10
159.663553
20
193.565391
11
160.962983
21
192.776286
0
LINE
8
hole
62
5
39
2
10
160.962983
20
192.776286
11
163.142900
21
191.452487
0
LINE
8
hole
62
5
39
2
10
163.142900
20
191.452487
11
164.895469
21
190.352989
0
LINE
8
hole
62
5
39
2
10
164.895469
20
190.352989
11
166.033058
21
189.639311
0
LINE
8
hole
62
5
39
2
10
166.033058
20
189.639311
11
168.839359
21
187.562140
0
LINE
8
hole
62
5
39
2
10
168.839359
20
187.562140
11
171.943763
21
185.264312
0
LINE
8
hole
62
5
39
2
10
171.943763
20
185.264312
11
172.948365
21
184.392395
0
LINE
8
hole
62
5
39
2
10
172.948365
20
184.392395
11
175.885353
21
181.843312
0
LINE
8
hole
62
5
39
2
10
175.885353
20
181.843312
11
177.019104
21
180.833853
0
LINE
8
hole
62
5
39
2
10
177.019104
20
180.833853
11
177.430690
21
180.467390
0
LINE
8
hole
62
5
39
2
10
177.430690
20
180.467390
11
180.873464
21
176.880084
0
LINE
8
hole
62
5
39
2
10
180.873464
20
176.880084
11
182.410904
21
175.278099
0
LINE
8
hole
62
5
39
2
10
182.410904
20
175.278099
11
184.659464
21
172.530790
0
LINE
8
hole
62
5
39
2
10
184.659464
20
172.530790
11
186.953059
21
169.728450
0
LINE
8
hole
62
5
39
2
10
186.953059
20
169.728450
11
188.293353
21
167.796379
0
LINE
8
hole
62
5
39
2
10
188.293353
20
167.796379
11
191.029152
21
163.852649
0
LINE
8
hole
62
5
39
2
10
191.029152
20
163.852649
11
191.703563
21
162.692716
0
LINE
8
hole
62
5
39
2
10
191.703563
20
162.692716
11
194.614057
21
157.686925
0
LINE
8
hole
62
5
39
2
10
194.614057
20
157.686925
11
194.827941
21
157.240051
0
LINE
8
hole
62
5
39
2
10
194.827941
20
157.240051
11
196.773863
21
153.174358
0
LINE
8
hole
62
5
39
2
10
196.773863
20
153.174358
11
197.578624
21
151.460916
0
LINE
8
hole
62
5
39
2
10
197.578624
20
151.460916
11
197.668627
21
151.269287
0
LINE
8
hole
62
5
39
2
10
197.668627
20
151.269287
11
199.883278
21
145.377008
0
LINE
8
hole
62
5
39
2
10
199.883278
20
145.377008
11
200.160548
21
144.639308
0
LINE
8
hole
62
5
39
2
10
200.160548
20
144.639308
11
201.775081
21
139.020266
0
LINE
8
hole
62
5
39
2
10
201.775081
20
139.020266
11
202.114825
21
137.837861
0
LINE
8
hole
62
5
39
2
10
202.114825
20
137.837861
11
203.211958
21
132.424008
0
LINE
8
hole
62
5
39
2
10
203.211958
20
132.424008
11
203.519410
21
130.906880
0
LINE
8
hole
62
5
39
2
10
203.519410
20
130.906880
11
204.156526
21
125.623272
0
LINE
8
hole
62
5
39
2
10
204.156526
20
125.623272
11
204.365640
21
123.889097
0
LINE
8
hole
62
5
39
2
10
204.365640
20
123.889097
11
204.575172
21
118.654599
0
LINE
8
hole
62
5
39
2
10
204.575172
20
118.654599
11
204.648298
21
116.827779
0
LINE
8
hole
62
5
39
2
10
204.648298
20
116.827779
11
204.437252
21
111.555449
0
LINE
8
hole
62
5
39
2
10
204.437252
20
111.555449
11
204.365640
21
109.766461
0
LINE
8
hole
62
5
39
2
10
204.365640
20
109.766461
11
203.714176
21
104.363864
0
LINE
8
hole
62
5
39
2
10
203.714176
20
104.363864
11
203.519409
21
102.748678
0
LINE
8
hole
62
5
39
2
10
203.519409
20
102.748678
11
202.378311
21
97.117876
0
LINE
8
hole
62
5
39
2
10
202.378311
20
97.117876
11
202.114825
21
95.817697
0
LINE
8
hole
62
5
39
2
10
202.114825
20
95.817697
11
200.401590
21
89.855144
0
LINE
8
hole
62
5
39
2
10
200.401590
20
89.855144
11
200.160548
21
89.016250
0
LINE
8
hole
62
5
39
2
10
200.160548
20
89.016250
11
197.753484
21
82.612039
0
LINE
8
hole
62
5
39
2
10
197.753484
20
82.612039
11
197.668627
21
82.386270
0
LINE
8
hole
62
5
39
2
10
197.668627
20
82.386270
11
196.773863
21
80.481200
0
LINE
8
hole
62
5
39
2
10
196.773863
20
80.481200
11
194.614057
21
75.968633
0
LINE
8
hole
62
5
39
2
10
194.614057
20
75.968633
11
194.265382
21
75.368941
0
LINE
8
hole
62
5
39
2
10
194.265382
20
75.368941
11
191.029152
21
69.802909
0
LINE
8
hole
62
5
39
2
10
191.029152
20
69.802909
11
189.881052
21
68.147891
0
LINE
8
hole
62
5
39
2
10
189.881052
20
68.147891
11
186.953059
21
63.927108
0
LINE
8
hole
62
5
39
2
10
186.953059
20
63.927108
11
184.536459
21
60.974485
0
LINE
8
hole
62
5
39
2
10
184.536459
20
60.974485
11
182.410904
21
58.377459
0
LINE
8
hole
62
5
39
2
10
182.410904
20
58.377459
11
178.051555
21
53.835098
0
LINE
8
hole
62
5
39
2
10
178.051555
20
53.835098
11
177.430690
21
53.188168
0
LINE
8
hole
62
5
39
2
10
177.430690
20
53.188168
11
175.885353
21
51.812246
0
LINE
8
hole
62
5
39
2
10
175.885353
20
51.812246
11
171.943763
21
48.391247
0
LINE
8
hole
62
5
39
2
10
171.943763
20
48.391247
11
168.845987
21
46.098328
0
LINE
8
hole
62
5
39
2
10
168.845987
20
46.098328
11
166.033058
21
44.016247
0
LINE
8
hole
62
5
39
2
10
166.033058
20
44.016247
11
163.142900
21
42.203070
0
LINE
8
hole
62
5
39
2
10
163.142900
20
42.203070
11
159.663552
21
40.090167
0
LINE
8
hole
62
5
39
2
10
159.663552
20
40.090167
11
154.469533
21
37.446525
0
LINE
8
hole
62
5
39
2
10
154.469533
20
37.446525
11
152.814440
21
36.637185
0
LINE
8
hole
62
5
39
2
10
152.814440
20
36.637185
11
148.117048
21
34.746320
0
LINE
8
hole
62
5
39
2
10
148.117048
20
34.746320
11
145.333746
21
33.678627
0
LINE
8
hole
62
5
39
2
10
145.333746
20
33.678627
11
143.210557
21
33.026847
0
LINE
8
hole
62
5
39
2
10
143.210557
20
33.026847
11
141.443834
21
32.514600
0
LINE
8
hole
62
5
39
2
10
141.443834
20
32.514600
11
139.263159
21
31.882332
0
LINE
8
hole
62
5
39
2
10
139.263159
20
31.882332
11
136.867010
21
31.232701
0
LINE
8
hole
62
5
39
2
10
136.867010
20
31.232701
11
135.981867
21
31.049246
0
LINE
8
hole
62
5
39
2
10
135.981867
20
31.049246
11
135.691240
21
30.993564
0
LINE
8
hole
62
5
39
2
10
135.691240
20
30.993564
11
133.179365
21
30.512313
0
LINE
8
hole
62
5
39
2
10
133.179365
20
30.512313
11
132.164909
21
30.335052
0
LINE
8
hole
62
5
39
2
10
132.164909
20
30.335052
11
130.729908
21
30.084304
0
LINE
8
hole
62
5
39
2
10
130.729908
20
30.084304
11
129.266245
21
29.854788
0
LINE
8
hole
62
5
39
2
10
129.266245
20
29.854788
11
128.545407
21
29.741755
0
LINE
8
hole
62
5
39
2
10
128.545407
20
29.741755
11
126.800125
21
29.501062
0
LINE
8
hole
62
5
39
2
10
126.800125
20
29.501062
11
126.561930
21
29.468211
0
LINE
8
hole
62
5
39
2
10
126.561930
20
29.468211
11
125.261047
21
29.314491
0
LINE
8
hole
62
5
39
2
10
125.261047
20
29.314491
11
124.731394
21
29.270350
0
LINE
8
hole
62
5
39
2
10
124.731394
20
29.270350
11
124.690679
21
29.267544
0
LINE
8
hole
62
5
39
2
10
124.690679
20
29.267544
11
123.016435
21
29.152188
0
LINE
8
hole
62
5
39
2
10
123.016435
20
29.152188
11
122.873178
21
29.144446
0
LINE
8
hole
62
5
39
2
10
122.873178
20
29.144446
11
121.387005
21
29.064144
0
LINE
8
hole
62
5
39
2
10
121.387005
20
29.064144
11
121.173899
21
29.055869
0
LINE
8
hole
62
5
39
2
10
121.173899
20
29.055869
11
119.818000
21
29.003208
0
LINE
8
hole
62
5
39
2
10
119.818000
20
29.003208
11
119.560592
21
28.997184
0
LINE
8
hole
62
5
39
2
10
119.560592
20
28.997184
11
118.287632
21
28.967400
0
LINE
8
hole
62
5
39
2
10
118.287632
20
28.967400
11
118.006908
21
28.965207
0
LINE
8
hole
62
5
39
2
10
118.006908
20
28.965207
11
116.776107
21
28.955587
0
LINE
8
hole
62
5
39
2
10
116.776107
20
28.955587
11
116.490329
21
28.957820
0
LINE
8
hole
62
5
39
2
10
116.490329
20
28.957820
11
115.264581
21
28.967400
0
LINE
8
hole
62
5
39
2
10
115.264581
20
28.967400
11
114.990769
21
28.973808
0
LINE
8
hole
62
5
39
2
10
114.990769
20
28.973808
11
113.734214
21
29.003208
0
LINE
8
hole
62
5
39
2
10
113.734214
20
29.003208
11
113.489406
21
29.012715
0
LINE
8
hole
62
5
39
2
10
113.489406
20
29.012715
11
112.165208
21
29.064144
0
LINE
8
hole
62
5
39
2
10
112.165208
20
29.064144
11
111.967715
21
29.074816
0
LINE
8
hole
62
5
39
2
10
111.967715
20
29.074816
11
110.535778
21
29.152188
0
LINE
8
hole
62
5
39
2
10
110.535778
20
29.152188
11
110.406544
21
29.161091
0
LINE
8
hole
62
5
39
2
10
110.406544
20
29.161091
11
108.820820
21
29.270350
0
LINE
8
hole
62
5
39
2
10
108.820820
20
29.270350
11
108.785118
21
29.273325
0
LINE
8
hole
62
5
39
2
10
108.785118
20
29.273325
11
108.291166
21
29.314492
0
LINE
8
hole
62
5
39
2
10
108.291166
20
29.314492
11
107.160811
21
29.448061
0
LINE
8
hole
62
5
39
2
10
107.160811
20
29.448061
11
106.990283
21
29.468211
0
LINE
8
hole
62
5
39
2
10
106.990283
20
29.468211
11
105.488256
21
29.675357
0
LINE
8
hole
62
5
39
2
10
105.488256
20
29.675357
11
105.006806
21
29.741754
0
LINE
8
hole
62
5
39
2
10
105.006806
20
29.741754
11
103.709187
21
29.945234
0
LINE
8
hole
62
5
39
2
10
103.709187
20
29.945234
11
102.822306
21
30.084304
0
LINE
8
hole
62
5
39
2
10
102.822306
20
30.084304
11
101.793424
21
30.264086
0
LINE
8
hole
62
5
39
2
10
101.793424
20
30.264086
11
100.372848
21
30.512313
0
LINE
8
hole
62
5
39
2
10
100.372848
20
30.512313
11
99.703617
21
30.640531
0
LINE
8
hole
62
5
39
2
10
99.703617
20
30.640531
11
97.570346
21
31.049246
0
LINE
8
hole
62
5
39
2
10
97.570346
20
31.049246
11
97.392250
21
31.086158
0
LINE
8
hole
62
5
39
2
10
97.392250
20
31.086158
11
96.685203
21
31.232701
0
LINE
8
hole
62
5
39
2
10
96.685203
20
31.232701
11
95.045356
21
31.677287
0
LINE
8
hole
62
5
39
2
10
95.045356
20
31.677287
11
94.289053
21
31.882332
0
LINE
8
hole
62
5
39
2
10
94.289053
20
31.882332
11
92.524384
21
32.393983
0
LINE
8
hole
62
5
39
2
10
92.524384
20
32.393983
11
90.341656
21
33.026847
0
LINE
8
hole
62
5
39
2
10
90.341656
20
33.026847
11
89.666823
21
33.234009
0
LINE
8
hole
62
5
39
2
10
89.666823
20
33.234009
11
88.218468
21
33.678627
0
LINE
8
hole
62
5
39
2
10
88.218468
20
33.678627
11
86.668330
21
34.273270
0
LINE
8
hole
62
5
39
2
10
86.668330
20
34.273270
11
85.435165
21
34.746320
0
LINE
8
hole
62
5
39
2
10
85.435165
20
34.746320
11
83.495009
21
35.527302
0
LINE
8
hole
62
5
39
2
10
83.495009
20
35.527302
11
80.737773
21
36.637186
0
LINE
8
hole
62
5
39
2
10
80.737773
20
36.637186
11
79.968284
21
37.013465
0
LINE
8
hole
62
5
39
2
10
79.968284
20
37.013465
11
79.082680
21
37.446525
0
LINE
8
hole
62
5
39
2
10
79.082680
20
37.446525
11
76.433687
21
38.794804
0
LINE
8
hole
62
5
39
2
10
76.433687
20
38.794804
11
73.888661
21
40.090166
0
LINE
8
hole
62
5
39
2
10
73.888661
20
40.090166
11
72.589230
21
40.879272
0
LINE
8
hole
62
5
39
2
10
72.589230
20
40.879272
11
70.409313
21
42.203070
0
LINE
8
hole
62
5
39
2
10
70.409313
20
42.203070
11
68.656743
21
43.302568
0
LINE
8
hole
62
5
39
2
10
68.656743
20
43.302568
11
67.519155
21
44.016247
0
LINE
8
hole
62
5
39
2
10
67.519155
20
44.016247
11
64.712854
21
46.093419
0
LINE
8
hole
62
5
39
2
10
64.712854
20
46.093419
11
61.608450
21
48.391247
0
LINE
8
hole
62
5
39
2
10
61.608450
20
48.391247
11
60.603849
21
49.263163
0
LINE
8
hole
62
5
39
2
10
60.603849
20
49.263163
11
57.666860
21
51.812246
0
LINE
8
hole
62
5
39
2
10
57.666860
20
51.812246
11
56.533109
21
52.821705
0
LINE
8
hole
62
5
39
2
10
56.533109
20
52.821705
11
56.121524
21
53.188168
0
LINE
8
hole
62
5
39
2
10
56.121524
20
53.188168
11
52.678749
21
56.775475
0
LINE
8
hole
62
5
39
2
10
52.678749
20
56.775475
11
51.141309
21
58.377459
0
LINE
8
hole
62
5
39
2
10
51.141309
20
58.377459
11
48.892749
21
61.124768
0
LINE
8
boundary
62
5
39
2
10
37.368143
20
43.223412
11
41.820082
21
38.731305
0
LINE
8
boundary
62
5
39
2
10
41.820082
20
38.731305
11
42.841770
21
37.700402
0
LINE
8
boundary
62
5
39
2
10
42.841770
20
37.700402
11
45.933498
21
34.987865
0
LINE
8
boundary
62
5
39
2
10
45.933498
20
34.987865
11
48.750891
21
32.562900
0
LINE
8
boundary
62
5
39
2
10
48.750891
20
32.562900
11
50.357233
21
31.363208
0
LINE
8
boundary
62
5
39
2
10
50.357233
20
31.363208
11
55.080146
21
27.835912
0
LINE
8
boundary
62
5
39
2
10
55.080146
20
27.835912
11
55.319402
21
27.681645
0
LINE
8
boundary
62
5
39
2
10
55.319402
20
27.681645
11
59.243376
21
28.678167
0
LINE
8
boundary
62
5
39
2
10
59.243376
20
28.678167
11
62.787376
21
34.816555
0
LINE
8
boundary
62
5
39
2
10
62.787376
20
34.816555
11
63.301904
21
35.403261
0
LINE
8
boundary
62
5
39
2
10
63.301904
20
35.403261
11
64.001789
21
35.748407
0
LINE
8
boundary
62
5
39
2
10
64.001789
20
35.748407
11
64.780479
21
35.799445
0
LINE
8
boundary
62
5
39
2
10
64.780479
20
35.799445
11
65.519427
21
35.548606
0
LINE
8
boundary
62
5
39
2
10
65.519427
20
35.548606
11
66.106134
21
35.034078
0
LINE
8
boundary
62
5
39
2
10
66.106134
20
35.034078
11
66.451279
21
34.334193
0
LINE
8
boundary
62
5
39
2
10
66.451279
20
34.334193
11
66.502317
21
33.555502
0
LINE
8
boundary
62
5
39
2
10
66.502317
20
33.555502
11
66.251478
21
32.816555
0
LINE
8
boundary
62
5
39
2
10
66.251478
20
32.816555
11
69.282567
21
31.066555
0
LINE
8
boundary
62
5
39
2
10
69.282567
20
31.066555
11
69.797095
21
31.653261
0
LINE
8
boundary
62
5
39
2
10
69.797095
20
31.653261
11
70.496980
21
31.998407
0
LINE
8
boundary
62
5
39
2
10
70.496980
20
31.998407
11
71.275670
21
32.049445
0
LINE
8
boundary
62
5
39
2
10
71.275670
20
32.049445
11
72.014618
21
31.798606
0
LINE
8
boundary
62
5
39
2
10
72.014618
20
31.798606
11
72.601324
21
31.284078
0
LINE
8
boundary
62
5
39
2
10
72.601324
20
31.284078
11
72.946469
21
30.584193
0
LINE
8
boundary
62
5
39
2
10
72.946469
20
30.584193
11
72.997507
21
29.805503
0
LINE
8
boundary
62
5
39
2
10
72.997507
20
29.805503
11
72.746668
21
29.066555
0
LINE
8
boundary
62
5
39
2
10
72.746668
20
29.066555
11
69.212093
21
22.944492
0
LINE
8
boundary
62
5
39
2
10
69.212093
20
22.944492
11
70.311067
21
19.047970
0
LINE
8
boundary
62
5
39
2
10
70.311067
20
19.047970
11
72.091625
21
18.238001
0
LINE
8
boundary
62
5
39
2
10
72.091625
20
18.238001
11
76.397642
21
16.337783
0
LINE
8
boundary
62
5
39
2
10
76.397642
20
16.337783
11
79.571009
21
15.177732
0
LINE
8
boundary
62
5
39
2
10
79.571009
20
15.177732
11
84.439909
21
13.461596
0
LINE
8
boundary
62
5
39
2
10
84.439909
20
13.461596
11
85.248093
21
13.232510
0
LINE
8
boundary
62
5
39
2
10
85.248093
20
13.232510
11
85.997716
21
13.028972
0
LINE
8
boundary
62
5
39
2
10
85.997716
20
13.028972
11
89.744250
21
12.011715
0
LINE
8
boundary
62
5
39
2
10
89.744250
20
12.011715
11
93.317545
21
11.088993
0
LINE
8
boundary
62
5
39
2
10
93.317545
20
11.088993
11
93.426383
21
11.067427
0
LINE
8
boundary
62
5
39
2
10
93.426383
20
11.067427
11
93.465995
21
11.060021
0
LINE
8
boundary
62
5
39
2
10
93.465995
20
11.060021
11
96.525533
21
10.487992
0
LINE
8
boundary
62
5
39
2
10
96.525533
20
10.487992
11
97.498881
21
10.317805
0
LINE
8
boundary
62
5
39
2
10
97.498881
20
10.317805
11
99.194590
21
10.021315
0
LINE
8
boundary
62
5
39
2
10
99.194590
20
10.021315
11
100.747803
21
9.769913
0
LINE
8
boundary
62
5
39
2
10
100.747803
20
9.769913
11
101.539092
21
9.641836
0
LINE
8
boundary
62
5
39
2
10
101.539092
20
9.641836
11
103.458584
21
9.357632
0
LINE
8
boundary
62
5
39
2
10
103.458584
20
9.357632
11
103.634495
21
9.331585
0
LINE
8
boundary
62
5
39
2
10
103.634495
20
9.331585
11
104.383661
21
9.231548
0
LINE
8
boundary
62
5
39
2
10
104.383661
20
9.231548
11
105.536488
21
9.122680
0
LINE
8
boundary
62
5
39
2
10
105.536488
20
9.122680
11
105.647486
21
9.113392
0
LINE
8
boundary
62
5
39
2
10
105.647486
20
9.113392
11
107.289762
21
8.975966
0
LINE
8
boundary
62
5
39
2
10
107.289762
20
8.975966
11
107.536555
21
8.958070
0
LINE
8
boundary
62
5
39
2
10
107.536555
20
8.958070
11
108.919920
21
8.857761
0
LINE
8
boundary
62
5
39
2
10
108.919920
20
8.857761
11
109.265466
21
8.836684
0
LINE
8
boundary
62
5
39
2
10
109.265466
20
8.836684
11
110.460737
21
8.763778
0
LINE
8
boundary
62
5
39
2
10
110.460737
20
8.763778
11
110.877018
21
8.743312
0
LINE
8
boundary
62
5
39
2
10
110.877018
20
8.743312
11
111.931529
21
8.691465
0
LINE
8
boundary
62
5
39
2
10
111.931529
20
8.691465
11
112.397096
21
8.674198
0
LINE
8
boundary
62
5
39
2
10
112.397096
20
8.674198
11
113.350765
21
8.638827
0
LINE
8
boundary
62
5
39
2
10
113.350765
20
8.638827
11
113.848588
21
8.626466
0
LINE
8
boundary
62
5
39
2
10
113.848588
20
8.626466
11
114.734650
21
8.604465
0
LINE
8
boundary
62
5
39
2
10
114.734650
20
8.604465
11
115.250651
21
8.598043
0
LINE
8
boundary
62
5
39
2
10
115.250651
20
8.598043
11
116.097885
21
8.587500
0
LINE
8
boundary
62
5
39
2
10
116.097885
20
8.587500
11
116.619860
21
8.587500
0
LINE
8
boundary
62
5
39
2
10
116.619860
20
8.587500
11
117.454329
21
8.587500
0
LINE
8
boundary
62
5
39
2
10
117.454329
20
8.587500
11
117.971092
21
8.593932
0
LINE
8
boundary
62
5
39
2
10
117.971092
20
8.593932
11
118.817564
21
8.604465
0
LINE
8
boundary
62
5
39
2
10
118.817564
20
8.604465
11
119.318209
21
8.616897
0
LINE
8
boundary
62
5
39
2
10
119.318209
20
8.616897
11
120.201449
21
8.638827
0
LINE
8
boundary
62
5
39
2
10
120.201449
20
8.638827
11
120.674661
21
8.656377
0
LINE
8
boundary
62
5
39
2
10
120.674661
20
8.656377
11
121.620685
21
8.691465
0
LINE
8
boundary
62
5
39
2
10
121.620685
20
8.691465
11
122.054033
21
8.712770
0
LINE
8
boundary
62
5
39
2
10
122.054033
20
8.712770
11
123.091476
21
8.763778
0
LINE
8
boundary
62
5
39
2
10
123.091476
20
8.763778
11
123.470590
21
8.786902
0
LINE
8
boundary
62
5
39
2
10
123.470590
20
8.786902
11
124.632293
21
8.857760
0
LINE
8
boundary
62
5
39
2
10
124.632293
20
8.857760
11
126.015658
21
8.958070
0
LINE
8
boundary
62
5
39
2
10
126.015658
20
8.958070
11
126.262452
21
8.975966
0
LINE
8
boundary
62
5
39
2
10
126.262452
20
8.975966
11
127.904727
21
9.113392
0
LINE
8
boundary
62
5
39
2
10
127.904727
20
9.113392
11
128.015725
21
9.122681
0
LINE
8
boundary
62
5
39
2
10
128.015725
20
9.122681
11
128.109576
21
9.131543
0
LINE
8
boundary
62
5
39
2
10
128.109576
20
9.131543
11
129.168553
21
9.231549
0
LINE
8
boundary
62
5
39
2
10
129.168553
20
9.231549
11
129.800065
21
9.315875
0
LINE
8
boundary
62
5
39
2
10
129.800065
20
9.315875
11
129.917718
21
9.331586
0
LINE
8
boundary
62
5
39
2
10
129.917718
20
9.331586
11
131.517859
21
9.568505
0
LINE
8
boundary
62
5
39
2
10
131.517859
20
9.568505
11
132.013121
21
9.641836
0
LINE
8
boundary
62
5
39
2
10
132.013121
20
9.641836
11
133.373434
21
9.862016
0
LINE
8
boundary
62
5
39
2
10
133.373434
20
9.862016
11
134.357624
21
10.021315
0
LINE
8
boundary
62
5
39
2
10
134.357624
20
10.021315
11
135.735012
21
10.260868
0
LINE
8
boundary
62
5
39
2
10
135.735012
20
10.260868
11
136.651458
21
10.420418
0
LINE
8
boundary
62
5
39
2
10
136.651458
20
10.420418
11
136.943234
21
10.472951
0
LINE
8
boundary
62
5
39
2
10
136.943234
20
10.472951
11
137.026680
21
10.487993
0
LINE
8
boundary
62
5
39
2
10
137.026680
20
10.487993
11
137.640403
21
10.602737
0
LINE
8
boundary
62
5
39
2
10
137.640403
20
10.602737
11
140.125830
21
11.067427
0
LINE
8
boundary
62
5
39
2
10
140.125830
20
11.067427
11
140.149031
21
11.072024
0
LINE
8
boundary
62
5
39
2
10
140.149031
20
11.072024
11
140.234669
21
11.088993
0
LINE
8
boundary
62
5
39
2
10
140.234669
20
11.088993
11
142.618945
21
11.704677
0
LINE
8
boundary
62
5
39
2
10
142.618945
20
11.704677
11
143.807963
21
12.011715
0
LINE
8
boundary
62
5
39
2
10
143.807963
20
12.011715
11
145.394210
21
12.442413
0
LINE
8
boundary
62
5
39
2
10
145.394210
20
12.442413
11
148.304120
21
13.232510
0
LINE
8
boundary
62
5
39
2
10
148.304120
20
13.232510
11
148.570320
21
13.307966
0
LINE
8
boundary
62
5
39
2
10
148.570320
20
13.307966
11
149.112304
21
13.461596
0
LINE
8
boundary
62
5
39
2
10
149.112304
20
13.461596
11
151.753914
21
14.392681
0
LINE
8
boundary
62
5
39
2
10
151.753914
20
14.392681
11
153.981205
21
15.177732
0
LINE
8
boundary
62
5
39
2
10
153.981205
20
15.177732
11
155.325896
21
15.669296
0
LINE
8
boundary
62
5
39
2
10
155.325896
20
15.669296
11
157.154572
21
16.337783
0
LINE
8
boundary
62
5
39
2
10
157.154572
20
16.337783
11
159.103425
21
17.197800
0
LINE
8
boundary
62
5
39
2
10
159.103425
20
17.197800
11
161.460588
21
18.238001
0
LINE
8
boundary
62
5
39
2
10
161.460588
20
18.238001
11
163.133537
21
18.999019
0
LINE
8
boundary
62
5
39
2
10
163.133537
20
18.999019
11
164.682290
21
19.703541
0
LINE
8
boundary
62
5
39
2
10
164.682290
20
19.703541
11
167.299277
21
21.112744
0
LINE
8
boundary
62
5
39
2
10
167.299277
20
21.112744
11
171.811485
21
23.542491
0
LINE
8
boundary
62
5
39
2
10
171.811485
20
23.542491
11
171.836005
21
23.557916
0
LINE
8
boundary
62
5
39
2
10
171.836005
20
23.557916
11
171.885798
21
23.589241
0
LINE
8
boundary
62
5
39
2
10
171.885798
20
23.589241
11
176.182293
21
26.359520
0
LINE
8
boundary
62
5
39
2
10
176.182293
20
26.359520
11
178.472068
21
27.835912
0
LINE
8
boundary
62
5
39
2
10
178.472068
20
27.835912
11
180.752117
21
29.538763
0
LINE
8
boundary
62
5
39
2
10
180.752117
20
29.538763
11
184.801322
21
32.562901
0
LINE
8
boundary
62
5
39
2
10
184.801322
20
32.562901
11
185.434280
21
33.107694
0
LINE
8
boundary
62
5
39
2
10
185.434280
20
33.107694
11
187.618714
21
34.987865
0
LINE
8
boundary
62
5
39
2
10
187.618714
20
34.987865
11
189.983868
21
37.062937
0
LINE
8
boundary
62
5
39
2
10
189.983868
20
37.062937
11
190.710444
21
37.700402
0
LINE
8
boundary
62
5
39
2
10
190.710444
20
37.700402
11
194.385930
21
41.409052
0
LINE
8
boundary
62
5
39
2
10
194.385930
20
41.409052
11
196.184070
21
43.223412
0
LINE
8
boundary
62
5
39
2
10
196.184070
20
43.223412
11
198.701744
21
46.147046
0
LINE
8
boundary
62
5
39
2
10
198.701744
20
46.147046
11
201.248985
21
49.105017
0
LINE
8
boundary
62
5
39
2
10
201.248985
20
49.105017
11
202.859736
21
51.265270
0
LINE
8
boundary
62
5
39
2
10
202.859736
20
51.265270
11
205.880501
21
55.316562
0
LINE
8
boundary
62
5
39
2
10
205.880501
20
55.316562
11
206.798468
21
56.748011
0
LINE
8
boundary
62
5
39
2
10
206.798468
20
56.748011
11
210.056053
21
61.827781
0
LINE
8
boundary
62
5
39
2
10
210.056053
20
61.827781
11
210.464496
21
62.576289
0
LINE
8
boundary
62
5
39
2
10
210.464496
20
62.576289
11
213.755306
21
68.606958
0
LINE
8
boundary
62
5
39
2
10
213.755306
20
68.606958
11
213.810740
21
68.728278
0
LINE
8
boundary
62
5
39
2
10
213.810740
20
68.728278
11
214.455728
21
70.139859
0
LINE
8
boundary
62
5
39
2
10
214.455728
20
70.139859
11
216.727086
21
75.180326
0
LINE
8
boundary
62
5
39
2
10
216.727086
20
75.180326
11
216.925690
21
75.621055
0
LINE
8
boundary
62
5
39
2
10
216.925690
20
75.621055
11
219.242347
21
81.909806
0
LINE
8
boundary
62
5
39
2
10
219.242347
20
81.909806
11
219.583506
21
82.835910
0
LINE
8
boundary
62
5
39
2
10
219.583506
20
82.835910
11
221.339963
21
88.888046
0
LINE
8
boundary
62
5
39
2
10
221.339963
20
88.888046
11
221.725468
21
90.216371
0
LINE
8
boundary
62
5
39
2
10
221.725468
20
90.216371
11
222.987886
21
96.084487
0
LINE
8
boundary
62
5
39
2
10
222.987886
20
96.084487
11
223.341133
21
97.726481
0
LINE
8
boundary
62
5
39
2
10
223.341133
20
97.726481
11
224.157723
21
103.467246
0
LINE
8
boundary
62
5
39
2
10
224.157723
20
103.467246
11
224.422642
21
105.329648
0
LINE
8
boundary
62
5
39
2
10
224.422642
20
105.329648
11
224.624217
21
108.177779
0
LINE
8
boundary
62
5
39
2
10
224.624217
20
108.177779
11
221.799217
21
111.077779
0
LINE
8
boundary
62
5
39
2
10
221.799217
20
111.077779
11
214.741422
21
111.077779
0
LINE
8
boundary
62
5
39
2
10
214.741422
20
111.077779
11
213.976055
21
111.230020
0
LINE
8
boundary
62
5
39
2
10
213.976055
20
111.230020
11
213.327208
21
111.663566
0
LINE
8
boundary
62
5
39
2
10
213.327208
20
111.663566
11
212.893663
21
112.312412
0
LINE
8
boundary
62
5
39
2
10
212.893663
20
112.312412
11
212.741422
21
113.077779
0
LINE
8
boundary
62
5
39
2
10
212.741422
20
113.077779
11
212.893663
21
113.843146
0
LINE
8
boundary
62
5
39
2
10
212.893663
20
113.843146
11
213.327208
21
114.491993
0
LINE
8
boundary
62
5
39
2
10
213.327208
20
114.491993
11
213.976055
21
114.925538
0
LINE
8
boundary
62
5
39
2
10
213.976055
20
114.925538
11
214.741422
21
115.077779
0
LINE
8
boundary
62
5
39
2
10
214.741422
20
115.077779
11
214.741422
21
118.577779
0
LINE
8
boundary
62
5
39
2
10
214.741422
20
118.577779
11
213.976055
21
118.730020
0
LINE
8
boundary
62
5
39
2
10
213.976055
20
118.730020
11
213.327208
21
119.163566
0
LINE
8
boundary
62
5
39
2
10
213.327208
20
119.163566
11
212.893663
21
119.812412
0
LINE
8
boundary
62
5
39
2
10
212.893663
20
119.812412
11
212.741422
21
120.577779
0
LINE
8
boundary
62
5
39
2
10
212.741422
20
120.577779
11
212.893663
21
121.343146
0
LINE
8
boundary
62
5
39
2
10
212.893663
20
121.343146
11
213.327208
21
121.991993
0
LINE
8
boundary
62
5
39
2
10
213.327208
20
121.991993
11
213.976055
21
122.425538
0
LINE
8
boundary
62
5
39
2
10
213.976055
20
122.425538
11
214.741422
21
122.577779
0
LINE
8
boundary
62
5
39
2
10
214.741422
20
122.577779
11
221.799212
21
122.577779
0
LINE
8
boundary
62
5
39
2
10
221.799212
20
122.577779
11
224.624212
21
125.477779
0
LINE
8
boundary
62
5
39
2
10
224.624212
20
125.477779
11
224.558891
21
126.400722
0
LINE
8
boundary
62
5
39
2
10
224.558891
20
126.400722
11
224.422642
21
128.325909
0
LINE
8
boundary
62
5
39
2
10
224.422642
20
128.325909
11
223.588062
21
134.193146
0
LINE
8
boundary
62
5
39
2
10
223.588062
20
134.193146
11
223.341133
21
135.929076
0
LINE
8
boundary
62
5
39
2
10
223.341133
20
135.929076
11
222.034625
21
142.002137
0
LINE
8
boundary
62
5
39
2
10
222.034625
20
142.002137
11
221.725468
21
143.439188
0
LINE
8
boundary
62
5
39
2
10
221.725468
20
143.439188
11
219.881303
21
149.793538
0
LINE
8
boundary
62
5
39
2
10
219.881303
20
149.793538
11
219.583506
21
150.819648
0
LINE
8
boundary
62
5
39
2
10
219.583506
20
150.819648
11
217.110131
21
157.533821
0
LINE
8
boundary
62
5
39
2
10
217.110131
20
157.533821
11
216.925690
21
158.034502
0
LINE
8
boundary
62
5
39
2
10
216.925690
20
158.034502
11
214.455728
21
163.515700
0
LINE
8
boundary
62
5
39
2
10
214.455728
20
163.515700
11
213.755306
21
165.048600
0
LINE
8
boundary
62
5
39
2
10
213.755306
20
165.048600
11
213.672076
21
165.201126
0
LINE
8
boundary
62
5
39
2
10
213.672076
20
165.201126
11
210.056053
21
171.827777
0
LINE
8
boundary
62
5
39
2
10
210.056053
20
171.827777
11
209.426202
21
172.809945
0
LINE
8
boundary
62
5
39
2
10
209.426202
20
172.809945
11
205.880501
21
178.338995
0
LINE
8
boundary
62
5
39
2
10
205.880501
20
178.338995
11
204.412861
21
180.307315
0
LINE
8
boundary
62
5
39
2
10
204.412861
20
180.307315
11
201.248985
21
184.550541
0
LINE
8
boundary
62
5
39
2
10
201.248985
20
184.550541
11
198.554313
21
187.679713
0
LINE
8
boundary
62
5
39
2
10
198.554313
20
187.679713
11
196.184070
21
190.432146
0
LINE
8
boundary
62
5
39
2
10
196.184070
20
190.432146
11
191.732131
21
194.924252
0
LINE
8
boundary
62
5
39
2
10
191.732131
20
194.924252
11
190.710444
21
195.955156
0
LINE
8
boundary
62
5
39
2
10
190.710444
20
195.955156
11
187.618715
21
198.667693
0
LINE
8
boundary
62
5
39
2
10
187.618715
20
198.667693
11
184.801322
21
201.092657
0
LINE
8
boundary
62
5
39
2
10
184.801322
20
201.092657
11
183.194980
21
202.292350
0
LINE
8
boundary
62
5
39
2
10
183.194980
20
202.292350
11
178.472068
21
205.819646
0
LINE
8
boundary
62
5
39
2
10
178.472068
20
205.819646
11
171.885798
21
210.066317
0
LINE
8
boundary
62
5
39
2
10
171.885798
20
210.066317
11
171.811485
21
210.113067
0
LINE
8
boundary
62
5
39
2
10
171.811485
20
210.113067
11
171.677022
21
210.185473
0
LINE
8
boundary
62
5
39
2
10
171.677022
20
210.185473
11
164.682290
21
213.952017
0
LINE
8
boundary
62
5
39
2
10
164.682290
20
213.952017
11
161.460588
21
215.417557
0
LINE
8
boundary
62
5
39
2
10
161.460588
20
215.417557
11
157.154572
21
217.317775
0
LINE
8
boundary
62
5
39
2
10
157.154572
20
217.317775
11
153.981204
21
218.477826
0
LINE
8
boundary
62
5
39
2
10
153.981204
20
218.477826
11
149.112304
21
220.193963
0
LINE
8
boundary
62
5
39
2
10
149.112304
20
220.193963
11
148.304120
21
220.423048
0
LINE
8
boundary
62
5
39
2
10
148.304120
20
220.423048
11
147.554497
21
220.626585
0
LINE
8
boundary
62
5
39
2
10
147.554497
20
220.626585
11
143.807963
21
221.643843
0
LINE
8
boundary
62
5
39
2
10
143.807963
20
221.643843
11
140.234669
21
222.566564
0
LINE
8
boundary
62
5
39
2
10
140.234669
20
222.566564
11
140.125830
21
222.588131
0
LINE
8
boundary
62
5
39
2
10
140.125830
20
222.588131
11
140.086218
21
222.595537
0
LINE
8
boundary
62
5
39
2
10
140.086218
20
222.595537
11
137.026680
21
223.167566
0
LINE
8
boundary
62
5
39
2
10
137.026680
20
223.167566
11
136.053333
21
223.337753
0
LINE
8
boundary
62
5
39
2
10
136.053333
20
223.337753
11
134.357623
21
223.634243
0
LINE
8
boundary
62
5
39
2
10
134.357623
20
223.634243
11
132.804410
21
223.885645
0
LINE
8
boundary
62
5
39
2
10
132.804410
20
223.885645
11
132.013122
21
224.013722
0
LINE
8
boundary
62
5
39
2
10
132.013122
20
224.013722
11
130.093630
21
224.297926
0
LINE
8
boundary
62
5
39
2
10
130.093630
20
224.297926
11
129.917718
21
224.323972
0
LINE
8
boundary
62
5
39
2
10
129.917718
20
224.323972
11
129.168552
21
224.424010
0
LINE
8
boundary
62
5
39
2
10
129.168552
20
224.424010
11
128.015725
21
224.532878
0
LINE
8
boundary
62
5
39
2
10
128.015725
20
224.532878
11
127.904728
21
224.542166
0
LINE
8
boundary
62
5
39
2
10
127.904728
20
224.542166
11
126.262452
21
224.679592
0
LINE
8
boundary
62
5
39
2
10
126.262452
20
224.679592
11
126.015658
21
224.697488
0
LINE
8
boundary
62
5
39
2
10
126.015658
20
224.697488
11
124.632293
21
224.797798
0
LINE
8
boundary
62
5
39
2
10
124.632293
20
224.797798
11
124.286748
21
224.818874
0
LINE
8
boundary
62
5
39
2
10
124.286748
20
224.818874
11
123.091476
21
224.891780
0
LINE
8
boundary
62
5
39
2
10
123.091476
20
224.891780
11
122.675195
21
224.912246
0
LINE
8
boundary
62
5
39
2
10
122.675195
20
224.912246
11
121.620685
21
224.964093
0
LINE
8
boundary
62
5
39
2
10
121.620685
20
224.964093
11
121.155118
21
224.981360
0
LINE
8
boundary
62
5
39
2
10
121.155118
20
224.981360
11
120.201448
21
225.016731
0
LINE
8
boundary
62
5
39
2
10
120.201448
20
225.016731
11
119.703624
21
225.029092
0
LINE
8
boundary
62
5
39
2
10
119.703624
20
225.029092
11
118.817564
21
225.051093
0
LINE
8
boundary
62
5
39
2
10
118.817564
20
225.051093
11
118.301562
21
225.057515
0
LINE
8
boundary
62
5
39
2
10
118.301562
20
225.057515
11
117.454329
21
225.068058
0
LINE
8
boundary
62
5
39
2
10
117.454329
20
225.068058
11
116.932354
21
225.068058
0
LINE
8
boundary
62
5
39
2
10
116.932354
20
225.068058
11
116.097885
21
225.068058
0
LINE
8
boundary
62
5
39
2
10
116.097885
20
225.068058
11
115.581121
21
225.061627
0
LINE
8
boundary
62
5
39
2
10
115.581121
20
225.061627
11
114.734649
21
225.051093
0
LINE
8
boundary
62
5
39
2
10
114.734649
20
225.051093
11
114.234004
21
225.038662
0
LINE
8
boundary
62
5
39
2
10
114.234004
20
225.038662
11
113.350765
21
225.016731
0
LINE
8
boundary
62
5
39
2
10
113.350765
20
225.016731
11
112.877552
21
224.999181
0
LINE
8
boundary
62
5
39
2
10
112.877552
20
224.999181
11
111.931528
21
224.964093
0
LINE
8
boundary
62
5
39
2
10
111.931528
20
224.964093
11
111.498180
21
224.942787
0
LINE
8
boundary
62
5
39
2
10
111.498180
20
224.942787
11
110.460737
21
224.891780
0
LINE
8
boundary
62
5
39
2
10
110.460737
20
224.891780
11
110.081623
21
224.868656
0
LINE
8
boundary
62
5
39
2
10
110.081623
20
224.868656
11
108.919920
21
224.797797
0
LINE
8
boundary
62
5
39
2
10
108.919920
20
224.797797
11
107.536555
21
224.697488
0
LINE
8
boundary
62
5
39
2
10
107.536555
20
224.697488
11
107.289762
21
224.679592
0
LINE
8
boundary
62
5
39
2
10
107.289762
20
224.679592
11
105.647485
21
224.542166
0
LINE
8
boundary
62
5
39
2
10
105.647485
20
224.542166
11
105.536488
21
224.532877
0
LINE
8
boundary
62
5
39
2
10
105.536488
20
224.532877
11
105.442637
21
224.524014
0
LINE
8
boundary
62
5
39
2
10
105.442637
20
224.524014
11
104.383661
21
224.424009
0
LINE
8
boundary
62
5
39
2
10
104.383661
20
224.424009
11
103.752148
21
224.339683
0
LINE
8
boundary
62
5
39
2
10
103.752148
20
224.339683
11
103.634495
21
224.323972
0
LINE
8
boundary
62
5
39
2
10
103.634495
20
224.323972
11
102.034354
21
224.087052
0
LINE
8
boundary
62
5
39
2
10
102.034354
20
224.087052
11
101.539092
21
224.013722
0
LINE
8
boundary
62
5
39
2
10
101.539092
20
224.013722
11
100.178780
21
223.793542
0
LINE
8
boundary
62
5
39
2
10
100.178780
20
223.793542
11
99.194590
21
223.634243
0
LINE
8
boundary
62
5
39
2
10
99.194590
20
223.634243
11
98.152045
21
223.451957
0
LINE
8
boundary
62
5
39
2
10
98.152045
20
223.451957
11
96.525533
21
223.167566
0
LINE
8
boundary
62
5
39
2
10
96.525533
20
223.167566
11
95.911810
21
223.052821
0
LINE
8
boundary
62
5
39
2
10
95.911810
20
223.052821
11
93.426383
21
222.588131
0
LINE
8
boundary
62
5
39
2
10
93.426383
20
222.588131
11
93.403182
21
222.583534
0
LINE
8
boundary
62
5
39
2
10
93.403182
20
222.583534
11
93.317544
21
222.566564
0
LINE
8
boundary
62
5
39
2
10
93.317544
20
222.566564
11
90.933268
21
221.950880
0
LINE
8
boundary
62
5
39
2
10
90.933268
20
221.950880
11
89.744250
21
221.643843
0
LINE
8
boundary
62
5
39
2
10
89.744250
20
221.643843
11
88.158003
21
221.213145
0
LINE
8
boundary
62
5
39
2
10
88.158003
20
221.213145
11
85.248093
21
220.423048
0
LINE
8
boundary
62
5
39
2
10
85.248093
20
220.423048
11
84.981894
21
220.347592
0
LINE
8
boundary
62
5
39
2
10
84.981894
20
220.347592
11
84.439909
21
220.193962
0
LINE
8
boundary
62
5
39
2
10
84.439909
20
220.193962
11
81.798299
21
219.262877
0
LINE
8
boundary
62
5
39
2
10
81.798299
20
219.262877
11
79.571009
21
218.477826
0
LINE
8
boundary
62
5
39
2
10
79.571009
20
218.477826
11
78.226317
21
217.986262
0
LINE
8
boundary
62
5
39
2
10
78.226317
20
217.986262
11
76.397641
21
217.317775
0
LINE
8
boundary
62
5
39
2
10
76.397641
20
217.317775
11
74.448788
21
216.457758
0
LINE
8
boundary
62
5
39
2
10
74.448788
20
216.457758
11
72.091625
21
215.417557
0
LINE
8
boundary
62
5
39
2
10
72.091625
20
215.417557
11
70.418676
21
214.656539
0
LINE
8
boundary
62
5
39
2
10
70.418676
20
214.656539
11
70.311067
21
214.607588
0
LINE
8
boundary
62
5
39
2
10
70.311067
20
214.607588
11
69.212094
21
210.711066
0
LINE
8
boundary
62
5
39
2
10
69.212094
20
210.711066
11
72.746668
21
204.589003
0
LINE
8
boundary
62
5
39
2
10
72.746668
20
204.589003
11
72.997507
21
203.850055
0
LINE
8
boundary
62
5
39
2
10
72.997507
20
203.850055
11
72.946469
21
203.071365
0
LINE
8
boundary
62
5
39
2
10
72.946469
20
203.071365
11
72.601324
21
202.371480
0
LINE
8
boundary
62
5
39
2
10
72.601324
20
202.371480
11
72.014618
21
201.856952
0
LINE
8
boundary
62
5
39
2
10
72.014618
20
201.856952
11
71.275670
21
201.606113
0
LINE
8
boundary
62
5
39
2
10
71.275670
20
201.606113
11
70.496979
21
201.657151
0
LINE
8
boundary
62
5
39
2
10
70.496979
20
201.657151
11
69.797095
21
202.002297
0
LINE
8
boundary
62
5
39
2
10
69.797095
20
202.002297
11
69.282567
21
202.589003
0
LINE
8
boundary
62
5
39
2
10
69.282567
20
202.589003
11
66.251478
21
200.839003
0
LINE
8
boundary
62
5
39
2
10
66.251478
20
200.839003
11
66.502317
21
200.100056
0
LINE
8
boundary
62
5
39
2
10
66.502317
20
200.100056
11
66.451279
21
199.321365
0
LINE
8
boundary
62
5
39
2
10
66.451279
20
199.321365
11
66.106134
21
198.621480
0
LINE
8
boundary
62
5
39
2
10
66.106134
20
198.621480
11
65.519427
21
198.106952
0
LINE
8
boundary
62
5
39
2
10
65.519427
20
198.106952
11
64.780480
21
197.856113
0
LINE
8
boundary
62
5
39
2
10
64.780480
20
197.856113
11
64.001789
21
197.907151
0
LINE
8
boundary
62
5
39
2
10
64.001789
20
197.907151
11
63.301904
21
198.252297
0
LINE
8
boundary
62
5
39
2
10
63.301904
20
198.252297
11
62.787376
21
198.839003
0
LINE
8
boundary
62
5
39
2
10
62.787376
20
198.839003
11
59.243376
21
204.977391
0
LINE
8
boundary
62
5
39
2
10
59.243376
20
204.977391
11
55.319402
21
205.973913
0
LINE
8
boundary
62
5
39
2
10
55.319402
20
205.973913
11
55.080146
21
205.819646
0
LINE
8
boundary
62
5
39
2
10
55.080146
20
205.819646
11
52.800096
21
204.116795
0
LINE
8
boundary
62
5
39
2
10
52.800096
20
204.116795
11
48.750891
21
201.092657
0
LINE
8
boundary
62
5
39
2
10
48.750891
20
201.092657
11
48.117933
21
200.547863
0
LINE
8
boundary
62
5
39
2
10
48.117933
20
200.547863
11
45.933499
21
198.667693
0
LINE
8
boundary
62
5
39
2
10
45.933499
20
198.667693
11
43.568346
21
196.592620
0
LINE
8
boundary
62
5
39
2
10
43.568346
20
196.592620
11
42.841770
21
195.955156
0
LINE
8
boundary
62
5
39
2
10
42.841770
20
195.955156
11
39.166283
21
192.246505
0
LINE
8
boundary
62
5
39
2
10
39.166283
20
192.246505
11
37.368143
21
190.432146
0
LINE
8
boundary
62
5
39
2
10
37.368143
20
190.432146
11
34.850468
21
187.508512
0
LINE
8
boundary
62
5
39
2
10
34.850468
20
187.508512
11
32.303228
21
184.550541
0
LINE
8
boundary
62
5
39
2
10
32.303228
20
184.550541
11
30.692478
21
182.390288
0
LINE
8
boundary
62
5
39
2
10
30.692478
20
182.390288
11
27.671712
21
178.338995
0
LINE
8
boundary
62
5
39
2
10
27.671712
20
178.338995
11
26.753745
21
176.907547
0
LINE
8
boundary
62
5
39
2
10
26.753745
20
176.907547
11
23.496160
21
171.827777
0
LINE
8
boundary
62
5
39
2
10
23.496160
20
171.827777
11
23.087717
21
171.079270
0
LINE
8
boundary
62
5
39
2
10
23.087717
20
171.079270
11
19.796907
21
165.048600
0
LINE
8
boundary
62
5
39
2
10
19.796907
20
165.048600
11
19.741473
21
164.927280
0
LINE
8
boundary
62
5
39
2
10
19.741473
20
164.927280
11
19.096485
21
163.515700
0
LINE
8
boundary
62
5
39
2
10
19.096485
20
163.515700
11
16.825127
21
158.475232
0
LINE
8
boundary
62
5
39
2
10
16.825127
20
158.475232
11
16.626523
21
158.034502
0
LINE
8
boundary
62
5
39
2
10
16.626523
20
158.034502
11
14.309866
21
151.745752
0
LINE
8
boundary
62
5
39
2
10
14.309866
20
151.745752
11
13.968707
21
150.819648
0
LINE
8
boundary
62
5
39
2
10
13.968707
20
150.819648
11
12.212251
21
144.767512
0
LINE
8
boundary
62
5
39
2
10
12.212251
20
144.767512
11
11.826745
21
143.439188
0
LINE
8
boundary
62
5
39
2
10
11.826745
20
143.439188
11
10.564327
21
137.571070
0
LINE
8
boundary
62
5
39
2
10
10.564327
20
137.571070
11
10.211080
21
135.929076
0
LINE
8
boundary
62
5
39
2
10
10.211080
20
135.929076
11
9.394490
21
130.188311
0
LINE
8
boundary
62
5
39
2
10
9.394490
20
130.188311
11
9.129571
21
128.325910
0
LINE
8
boundary
62
5
39
2
10
9.129571
20
128.325910
11
8.728011
21
122.652137
0
LINE
8
boundary
62
5
39
2
10
8.728011
20
122.652137
11
8.587500
21
120.666724
0
LINE
8
boundary
62
5
39
2
10
8.587500
20
120.666724
11
8.587500
21
114.996237
0
LINE
8
boundary
62
5
39
2
10
8.587500
20
114.996237
11
8.587500
21
112.988834
0
LINE
8
boundary
62
5
39
2
10
8.587500
20
112.988834
11
8.993322
21
107.254836
0
LINE
8
boundary
62
5
39
2
10
8.993322
20
107.254836
11
9.129572
21
105.329648
0
LINE
8
boundary
62
5
39
2
10
9.129572
20
105.329648
11
9.964151
21
99.462412
0
LINE
8
boundary
62
5
39
2
10
9.964151
20
99.462412
11
10.211080
21
97.726482
0
LINE
8
boundary
62
5
39
2
10
10.211080
20
97.726482
11
11.517589
21
91.653421
0
LINE
8
boundary
62
5
39
2
10
11.517589
20
91.653421
11
11.826745
21
90.216370
0
LINE
8
boundary
62
5
39
2
10
11.826745
20
90.216370
11
13.670911
21
83.862019
0
LINE
8
boundary
62
5
39
2
10
13.670911
20
83.862019
11
13.968707
21
82.835910
0
LINE
8
boundary
62
5
39
2
10
13.968707
20
82.835910
11
16.442082
21
76.121737
0
LINE
8
boundary
62
5
39
2
10
16.442082
20
76.121737
11
16.626524
21
75.621056
0
LINE
8
boundary
62
5
39
2
10
16.626524
20
75.621056
11
19.096485
21
70.139858
0
LINE
8
boundary
62
5
39
2
10
19.096485
20
70.139858
11
19.796908
21
68.606958
0
LINE
8
boundary
62
5
39
2
10
19.796908
20
68.606958
11
19.880138
21
68.454432
0
LINE
8
boundary
62
5
39
2
10
19.880138
20
68.454432
11
23.496160
21
61.827781
0
LINE
8
boundary
62
5
39
2
10
23.496160
20
61.827781
11
24.126011
21
60.845613
0
LINE
8
boundary
62
5
39
2
10
24.126011
20
60.845613
11
27.671712
21
55.316563
0
LINE
8
boundary
62
5
39
2
10
27.671712
20
55.316563
11
29.139352
21
53.348243
0
LINE
8
boundary
62
5
39
2
10
29.139352
20
53.348243
11
32.303228
21
49.105017
0
LINE
8
boundary
62
5
39
2
10
32.303228
20
49.105017
11
34.997900
21
45.975845
0
LINE
8
boundary
62
5
39
2
10
34.997900
20
45.975845
11
37.368143
21
43.223412
0
LINE
8
annotation
62
1
39
211
10
206.844496
20
118.022934
11
206.844496
21
124.912623
0
LINE
8
annotation
62
1
39
211
10
206.844496
20
124.912623
11
205.312830
21
123.380525
0
LINE
8
annotation
62
1
39
211
10
69.740417
20
195.316432
11
71.139485
21
192.893176
0
LINE
8
annotation
62
1
39
211
10
71.139485
20
192.893176
11
66.241928
21
193.051128
0
LINE
8
annotation
62
1
39
211
10
66.241928
20
193.051128
11
66.241928
21
193.051128
0
LINE
8
annotation
62
1
39
211
10
66.241928
20
193.051128
11
66.237070
21
193.051892
0
LINE
8
annotation
62
1
39
211
10
66.237070
20
193.051892
11
66.232248
21
193.052530
0
LINE
8
annotation
62
1
39
211
10
66.232248
20
193.052530
11
66.227422
21
193.053043
0
LINE
8
annotation
62
1
39
211
10
66.227422
20
193.053043
11
66.222557
21
193.053431
0
LINE
8
annotation
62
1
39
211
10
66.222557
20
193.053431
11
66.217612
21
193.053695
0
LINE
8
annotation
62
1
39
211
10
66.217612
20
193.053695
11
66.212551
21
193.053836
0
LINE
8
annotation
62
1
39
211
10
66.212551
20
193.053836
11
66.207336
21
193.053853
0
LINE
8
annotation
62
1
39
211
10
66.207336
20
193.053853
11
66.201929
21
193.053748
0
LINE
8
annotation
62
1
39
211
10
66.201929
20
193.053748
11
66.196292
21
193.053522
0
LINE
8
annotation
62
1
39
211
10
66.196292
20
193.053522
11
66.196292
21
193.053522
0
LINE
8
annotation
62
1
39
211
10
66.196292
20
193.053522
11
65.944405
21
193.031368
0
LINE
8
annotation
62
1
39
211
10
65.944405
20
193.031368
11
65.707451
21
192.966576
0
LINE
8
annotation
62
1
39
211
10
65.707451
20
192.966576
11
65.489315
21
192.863155
0
LINE
8
annotation
62
1
39
211
10
65.489315
20
192.863155
11
65.293882
21
192.725113
0
LINE
8
annotation
62
1
39
211
10
65.293882
20
192.725113
11
65.125039
21
192.556457
0
LINE
8
annotation
62
1
39
211
10
65.125039
20
192.556457
11
64.986670
21
192.361196
0
LINE
8
annotation
62
1
39
211
10
64.986670
20
192.361196
11
64.882660
21
192.143337
0
LINE
8
annotation
62
1
39
211
10
64.882660
20
192.143337
11
64.816896
21
191.906889
0
LINE
8
annotation
62
1
39
211
10
64.816896
20
191.906889
11
64.793262
21
191.655861
0
LINE
8
annotation
62
1
39
211
10
64.793262
20
191.655861
11
64.793262
21
191.655861
0
LINE
8
annotation
62
1
39
211
10
64.793262
20
191.655861
11
64.817049
21
191.404180
0
LINE
8
annotation
62
1
39
211
10
64.817049
20
191.404180
11
64.882855
21
191.167391
0
LINE
8
annotation
62
1
39
211
10
64.882855
20
191.167391
11
64.986823
21
190.949410
0
LINE
8
annotation
62
1
39
211
10
64.986823
20
190.949410
11
65.125097
21
190.754152
0
LINE
8
annotation
62
1
39
211
10
65.125097
20
190.754152
11
65.293819
21
190.585535
0
LINE
8
annotation
62
1
39
211
10
65.293819
20
190.585535
11
65.489133
21
190.447474
0
LINE
8
annotation
62
1
39
211
10
65.489133
20
190.447474
11
65.707182
21
190.343887
0
LINE
8
annotation
62
1
39
211
10
65.707182
20
190.343887
11
65.944109
21
190.278688
0
LINE
8
annotation
62
1
39
211
10
65.944109
20
190.278688
11
66.196056
21
190.255795
0
LINE
8
annotation
62
1
39
211
10
66.196056
20
190.255795
11
66.593135
21
190.272902
0
LINE
8
annotation
62
1
39
211
10
73.712931
20
39.236584
11
73.016011
21
38.029484
0
LINE
8
annotation
62
1
39
211
10
73.016011
20
38.029484
11
73.016011
21
38.029484
0
LINE
8
annotation
62
1
39
211
10
73.016011
20
38.029484
11
72.910144
21
37.801140
0
LINE
8
annotation
62
1
39
211
10
72.910144
20
37.801140
11
72.848330
21
37.564450
0
LINE
8
annotation
62
1
39
211
10
72.848330
20
37.564450
11
72.829085
21
37.324802
0
LINE
8
annotation
62
1
39
211
10
72.829085
20
37.324802
11
72.850926
21
37.087582
0
LINE
8
annotation
62
1
39
211
10
72.850926
20
37.087582
11
72.912369
21
36.858177
0
LINE
8
annotation
62
1
39
211
10
72.912369
20
36.858177
11
73.011931
21
36.641974
0
LINE
8
annotation
62
1
39
211
10
73.011931
20
36.641974
11
73.148127
21
36.444360
0
LINE
8
annotation
62
1
39
211
10
73.148127
20
36.444360
11
73.319474
21
36.270722
0
LINE
8
annotation
62
1
39
211
10
73.319474
20
36.270722
11
73.524488
21
36.126447
0
LINE
8
annotation
62
1
39
211
10
73.524488
20
36.126447
11
74.128890
21
35.777495
0
LINE
8
annotation
62
1
39
211
10
74.128890
20
35.777495
11
74.128890
21
35.777495
0
LINE
8
annotation
62
1
39
211
10
74.128890
20
35.777495
11
74.356254
21
35.672137
0
LINE
8
annotation
62
1
39
211
10
74.356254
20
35.672137
11
74.592254
21
35.610593
0
LINE
8
annotation
62
1
39
211
10
74.592254
20
35.610593
11
74.831477
21
35.591459
0
LINE
8
annotation
62
1
39
211
10
74.831477
20
35.591459
11
75.068506
21
35.613331
0
LINE
8
annotation
62
1
39
211
10
75.068506
20
35.613331
11
75.297926
21
35.674806
0
LINE
8
annotation
62
1
39
211
10
75.297926
20
35.674806
11
75.514322
21
35.774480
0
LINE
8
annotation
62
1
39
211
10
75.514322
20
35.774480
11
75.712277
21
35.910949
0
LINE
8
annotation
62
1
39
211
10
75.712277
20
35.910949
11
75.886378
21
36.082810
0
LINE
8
annotation
62
1
39
211
10
75.886378
20
36.082810
11
76.031207
21
36.288660
0
LINE
8
annotation
62
1
39
211
10
76.031207
20
36.288660
11
76.380159
21
36.893062
0
LINE
8
annotation
62
1
39
211
10
76.380159
20
36.893062
11
76.031207
21
36.288660
0
LINE
8
annotation
62
1
39
211
10
76.031207
20
36.288660
11
76.031207
21
36.288660
0
LINE
8
annotation
62
1
39
211
10
76.031207
20
36.288660
11
75.925355
21
36.060307
0
LINE
8
annotation
62
1
39
211
10
75.925355
20
36.060307
11
75.863602
21
35.823582
0
LINE
8
annotation
62
1
39
211
10
75.863602
20
35.823582
11
75.844483
21
35.583861
0
LINE
8
annotation
62
1
39
211
10
75.844483
20
35.583861
11
75.866533
21
35.346520
0
LINE
8
annotation
62
1
39
211
10
75.866533
20
35.346520
11
75.928290
21
35.116935
0
LINE
8
annotation
62
1
39
211
10
75.928290
20
35.116935
11
76.028288
21
34.900480
0
LINE
8
annotation
62
1
39
211
10
76.028288
20
34.900480
11
76.165064
21
34.702531
0
LINE
8
annotation
62
1
39
211
10
76.165064
20
34.702531
11
76.337153
21
34.528464
0
LINE
8
annotation
62
1
39
211
10
76.337153
20
34.528464
11
76.543092
21
34.383655
0
LINE
8
annotation
62
1
39
211
10
76.543092
20
34.383655
11
76.543092
21
34.383655
0
LINE
8
annotation
62
1
39
211
10
76.543092
20
34.383655
11
76.770455
21
34.278297
0
LINE
8
annotation
62
1
39
211
10
76.770455
20
34.278297
11
77.006456
21
34.216753
0
LINE
8
annotation
62
1
39
211
10
77.006456
20
34.216753
11
77.245679
21
34.197619
0
LINE
8
annotation
62
1
39
211
10
77.245679
20
34.197619
11
77.482708
21
34.219491
0
LINE
8
annotation
62
1
39
211
10
77.482708
20
34.219491
11
77.712128
21
34.280966
0
LINE
8
annotation
62
1
39
211
10
77.712128
20
34.280966
11
77.928523
21
34.380640
0
LINE
8
annotation
62
1
39
211
10
77.928523
20
34.380640
11
78.126479
21
34.517109
0
LINE
8
annotation
62
1
39
211
10
78.126479
20
34.517109
11
78.300579
21
34.688970
0
LINE
8
annotation
62
1
39
211
10
78.300579
20
34.688970
11
78.445408
21
34.894820
0
LINE
8
annotation
62
1
39
211
10
78.445408
20
34.894820
11
79.142328
21
36.101921
0
LINE
8
annotation
62
1
39
211
10
108.338668
20
14.828177
11
104.011013
21
14.828177
0
LINE
8
annotation
62
1
39
211
10
104.011013
20
14.828177
11
108.338668
21
22.622257
0
LINE
8
annotation
62
1
39
211
10
108.338668
20
22.622257
11
104.011013
21
22.622257
0
LINE
8
annotation
62
1
39
211
10
115.523850
20
18.725217
11
111.262181
21
18.725217
0
LINE
8
annotation
62
1
39
211
10
122.773551
20
16.560901
11
118.445897
21
16.560901
0
LINE
8
annotation
62
1
39
211
10
118.445897
20
16.560901
11
120.174221
21
22.622257
0
LINE
8
annotation
62
1
39
211
10
121.476330
20
14.828177
11
121.476330
21
18.289714
0
LINE
8
hole
62
5
39
2
10
276.017848
20
60.733659
11
275.308316
21
61.698751
0
LINE
8
hole
62
5
39
2
10
275.308316
20
61.698751
11
271.697981
21
66.609460
0
LINE
8
hole
62
5
39
2
10
271.697981
20
66.609460
11
269.511683
21
70.157505
0
LINE
8
hole
62
5
39
2
10
269.511683
20
70.157505
11
267.898680
21
72.775184
0
LINE
8
hole
62
5
39
2
10
267.898680
20
72.775184
11
265.090508
21
78.311295
0
LINE
8
hole
62
5
39
2
10
265.090508
20
78.311295
11
264.643357
21
79.192821
0
LINE
8
hole
62
5
39
2
10
264.643357
20
79.192821
11
262.832169
21
83.654731
0
LINE
8
hole
62
5
39
2
10
262.832169
20
83.654731
11
261.980289
21
85.822801
0
LINE
8
hole
62
5
39
2
10
261.980289
20
85.822801
11
261.870826
21
86.187220
0
LINE
8
hole
62
5
39
2
10
261.870826
20
86.187220
11
259.937294
21
92.624248
0
LINE
8
hole
62
5
39
2
10
259.937294
20
92.624248
11
259.683622
21
93.821645
0
LINE
8
hole
62
5
39
2
10
259.683622
20
93.821645
11
258.468954
21
99.555229
0
LINE
8
hole
62
5
39
2
10
258.468954
20
99.555229
11
258.248521
21
101.303888
0
LINE
8
hole
62
5
39
2
10
258.248521
20
101.303888
11
257.584297
21
106.573012
0
LINE
8
hole
62
5
39
2
10
257.584297
20
106.573012
11
257.498892
21
108.613969
0
LINE
8
hole
62
5
39
2
10
257.498892
20
108.613969
11
257.288812
21
113.634330
0
LINE
8
hole
62
5
39
2
10
257.288812
20
113.634330
11
257.376448
21
115.728602
0
LINE
8
hole
62
5
39
2
10
257.376448
20
115.728602
11
257.584297
21
120.695648
0
LINE
8
hole
62
5
39
2
10
257.584297
20
120.695648
11
257.827240
21
122.622872
0
LINE
8
hole
62
5
39
2
10
257.827240
20
122.622872
11
258.468954
21
127.713431
0
LINE
8
hole
62
5
39
2
10
258.468954
20
127.713431
11
258.799015
21
129.271405
0
LINE
8
hole
62
5
39
2
10
258.799015
20
129.271405
11
259.937294
21
134.644412
0
LINE
8
hole
62
5
39
2
10
259.937294
20
134.644412
11
260.239164
21
135.649381
0
LINE
8
hole
62
5
39
2
10
260.239164
20
135.649381
11
261.980289
21
141.445859
0
LINE
8
hole
62
5
39
2
10
261.980289
20
141.445859
11
262.093210
21
141.733248
0
LINE
8
hole
62
5
39
2
10
262.093210
20
141.733248
11
262.832169
21
143.613930
0
LINE
8
hole
62
5
39
2
10
262.832169
20
143.613930
11
264.402533
21
147.482561
0
LINE
8
hole
62
5
39
2
10
264.402533
20
147.482561
11
264.643357
21
148.075839
0
LINE
8
hole
62
5
39
2
10
264.643357
20
148.075839
11
267.086328
21
152.891980
0
LINE
8
hole
62
5
39
2
10
267.086328
20
152.891980
11
267.898680
21
154.493476
0
LINE
8
hole
62
5
39
2
10
267.898680
20
154.493476
11
270.033783
21
157.958435
0
LINE
8
hole
62
5
39
2
10
270.033783
20
157.958435
11
271.697981
21
160.659200
0
LINE
8
hole
62
5
39
2
10
271.697981
20
160.659200
11
273.177337
21
162.671396
0
LINE
8
hole
62
5
39
2
10
273.177337
20
162.671396
11
276.017848
21
166.535001
0
LINE
8
hole
62
5
39
2
10
276.017848
20
166.535001
11
276.442706
21
167.024805
0
LINE
8
hole
62
5
39
2
10
276.442706
20
167.024805
11
277.486558
21
168.228223
0
LINE
8
hole
62
5
39
2
10
277.486558
20
168.228223
11
279.976760
21
170.986394
0
LINE
8
hole
62
5
39
2
10
279.976760
20
170.986394
11
280.968314
21
172.084651
0
LINE
8
hole
62
5
39
2
10
280.968314
20
172.084651
11
283.615268
21
174.584942
0
LINE
8
hole
62
5
39
2
10
283.615268
20
174.584942
11
286.462016
21
177.273941
0
LINE
8
hole
62
5
39
2
10
286.462016
20
177.273941
11
287.171620
21
177.846696
0
LINE
8
hole
62
5
39
2
10
287.171620
20
177.846696
11
288.219600
21
178.692572
0
LINE
8
hole
62
5
39
2
10
288.219600
20
178.692572
11
290.877234
21
180.736817
0
LINE
8
hole
62
5
39
2
10
290.877234
20
180.736817
11
292.611578
21
182.070863
0
LINE
8
hole
62
5
39
2
10
292.611578
20
182.070863
11
294.504919
21
183.312865
0
LINE
8
hole
62
5
39
2
10
294.504919
20
183.312865
11
296.509529
21
184.627856
0
LINE
8
hole
62
5
39
2
10
296.509529
20
184.627856
11
298.049795
21
185.582163
0
LINE
8
hole
62
5
39
2
10
298.049795
20
185.582163
11
299.443819
21
186.445862
0
LINE
8
hole
62
5
39
2
10
299.443819
20
186.445862
11
301.566238
21
187.560422
0
LINE
8
hole
62
5
39
2
10
301.566238
20
187.560422
11
303.179005
21
188.407344
0
LINE
8
hole
62
5
39
2
10
303.179005
20
188.407344
11
304.956338
21
189.280082
0
LINE
8
hole
62
5
39
2
10
304.956338
20
189.280082
11
307.179927
21
190.371942
0
LINE
8
hole
62
5
39
2
10
307.179927
20
190.371942
11
308.181700
21
190.784230
0
LINE
8
hole
62
5
39
2
10
308.181700
20
190.784230
11
308.723022
21
191.007018
0
LINE
8
hole
62
5
39
2
10
308.723022
20
191.007018
11
311.426798
21
192.035649
0
LINE
8
hole
62
5
39
2
10
311.426798
20
192.035649
11
313.458066
21
192.808422
0
LINE
8
hole
62
5
39
2
10
313.458066
20
192.808422
11
314.418269
21
193.141590
0
LINE
8
hole
62
5
39
2
10
314.418269
20
193.141590
11
316.387655
21
193.824923
0
LINE
8
hole
62
5
39
2
10
316.387655
20
193.824923
11
317.301850
21
194.086041
0
LINE
8
hole
62
5
39
2
10
317.301850
20
194.086041
11
317.596648
21
194.170243
0
LINE
8
hole
62
5
39
2
10
317.596648
20
194.170243
11
320.202207
21
194.838096
0
LINE
8
hole
62
5
39
2
10
320.202207
20
194.838096
11
321.287538
21
195.116285
0
LINE
8
hole
62
5
39
2
10
321.287538
20
195.116285
11
322.934447
21
195.487548
0
LINE
8
hole
62
5
39
2
10
322.934447
20
195.487548
11
324.638799
21
195.871763
0
LINE
8
hole
62
5
39
2
10
324.638799
20
195.871763
11
325.536647
21
196.045185
0
LINE
8
hole
62
5
39
2
10
325.536647
20
196.045185
11
327.731645
21
196.469156
0
LINE
8
hole
62
5
39
2
10
327.731645
20
196.469156
11
328.042146
21
196.518738
0
LINE
8
hole
62
5
39
2
10
328.042146
20
196.518738
11
329.700068
21
196.783482
0
LINE
8
hole
62
5
39
2
10
329.700068
20
196.783482
11
330.529753
21
196.889505
0
LINE
8
hole
62
5
39
2
10
330.529753
20
196.889505
11
330.629206
21
196.902214
0
LINE
8
hole
62
5
39
2
10
330.629206
20
196.902214
11
333.050692
21
197.144887
0
LINE
8
hole
62
5
39
2
10
333.050692
20
197.144887
11
333.382271
21
197.178117
0
LINE
8
hole
62
5
39
2
10
333.382271
20
197.178117
11
335.536621
21
197.333288
0
LINE
8
hole
62
5
39
2
10
335.536621
20
197.333288
11
336.033229
21
197.369056
0
LINE
8
hole
62
5
39
2
10
336.033229
20
197.369056
11
338.017822
21
197.455183
0
LINE
8
hole
62
5
39
2
10
338.017822
20
197.455183
11
338.618915
21
197.481269
0
LINE
8
hole
62
5
39
2
10
338.618915
20
197.481269
11
340.525598
21
197.508904
0
LINE
8
hole
62
5
39
2
10
340.525598
20
197.508904
11
341.172763
21
197.518282
0
LINE
8
hole
62
5
39
2
10
341.172763
20
197.518282
11
343.093972
21
197.490436
0
LINE
8
hole
62
5
39
2
10
343.093972
20
197.490436
11
343.726613
21
197.481269
0
LINE
8
hole
62
5
39
2
10
343.726613
20
197.481269
11
345.761803
21
197.392947
0
LINE
8
hole
62
5
39
2
10
345.761803
20
197.392947
11
346.312298
21
197.369056
0
LINE
8
hole
62
5
39
2
10
346.312298
20
197.369056
11
348.575571
21
197.206041
0
LINE
8
hole
62
5
39
2
10
348.575571
20
197.206041
11
348.963257
21
197.178117
0
LINE
8
hole
62
5
39
2
10
348.963257
20
197.178117
11
351.593390
21
196.914534
0
LINE
8
hole
62
5
39
2
10
351.593390
20
196.914534
11
351.716322
21
196.902214
0
LINE
8
hole
62
5
39
2
10
351.716322
20
196.902214
11
352.645460
21
196.783482
0
LINE
8
hole
62
5
39
2
10
352.645460
20
196.783482
11
354.613882
21
196.469156
0
LINE
8
hole
62
5
39
2
10
354.613882
20
196.469156
11
355.090508
21
196.377095
0
LINE
8
hole
62
5
39
2
10
355.090508
20
196.377095
11
357.706728
21
195.871763
0
LINE
8
hole
62
5
39
2
10
357.706728
20
195.871763
11
359.234239
21
195.527416
0
LINE
8
hole
62
5
39
2
10
359.234239
20
195.527416
11
361.057990
21
195.116285
0
LINE
8
hole
62
5
39
2
10
361.057990
20
195.116285
11
364.200263
21
194.310863
0
LINE
8
hole
62
5
39
2
10
364.200263
20
194.310863
11
364.748880
21
194.170243
0
LINE
8
hole
62
5
39
2
10
364.748880
20
194.170243
11
365.957873
21
193.824924
0
LINE
8
hole
62
5
39
2
10
365.957873
20
193.824924
11
368.887462
21
192.808422
0
LINE
8
hole
62
5
39
2
10
368.887462
20
192.808422
11
371.956501
21
191.640832
0
LINE
8
hole
62
5
39
2
10
371.956501
20
191.640832
11
373.622505
21
191.007017
0
LINE
8
hole
62
5
39
2
10
373.622505
20
191.007017
11
375.165600
21
190.371942
0
LINE
8
hole
62
5
39
2
10
375.165600
20
190.371942
11
379.166523
21
188.407345
0
LINE
8
hole
62
5
39
2
10
379.166523
20
188.407345
11
382.901708
21
186.445862
0
LINE
8
hole
62
5
39
2
10
382.901708
20
186.445862
11
385.835998
21
184.627856
0
LINE
8
hole
62
5
39
2
10
385.835998
20
184.627856
11
389.733949
21
182.070863
0
LINE
8
hole
62
5
39
2
10
389.733949
20
182.070863
11
394.125928
21
178.692572
0
LINE
8
hole
62
5
39
2
10
394.125928
20
178.692572
11
395.883512
21
177.273941
0
LINE
8
hole
62
5
39
2
10
395.883512
20
177.273941
11
397.902316
21
175.366998
0
LINE
8
hole
62
5
39
2
10
397.902316
20
175.366998
11
401.377214
21
172.084650
0
LINE
8
hole
62
5
39
2
10
401.377214
20
172.084650
11
404.858969
21
168.228223
0
LINE
8
hole
62
5
39
2
10
404.858969
20
168.228223
11
406.327679
21
166.535001
0
LINE
8
hole
62
5
39
2
10
406.327679
20
166.535001
11
407.037211
21
165.569909
0
LINE
8
hole
62
5
39
2
10
407.037211
20
165.569909
11
410.647546
21
160.659200
0
LINE
8
hole
62
5
39
2
10
410.647546
20
160.659200
11
412.833845
21
157.111155
0
LINE
8
hole
62
5
39
2
10
412.833845
20
157.111155
11
414.446848
21
154.493476
0
LINE
8
hole
62
5
39
2
10
414.446848
20
154.493476
11
417.255020
21
148.957365
0
LINE
8
hole
62
5
39
2
10
417.255020
20
148.957365
11
417.702171
21
148.075838
0
LINE
8
hole
62
5
39
2
10
417.702171
20
148.075838
11
419.513358
21
143.613930
0
LINE
8
hole
62
5
39
2
10
419.513358
20
143.613930
11
420.365238
21
141.445859
0
LINE
8
hole
62
5
39
2
10
420.365238
20
141.445859
11
420.474701
21
141.081440
0
LINE
8
hole
62
5
39
2
10
420.474701
20
141.081440
11
422.408234
21
134.644412
0
LINE
8
hole
62
5
39
2
10
422.408234
20
134.644412
11
422.661904
21
133.447015
0
LINE
8
hole
62
5
39
2
10
422.661904
20
133.447015
11
423.876573
21
127.713430
0
LINE
8
hole
62
5
39
2
10
423.876573
20
127.713430
11
424.097006
21
125.964772
0
LINE
8
hole
62
5
39
2
10
424.097006
20
125.964772
11
424.761231
21
120.695648
0
LINE
8
hole
62
5
39
2
10
424.761231
20
120.695648
11
424.846636
21
118.654690
0
LINE
8
hole
62
5
39
2
10
424.846636
20
118.654690
11
425.056716
21
113.634330
0
LINE
8
hole
62
5
39
2
10
425.056716
20
113.634330
11
424.969080
21
111.540058
0
LINE
8
hole
62
5
39
2
10
424.969080
20
111.540058
11
424.761231
21
106.573012
0
LINE
8
hole
62
5
39
2
10
424.761231
20
106.573012
11
424.518288
21
104.645788
0
LINE
8
hole
62
5
39
2
10
424.518288
20
104.645788
11
423.876573
21
99.555230
0
LINE
8
hole
62
5
39
2
10
423.876573
20
99.555230
11
423.546513
21
97.997254
0
LINE
8
hole
62
5
39
2
10
423.546513
20
97.997254
11
422.408234
21
92.624248
0
LINE
8
hole
62
5
39
2
10
422.408234
20
92.624248
11
422.106363
21
91.619280
0
LINE
8
hole
62
5
39
2
10
422.106363
20
91.619280
11
420.365238
21
85.822801
0
LINE
8
hole
62
5
39
2
10
420.365238
20
85.822801
11
420.252318
21
85.535412
0
LINE
8
hole
62
5
39
2
10
420.252318
20
85.535412
11
419.513358
21
83.654730
0
LINE
8
hole
62
5
39
2
10
419.513358
20
83.654730
11
417.942995
21
79.786099
0
LINE
8
hole
62
5
39
2
10
417.942995
20
79.786099
11
417.702171
21
79.192822
0
LINE
8
hole
62
5
39
2
10
417.702171
20
79.192822
11
415.259199
21
74.376680
0
LINE
8
hole
62
5
39
2
10
415.259199
20
74.376680
11
414.446848
21
72.775184
0
LINE
8
hole
62
5
39
2
10
414.446848
20
72.775184
11
412.311744
21
69.310225
0
LINE
8
hole
62
5
39
2
10
412.311744
20
69.310225
11
410.647546
21
66.609460
0
LINE
8
hole
62
5
39
2
10
410.647546
20
66.609460
11
409.168190
21
64.597264
0
LINE
8
hole
62
5
39
2
10
409.168190
20
64.597264
11
406.327679
21
60.733659
0
LINE
8
hole
62
5
39
2
10
406.327679
20
60.733659
11
405.902821
21
60.243855
0
LINE
8
hole
62
5
39
2
10
405.902821
20
60.243855
11
404.858969
21
59.040438
0
LINE
8
hole
62
5
39
2
10
404.858969
20
59.040438
11
402.368768
21
56.282267
0
LINE
8
hole
62
5
39
2
10
402.368768
20
56.282267
11
401.377214
21
55.184010
0
LINE
8
hole
62
5
39
2
10
401.377214
20
55.184010
11
398.730260
21
52.683718
0
LINE
8
hole
62
5
39
2
10
398.730260
20
52.683718
11
395.883512
21
49.994719
0
LINE
8
hole
62
5
39
2
10
395.883512
20
49.994719
11
395.173907
21
49.421964
0
LINE
8
hole
62
5
39
2
10
395.173907
20
49.421964
11
394.125928
21
48.576088
0
LINE
8
hole
62
5
39
2
10
394.125928
20
48.576088
11
391.468293
21
46.531844
0
LINE
8
hole
62
5
39
2
10
391.468293
20
46.531844
11
389.733950
21
45.197798
0
LINE
8
hole
62
5
39
2
10
389.733950
20
45.197798
11
387.840608
21
43.955795
0
LINE
8
hole
62
5
39
2
10
387.840608
20
43.955795
11
385.835998
21
42.640804
0
LINE
8
hole
62
5
39
2
10
385.835998
20
42.640804
11
384.295732
21
41.686498
0
LINE
8
hole
62
5
39
2
10
384.295732
20
41.686498
11
382.901708
21
40.822798
0
LINE
8
hole
62
5
39
2
10
382.901708
20
40.822798
11
380.779289
21
39.708237
0
LINE
8
hole
62
5
39
2
10
380.779289
20
39.708237
11
379.166523
21
38.861316
0
LINE
8
hole
62
5
39
2
10
379.166523
20
38.861316
11
377.389190
21
37.988579
0
LINE
8
hole
62
5
39
2
10
377.389190
20
37.988579
11
375.165600
21
36.896718
0
LINE
8
hole
62
5
39
2
10
375.165600
20
36.896718
11
374.163828
21
36.484430
0
LINE
8
hole
62
5
39
2
10
374.163828
20
36.484430
11
373.622505
21
36.261643
0
LINE
8
hole
62
5
39
2
10
373.622505
20
36.261643
11
370.918729
21
35.233011
0
LINE
8
hole
62
5
39
2
10
370.918729
20
35.233011
11
368.887462
21
34.460238
0
LINE
8
hole
62
5
39
2
10
368.887462
20
34.460238
11
367.927259
21
34.127070
0
LINE
8
hole
62
5
39
2
10
367.927259
20
34.127070
11
365.957872
21
33.443737
0
LINE
8
hole
62
5
39
2
10
365.957872
20
33.443737
11
365.043677
21
33.182618
0
LINE
8
hole
62
5
39
2
10
365.043677
20
33.182618
11
364.748880
21
33.098418
0
LINE
8
hole
62
5
39
2
10
364.748880
20
33.098418
11
362.143321
21
32.430564
0
LINE
8
hole
62
5
39
2
10
362.143321
20
32.430564
11
361.057989
21
32.152375
0
LINE
8
hole
62
5
39
2
10
361.057989
20
32.152375
11
359.411081
21
31.781112
0
LINE
8
hole
62
5
39
2
10
359.411081
20
31.781112
11
357.706728
21
31.396897
0
LINE
8
hole
62
5
39
2
10
357.706728
20
31.396897
11
356.808881
21
31.223475
0
LINE
8
hole
62
5
39
2
10
356.808881
20
31.223475
11
354.613882
21
30.799504
0
LINE
8
hole
62
5
39
2
10
354.613882
20
30.799504
11
354.303382
21
30.749922
0
LINE
8
hole
62
5
39
2
10
354.303382
20
30.749922
11
352.645459
21
30.485178
0
LINE
8
hole
62
5
39
2
10
352.645459
20
30.485178
11
351.815775
21
30.379155
0
LINE
8
hole
62
5
39
2
10
351.815775
20
30.379155
11
351.716321
21
30.366446
0
LINE
8
hole
62
5
39
2
10
351.716321
20
30.366446
11
349.294836
21
30.123773
0
LINE
8
hole
62
5
39
2
10
349.294836
20
30.123773
11
348.963257
21
30.090543
0
LINE
8
hole
62
5
39
2
10
348.963257
20
30.090543
11
346.808906
21
29.935373
0
LINE
8
hole
62
5
39
2
10
346.808906
20
29.935373
11
346.312298
21
29.899604
0
LINE
8
hole
62
5
39
2
10
346.312298
20
29.899604
11
344.327705
21
29.813478
0
LINE
8
hole
62
5
39
2
10
344.327705
20
29.813478
11
343.726613
21
29.787391
0
LINE
8
hole
62
5
39
2
10
343.726613
20
29.787391
11
341.819929
21
29.759756
0
LINE
8
hole
62
5
39
2
10
341.819929
20
29.759756
11
341.172764
21
29.750378
0
LINE
8
hole
62
5
39
2
10
341.172764
20
29.750378
11
339.251555
21
29.778224
0
LINE
8
hole
62
5
39
2
10
339.251555
20
29.778224
11
338.618915
21
29.787392
0
LINE
8
hole
62
5
39
2
10
338.618915
20
29.787392
11
336.583724
21
29.875714
0
LINE
8
hole
62
5
39
2
10
336.583724
20
29.875714
11
336.033229
21
29.899604
0
LINE
8
hole
62
5
39
2
10
336.033229
20
29.899604
11
333.769957
21
30.062620
0
LINE
8
hole
62
5
39
2
10
333.769957
20
30.062620
11
333.382271
21
30.090543
0
LINE
8
hole
62
5
39
2
10
333.382271
20
30.090543
11
330.752137
21
30.354126
0
LINE
8
hole
62
5
39
2
10
330.752137
20
30.354126
11
330.629206
21
30.366446
0
LINE
8
hole
62
5
39
2
10
330.629206
20
30.366446
11
329.700068
21
30.485178
0
LINE
8
hole
62
5
39
2
10
329.700068
20
30.485178
11
327.731645
21
30.799504
0
LINE
8
hole
62
5
39
2
10
327.731645
20
30.799504
11
327.255019
21
30.891566
0
LINE
8
hole
62
5
39
2
10
327.255019
20
30.891566
11
324.638799
21
31.396897
0
LINE
8
hole
62
5
39
2
10
324.638799
20
31.396897
11
323.111289
21
31.741244
0
LINE
8
hole
62
5
39
2
10
323.111289
20
31.741244
11
321.287539
21
32.152375
0
LINE
8
hole
62
5
39
2
10
321.287539
20
32.152375
11
318.145265
21
32.957797
0
LINE
8
hole
62
5
39
2
10
318.145265
20
32.957797
11
317.596648
21
33.098417
0
LINE
8
hole
62
5
39
2
10
317.596648
20
33.098417
11
316.387655
21
33.443737
0
LINE
8
hole
62
5
39
2
10
316.387655
20
33.443737
11
313.458066
21
34.460238
0
LINE
8
hole
62
5
39
2
10
313.458066
20
34.460238
11
310.389026
21
35.627828
0
LINE
8
hole
62
5
39
2
10
310.389026
20
35.627828
11
308.723022
21
36.261643
0
LINE
8
hole
62
5
39
2
10
308.723022
20
36.261643
11
307.179927
21
36.896717
0
LINE
8
hole
62
5
39
2
10
307.179927
20
36.896717
11
303.179004
21
38.861316
0
LINE
8
hole
62
5
39
2
10
303.179004
20
38.861316
11
299.443820
21
40.822798
0
LINE
8
hole
62
5
39
2
10
299.443820
20
40.822798
11
296.509529
21
42.640804
0
LINE
8
hole
62
5
39
2
10
296.509529
20
42.640804
11
292.611578
21
45.197798
0
LINE
8
hole
62
5
39
2
10
292.611578
20
45.197798
11
288.219599
21
48.576088
0
LINE
8
hole
62
5
39
2
10
288.219599
20
48.576088
11
286.462016
21
49.994719
0
LINE
8
hole
62
5
39
2
10
286.462016
20
49.994719
11
284.443212
21
51.901662
0
LINE
8
hole
62
5
39
2
10
284.443212
20
51.901662
11
280.968314
21
55.184010
0
LINE
8
hole
62
5
39
2
10
280.968314
20
55.184010
11
277.486558
21
59.040437
0
LINE
8
hole
62
5
39
2
10
277.486558
20
59.040437
11
276.017848
21
60.733659
0
LINE
8
boundary
62
5
39
2
10
272.000230
20
34.506953
11
272.161708
21
34.373290
0
LINE
8
boundary
62
5
39
2
10
272.161708
20
34.373290
11
272.465557
21
34.121781
0
LINE
8
boundary
62
5
39
2
10
272.465557
20
34.121781
11
276.400791
21
30.971285
0
LINE
8
boundary
62
5
39
2
10
276.400791
20
30.971285
11
278.401610
21
29.369451
0
LINE
8
boundary
62
5
39
2
10
278.401610
20
29.369451
11
280.515817
21
27.900759
0
LINE
8
boundary
62
5
39
2
10
280.515817
20
27.900759
11
281.351240
21
27.320411
0
LINE
8
boundary
62
5
39
2
10
281.351240
20
27.320411
11
285.275213
21
28.316933
0
LINE
8
boundary
62
5
39
2
10
285.275213
20
28.316933
11
288.998030
21
34.765041
0
LINE
8
boundary
62
5
39
2
10
288.998030
20
34.765041
11
289.512558
21
35.351748
0
LINE
8
boundary
62
5
39
2
10
289.512558
20
35.351748
11
290.212443
21
35.696892
0
LINE
8
boundary
62
5
39
2
10
290.212443
20
35.696892
11
290.991133
21
35.747930
0
LINE
8
boundary
62
5
39
2
10
290.991133
20
35.747930
11
291.730081
21
35.497092
0
LINE
8
boundary
62
5
39
2
10
291.730081
20
35.497092
11
292.316788
21
34.982564
0
LINE
8
boundary
62
5
39
2
10
292.316788
20
34.982564
11
292.661933
21
34.282679
0
LINE
8
boundary
62
5
39
2
10
292.661933
20
34.282679
11
292.712971
21
33.503988
0
LINE
8
boundary
62
5
39
2
10
292.712971
20
33.503988
11
292.462132
21
32.765040
0
LINE
8
boundary
62
5
39
2
10
292.462132
20
32.765040
11
295.493221
21
31.015041
0
LINE
8
boundary
62
5
39
2
10
295.493221
20
31.015041
11
296.007749
21
31.601747
0
LINE
8
boundary
62
5
39
2
10
296.007749
20
31.601747
11
296.707633
21
31.946892
0
LINE
8
boundary
62
5
39
2
10
296.707633
20
31.946892
11
297.486324
21
31.997930
0
LINE
8
boundary
62
5
39
2
10
297.486324
20
31.997930
11
298.225271
21
31.747092
0
LINE
8
boundary
62
5
39
2
10
298.225271
20
31.747092
11
298.811978
21
31.232563
0
LINE
8
boundary
62
5
39
2
10
298.811978
20
31.232563
11
299.157123
21
30.532679
0
LINE
8
boundary
62
5
39
2
10
299.157123
20
30.532679
11
299.208161
21
29.753988
0
LINE
8
boundary
62
5
39
2
10
299.208161
20
29.753988
11
298.957322
21
29.015041
0
LINE
8
boundary
62
5
39
2
10
298.957322
20
29.015041
11
295.233999
21
22.566055
0
LINE
8
boundary
62
5
39
2
10
295.233999
20
22.566055
11
296.332973
21
18.669534
0
LINE
8
boundary
62
5
39
2
10
296.332973
20
18.669534
11
298.754408
21
17.529166
0
LINE
8
boundary
62
5
39
2
10
298.754408
20
17.529166
11
299.759959
21
17.080518
0
LINE
8
boundary
62
5
39
2
10
299.759959
20
17.080518
11
301.038446
21
16.510092
0
LINE
8
boundary
62
5
39
2
10
301.038446
20
16.510092
11
303.258954
21
15.673149
0
LINE
8
boundary
62
5
39
2
10
303.258954
20
15.673149
11
304.444228
21
15.226403
0
LINE
8
boundary
62
5
39
2
10
304.444228
20
15.226403
11
306.599883
21
14.463069
0
LINE
8
boundary
62
5
39
2
10
306.599883
20
14.463069
11
309.290753
21
13.510207
0
LINE
8
boundary
62
5
39
2
10
309.290753
20
13.510207
11
309.660840
21
13.388251
0
LINE
8
boundary
62
5
39
2
10
309.660840
20
13.388251
11
310.401021
21
13.144334
0
LINE
8
boundary
62
5
39
2
10
310.401021
20
13.144334
11
312.735032
21
12.507194
0
LINE
8
boundary
62
5
39
2
10
312.735032
20
12.507194
11
313.507564
21
12.296309
0
LINE
8
boundary
62
5
39
2
10
313.507564
20
12.296309
11
315.654266
21
11.756922
0
LINE
8
boundary
62
5
39
2
10
315.654266
20
11.756922
11
317.244826
21
11.357267
0
LINE
8
boundary
62
5
39
2
10
317.244826
20
11.357267
11
318.377216
21
11.098742
0
LINE
8
boundary
62
5
39
2
10
318.377216
20
11.098742
11
320.611654
21
10.588624
0
LINE
8
boundary
62
5
39
2
10
320.611654
20
10.588624
11
320.940682
21
10.521438
0
LINE
8
boundary
62
5
39
2
10
320.940682
20
10.521438
11
322.181123
21
10.268146
0
LINE
8
boundary
62
5
39
2
10
322.181123
20
10.268146
11
323.472555
21
10.056075
0
LINE
8
boundary
62
5
39
2
10
323.472555
20
10.056075
11
323.689705
21
10.020415
0
LINE
8
boundary
62
5
39
2
10
323.689705
20
10.020415
11
325.971872
21
9.691752
0
LINE
8
boundary
62
5
39
2
10
325.971872
20
9.691752
11
326.541825
21
9.609673
0
LINE
8
boundary
62
5
39
2
10
326.541825
20
9.609673
11
328.369043
21
9.384759
0
LINE
8
boundary
62
5
39
2
10
328.369043
20
9.384759
11
329.217688
21
9.280294
0
LINE
8
boundary
62
5
39
2
10
329.217688
20
9.280294
11
330.690095
21
9.130754
0
LINE
8
boundary
62
5
39
2
10
330.690095
20
9.130754
11
331.757663
21
9.022336
0
LINE
8
boundary
62
5
39
2
10
331.757663
20
9.022336
11
332.958757
21
8.926826
0
LINE
8
boundary
62
5
39
2
10
332.958757
20
8.926826
11
334.195507
21
8.828477
0
LINE
8
boundary
62
5
39
2
10
334.195507
20
8.828477
11
335.197437
21
8.771284
0
LINE
8
boundary
62
5
39
2
10
335.197437
20
8.771284
11
336.560324
21
8.693484
0
LINE
8
boundary
62
5
39
2
10
336.560324
20
8.693484
11
337.428125
21
8.663662
0
LINE
8
boundary
62
5
39
2
10
337.428125
20
8.663662
11
338.878077
21
8.613835
0
LINE
8
boundary
62
5
39
2
10
338.878077
20
8.613835
11
339.673281
21
8.604709
0
LINE
8
boundary
62
5
39
2
10
339.673281
20
8.604709
11
341.172764
21
8.587500
0
LINE
8
boundary
62
5
39
2
10
341.172764
20
8.587500
11
341.956803
21
8.596499
0
LINE
8
boundary
62
5
39
2
10
341.956803
20
8.596499
11
343.467451
21
8.613835
0
LINE
8
boundary
62
5
39
2
10
343.467451
20
8.613835
11
344.305169
21
8.642623
0
LINE
8
boundary
62
5
39
2
10
344.305169
20
8.642623
11
345.785203
21
8.693485
0
LINE
8
boundary
62
5
39
2
10
345.785203
20
8.693485
11
346.748841
21
8.748492
0
LINE
8
boundary
62
5
39
2
10
346.748841
20
8.748492
11
348.150021
21
8.828477
0
LINE
8
boundary
62
5
39
2
10
348.150021
20
8.828477
11
349.324211
21
8.921848
0
LINE
8
boundary
62
5
39
2
10
349.324211
20
8.921848
11
350.587864
21
9.022336
0
LINE
8
boundary
62
5
39
2
10
350.587864
20
9.022336
11
352.076249
21
9.173498
0
LINE
8
boundary
62
5
39
2
10
352.076249
20
9.173498
11
353.127840
21
9.280294
0
LINE
8
boundary
62
5
39
2
10
353.127840
20
9.280294
11
355.062345
21
9.518415
0
LINE
8
boundary
62
5
39
2
10
355.062345
20
9.518415
11
355.803703
21
9.609673
0
LINE
8
boundary
62
5
39
2
10
355.803703
20
9.609673
11
358.358286
21
9.977567
0
LINE
8
boundary
62
5
39
2
10
358.358286
20
9.977567
11
358.655822
21
10.020415
0
LINE
8
boundary
62
5
39
2
10
358.655822
20
10.020415
11
360.164404
21
10.268147
0
LINE
8
boundary
62
5
39
2
10
360.164404
20
10.268147
11
361.733874
21
10.588624
0
LINE
8
boundary
62
5
39
2
10
361.733874
20
10.588624
11
362.325690
21
10.723736
0
LINE
8
boundary
62
5
39
2
10
362.325690
20
10.723736
11
365.100701
21
11.357267
0
LINE
8
boundary
62
5
39
2
10
365.100701
20
11.357267
11
367.359206
21
11.924748
0
LINE
8
boundary
62
5
39
2
10
367.359206
20
11.924748
11
368.837963
21
12.296309
0
LINE
8
boundary
62
5
39
2
10
368.837963
20
12.296309
11
371.944507
21
13.144334
0
LINE
8
boundary
62
5
39
2
10
371.944507
20
13.144334
11
373.054775
21
13.510207
0
LINE
8
boundary
62
5
39
2
10
373.054775
20
13.510207
11
374.254493
21
13.935037
0
LINE
8
boundary
62
5
39
2
10
374.254493
20
13.935037
11
377.901300
21
15.226403
0
LINE
8
boundary
62
5
39
2
10
377.901300
20
15.226403
11
381.307081
21
16.510093
0
LINE
8
boundary
62
5
39
2
10
381.307081
20
16.510093
11
383.591120
21
17.529166
0
LINE
8
boundary
62
5
39
2
10
383.591120
20
17.529166
11
389.578795
21
20.349042
0
LINE
8
boundary
62
5
39
2
10
389.578795
20
20.349042
11
390.440009
21
20.822881
0
LINE
8
boundary
62
5
39
2
10
390.440009
20
20.822881
11
397.066586
21
24.642463
0
LINE
8
boundary
62
5
39
2
10
397.066586
20
24.642463
11
398.936440
21
25.890873
0
LINE
8
boundary
62
5
39
2
10
398.936440
20
25.890873
11
403.943917
21
29.369452
0
LINE
8
boundary
62
5
39
2
10
403.943917
20
29.369452
11
409.879970
21
34.121781
0
LINE
8
boundary
62
5
39
2
10
409.879970
20
34.121781
11
410.345298
21
34.506953
0
LINE
8
boundary
62
5
39
2
10
410.345298
20
34.506953
11
410.695876
21
34.840692
0
LINE
8
boundary
62
5
39
2
10
410.695876
20
34.840692
11
416.146972
21
40.029962
0
LINE
8
boundary
62
5
39
2
10
416.146972
20
40.029962
11
419.906449
21
44.148802
0
LINE
8
boundary
62
5
39
2
10
419.906449
20
44.148802
11
421.515420
21
45.911568
0
LINE
8
boundary
62
5
39
2
10
421.515420
20
45.911568
11
424.677701
21
49.912856
0
LINE
8
boundary
62
5
39
2
10
424.677701
20
49.912856
11
426.377212
21
52.123114
0
LINE
8
boundary
62
5
39
2
10
426.377212
20
52.123114
11
426.890902
21
52.899884
0
LINE
8
boundary
62
5
39
2
10
426.890902
20
52.899884
11
430.683194
21
58.634332
0
LINE
8
boundary
62
5
39
2
10
430.683194
20
58.634332
11
432.167051
21
61.271260
0
LINE
8
boundary
62
5
39
2
10
432.167051
20
61.271260
11
434.497984
21
65.413509
0
LINE
8
boundary
62
5
39
2
10
434.497984
20
65.413509
11
436.458233
21
69.573660
0
LINE
8
boundary
62
5
39
2
10
436.458233
20
69.573660
11
437.803005
21
72.427607
0
LINE
8
boundary
62
5
39
2
10
437.803005
20
72.427607
11
439.876228
21
77.809813
0
LINE
8
boundary
62
5
39
2
10
439.876228
20
77.809813
11
440.582164
21
79.642461
0
LINE
8
boundary
62
5
39
2
10
440.582164
20
79.642461
11
442.502903
21
85.971699
0
LINE
8
boundary
62
5
39
2
10
442.502903
20
85.971699
11
442.821917
21
87.022922
0
LINE
8
boundary
62
5
39
2
10
442.821917
20
87.022922
11
444.401412
21
94.044282
0
LINE
8
boundary
62
5
39
2
10
444.401412
20
94.044282
11
444.511358
21
94.533032
0
LINE
8
boundary
62
5
39
2
10
444.511358
20
94.533032
11
445.623160
21
102.007981
0
LINE
8
boundary
62
5
39
2
10
445.623160
20
102.007981
11
445.642231
21
102.136199
0
LINE
8
boundary
62
5
39
2
10
445.642231
20
102.136199
11
445.853009
21
104.984330
0
LINE
8
boundary
62
5
39
2
10
445.853009
20
104.984330
11
443.028009
21
107.884330
0
LINE
8
boundary
62
5
39
2
10
443.028009
20
107.884330
11
435.560959
21
107.884330
0
LINE
8
boundary
62
5
39
2
10
435.560959
20
107.884330
11
434.795592
21
108.036571
0
LINE
8
boundary
62
5
39
2
10
434.795592
20
108.036571
11
434.146745
21
108.470117
0
LINE
8
boundary
62
5
39
2
10
434.146745
20
108.470117
11
433.713200
21
109.118963
0
LINE
8
boundary
62
5
39
2
10
433.713200
20
109.118963
11
433.560959
21
109.884330
0
LINE
8
boundary
62
5
39
2
10
433.560959
20
109.884330
11
433.713200
21
110.649697
0
LINE
8
boundary
62
5
39
2
10
433.713200
20
110.649697
11
434.146745
21
111.298543
0
LINE
8
boundary
62
5
39
2
10
434.146745
20
111.298543
11
434.795592
21
111.732089
0
LINE
8
boundary
62
5
39
2
10
434.795592
20
111.732089
11
435.560959
21
111.884330
0
LINE
8
boundary
62
5
39
2
10
435.560959
20
111.884330
11
435.560959
21
115.384330
0
LINE
8
boundary
62
5
39
2
10
435.560959
20
115.384330
11
434.795592
21
115.536571
0
LINE
8
boundary
62
5
39
2
10
434.795592
20
115.536571
11
434.146745
21
115.970116
0
LINE
8
boundary
62
5
39
2
10
434.146745
20
115.970116
11
433.713200
21
116.618963
0
LINE
8
boundary
62
5
39
2
10
433.713200
20
116.618963
11
433.560959
21
117.384330
0
LINE
8
boundary
62
5
39
2
10
433.560959
20
117.384330
11
433.713200
21
118.149697
0
LINE
8
boundary
62
5
39
2
10
433.713200
20
118.149697
11
434.146745
21
118.798543
0
LINE
8
boundary
62
5
39
2
10
434.146745
20
118.798543
11
434.795592
21
119.232089
0
LINE
8
boundary
62
5
39
2
10
434.795592
20
119.232089
11
435.560959
21
119.384330
0
LINE
8
boundary
62
5
39
2
10
435.560959
20
119.384330
11
443.028009
21
119.384330
0
LINE
8
boundary
62
5
39
2
10
443.028009
20
119.384330
11
445.853009
21
122.284330
0
LINE
8
boundary
62
5
39
2
10
445.853009
20
122.284330
11
445.651048
21
125.013323
0
LINE
8
boundary
62
5
39
2
10
445.651048
20
125.013323
11
445.642231
21
125.132461
0
LINE
8
boundary
62
5
39
2
10
445.642231
20
125.132461
11
444.575617
21
132.303604
0
LINE
8
boundary
62
5
39
2
10
444.575617
20
132.303604
11
444.511358
21
132.735628
0
LINE
8
boundary
62
5
39
2
10
444.511358
20
132.735628
11
443.020480
21
139.363057
0
LINE
8
boundary
62
5
39
2
10
443.020480
20
139.363057
11
442.821917
21
140.245739
0
LINE
8
boundary
62
5
39
2
10
442.821917
20
140.245739
11
441.024814
21
146.167569
0
LINE
8
boundary
62
5
39
2
10
441.024814
20
146.167569
11
440.582163
21
147.626199
0
LINE
8
boundary
62
5
39
2
10
440.582163
20
147.626199
11
438.629942
21
152.694281
0
LINE
8
boundary
62
5
39
2
10
438.629942
20
152.694281
11
437.803005
21
154.841054
0
LINE
8
boundary
62
5
39
2
10
437.803005
20
154.841054
11
435.880082
21
158.921991
0
LINE
8
boundary
62
5
39
2
10
435.880082
20
158.921991
11
434.497984
21
161.855151
0
LINE
8
boundary
62
5
39
2
10
434.497984
20
161.855151
11
432.823080
21
164.831582
0
LINE
8
boundary
62
5
39
2
10
432.823080
20
164.831582
11
430.683193
21
168.634328
0
LINE
8
boundary
62
5
39
2
10
430.683193
20
168.634328
11
429.511266
21
170.406442
0
LINE
8
boundary
62
5
39
2
10
429.511266
20
170.406442
11
426.377212
21
175.145546
0
LINE
8
boundary
62
5
39
2
10
426.377212
20
175.145546
11
426.002404
21
175.632995
0
LINE
8
boundary
62
5
39
2
10
426.002404
20
175.632995
11
424.677701
21
177.355804
0
LINE
8
boundary
62
5
39
2
10
424.677701
20
177.355804
11
422.200238
21
180.490580
0
LINE
8
boundary
62
5
39
2
10
422.200238
20
180.490580
11
421.515420
21
181.357092
0
LINE
8
boundary
62
5
39
2
10
421.515420
20
181.357092
11
418.205323
21
184.983600
0
LINE
8
boundary
62
5
39
2
10
418.205323
20
184.983600
11
416.146972
21
187.238698
0
LINE
8
boundary
62
5
39
2
10
416.146972
20
187.238698
11
414.173413
21
189.117459
0
LINE
8
boundary
62
5
39
2
10
414.173413
20
189.117459
11
410.345298
21
192.761707
0
LINE
8
boundary
62
5
39
2
10
410.345298
20
192.761707
11
410.183820
21
192.895370
0
LINE
8
boundary
62
5
39
2
10
410.183820
20
192.895370
11
409.879970
21
193.146879
0
LINE
8
boundary
62
5
39
2
10
409.879970
20
193.146879
11
405.944737
21
196.297376
0
LINE
8
boundary
62
5
39
2
10
405.944737
20
196.297376
11
403.943917
21
197.899209
0
LINE
8
boundary
62
5
39
2
10
403.943917
20
197.899209
11
401.829710
21
199.367901
0
LINE
8
boundary
62
5
39
2
10
401.829710
20
199.367901
11
398.936441
21
201.377787
0
LINE
8
boundary
62
5
39
2
10
398.936441
20
201.377787
11
397.833447
21
202.114202
0
LINE
8
boundary
62
5
39
2
10
397.833447
20
202.114202
11
397.066586
21
202.626197
0
LINE
8
boundary
62
5
39
2
10
397.066586
20
202.626197
11
393.759207
21
204.532579
0
LINE
8
boundary
62
5
39
2
10
393.759207
20
204.532579
11
390.440009
21
206.445779
0
LINE
8
boundary
62
5
39
2
10
390.440009
20
206.445779
11
389.996342
21
206.689884
0
LINE
8
boundary
62
5
39
2
10
389.996342
20
206.689884
11
389.578795
21
206.919619
0
LINE
8
boundary
62
5
39
2
10
389.578795
20
206.919619
11
386.128657
21
208.544448
0
LINE
8
boundary
62
5
39
2
10
386.128657
20
208.544448
11
383.591120
21
209.739494
0
LINE
8
boundary
62
5
39
2
10
383.591120
20
209.739494
11
382.585569
21
210.188142
0
LINE
8
boundary
62
5
39
2
10
382.585569
20
210.188142
11
381.307081
21
210.758568
0
LINE
8
boundary
62
5
39
2
10
381.307081
20
210.758568
11
379.086573
21
211.595512
0
LINE
8
boundary
62
5
39
2
10
379.086573
20
211.595512
11
377.901300
21
212.042257
0
LINE
8
boundary
62
5
39
2
10
377.901300
20
212.042257
11
375.745644
21
212.805592
0
LINE
8
boundary
62
5
39
2
10
375.745644
20
212.805592
11
373.054774
21
213.758453
0
LINE
8
boundary
62
5
39
2
10
373.054774
20
213.758453
11
372.684687
21
213.880410
0
LINE
8
boundary
62
5
39
2
10
372.684687
20
213.880410
11
371.944507
21
214.124327
0
LINE
8
boundary
62
5
39
2
10
371.944507
20
214.124327
11
369.610496
21
214.761466
0
LINE
8
boundary
62
5
39
2
10
369.610496
20
214.761466
11
368.837963
21
214.972351
0
LINE
8
boundary
62
5
39
2
10
368.837963
20
214.972351
11
366.691261
21
215.511738
0
LINE
8
boundary
62
5
39
2
10
366.691261
20
215.511738
11
365.100701
21
215.911393
0
LINE
8
boundary
62
5
39
2
10
365.100701
20
215.911393
11
363.968312
21
216.169918
0
LINE
8
boundary
62
5
39
2
10
363.968312
20
216.169918
11
361.733874
21
216.680036
0
LINE
8
boundary
62
5
39
2
10
361.733874
20
216.680036
11
361.404846
21
216.747222
0
LINE
8
boundary
62
5
39
2
10
361.404846
20
216.747222
11
360.164404
21
217.000513
0
LINE
8
boundary
62
5
39
2
10
360.164404
20
217.000513
11
358.872973
21
217.212585
0
LINE
8
boundary
62
5
39
2
10
358.872973
20
217.212585
11
358.655822
21
217.248245
0
LINE
8
boundary
62
5
39
2
10
358.655822
20
217.248245
11
356.373656
21
217.576908
0
LINE
8
boundary
62
5
39
2
10
356.373656
20
217.576908
11
355.803703
21
217.658987
0
LINE
8
boundary
62
5
39
2
10
355.803703
20
217.658987
11
353.976485
21
217.883901
0
LINE
8
boundary
62
5
39
2
10
353.976485
20
217.883901
11
353.127840
21
217.988366
0
LINE
8
boundary
62
5
39
2
10
353.127840
20
217.988366
11
351.655432
21
218.137906
0
LINE
8
boundary
62
5
39
2
10
351.655432
20
218.137906
11
350.587865
21
218.246324
0
LINE
8
boundary
62
5
39
2
10
350.587865
20
218.246324
11
349.386771
21
218.341834
0
LINE
8
boundary
62
5
39
2
10
349.386771
20
218.341834
11
348.150020
21
218.440183
0
LINE
8
boundary
62
5
39
2
10
348.150020
20
218.440183
11
347.148091
21
218.497376
0
LINE
8
boundary
62
5
39
2
10
347.148091
20
218.497376
11
345.785203
21
218.575176
0
LINE
8
boundary
62
5
39
2
10
345.785203
20
218.575176
11
344.917402
21
218.604998
0
LINE
8
boundary
62
5
39
2
10
344.917402
20
218.604998
11
343.467451
21
218.654825
0
LINE
8
boundary
62
5
39
2
10
343.467451
20
218.654825
11
342.672246
21
218.663952
0
LINE
8
boundary
62
5
39
2
10
342.672246
20
218.663952
11
341.172764
21
218.681160
0
LINE
8
boundary
62
5
39
2
10
341.172764
20
218.681160
11
340.388724
21
218.672162
0
LINE
8
boundary
62
5
39
2
10
340.388724
20
218.672162
11
338.878077
21
218.654825
0
LINE
8
boundary
62
5
39
2
10
338.878077
20
218.654825
11
338.040359
21
218.626037
0
LINE
8
boundary
62
5
39
2
10
338.040359
20
218.626037
11
336.560325
21
218.575175
0
LINE
8
boundary
62
5
39
2
10
336.560325
20
218.575175
11
335.596687
21
218.520168
0
LINE
8
boundary
62
5
39
2
10
335.596687
20
218.520168
11
334.195507
21
218.440183
0
LINE
8
boundary
62
5
39
2
10
334.195507
20
218.440183
11
333.021316
21
218.346812
0
LINE
8
boundary
62
5
39
2
10
333.021316
20
218.346812
11
331.757663
21
218.246324
0
LINE
8
boundary
62
5
39
2
10
331.757663
20
218.246324
11
330.269278
21
218.095163
0
LINE
8
boundary
62
5
39
2
10
330.269278
20
218.095163
11
329.217688
21
217.988366
0
LINE
8
boundary
62
5
39
2
10
329.217688
20
217.988366
11
327.283182
21
217.750245
0
LINE
8
boundary
62
5
39
2
10
327.283182
20
217.750245
11
326.541825
21
217.658987
0
LINE
8
boundary
62
5
39
2
10
326.541825
20
217.658987
11
323.987241
21
217.291093
0
LINE
8
boundary
62
5
39
2
10
323.987241
20
217.291093
11
323.689705
21
217.248245
0
LINE
8
boundary
62
5
39
2
10
323.689705
20
217.248245
11
322.181123
21
217.000514
0
LINE
8
boundary
62
5
39
2
10
322.181123
20
217.000514
11
320.611654
21
216.680036
0
LINE
8
boundary
62
5
39
2
10
320.611654
20
216.680036
11
320.019838
21
216.544924
0
LINE
8
boundary
62
5
39
2
10
320.019838
20
216.544924
11
317.244826
21
215.911393
0
LINE
8
boundary
62
5
39
2
10
317.244826
20
215.911393
11
314.986322
21
215.343913
0
LINE
8
boundary
62
5
39
2
10
314.986322
20
215.343913
11
313.507564
21
214.972351
0
LINE
8
boundary
62
5
39
2
10
313.507564
20
214.972351
11
310.401021
21
214.124326
0
LINE
8
boundary
62
5
39
2
10
310.401021
20
214.124326
11
309.290753
21
213.758453
0
LINE
8
boundary
62
5
39
2
10
309.290753
20
213.758453
11
308.091035
21
213.333623
0
LINE
8
boundary
62
5
39
2
10
308.091035
20
213.333623
11
304.444228
21
212.042257
0
LINE
8
boundary
62
5
39
2
10
304.444228
20
212.042257
11
301.038447
21
210.758568
0
LINE
8
boundary
62
5
39
2
10
301.038447
20
210.758568
11
298.754408
21
209.739494
0
LINE
8
boundary
62
5
39
2
10
298.754408
20
209.739494
11
296.332972
21
208.599127
0
LINE
8
boundary
62
5
39
2
10
296.332972
20
208.599127
11
295.233998
21
204.702605
0
LINE
8
boundary
62
5
39
2
10
295.233998
20
204.702605
11
298.957322
21
198.253621
0
LINE
8
boundary
62
5
39
2
10
298.957322
20
198.253621
11
299.208160
21
197.514674
0
LINE
8
boundary
62
5
39
2
10
299.208160
20
197.514674
11
299.157122
21
196.735983
0
LINE
8
boundary
62
5
39
2
10
299.157122
20
196.735983
11
298.811977
21
196.036099
0
LINE
8
boundary
62
5
39
2
10
298.811977
20
196.036099
11
298.225271
21
195.521570
0
LINE
8
boundary
62
5
39
2
10
298.225271
20
195.521570
11
297.486323
21
195.270731
0
LINE
8
boundary
62
5
39
2
10
297.486323
20
195.270731
11
296.707632
21
195.321769
0
LINE
8
boundary
62
5
39
2
10
296.707632
20
195.321769
11
296.007748
21
195.666914
0
LINE
8
boundary
62
5
39
2
10
296.007748
20
195.666914
11
295.493220
21
196.253621
0
LINE
8
boundary
62
5
39
2
10
295.493220
20
196.253621
11
292.462131
21
194.503621
0
LINE
8
boundary
62
5
39
2
10
292.462131
20
194.503621
11
292.712970
21
193.764674
0
LINE
8
boundary
62
5
39
2
10
292.712970
20
193.764674
11
292.661932
21
192.985983
0
LINE
8
boundary
62
5
39
2
10
292.661932
20
192.985983
11
292.316787
21
192.286098
0
LINE
8
boundary
62
5
39
2
10
292.316787
20
192.286098
11
291.730080
21
191.771570
0
LINE
8
boundary
62
5
39
2
10
291.730080
20
191.771570
11
290.991132
21
191.520732
0
LINE
8
boundary
62
5
39
2
10
290.991132
20
191.520732
11
290.212442
21
191.571770
0
LINE
8
boundary
62
5
39
2
10
290.212442
20
191.571770
11
289.512557
21
191.916914
0
LINE
8
boundary
62
5
39
2
10
289.512557
20
191.916914
11
288.998029
21
192.503621
0
LINE
8
boundary
62
5
39
2
10
288.998029
20
192.503621
11
285.275214
21
198.951727
0
LINE
8
boundary
62
5
39
2
10
285.275214
20
198.951727
11
281.351240
21
199.948249
0
LINE
8
boundary
62
5
39
2
10
281.351240
20
199.948249
11
278.401610
21
197.899208
0
LINE
8
boundary
62
5
39
2
10
278.401610
20
197.899208
11
272.465557
21
193.146879
0
LINE
8
boundary
62
5
39
2
10
272.465557
20
193.146879
11
272.000230
21
192.761707
0
LINE
8
boundary
62
5
39
2
10
272.000230
20
192.761707
11
271.649651
21
192.427968
0
LINE
8
boundary
62
5
39
2
10
271.649651
20
192.427968
11
266.198555
21
187.238698
0
LINE
8
boundary
62
5
39
2
10
266.198555
20
187.238698
11
262.439078
21
183.119859
0
LINE
8
boundary
62
5
39
2
10
262.439078
20
183.119859
11
260.830107
21
181.357092
0
LINE
8
boundary
62
5
39
2
10
260.830107
20
181.357092
11
257.667826
21
177.355805
0
LINE
8
boundary
62
5
39
2
10
257.667826
20
177.355805
11
255.968316
21
175.145546
0
LINE
8
boundary
62
5
39
2
10
255.968316
20
175.145546
11
255.454625
21
174.368777
0
LINE
8
boundary
62
5
39
2
10
255.454625
20
174.368777
11
251.662334
21
168.634328
0
LINE
8
boundary
62
5
39
2
10
251.662334
20
168.634328
11
250.178476
21
165.997400
0
LINE
8
boundary
62
5
39
2
10
250.178476
20
165.997400
11
247.847543
21
161.855151
0
LINE
8
boundary
62
5
39
2
10
247.847543
20
161.855151
11
245.887294
21
157.695000
0
LINE
8
boundary
62
5
39
2
10
245.887294
20
157.695000
11
244.542522
21
154.841054
0
LINE
8
boundary
62
5
39
2
10
244.542522
20
154.841054
11
242.469300
21
149.458847
0
LINE
8
boundary
62
5
39
2
10
242.469300
20
149.458847
11
241.763364
21
147.626199
0
LINE
8
boundary
62
5
39
2
10
241.763364
20
147.626199
11
239.842625
21
141.296961
0
LINE
8
boundary
62
5
39
2
10
239.842625
20
141.296961
11
239.523610
21
140.245739
0
LINE
8
boundary
62
5
39
2
10
239.523610
20
140.245739
11
237.944116
21
133.224378
0
LINE
8
boundary
62
5
39
2
10
237.944116
20
133.224378
11
237.834169
21
132.735627
0
LINE
8
boundary
62
5
39
2
10
237.834169
20
132.735627
11
236.722367
21
125.260680
0
LINE
8
boundary
62
5
39
2
10
236.722367
20
125.260680
11
236.703296
21
125.132461
0
LINE
8
boundary
62
5
39
2
10
236.703296
20
125.132461
11
236.286360
21
119.498612
0
LINE
8
boundary
62
5
39
2
10
236.286360
20
119.498612
11
236.139713
21
117.473275
0
LINE
8
boundary
62
5
39
2
10
236.139713
20
117.473275
11
236.139713
21
117.430361
0
LINE
8
boundary
62
5
39
2
10
236.139713
20
117.430361
11
236.139713
21
109.795385
0
LINE
8
boundary
62
5
39
2
10
236.139713
20
109.795385
11
236.142764
21
109.753262
0
LINE
8
boundary
62
5
39
2
10
236.142764
20
109.753262
11
236.286360
21
107.770048
0
LINE
8
boundary
62
5
39
2
10
236.286360
20
107.770048
11
236.694479
21
102.255337
0
LINE
8
boundary
62
5
39
2
10
236.694479
20
102.255337
11
236.703296
21
102.136199
0
LINE
8
boundary
62
5
39
2
10
236.703296
20
102.136199
11
237.769911
21
94.965057
0
LINE
8
boundary
62
5
39
2
10
237.769911
20
94.965057
11
237.834169
21
94.533033
0
LINE
8
boundary
62
5
39
2
10
237.834169
20
94.533033
11
239.325048
21
87.905603
0
LINE
8
boundary
62
5
39
2
10
239.325048
20
87.905603
11
239.523610
21
87.022921
0
LINE
8
boundary
62
5
39
2
10
239.523610
20
87.022921
11
241.320713
21
81.101091
0
LINE
8
boundary
62
5
39
2
10
241.320713
20
81.101091
11
241.763364
21
79.642461
0
LINE
8
boundary
62
5
39
2
10
241.763364
20
79.642461
11
243.715585
21
74.574380
0
LINE
8
boundary
62
5
39
2
10
243.715585
20
74.574380
11
244.542522
21
72.427606
0
LINE
8
boundary
62
5
39
2
10
244.542522
20
72.427606
11
246.465446
21
68.346669
0
LINE
8
boundary
62
5
39
2
10
246.465446
20
68.346669
11
247.847543
21
65.413509
0
LINE
8
boundary
62
5
39
2
10
247.847543
20
65.413509
11
249.522448
21
62.437078
0
LINE
8
boundary
62
5
39
2
10
249.522448
20
62.437078
11
251.662334
21
58.634332
0
LINE
8
boundary
62
5
39
2
10
251.662334
20
58.634332
11
252.834262
21
56.862219
0
LINE
8
boundary
62
5
39
2
10
252.834262
20
56.862219
11
255.968316
21
52.123114
0
LINE
8
boundary
62
5
39
2
10
255.968316
20
52.123114
11
256.343124
21
51.635666
0
LINE
8
boundary
62
5
39
2
10
256.343124
20
51.635666
11
257.667826
21
49.912856
0
LINE
8
boundary
62
5
39
2
10
257.667826
20
49.912856
11
260.145290
21
46.778080
0
LINE
8
boundary
62
5
39
2
10
260.145290
20
46.778080
11
260.830107
21
45.911568
0
LINE
8
boundary
62
5
39
2
10
260.830107
20
45.911568
11
264.140205
21
42.285060
0
LINE
8
boundary
62
5
39
2
10
264.140205
20
42.285060
11
266.198555
21
40.029962
0
LINE
8
boundary
62
5
39
2
10
266.198555
20
40.029962
11
268.172115
21
38.151201
0
LINE
8
boundary
62
5
39
2
10
268.172115
20
38.151201
11
272.000230
21
34.506953
0
LINE
8
annotation
62
1
39
211
10
427.346676
20
110.050164
11
427.346676
21
117.218496
0
LINE
8
annotation
62
1
39
211
10
427.346676
20
117.218496
11
425.753064
21
115.624434
0
LINE
8
annotation
62
1
39
211
10
296.147537
20
188.848214
11
297.592672
21
186.345168
0
LINE
8
annotation
62
1
39
211
10
297.592672
20
186.345168
11
292.533853
21
186.508320
0
LINE
8
annotation
62
1
39
211
10
292.533853
20
186.508320
11
292.533853
21
186.508320
0
LINE
8
annotation
62
1
39
211
10
292.533853
20
186.508320
11
292.528836
21
186.509110
0
LINE
8
annotation
62
1
39
211
10
292.528836
20
186.509110
11
292.523854
21
186.509769
0
LINE
8
annotation
62
1
39
211
10
292.523854
20
186.509769
11
292.518870
21
186.510299
0
LINE
8
annotation
62
1
39
211
10
292.518870
20
186.510299
11
292.513844
21
186.510700
0
LINE
8
annotation
62
1
39
211
10
292.513844
20
186.510700
11
292.508737
21
186.510972
0
LINE
8
annotation
62
1
39
211
10
292.508737
20
186.510972
11
292.503510
21
186.511117
0
LINE
8
annotation
62
1
39
211
10
292.503510
20
186.511117
11
292.498123
21
186.511135
0
LINE
8
annotation
62
1
39
211
10
292.498123
20
186.511135
11
292.492537
21
186.511027
0
LINE
8
annotation
62
1
39
211
10
292.492537
20
186.511027
11
292.486714
21
186.510793
0
LINE
8
annotation
62
1
39
211
10
292.486714
20
186.510793
11
292.486714
21
186.510793
0
LINE
8
annotation
62
1
39
211
10
292.486714
20
186.510793
11
292.226534
21
186.487910
0
LINE
8
annotation
62
1
39
211
10
292.226534
20
186.487910
11
291.981777
21
186.420985
0
LINE
8
annotation
62
1
39
211
10
291.981777
20
186.420985
11
291.756459
21
186.314158
0
LINE
8
annotation
62
1
39
211
10
291.756459
20
186.314158
11
291.554592
21
186.171570
0
LINE
8
annotation
62
1
39
211
10
291.554592
20
186.171570
11
291.380189
21
185.997361
0
LINE
8
annotation
62
1
39
211
10
291.380189
20
185.997361
11
291.237263
21
185.795671
0
LINE
8
annotation
62
1
39
211
10
291.237263
20
185.795671
11
291.129829
21
185.570639
0
LINE
8
annotation
62
1
39
211
10
291.129829
20
185.570639
11
291.061900
21
185.326406
0
LINE
8
annotation
62
1
39
211
10
291.061900
20
185.326406
11
291.037488
21
185.067111
0
LINE
8
annotation
62
1
39
211
10
291.037488
20
185.067111
11
291.037488
21
185.067111
0
LINE
8
annotation
62
1
39
211
10
291.037488
20
185.067111
11
291.062057
21
184.807144
0
LINE
8
annotation
62
1
39
211
10
291.062057
20
184.807144
11
291.130030
21
184.562558
0
LINE
8
annotation
62
1
39
211
10
291.130030
20
184.562558
11
291.237422
21
184.337399
0
LINE
8
annotation
62
1
39
211
10
291.237422
20
184.337399
11
291.380248
21
184.135712
0
LINE
8
annotation
62
1
39
211
10
291.380248
20
184.135712
11
291.554526
21
183.961543
0
LINE
8
annotation
62
1
39
211
10
291.554526
20
183.961543
11
291.756272
21
183.818937
0
LINE
8
annotation
62
1
39
211
10
291.756272
20
183.818937
11
291.981500
21
183.711938
0
LINE
8
annotation
62
1
39
211
10
291.981500
20
183.711938
11
292.226228
21
183.644592
0
LINE
8
annotation
62
1
39
211
10
292.226228
20
183.644592
11
292.486471
21
183.620945
0
LINE
8
annotation
62
1
39
211
10
292.486471
20
183.620945
11
292.896624
21
183.638616
0
LINE
8
annotation
62
1
39
211
10
299.990797
20
39.523214
11
299.269257
21
38.273469
0
LINE
8
annotation
62
1
39
211
10
299.269257
20
38.273469
11
299.269257
21
38.273469
0
LINE
8
annotation
62
1
39
211
10
299.269257
20
38.273469
11
299.159650
21
38.037058
0
LINE
8
annotation
62
1
39
211
10
299.159650
20
38.037058
11
299.095652
21
37.792007
0
LINE
8
annotation
62
1
39
211
10
299.095652
20
37.792007
11
299.075727
21
37.543893
0
LINE
8
annotation
62
1
39
211
10
299.075727
20
37.543893
11
299.098340
21
37.298292
0
LINE
8
annotation
62
1
39
211
10
299.098340
20
37.298292
11
299.161954
21
37.060783
0
LINE
8
annotation
62
1
39
211
10
299.161954
20
37.060783
11
299.265032
21
36.836942
0
LINE
8
annotation
62
1
39
211
10
299.265032
20
36.836942
11
299.406040
21
36.632347
0
LINE
8
annotation
62
1
39
211
10
299.406040
20
36.632347
11
299.583440
21
36.452575
0
LINE
8
annotation
62
1
39
211
10
299.583440
20
36.452575
11
299.795697
21
36.303203
0
LINE
8
annotation
62
1
39
211
10
299.795697
20
36.303203
11
300.421451
21
35.941924
0
LINE
8
annotation
62
1
39
211
10
300.421451
20
35.941924
11
300.421451
21
35.941924
0
LINE
8
annotation
62
1
39
211
10
300.421451
20
35.941924
11
300.656846
21
35.832844
0
LINE
8
annotation
62
1
39
211
10
300.656846
20
35.832844
11
300.901184
21
35.769125
0
LINE
8
annotation
62
1
39
211
10
300.901184
20
35.769125
11
301.148858
21
35.749315
0
LINE
8
annotation
62
1
39
211
10
301.148858
20
35.749315
11
301.394261
21
35.771960
0
LINE
8
annotation
62
1
39
211
10
301.394261
20
35.771960
11
301.631786
21
35.835607
0
LINE
8
annotation
62
1
39
211
10
301.631786
20
35.835607
11
301.855826
21
35.938802
0
LINE
8
annotation
62
1
39
211
10
301.855826
20
35.938802
11
302.060775
21
36.080092
0
LINE
8
annotation
62
1
39
211
10
302.060775
20
36.080092
11
302.241025
21
36.258025
0
LINE
8
annotation
62
1
39
211
10
302.241025
20
36.258025
11
302.390971
21
36.471147
0
LINE
8
annotation
62
1
39
211
10
302.390971
20
36.471147
11
302.752251
21
37.096901
0
LINE
8
annotation
62
1
39
211
10
302.752251
20
37.096901
11
302.390971
21
36.471147
0
LINE
8
annotation
62
1
39
211
10
302.390971
20
36.471147
11
302.390971
21
36.471147
0
LINE
8
annotation
62
1
39
211
10
302.390971
20
36.471147
11
302.281380
21
36.234726
0
LINE
8
annotation
62
1
39
211
10
302.281380
20
36.234726
11
302.217445
21
35.989639
0
LINE
8
annotation
62
1
39
211
10
302.217445
20
35.989639
11
302.197650
21
35.741449
0
LINE
8
annotation
62
1
39
211
10
302.197650
20
35.741449
11
302.220480
21
35.495724
0
LINE
8
annotation
62
1
39
211
10
302.220480
20
35.495724
11
302.284418
21
35.258027
0
LINE
8
annotation
62
1
39
211
10
302.284418
20
35.258027
11
302.387949
21
35.033926
0
LINE
8
annotation
62
1
39
211
10
302.387949
20
35.033926
11
302.529557
21
34.828984
0
LINE
8
annotation
62
1
39
211
10
302.529557
20
34.828984
11
302.707726
21
34.648768
0
LINE
8
annotation
62
1
39
211
10
302.707726
20
34.648768
11
302.920940
21
34.498843
0
LINE
8
annotation
62
1
39
211
10
302.920940
20
34.498843
11
302.920940
21
34.498843
0
LINE
8
annotation
62
1
39
211
10
302.920940
20
34.498843
11
303.156335
21
34.389763
0
LINE
8
annotation
62
1
39
211
10
303.156335
20
34.389763
11
303.400673
21
34.326045
0
LINE
8
annotation
62
1
39
211
10
303.400673
20
34.326045
11
303.648347
21
34.306235
0
LINE
8
annotation
62
1
39
211
10
303.648347
20
34.306235
11
303.893750
21
34.328879
0
LINE
8
annotation
62
1
39
211
10
303.893750
20
34.328879
11
304.131274
21
34.392526
0
LINE
8
annotation
62
1
39
211
10
304.131274
20
34.392526
11
304.355315
21
34.495721
0
LINE
8
annotation
62
1
39
211
10
304.355315
20
34.495721
11
304.560264
21
34.637012
0
LINE
8
annotation
62
1
39
211
10
304.560264
20
34.637012
11
304.740514
21
34.814945
0
LINE
8
annotation
62
1
39
211
10
304.740514
20
34.814945
11
304.890460
21
35.028066
0
LINE
8
annotation
62
1
39
211
10
304.890460
20
35.028066
11
305.612000
21
36.277810
0
LINE
8
annotation
62
1
39
211
10
333.404539
20
205.060476
11
329.204565
21
205.060476
0
LINE
8
annotation
62
1
39
211
10
329.204565
20
205.060476
11
333.404539
21
212.624604
0
LINE
8
annotation
62
1
39
211
10
333.404539
20
212.624604
11
329.204565
21
212.624604
0
LINE
8
annotation
62
1
39
211
10
340.377735
20
208.842540
11
336.241799
21
208.842540
0
LINE
8
annotation
62
1
39
211
10
343.213571
20
205.060476
11
344.893276
21
205.060476
0
LINE
8
annotation
62
1
39
211
10
344.893276
20
205.060476
11
344.893276
21
205.060476
0
LINE
8
annotation
62
1
39
211
10
344.893276
20
205.060476
11
345.194751
21
205.087582
0
LINE
8
annotation
62
1
39
211
10
345.194751
20
205.087582
11
345.478684
21
205.165727
0
LINE
8
annotation
62
1
39
211
10
345.478684
20
205.165727
11
345.740288
21
205.290153
0
LINE
8
annotation
62
1
39
211
10
345.740288
20
205.290153
11
345.974778
21
205.456100
0
LINE
8
annotation
62
1
39
211
10
345.974778
20
205.456100
11
346.177367
21
205.658809
0
LINE
8
annotation
62
1
39
211
10
346.177367
20
205.658809
11
346.343269
21
205.893520
0
LINE
8
annotation
62
1
39
211
10
346.343269
20
205.893520
11
346.467696
21
206.155475
0
LINE
8
annotation
62
1
39
211
10
346.467696
20
206.155475
11
346.545862
21
206.439914
0
LINE
8
annotation
62
1
39
211
10
346.545862
20
206.439914
11
346.572982
21
206.742078
0
LINE
8
annotation
62
1
39
211
10
346.572982
20
206.742078
11
346.572982
21
207.578847
0
LINE
8
annotation
62
1
39
211
10
346.572982
20
207.578847
11
346.572982
21
207.578847
0
LINE
8
annotation
62
1
39
211
10
346.572982
20
207.578847
11
346.545878
21
207.880865
0
LINE
8
annotation
62
1
39
211
10
346.545878
20
207.880865
11
346.467751
21
208.164912
0
LINE
8
annotation
62
1
39
211
10
346.467751
20
208.164912
11
346.343374
21
208.426298
0
LINE
8
annotation
62
1
39
211
10
346.343374
20
208.426298
11
346.177524
21
208.660336
0
LINE
8
annotation
62
1
39
211
10
346.177524
20
208.660336
11
345.974974
21
208.862336
0
LINE
8
annotation
62
1
39
211
10
345.974974
20
208.862336
11
345.740499
21
209.027610
0
LINE
8
annotation
62
1
39
211
10
345.740499
20
209.027610
11
345.478875
21
209.151468
0
LINE
8
annotation
62
1
39
211
10
345.478875
20
209.151468
11
345.194876
21
209.229221
0
LINE
8
annotation
62
1
39
211
10
345.194876
20
209.229221
11
344.893276
21
209.256181
0
LINE
8
annotation
62
1
39
211
10
344.893276
20
209.256181
11
343.213571
21
209.256181
0
LINE
8
annotation
62
1
39
211
10
343.213571
20
209.256181
11
343.213571
21
212.624604
0
LINE
8
annotation
62
1
39
211
10
343.213571
20
212.624604
11
346.572982
21
212.624604
0
LINE
8
hole
62
5
39
2
10
480.273698
20
42.408447
11
478.860812
21
45.273500
0
LINE
8
hole
62
5
39
2
10
478.860812
20
45.273500
11
478.546406
21
45.911052
0
LINE
8
hole
62
5
39
2
10
478.546406
20
45.911052
11
477.519570
21
48.936014
0
LINE
8
hole
62
5
39
2
10
477.519570
20
48.936014
11
477.291071
21
49.609151
0
LINE
8
hole
62
5
39
2
10
477.291071
20
49.609151
11
476.667857
21
52.742261
0
LINE
8
hole
62
5
39
2
10
476.667857
20
52.742261
11
476.529174
21
53.439464
0
LINE
8
hole
62
5
39
2
10
476.529174
20
53.439464
11
476.320244
21
56.627117
0
LINE
8
hole
62
5
39
2
10
476.320244
20
56.627117
11
476.273752
21
57.336457
0
LINE
8
hole
62
5
39
2
10
476.273752
20
57.336457
11
476.482682
21
60.524110
0
LINE
8
hole
62
5
39
2
10
476.482682
20
60.524110
11
476.529174
21
61.233450
0
LINE
8
hole
62
5
39
2
10
476.529174
20
61.233450
11
477.152389
21
64.366561
0
LINE
8
hole
62
5
39
2
10
477.152389
20
64.366561
11
477.291071
21
65.063763
0
LINE
8
hole
62
5
39
2
10
477.291071
20
65.063763
11
478.317907
21
68.088726
0
LINE
8
hole
62
5
39
2
10
478.317907
20
68.088726
11
478.546406
21
68.761862
0
LINE
8
hole
62
5
39
2
10
478.546406
20
68.761862
11
479.959292
21
71.626914
0
LINE
8
hole
62
5
39
2
10
479.959292
20
71.626914
11
480.273698
21
72.264467
0
LINE
8
hole
62
5
39
2
10
480.273698
20
72.264467
11
482.048462
21
74.920590
0
LINE
8
hole
62
5
39
2
10
482.048462
20
74.920590
11
482.443396
21
75.511650
0
LINE
8
hole
62
5
39
2
10
482.443396
20
75.511650
11
484.549674
21
77.913396
0
LINE
8
hole
62
5
39
2
10
484.549674
20
77.913396
11
485.018377
21
78.447851
0
LINE
8
hole
62
5
39
2
10
485.018377
20
78.447851
11
487.420124
21
80.554129
0
LINE
8
hole
62
5
39
2
10
487.420124
20
80.554129
11
487.954579
21
81.022832
0
LINE
8
hole
62
5
39
2
10
487.954579
20
81.022832
11
490.610702
21
82.797597
0
LINE
8
hole
62
5
39
2
10
490.610702
20
82.797597
11
491.201762
21
83.192531
0
LINE
8
hole
62
5
39
2
10
491.201762
20
83.192531
11
494.066814
21
84.605417
0
LINE
8
hole
62
5
39
2
10
494.066814
20
84.605417
11
494.704367
21
84.919822
0
LINE
8
hole
62
5
39
2
10
494.704367
20
84.919822
11
497.729329
21
85.946658
0
LINE
8
hole
62
5
39
2
10
497.729329
20
85.946658
11
498.402465
21
86.175157
0
LINE
8
hole
62
5
39
2
10
498.402465
20
86.175157
11
501.535576
21
86.798372
0
LINE
8
hole
62
5
39
2
10
501.535576
20
86.798372
11
502.232778
21
86.937054
0
LINE
8
hole
62
5
39
2
10
502.232778
20
86.937054
11
505.420432
21
87.145984
0
LINE
8
hole
62
5
39
2
10
505.420432
20
87.145984
11
506.129771
21
87.192476
0
LINE
8
hole
62
5
39
2
10
506.129771
20
87.192476
11
509.317425
21
86.983547
0
LINE
8
hole
62
5
39
2
10
509.317425
20
86.983547
11
510.026764
21
86.937054
0
LINE
8
hole
62
5
39
2
10
510.026764
20
86.937054
11
513.159875
21
86.313840
0
LINE
8
hole
62
5
39
2
10
513.159875
20
86.313840
11
513.857078
21
86.175157
0
LINE
8
hole
62
5
39
2
10
513.857078
20
86.175157
11
516.882040
21
85.148321
0
LINE
8
hole
62
5
39
2
10
516.882040
20
85.148321
11
517.555176
21
84.919822
0
LINE
8
hole
62
5
39
2
10
517.555176
20
84.919822
11
520.420229
21
83.506936
0
LINE
8
hole
62
5
39
2
10
520.420229
20
83.506936
11
521.057781
21
83.192531
0
LINE
8
hole
62
5
39
2
10
521.057781
20
83.192531
11
523.713904
21
81.417766
0
LINE
8
hole
62
5
39
2
10
523.713904
20
81.417766
11
524.304964
21
81.022833
0
LINE
8
hole
62
5
39
2
10
524.304964
20
81.022833
11
526.706711
21
78.916554
0
LINE
8
hole
62
5
39
2
10
526.706711
20
78.916554
11
527.241165
21
78.447851
0
LINE
8
hole
62
5
39
2
10
527.241165
20
78.447851
11
529.347443
21
76.046104
0
LINE
8
hole
62
5
39
2
10
529.347443
20
76.046104
11
529.816147
21
75.511650
0
LINE
8
hole
62
5
39
2
10
529.816147
20
75.511650
11
531.590912
21
72.855527
0
LINE
8
hole
62
5
39
2
10
531.590912
20
72.855527
11
531.985845
21
72.264467
0
LINE
8
hole
62
5
39
2
10
531.985845
20
72.264467
11
533.398731
21
69.399414
0
LINE
8
hole
62
5
39
2
10
533.398731
20
69.399414
11
533.713136
21
68.761862
0
LINE
8
hole
62
5
39
2
10
533.713136
20
68.761862
11
534.739973
21
65.736900
0
LINE
8
hole
62
5
39
2
10
534.739973
20
65.736900
11
534.968472
21
65.063763
0
LINE
8
hole
62
5
39
2
10
534.968472
20
65.063763
11
535.591686
21
61.930653
0
LINE
8
hole
62
5
39
2
10
535.591686
20
61.930653
11
535.730368
21
61.233450
0
LINE
8
hole
62
5
39
2
10
535.730368
20
61.233450
11
535.939298
21
58.045797
0
LINE
8
hole
62
5
39
2
10
535.939298
20
58.045797
11
535.985790
21
57.336457
0
LINE
8
hole
62
5
39
2
10
535.985790
20
57.336457
11
535.776861
21
54.148804
0
LINE
8
hole
62
5
39
2
10
535.776861
20
54.148804
11
535.730369
21
53.439464
0
LINE
8
hole
62
5
39
2
10
535.730369
20
53.439464
11
535.107154
21
50.306353
0
LINE
8
hole
62
5
39
2
10
535.107154
20
50.306353
11
534.968472
21
49.609151
0
LINE
8
hole
62
5
39
2
10
534.968472
20
49.609151
11
533.941636
21
46.584189
0
LINE
8
hole
62
5
39
2
10
533.941636
20
46.584189
11
533.713136
21
45.911052
0
LINE
8
hole
62
5
39
2
10
533.713136
20
45.911052
11
532.300251
21
43.046000
0
LINE
8
hole
62
5
39
2
10
532.300251
20
43.046000
11
531.985845
21
42.408447
0
LINE
8
hole
62
5
39
2
10
531.985845
20
42.408447
11
530.211081
21
39.752324
0
LINE
8
hole
62
5
39
2
10
530.211081
20
39.752324
11
529.816147
21
39.161264
0
LINE
8
hole
62
5
39
2
10
529.816147
20
39.161264
11
527.709869
21
36.759517
0
LINE
8
hole
62
5
39
2
10
527.709869
20
36.759517
11
527.241165
21
36.225063
0
LINE
8
hole
62
5
39
2
10
527.241165
20
36.225063
11
524.839418
21
34.118785
0
LINE
8
hole
62
5
39
2
10
524.839418
20
34.118785
11
524.304964
21
33.650081
0
LINE
8
hole
62
5
39
2
10
524.304964
20
33.650081
11
521.648841
21
31.875317
0
LINE
8
hole
62
5
39
2
10
521.648841
20
31.875317
11
521.057781
21
31.480383
0
LINE
8
hole
62
5
39
2
10
521.057781
20
31.480383
11
518.192728
21
30.067497
0
LINE
8
hole
62
5
39
2
10
518.192728
20
30.067497
11
517.555176
21
29.753092
0
LINE
8
hole
62
5
39
2
10
517.555176
20
29.753092
11
514.530214
21
28.726256
0
LINE
8
hole
62
5
39
2
10
514.530214
20
28.726256
11
513.857078
21
28.497757
0
LINE
8
hole
62
5
39
2
10
513.857078
20
28.497757
11
510.723967
21
27.874542
0
LINE
8
hole
62
5
39
2
10
510.723967
20
27.874542
11
510.026764
21
27.735860
0
LINE
8
hole
62
5
39
2
10
510.026764
20
27.735860
11
506.839111
21
27.526930
0
LINE
8
hole
62
5
39
2
10
506.839111
20
27.526930
11
506.129771
21
27.480438
0
LINE
8
hole
62
5
39
2
10
506.129771
20
27.480438
11
502.942118
21
27.689367
0
LINE
8
hole
62
5
39
2
10
502.942118
20
27.689367
11
502.232778
21
27.735860
0
LINE
8
hole
62
5
39
2
10
502.232778
20
27.735860
11
499.099668
21
28.359074
0
LINE
8
hole
62
5
39
2
10
499.099668
20
28.359074
11
498.402465
21
28.497757
0
LINE
8
hole
62
5
39
2
10
498.402465
20
28.497757
11
495.377503
21
29.524593
0
LINE
8
hole
62
5
39
2
10
495.377503
20
29.524593
11
494.704367
21
29.753092
0
LINE
8
hole
62
5
39
2
10
494.704367
20
29.753092
11
491.839314
21
31.165978
0
LINE
8
hole
62
5
39
2
10
491.839314
20
31.165978
11
491.201762
21
31.480383
0
LINE
8
hole
62
5
39
2
10
491.201762
20
31.480383
11
488.545639
21
33.255148
0
LINE
8
hole
62
5
39
2
10
488.545639
20
33.255148
11
487.954579
21
33.650081
0
LINE
8
hole
62
5
39
2
10
487.954579
20
33.650081
11
485.552832
21
35.756360
0
LINE
8
hole
62
5
39
2
10
485.552832
20
35.756360
11
485.018377
21
36.225063
0
LINE
8
hole
62
5
39
2
10
485.018377
20
36.225063
11
482.912099
21
38.626810
0
LINE
8
hole
62
5
39
2
10
482.912099
20
38.626810
11
482.443396
21
39.161264
0
LINE
8
hole
62
5
39
2
10
482.443396
20
39.161264
11
480.668631
21
41.817387
0
LINE
8
hole
62
5
39
2
10
480.668631
20
41.817387
11
480.273698
21
42.408447
0
LINE
8
boundary
62
5
39
2
10
469.902233
20
24.717038
11
473.127913
21
21.491359
0
LINE
8
boundary
62
5
39
2
10
473.127913
20
21.491359
11
473.510353
21
21.108919
0
LINE
8
boundary
62
5
39
2
10
473.510353
20
21.108919
11
474.679175
21
20.162425
0
LINE
8
boundary
62
5
39
2
10
474.679175
20
20.162425
11
478.603148
21
21.158947
0
LINE
8
boundary
62
5
39
2
10
478.603148
20
21.158947
11
481.629883
21
26.401406
0
LINE
8
boundary
62
5
39
2
10
481.629883
20
26.401406
11
482.144411
21
26.988113
0
LINE
8
boundary
62
5
39
2
10
482.144411
20
26.988113
11
482.844296
21
27.333258
0
LINE
8
boundary
62
5
39
2
10
482.844296
20
27.333258
11
483.622987
21
27.384296
0
LINE
8
boundary
62
5
39
2
10
483.622987
20
27.384296
11
484.361934
21
27.133457
0
LINE
8
boundary
62
5
39
2
10
484.361934
20
27.133457
11
484.948641
21
26.618929
0
LINE
8
boundary
62
5
39
2
10
484.948641
20
26.618929
11
485.293786
21
25.919044
0
LINE
8
boundary
62
5
39
2
10
485.293786
20
25.919044
11
485.344824
21
25.140354
0
LINE
8
boundary
62
5
39
2
10
485.344824
20
25.140354
11
485.093985
21
24.401406
0
LINE
8
boundary
62
5
39
2
10
485.093985
20
24.401406
11
488.125074
21
22.651406
0
LINE
8
boundary
62
5
39
2
10
488.125074
20
22.651406
11
488.639602
21
23.238113
0
LINE
8
boundary
62
5
39
2
10
488.639602
20
23.238113
11
489.339487
21
23.583258
0
LINE
8
boundary
62
5
39
2
10
489.339487
20
23.583258
11
490.118177
21
23.634296
0
LINE
8
boundary
62
5
39
2
10
490.118177
20
23.634296
11
490.857125
21
23.383457
0
LINE
8
boundary
62
5
39
2
10
490.857125
20
23.383457
11
491.443832
21
22.868929
0
LINE
8
boundary
62
5
39
2
10
491.443832
20
22.868929
11
491.788976
21
22.169044
0
LINE
8
boundary
62
5
39
2
10
491.788976
20
22.169044
11
491.840015
21
21.390354
0
LINE
8
boundary
62
5
39
2
10
491.840015
20
21.390354
11
491.589176
21
20.651406
0
LINE
8
boundary
62
5
39
2
10
491.589176
20
20.651406
11
488.562441
21
15.408949
0
LINE
8
boundary
62
5
39
2
10
488.562441
20
15.408949
11
489.661415
21
11.512427
0
LINE
8
boundary
62
5
39
2
10
489.661415
20
11.512427
11
490.560587
21
11.167268
0
LINE
8
boundary
62
5
39
2
10
490.560587
20
11.167268
11
491.065515
21
10.973444
0
LINE
8
boundary
62
5
39
2
10
491.065515
20
10.973444
11
495.471870
21
9.792765
0
LINE
8
boundary
62
5
39
2
10
495.471870
20
9.792765
11
495.994293
21
9.652782
0
LINE
8
boundary
62
5
39
2
10
495.994293
20
9.652782
11
500.499926
21
8.939161
0
LINE
8
boundary
62
5
39
2
10
500.499926
20
8.939161
11
501.034118
21
8.854553
0
LINE
8
boundary
62
5
39
2
10
501.034118
20
8.854553
11
505.589661
21
8.615806
0
LINE
8
boundary
62
5
39
2
10
505.589661
20
8.615806
11
506.129771
21
8.587500
0
LINE
8
boundary
62
5
39
2
10
506.129771
20
8.587500
11
510.685314
21
8.826247
0
LINE
8
boundary
62
5
39
2
10
510.685314
20
8.826247
11
511.225425
21
8.854553
0
LINE
8
boundary
62
5
39
2
10
511.225425
20
8.854553
11
515.731057
21
9.568174
0
LINE
8
boundary
62
5
39
2
10
515.731057
20
9.568174
11
516.265250
21
9.652782
0
LINE
8
boundary
62
5
39
2
10
516.265250
20
9.652782
11
520.671605
21
10.833462
0
LINE
8
boundary
62
5
39
2
10
520.671605
20
10.833462
11
521.194028
21
10.973444
0
LINE
8
boundary
62
5
39
2
10
521.194028
20
10.973444
11
525.452832
21
12.608243
0
LINE
8
boundary
62
5
39
2
10
525.452832
20
12.608243
11
525.957761
21
12.802067
0
LINE
8
boundary
62
5
39
2
10
525.957761
20
12.802067
11
530.022348
21
14.873081
0
LINE
8
boundary
62
5
39
2
10
530.022348
20
14.873081
11
530.504250
21
15.118623
0
LINE
8
boundary
62
5
39
2
10
530.504250
20
15.118623
11
534.330094
21
17.603151
0
LINE
8
boundary
62
5
39
2
10
534.330094
20
17.603151
11
534.783690
21
17.897719
0
LINE
8
boundary
62
5
39
2
10
534.783690
20
17.897719
11
538.328869
21
20.768550
0
LINE
8
boundary
62
5
39
2
10
538.328869
20
20.768550
11
538.749190
21
21.108919
0
LINE
8
boundary
62
5
39
2
10
538.749190
20
21.108919
11
541.974869
21
24.334598
0
LINE
8
boundary
62
5
39
2
10
541.974869
20
24.334598
11
542.357309
21
24.717038
0
LINE
8
boundary
62
5
39
2
10
542.357309
20
24.717038
11
545.228140
21
28.262218
0
LINE
8
boundary
62
5
39
2
10
545.228140
20
28.262218
11
545.568509
21
28.682538
0
LINE
8
boundary
62
5
39
2
10
545.568509
20
28.682538
11
548.053037
21
32.508382
0
LINE
8
boundary
62
5
39
2
10
548.053037
20
32.508382
11
548.347606
21
32.961979
0
LINE
8
boundary
62
5
39
2
10
548.347606
20
32.961979
11
550.418619
21
37.026566
0
LINE
8
boundary
62
5
39
2
10
550.418619
20
37.026566
11
550.664161
21
37.508468
0
LINE
8
boundary
62
5
39
2
10
550.664161
20
37.508468
11
552.298961
21
41.767272
0
LINE
8
boundary
62
5
39
2
10
552.298961
20
41.767272
11
552.492785
21
42.272201
0
LINE
8
boundary
62
5
39
2
10
552.492785
20
42.272201
11
553.673464
21
46.678556
0
LINE
8
boundary
62
5
39
2
10
553.673464
20
46.678556
11
553.813446
21
47.200978
0
LINE
8
boundary
62
5
39
2
10
553.813446
20
47.200978
11
554.048722
21
48.686457
0
LINE
8
boundary
62
5
39
2
10
554.048722
20
48.686457
11
551.223723
21
51.586457
0
LINE
8
boundary
62
5
39
2
10
551.223723
20
51.586457
11
545.170255
21
51.586457
0
LINE
8
boundary
62
5
39
2
10
545.170255
20
51.586457
11
544.404888
21
51.738698
0
LINE
8
boundary
62
5
39
2
10
544.404888
20
51.738698
11
543.756042
21
52.172243
0
LINE
8
boundary
62
5
39
2
10
543.756042
20
52.172243
11
543.322496
21
52.821090
0
LINE
8
boundary
62
5
39
2
10
543.322496
20
52.821090
11
543.170255
21
53.586457
0
LINE
8
boundary
62
5
39
2
10
543.170255
20
53.586457
11
543.322496
21
54.351824
0
LINE
8
boundary
62
5
39
2
10
543.322496
20
54.351824
11
543.756042
21
55.000670
0
LINE
8
boundary
62
5
39
2
10
543.756042
20
55.000670
11
544.404888
21
55.434216
0
LINE
8
boundary
62
5
39
2
10
544.404888
20
55.434216
11
545.170255
21
55.586457
0
LINE
8
boundary
62
5
39
2
10
545.170255
20
55.586457
11
545.170255
21
59.086457
0
LINE
8
boundary
62
5
39
2
10
545.170255
20
59.086457
11
544.404888
21
59.238698
0
LINE
8
boundary
62
5
39
2
10
544.404888
20
59.238698
11
543.756042
21
59.672243
0
LINE
8
boundary
62
5
39
2
10
543.756042
20
59.672243
11
543.322496
21
60.321090
0
LINE
8
boundary
62
5
39
2
10
543.322496
20
60.321090
11
543.170255
21
61.086457
0
LINE
8
boundary
62
5
39
2
10
543.170255
20
61.086457
11
543.322496
21
61.851824
0
LINE
8
boundary
62
5
39
2
10
543.322496
20
61.851824
11
543.756042
21
62.500671
0
LINE
8
boundary
62
5
39
2
10
543.756042
20
62.500671
11
544.404888
21
62.934216
0
LINE
8
boundary
62
5
39
2
10
544.404888
20
62.934216
11
545.170255
21
63.086457
0
LINE
8
boundary
62
5
39
2
10
545.170255
20
63.086457
11
551.223723
21
63.086457
0
LINE
8
boundary
62
5
39
2
10
551.223723
20
63.086457
11
554.048723
21
65.986457
0
LINE
8
boundary
62
5
39
2
10
554.048723
20
65.986457
11
553.898054
21
66.937743
0
LINE
8
boundary
62
5
39
2
10
553.898054
20
66.937743
11
553.813446
21
67.471936
0
LINE
8
boundary
62
5
39
2
10
553.813446
20
67.471936
11
552.632767
21
71.878291
0
LINE
8
boundary
62
5
39
2
10
552.632767
20
71.878291
11
552.492785
21
72.400713
0
LINE
8
boundary
62
5
39
2
10
552.492785
20
72.400713
11
550.857985
21
76.659518
0
LINE
8
boundary
62
5
39
2
10
550.857985
20
76.659518
11
550.664161
21
77.164446
0
LINE
8
boundary
62
5
39
2
10
550.664161
20
77.164446
11
548.593147
21
81.229033
0
LINE
8
boundary
62
5
39
2
10
548.593147
20
81.229033
11
548.347606
21
81.710936
0
LINE
8
boundary
62
5
39
2
10
548.347606
20
81.710936
11
545.863078
21
85.536779
0
LINE
8
boundary
62
5
39
2
10
545.863078
20
85.536779
11
545.568509
21
85.990376
0
LINE
8
boundary
62
5
39
2
10
545.568509
20
85.990376
11
542.697678
21
89.535555
0
LINE
8
boundary
62
5
39
2
10
542.697678
20
89.535555
11
542.357309
21
89.955876
0
LINE
8
boundary
62
5
39
2
10
542.357309
20
89.955876
11
539.131630
21
93.181555
0
LINE
8
boundary
62
5
39
2
10
539.131630
20
93.181555
11
538.749190
21
93.563995
0
LINE
8
boundary
62
5
39
2
10
538.749190
20
93.563995
11
535.204011
21
96.434826
0
LINE
8
boundary
62
5
39
2
10
535.204011
20
96.434826
11
534.783690
21
96.775195
0
LINE
8
boundary
62
5
39
2
10
534.783690
20
96.775195
11
530.957846
21
99.259723
0
LINE
8
boundary
62
5
39
2
10
530.957846
20
99.259723
11
530.504250
21
99.554291
0
LINE
8
boundary
62
5
39
2
10
530.504250
20
99.554291
11
526.439663
21
101.625305
0
LINE
8
boundary
62
5
39
2
10
526.439663
20
101.625305
11
525.957760
21
101.870847
0
LINE
8
boundary
62
5
39
2
10
525.957760
20
101.870847
11
521.698956
21
103.505646
0
LINE
8
boundary
62
5
39
2
10
521.698956
20
103.505646
11
521.194027
21
103.699470
0
LINE
8
boundary
62
5
39
2
10
521.194027
20
103.699470
11
516.787672
21
104.880150
0
LINE
8
boundary
62
5
39
2
10
516.787672
20
104.880150
11
516.265250
21
105.020132
0
LINE
8
boundary
62
5
39
2
10
516.265250
20
105.020132
11
511.759617
21
105.733753
0
LINE
8
boundary
62
5
39
2
10
511.759617
20
105.733753
11
511.225425
21
105.818361
0
LINE
8
boundary
62
5
39
2
10
511.225425
20
105.818361
11
506.669882
21
106.057108
0
LINE
8
boundary
62
5
39
2
10
506.669882
20
106.057108
11
506.129771
21
106.085414
0
LINE
8
boundary
62
5
39
2
10
506.129771
20
106.085414
11
501.574228
21
105.846667
0
LINE
8
boundary
62
5
39
2
10
501.574228
20
105.846667
11
501.034118
21
105.818361
0
LINE
8
boundary
62
5
39
2
10
501.034118
20
105.818361
11
496.528486
21
105.104740
0
LINE
8
boundary
62
5
39
2
10
496.528486
20
105.104740
11
495.994293
21
105.020132
0
LINE
8
boundary
62
5
39
2
10
495.994293
20
105.020132
11
491.587937
21
103.839452
0
LINE
8
boundary
62
5
39
2
10
491.587937
20
103.839452
11
491.065515
21
103.699470
0
LINE
8
boundary
62
5
39
2
10
491.065515
20
103.699470
11
489.661415
21
103.160487
0
LINE
8
boundary
62
5
39
2
10
489.661415
20
103.160487
11
488.562441
21
99.263965
0
LINE
8
boundary
62
5
39
2
10
488.562441
20
99.263965
11
491.589176
21
94.021508
0
LINE
8
boundary
62
5
39
2
10
491.589176
20
94.021508
11
491.840015
21
93.282560
0
LINE
8
boundary
62
5
39
2
10
491.840015
20
93.282560
11
491.788976
21
92.503870
0
LINE
8
boundary
62
5
39
2
10
491.788976
20
92.503870
11
491.443831
21
91.803985
0
LINE
8
boundary
62
5
39
2
10
491.443831
20
91.803985
11
490.857125
21
91.289457
0
LINE
8
boundary
62
5
39
2
10
490.857125
20
91.289457
11
490.118177
21
91.038618
0
LINE
8
boundary
62
5
39
2
10
490.118177
20
91.038618
11
489.339487
21
91.089656
0
LINE
8
boundary
62
5
39
2
10
489.339487
20
91.089656
11
488.639602
21
91.434801
0
LINE
8
boundary
62
5
39
2
10
488.639602
20
91.434801
11
488.125074
21
92.021508
0
LINE
8
boundary
62
5
39
2
10
488.125074
20
92.021508
11
485.093985
21
90.271507
0
LINE
8
boundary
62
5
39
2
10
485.093985
20
90.271507
11
485.344824
21
89.532560
0
LINE
8
boundary
62
5
39
2
10
485.344824
20
89.532560
11
485.293786
21
88.753869
0
LINE
8
boundary
62
5
39
2
10
485.293786
20
88.753869
11
484.948641
21
88.053985
0
LINE
8
boundary
62
5
39
2
10
484.948641
20
88.053985
11
484.361934
21
87.539457
0
LINE
8
boundary
62
5
39
2
10
484.361934
20
87.539457
11
483.622987
21
87.288618
0
LINE
8
boundary
62
5
39
2
10
483.622987
20
87.288618
11
482.844296
21
87.339656
0
LINE
8
boundary
62
5
39
2
10
482.844296
20
87.339656
11
482.144412
21
87.684801
0
LINE
8
boundary
62
5
39
2
10
482.144412
20
87.684801
11
481.629884
21
88.271508
0
LINE
8
boundary
62
5
39
2
10
481.629884
20
88.271508
11
478.603148
21
93.513967
0
LINE
8
boundary
62
5
39
2
10
478.603148
20
93.513967
11
474.679175
21
94.510488
0
LINE
8
boundary
62
5
39
2
10
474.679175
20
94.510488
11
473.930673
21
93.904364
0
LINE
8
boundary
62
5
39
2
10
473.930673
20
93.904364
11
473.510353
21
93.563995
0
LINE
8
boundary
62
5
39
2
10
473.510353
20
93.563995
11
470.284673
21
90.338316
0
LINE
8
boundary
62
5
39
2
10
470.284673
20
90.338316
11
469.902233
21
89.955876
0
LINE
8
boundary
62
5
39
2
10
469.902233
20
89.955876
11
467.031402
21
86.410696
0
LINE
8
boundary
62
5
39
2
10
467.031402
20
86.410696
11
466.691034
21
85.990376
0
LINE
8
boundary
62
5
39
2
10
466.691034
20
85.990376
11
464.206506
21
82.164532
0
LINE
8
boundary
62
5
39
2
10
464.206506
20
82.164532
11
463.911937
21
81.710935
0
LINE
8
boundary
62
5
39
2
10
463.911937
20
81.710935
11
461.840923
21
77.646348
0
LINE
8
boundary
62
5
39
2
10
461.840923
20
77.646348
11
461.595382
21
77.164446
0
LINE
8
boundary
62
5
39
2
10
461.595382
20
77.164446
11
459.960582
21
72.905642
0
LINE
8
boundary
62
5
39
2
10
459.960582
20
72.905642
11
459.766758
21
72.400713
0
LINE
8
boundary
62
5
39
2
10
459.766758
20
72.400713
11
458.586079
21
67.994358
0
LINE
8
boundary
62
5
39
2
10
458.586079
20
67.994358
11
458.446097
21
67.471936
0
LINE
8
boundary
62
5
39
2
10
458.446097
20
67.471936
11
457.732475
21
62.966303
0
LINE
8
boundary
62
5
39
2
10
457.732475
20
62.966303
11
457.647868
21
62.432110
0
LINE
8
boundary
62
5
39
2
10
457.647868
20
62.432110
11
457.409120
21
57.876567
0
LINE
8
boundary
62
5
39
2
10
457.409120
20
57.876567
11
457.380814
21
57.336457
0
LINE
8
boundary
62
5
39
2
10
457.380814
20
57.336457
11
457.619562
21
52.780914
0
LINE
8
boundary
62
5
39
2
10
457.619562
20
52.780914
11
457.647868
21
52.240804
0
LINE
8
boundary
62
5
39
2
10
457.647868
20
52.240804
11
458.361489
21
47.735171
0
LINE
8
boundary
62
5
39
2
10
458.361489
20
47.735171
11
458.446097
21
47.200979
0
LINE
8
boundary
62
5
39
2
10
458.446097
20
47.200979
11
459.626776
21
42.794623
0
LINE
8
boundary
62
5
39
2
10
459.626776
20
42.794623
11
459.766758
21
42.272201
0
LINE
8
boundary
62
5
39
2
10
459.766758
20
42.272201
11
461.401558
21
38.013396
0
LINE
8
boundary
62
5
39
2
10
461.401558
20
38.013396
11
461.595382
21
37.508468
0
LINE
8
boundary
62
5
39
2
10
461.595382
20
37.508468
11
463.666395
21
33.443881
0
LINE
8
boundary
62
5
39
2
10
463.666395
20
33.443881
11
463.911937
21
32.961979
0
LINE
8
boundary
62
5
39
2
10
463.911937
20
32.961979
11
466.396465
21
29.136135
0
LINE
8
boundary
62
5
39
2
10
466.396465
20
29.136135
11
466.691034
21
28.682538
0
LINE
8
boundary
62
5
39
2
10
466.691034
20
28.682538
11
469.561864
21
25.137359
0
LINE
8
boundary
62
5
39
2
10
469.561864
20
25.137359
11
469.902233
21
24.717038
0
LINE
8
annotation
62
1
39
211
10
537.960324
20
58.833207
11
537.960324
21
65.119707
0
LINE
8
annotation
62
1
39
211
10
537.960324
20
65.119707
11
536.562755
21
63.721743
0
LINE
8
annotation
62
1
39
211
10
488.043284
20
85.113801
11
489.315818
21
82.909707
0
LINE
8
annotation
62
1
39
211
10
489.315818
20
82.909707
11
484.861202
21
83.053373
0
LINE
8
annotation
62
1
39
211
10
484.861202
20
83.053373
11
484.861202
21
83.053373
0
LINE
8
annotation
62
1
39
211
10
484.861202
20
83.053373
11
484.856784
21
83.054069
0
LINE
8
annotation
62
1
39
211
10
484.856784
20
83.054069
11
484.852397
21
83.054649
0
LINE
8
annotation
62
1
39
211
10
484.852397
20
83.054649
11
484.848009
21
83.055116
0
LINE
8
annotation
62
1
39
211
10
484.848009
20
83.055116
11
484.843583
21
83.055469
0
LINE
8
annotation
62
1
39
211
10
484.843583
20
83.055469
11
484.839086
21
83.055709
0
LINE
8
annotation
62
1
39
211
10
484.839086
20
83.055709
11
484.834483
21
83.055836
0
LINE
8
annotation
62
1
39
211
10
484.834483
20
83.055836
11
484.829739
21
83.055852
0
LINE
8
annotation
62
1
39
211
10
484.829739
20
83.055852
11
484.824821
21
83.055757
0
LINE
8
annotation
62
1
39
211
10
484.824821
20
83.055757
11
484.819693
21
83.055551
0
LINE
8
annotation
62
1
39
211
10
484.819693
20
83.055551
11
484.819693
21
83.055551
0
LINE
8
annotation
62
1
39
211
10
484.819693
20
83.055551
11
484.590588
21
83.035401
0
LINE
8
annotation
62
1
39
211
10
484.590588
20
83.035401
11
484.375064
21
82.976469
0
LINE
8
annotation
62
1
39
211
10
484.375064
20
82.976469
11
484.176656
21
82.882401
0
LINE
8
annotation
62
1
39
211
10
484.176656
20
82.882401
11
483.998899
21
82.756844
0
LINE
8
annotation
62
1
39
211
10
483.998899
20
82.756844
11
483.845326
21
82.603441
0
LINE
8
annotation
62
1
39
211
10
483.845326
20
82.603441
11
483.719471
21
82.425840
0
LINE
8
annotation
62
1
39
211
10
483.719471
20
82.425840
11
483.624869
21
82.227685
0
LINE
8
annotation
62
1
39
211
10
483.624869
20
82.227685
11
483.565052
21
82.012622
0
LINE
8
annotation
62
1
39
211
10
483.565052
20
82.012622
11
483.543556
21
81.784296
0
LINE
8
annotation
62
1
39
211
10
483.543556
20
81.784296
11
483.543556
21
81.784296
0
LINE
8
annotation
62
1
39
211
10
483.543556
20
81.784296
11
483.565191
21
81.555378
0
LINE
8
annotation
62
1
39
211
10
483.565191
20
81.555378
11
483.625045
21
81.340005
0
LINE
8
annotation
62
1
39
211
10
483.625045
20
81.340005
11
483.719611
21
81.141738
0
LINE
8
annotation
62
1
39
211
10
483.719611
20
81.141738
11
483.845379
21
80.964140
0
LINE
8
annotation
62
1
39
211
10
483.845379
20
80.964140
11
483.998842
21
80.810772
0
LINE
8
annotation
62
1
39
211
10
483.998842
20
80.810772
11
484.176491
21
80.685198
0
LINE
8
annotation
62
1
39
211
10
484.176491
20
80.685198
11
484.374820
21
80.590979
0
LINE
8
annotation
62
1
39
211
10
484.374820
20
80.590979
11
484.590318
21
80.531677
0
LINE
8
annotation
62
1
39
211
10
484.590318
20
80.531677
11
484.819479
21
80.510854
0
LINE
8
annotation
62
1
39
211
10
484.819479
20
80.510854
11
485.180645
21
80.526414
0
LINE
8
annotation
62
1
39
211
10
492.389964
20
29.988934
11
491.753659
21
28.886821
0
LINE
8
annotation
62
1
39
211
10
491.753659
20
28.886821
11
491.753659
21
28.886821
0
LINE
8
annotation
62
1
39
211
10
491.753659
20
28.886821
11
491.656999
21
28.678337
0
LINE
8
annotation
62
1
39
211
10
491.656999
20
28.678337
11
491.600561
21
28.462234
0
LINE
8
annotation
62
1
39
211
10
491.600561
20
28.462234
11
491.582990
21
28.243429
0
LINE
8
annotation
62
1
39
211
10
491.582990
20
28.243429
11
491.602932
21
28.026841
0
LINE
8
annotation
62
1
39
211
10
491.602932
20
28.026841
11
491.659031
21
27.817389
0
LINE
8
annotation
62
1
39
211
10
491.659031
20
27.817389
11
491.749933
21
27.619990
0
LINE
8
annotation
62
1
39
211
10
491.749933
20
27.619990
11
491.874283
21
27.439564
0
LINE
8
annotation
62
1
39
211
10
491.874283
20
27.439564
11
492.030727
21
27.281028
0
LINE
8
annotation
62
1
39
211
10
492.030727
20
27.281028
11
492.217910
21
27.149301
0
LINE
8
annotation
62
1
39
211
10
492.217910
20
27.149301
11
492.769745
21
26.830699
0
LINE
8
annotation
62
1
39
211
10
492.769745
20
26.830699
11
492.769745
21
26.830699
0
LINE
8
annotation
62
1
39
211
10
492.769745
20
26.830699
11
492.977333
21
26.734505
0
LINE
8
annotation
62
1
39
211
10
492.977333
20
26.734505
11
493.192808
21
26.678313
0
LINE
8
annotation
62
1
39
211
10
493.192808
20
26.678313
11
493.411224
21
26.660843
0
LINE
8
annotation
62
1
39
211
10
493.411224
20
26.660843
11
493.627637
21
26.680813
0
LINE
8
annotation
62
1
39
211
10
493.627637
20
26.680813
11
493.837104
21
26.736941
0
LINE
8
annotation
62
1
39
211
10
493.837104
20
26.736941
11
494.034678
21
26.827946
0
LINE
8
annotation
62
1
39
211
10
494.034678
20
26.827946
11
494.215417
21
26.952546
0
LINE
8
annotation
62
1
39
211
10
494.215417
20
26.952546
11
494.374375
21
27.109460
0
LINE
8
annotation
62
1
39
211
10
494.374375
20
27.109460
11
494.506607
21
27.297405
0
LINE
8
annotation
62
1
39
211
10
494.506607
20
27.297405
11
494.825209
21
27.849240
0
LINE
8
annotation
62
1
39
211
10
494.825209
20
27.849240
11
494.506607
21
27.297405
0
LINE
8
annotation
62
1
39
211
10
494.506607
20
27.297405
11
494.506607
21
27.297405
0
LINE
8
annotation
62
1
39
211
10
494.506607
20
27.297405
11
494.409962
21
27.088913
0
LINE
8
annotation
62
1
39
211
10
494.409962
20
27.088913
11
494.353580
21
26.872778
0
LINE
8
annotation
62
1
39
211
10
494.353580
20
26.872778
11
494.336123
21
26.653907
0
LINE
8
annotation
62
1
39
211
10
494.336123
20
26.653907
11
494.356256
21
26.437209
0
LINE
8
annotation
62
1
39
211
10
494.356256
20
26.437209
11
494.412641
21
26.227591
0
LINE
8
annotation
62
1
39
211
10
494.412641
20
26.227591
11
494.503942
21
26.029962
0
LINE
8
annotation
62
1
39
211
10
494.503942
20
26.029962
11
494.628822
21
25.849230
0
LINE
8
annotation
62
1
39
211
10
494.628822
20
25.849230
11
494.785944
21
25.690303
0
LINE
8
annotation
62
1
39
211
10
494.785944
20
25.690303
11
494.973971
21
25.558088
0
LINE
8
annotation
62
1
39
211
10
494.973971
20
25.558088
11
494.973971
21
25.558088
0
LINE
8
annotation
62
1
39
211
10
494.973971
20
25.558088
11
495.181560
21
25.461894
0
LINE
8
annotation
62
1
39
211
10
495.181560
20
25.461894
11
495.397034
21
25.405703
0
LINE
8
annotation
62
1
39
211
10
495.397034
20
25.405703
11
495.615450
21
25.388233
0
LINE
8
annotation
62
1
39
211
10
495.615450
20
25.388233
11
495.831864
21
25.408203
0
LINE
8
annotation
62
1
39
211
10
495.831864
20
25.408203
11
496.041330
21
25.464331
0
LINE
8
annotation
62
1
39
211
10
496.041330
20
25.464331
11
496.238905
21
25.555335
0
LINE
8
annotation
62
1
39
211
10
496.238905
20
25.555335
11
496.419643
21
25.679936
0
LINE
8
annotation
62
1
39
211
10
496.419643
20
25.679936
11
496.578601
21
25.836849
0
LINE
8
annotation
62
1
39
211
10
496.578601
20
25.836849
11
496.710834
21
26.024795
0
LINE
8
annotation
62
1
39
211
10
496.710834
20
26.024795
11
497.347139
21
27.126908
0
LINE
8
annotation
62
1
39
211
10
504.269080
20
94.962227
11
500.370926
21
94.962227
0
LINE
8
annotation
62
1
39
211
10
500.370926
20
94.962227
11
504.269080
21
101.982778
0
LINE
8
annotation
62
1
39
211
10
504.269080
20
101.982778
11
500.370926
21
101.982778
0
LINE
8
annotation
62
1
39
211
10
510.741165
20
98.472503
11
506.902447
21
98.472503
0
LINE
8
annotation
62
1
39
211
10
514.934190
20
94.962227
11
514.934190
21
101.982778
0
LINE
8
annotation
62
1
39
211
10
514.934190
20
101.982778
11
513.373432
21
100.421580
0
LINE
8
boundary
62
5
39
2
10
8.587500
20
253.420806
11
8.587500
21
236.243058
0
LINE
8
boundary
62
5
39
2
10
8.587500
20
236.243058
11
9.442575
21
236.243058
0
LINE
8
boundary
62
5
39
2
10
9.442575
20
236.243058
11
10.758470
21
236.243059
0
LINE
8
boundary
62
5
39
2
10
10.758470
20
236.243059
11
12.645939
21
236.243058
0
LINE
8
boundary
62
5
39
2
10
12.645939
20
236.243058
11
13.676874
21
236.243058
0
LINE
8
boundary
62
5
39
2
10
13.676874
20
236.243058
11
15.581590
21
236.243058
0
LINE
8
boundary
62
5
39
2
10
15.581590
20
236.243058
11
16.290306
21
236.243059
0
LINE
8
boundary
62
5
39
2
10
16.290306
20
236.243059
11
18.143431
21
236.243059
0
LINE
8
boundary
62
5
39
2
10
18.143431
20
236.243059
11
18.504311
21
236.243059
0
LINE
8
boundary
62
5
39
2
10
18.504311
20
236.243059
11
20.238866
21
236.243059
0
LINE
8
boundary
62
5
39
2
10
20.238866
20
236.243059
11
22.355628
21
236.307129
0
LINE
8
boundary
62
5
39
2
10
22.355628
20
236.307129
11
26.724203
21
236.849162
0
LINE
8
boundary
62
5
39
2
10
26.724203
20
236.849162
11
30.990189
21
237.935274
0
LINE
8
boundary
62
5
39
2
10
30.990189
20
237.935274
11
35.086102
21
239.548268
0
LINE
8
boundary
62
5
39
2
10
35.086102
20
239.548268
11
38.947151
21
241.662663
0
LINE
8
boundary
62
5
39
2
10
38.947151
20
241.662663
11
42.512246
21
244.244977
0
LINE
8
boundary
62
5
39
2
10
42.512246
20
244.244977
11
45.725006
21
247.254376
0
LINE
8
boundary
62
5
39
2
10
45.725006
20
247.254376
11
48.534596
21
250.643255
0
LINE
8
boundary
62
5
39
2
10
48.534596
20
250.643255
11
50.896570
21
254.357998
0
LINE
8
boundary
62
5
39
2
10
50.896570
20
254.357998
11
52.773575
21
258.339854
0
LINE
8
boundary
62
5
39
2
10
52.773575
20
258.339854
11
54.135912
21
262.525826
0
LINE
8
boundary
62
5
39
2
10
54.135912
20
262.525826
11
54.962033
21
266.849691
0
LINE
8
boundary
62
5
39
2
10
54.962033
20
266.849691
11
55.238868
21
271.243050
0
LINE
8
boundary
62
5
39
2
10
55.238868
20
271.243050
11
55.238868
21
306.243037
0
LINE
8
boundary
62
5
39
2
10
55.238868
20
306.243037
11
55.489956
21
312.023153
0
LINE
8
boundary
62
5
39
2
10
55.489956
20
312.023153
11
55.892192
21
314.864867
0
LINE
8
boundary
62
5
39
2
10
55.892192
20
314.864867
11
56.300922
21
317.752461
0
LINE
8
boundary
62
5
39
2
10
56.300922
20
317.752461
11
56.964038
21
320.529990
0
LINE
8
boundary
62
5
39
2
10
56.964038
20
320.529990
11
57.644610
21
323.380617
0
LINE
8
boundary
62
5
39
2
10
57.644610
20
323.380617
11
58.560614
21
326.071513
0
LINE
8
boundary
62
5
39
2
10
58.560614
20
326.071513
11
59.509210
21
328.858160
0
LINE
8
boundary
62
5
39
2
10
59.509210
20
328.858160
11
60.668469
21
331.441176
0
LINE
8
boundary
62
5
39
2
10
60.668469
20
331.441176
11
61.878339
21
334.136962
0
LINE
8
boundary
62
5
39
2
10
61.878339
20
334.136962
11
63.269712
21
336.591971
0
LINE
8
boundary
62
5
39
2
10
63.269712
20
336.591971
11
64.731173
21
339.170642
0
LINE
8
boundary
62
5
39
2
10
64.731173
20
339.170642
11
66.342077
21
341.478560
0
LINE
8
boundary
62
5
39
2
10
66.342077
20
341.478560
11
68.042646
21
343.914947
0
LINE
8
boundary
62
5
39
2
10
68.042646
20
343.914947
11
69.859043
21
346.057747
0
LINE
8
boundary
62
5
39
2
10
69.859043
20
346.057747
11
71.783651
21
348.328199
0
LINE
8
boundary
62
5
39
2
10
71.783651
20
348.328199
11
73.790102
21
350.288937
0
LINE
8
boundary
62
5
39
2
10
73.790102
20
350.288937
11
75.921321
21
352.371601
0
LINE
8
boundary
62
5
39
2
10
75.921321
20
352.371601
11
78.100950
21
354.134514
0
LINE
8
boundary
62
5
39
2
10
78.100950
20
354.134514
11
80.419286
21
356.009615
0
LINE
8
boundary
62
5
39
2
10
80.419286
20
356.009615
11
80.508531
21
356.074883
0
LINE
8
boundary
62
5
39
2
10
80.508531
20
356.074883
11
80.567796
21
356.140306
0
LINE
8
boundary
62
5
39
2
10
80.567796
20
356.140306
11
82.497089
21
357.963334
0
LINE
8
boundary
62
5
39
2
10
82.497089
20
357.963334
11
83.438376
21
358.910246
0
LINE
8
boundary
62
5
39
2
10
83.438376
20
358.910246
11
86.329045
21
362.072737
0
LINE
8
boundary
62
5
39
2
10
86.329045
20
362.072737
11
88.838055
21
364.817777
0
LINE
8
boundary
62
5
39
2
10
88.838055
20
364.817777
11
90.229870
21
366.455324
0
LINE
8
boundary
62
5
39
2
10
90.229870
20
366.455324
11
94.001540
21
371.382095
0
LINE
8
boundary
62
5
39
2
10
94.001540
20
371.382095
11
96.607292
21
375.048749
0
LINE
8
boundary
62
5
39
2
10
96.607292
20
375.048749
11
98.253670
21
377.622017
0
LINE
8
boundary
62
5
39
2
10
98.253670
20
377.622017
11
100.557026
21
381.513342
0
LINE
8
boundary
62
5
39
2
10
100.557026
20
381.513342
11
101.750322
21
383.529314
0
LINE
8
boundary
62
5
39
2
10
101.750322
20
383.529314
11
102.539567
21
384.980569
0
LINE
8
boundary
62
5
39
2
10
102.539567
20
384.980569
11
104.573458
21
389.138314
0
LINE
8
boundary
62
5
39
2
10
104.573458
20
389.138314
11
106.073326
21
392.496565
0
LINE
8
boundary
62
5
39
2
10
106.073326
20
392.496565
11
106.932473
21
394.420220
0
LINE
8
boundary
62
5
39
2
10
106.932473
20
394.420220
11
107.997824
21
397.058887
0
LINE
8
boundary
62
5
39
2
10
107.997824
20
397.058887
11
108.856541
21
399.433611
0
LINE
8
boundary
62
5
39
2
10
108.856541
20
399.433611
11
109.216119
21
400.545378
0
LINE
8
boundary
62
5
39
2
10
109.216119
20
400.545378
11
110.402066
21
404.212177
0
LINE
8
boundary
62
5
39
2
10
110.402066
20
404.212177
11
111.223259
21
407.094458
0
LINE
8
boundary
62
5
39
2
10
111.223259
20
407.094458
11
111.699195
21
408.764939
0
LINE
8
boundary
62
5
39
2
10
111.699195
20
408.764939
11
112.718900
21
412.908294
0
LINE
8
boundary
62
5
39
2
10
112.718900
20
412.908294
11
112.774264
21
413.133250
0
LINE
8
boundary
62
5
39
2
10
112.774264
20
413.133250
11
112.955440
21
414.008189
0
LINE
8
boundary
62
5
39
2
10
112.955440
20
414.008189
11
113.574271
21
417.365575
0
LINE
8
boundary
62
5
39
2
10
113.574271
20
417.365575
11
113.664145
21
417.966659
0
LINE
8
boundary
62
5
39
2
10
113.664145
20
417.966659
11
114.188660
21
421.474662
0
LINE
8
boundary
62
5
39
2
10
114.188660
20
421.474662
11
114.319645
21
422.618437
0
LINE
8
boundary
62
5
39
2
10
114.319645
20
422.618437
11
114.648160
21
425.487034
0
LINE
8
boundary
62
5
39
2
10
114.648160
20
425.487034
11
114.767701
21
426.993054
0
LINE
8
boundary
62
5
39
2
10
114.767701
20
426.993054
11
114.961174
21
429.430488
0
LINE
8
boundary
62
5
39
2
10
114.961174
20
429.430488
11
115.037033
21
431.149501
0
LINE
8
boundary
62
5
39
2
10
115.037033
20
431.149501
11
115.133300
21
433.330971
0
LINE
8
boundary
62
5
39
2
10
115.133300
20
433.330971
11
115.149236
21
435.135877
0
LINE
8
boundary
62
5
39
2
10
115.149236
20
435.135877
11
115.167577
21
437.213245
0
LINE
8
boundary
62
5
39
2
10
115.167577
20
437.213245
11
115.120462
21
438.992248
0
LINE
8
boundary
62
5
39
2
10
115.120462
20
438.992248
11
115.064601
21
441.101562
0
LINE
8
boundary
62
5
39
2
10
115.064601
20
441.101562
11
114.962609
21
442.752922
0
LINE
8
boundary
62
5
39
2
10
114.962609
20
442.752922
11
114.822566
21
445.020384
0
LINE
8
boundary
62
5
39
2
10
114.822566
20
445.020384
11
114.684139
21
446.447997
0
LINE
8
boundary
62
5
39
2
10
114.684139
20
446.447997
11
114.437175
21
448.994952
0
LINE
8
boundary
62
5
39
2
10
114.437175
20
448.994952
11
114.290655
21
450.104614
0
LINE
8
boundary
62
5
39
2
10
114.290655
20
450.104614
11
113.901468
21
453.052073
0
LINE
8
boundary
62
5
39
2
10
113.901468
20
453.052073
11
113.785294
21
453.747940
0
LINE
8
boundary
62
5
39
2
10
113.785294
20
453.747940
11
113.205511
21
457.220784
0
LINE
8
boundary
62
5
39
2
10
113.205511
20
457.220784
11
113.168982
21
457.401954
0
LINE
8
boundary
62
5
39
2
10
113.168982
20
457.401954
11
112.955439
21
458.461032
0
LINE
8
boundary
62
5
39
2
10
112.955439
20
458.461032
11
112.387388
21
460.967704
0
LINE
8
boundary
62
5
39
2
10
112.387388
20
460.967704
11
112.263072
21
461.516283
0
LINE
8
boundary
62
5
39
2
10
112.263072
20
461.516283
11
111.467786
21
464.511258
0
LINE
8
boundary
62
5
39
2
10
111.467786
20
464.511258
11
111.079888
21
465.972047
0
LINE
8
boundary
62
5
39
2
10
111.079888
20
465.972047
11
110.431138
21
468.104642
0
LINE
8
boundary
62
5
39
2
10
110.431138
20
468.104642
11
109.662254
21
470.632133
0
LINE
8
boundary
62
5
39
2
10
109.662254
20
470.632133
11
109.272545
21
471.769754
0
LINE
8
boundary
62
5
39
2
10
109.272545
20
471.769754
11
107.997823
21
475.490865
0
LINE
8
boundary
62
5
39
2
10
107.997823
20
475.490865
11
107.984057
21
475.526882
0
LINE
8
boundary
62
5
39
2
10
107.984057
20
475.526882
11
107.978776
21
475.540700
0
LINE
8
boundary
62
5
39
2
10
107.978776
20
475.540700
11
106.467460
21
479.094912
0
LINE
8
boundary
62
5
39
2
10
106.467460
20
479.094912
11
105.799478
21
480.665824
0
LINE
8
boundary
62
5
39
2
10
105.799478
20
480.665824
11
104.815450
21
482.768691
0
LINE
8
boundary
62
5
39
2
10
104.815450
20
482.768691
11
103.247280
21
486.119877
0
LINE
8
boundary
62
5
39
2
10
103.247280
20
486.119877
11
103.016786
21
486.571543
0
LINE
8
boundary
62
5
39
2
10
103.016786
20
486.571543
11
102.539567
21
487.506673
0
LINE
8
boundary
62
5
39
2
10
102.539567
20
487.506673
11
100.991864
21
490.231969
0
LINE
8
boundary
62
5
39
2
10
100.991864
20
490.231969
11
100.068473
21
491.857945
0
LINE
8
boundary
62
5
39
2
10
100.068473
20
491.857945
11
98.789151
21
493.935138
0
LINE
8
boundary
62
5
39
2
10
98.789151
20
493.935138
11
96.607292
21
497.477761
0
LINE
8
boundary
62
5
39
2
10
96.607292
20
497.477761
11
96.410933
21
497.765143
0
LINE
8
boundary
62
5
39
2
10
96.410933
20
497.765143
11
96.271248
21
497.969579
0
LINE
8
boundary
62
5
39
2
10
96.271248
20
497.969579
11
93.782538
21
501.341392
0
LINE
8
boundary
62
5
39
2
10
93.782538
20
501.341392
11
91.556799
21
504.356927
0
LINE
8
boundary
62
5
39
2
10
91.556799
20
504.356927
11
90.979443
21
505.084977
0
LINE
8
boundary
62
5
39
2
10
90.979443
20
505.084977
11
90.229869
21
506.030189
0
LINE
8
boundary
62
5
39
2
10
90.229869
20
506.030189
11
87.935200
21
508.632480
0
LINE
8
boundary
62
5
39
2
10
87.935200
20
508.632480
11
85.822999
21
511.027845
0
LINE
8
boundary
62
5
39
2
10
85.822999
20
511.027845
11
84.692289
21
512.223078
0
LINE
8
boundary
62
5
39
2
10
84.692289
20
512.223078
11
83.438376
21
513.548533
0
LINE
8
boundary
62
5
39
2
10
83.438376
20
513.548533
11
81.217916
21
515.654425
0
LINE
8
boundary
62
5
39
2
10
81.217916
20
515.654425
11
78.862931
21
517.887894
0
LINE
8
boundary
62
5
39
2
10
78.862931
20
517.887894
11
77.538507
21
519.058573
0
LINE
8
boundary
62
5
39
2
10
77.538507
20
519.058573
11
76.265902
21
520.183449
0
LINE
8
boundary
62
5
39
2
10
76.265902
20
520.183449
11
73.633630
21
522.259886
0
LINE
8
boundary
62
5
39
2
10
73.633630
20
522.259886
11
70.462454
21
524.761437
0
LINE
8
boundary
62
5
39
2
10
70.462454
20
524.761437
11
69.532793
21
525.443544
0
LINE
8
boundary
62
5
39
2
10
69.532793
20
525.443544
11
68.747394
21
526.019803
0
LINE
8
boundary
62
5
39
2
10
68.747394
20
526.019803
11
65.216225
21
528.310964
0
LINE
8
boundary
62
5
39
2
10
65.216225
20
528.310964
11
60.919475
21
531.098867
0
LINE
8
boundary
62
5
39
2
10
60.919475
20
531.098867
11
60.719235
21
531.213014
0
LINE
8
boundary
62
5
39
2
10
60.719235
20
531.213014
11
60.440899
21
531.371678
0
LINE
8
boundary
62
5
39
2
10
60.440899
20
531.371678
11
56.028506
21
533.681698
0
LINE
8
boundary
62
5
39
2
10
56.028506
20
533.681698
11
52.820292
21
535.361309
0
LINE
8
boundary
62
5
39
2
10
52.820292
20
535.361309
11
51.171226
21
536.105048
0
LINE
8
boundary
62
5
39
2
10
51.171226
20
536.105048
11
48.668415
21
537.233812
0
LINE
8
boundary
62
5
39
2
10
48.668415
20
537.233812
11
46.159434
21
538.260381
0
LINE
8
boundary
62
5
39
2
10
46.159434
20
538.260381
11
44.489296
21
538.943726
0
LINE
8
boundary
62
5
39
2
10
44.489296
20
538.943726
11
41.000149
21
540.134457
0
LINE
8
boundary
62
5
39
2
10
41.000149
20
540.134457
11
35.967074
21
541.852074
0
LINE
8
boundary
62
5
39
2
10
35.967074
20
541.852074
11
35.720285
21
541.920198
0
LINE
8
boundary
62
5
39
2
10
35.720285
20
541.920198
11
35.312951
21
542.032639
0
LINE
8
boundary
62
5
39
2
10
35.312951
20
542.032639
11
30.329196
21
543.219520
0
LINE
8
boundary
62
5
39
2
10
30.329196
20
543.219520
11
27.295145
21
543.942071
0
LINE
8
boundary
62
5
39
2
10
27.295145
20
543.942071
11
24.846621
21
544.371714
0
LINE
8
boundary
62
5
39
2
10
24.846621
20
544.371714
11
20.636024
21
545.110535
0
LINE
8
boundary
62
5
39
2
10
20.636024
20
545.110535
11
19.297751
21
545.297047
0
LINE
8
boundary
62
5
39
2
10
19.297751
20
545.297047
11
18.515764
21
545.406030
0
LINE
8
boundary
62
5
39
2
10
18.515764
20
545.406030
11
13.694148
21
545.783151
0
LINE
8
boundary
62
5
39
2
10
13.694148
20
545.783151
11
9.671698
21
546.097763
0
LINE
8
boundary
62
5
39
2
10
9.671698
20
546.097763
11
8.587500
21
546.116906
0
LINE
8
boundary
62
5
39
2
10
8.587500
20
546.116906
11
8.587500
21
528.998282
0
LINE
8
boundary
62
5
39
2
10
8.587500
20
528.998282
11
11.412500
21
526.098282
0
LINE
8
boundary
62
5
39
2
10
11.412500
20
526.098282
11
56.185357
21
526.098282
0
LINE
8
boundary
62
5
39
2
10
56.185357
20
526.098282
11
56.950724
21
525.946041
0
LINE
8
boundary
62
5
39
2
10
56.950724
20
525.946041
11
57.599570
21
525.512496
0
LINE
8
boundary
62
5
39
2
10
57.599570
20
525.512496
11
58.033116
21
524.863649
0
LINE
8
boundary
62
5
39
2
10
58.033116
20
524.863649
11
58.185357
21
524.098282
0
LINE
8
boundary
62
5
39
2
10
58.185357
20
524.098282
11
58.033116
21
523.332916
0
LINE
8
boundary
62
5
39
2
10
58.033116
20
523.332916
11
57.599571
21
522.684069
0
LINE
8
boundary
62
5
39
2
10
57.599571
20
522.684069
11
56.950724
21
522.250523
0
LINE
8
boundary
62
5
39
2
10
56.950724
20
522.250523
11
56.185357
21
522.098282
0
LINE
8
boundary
62
5
39
2
10
56.185357
20
522.098282
11
56.185357
21
518.598282
0
LINE
8
boundary
62
5
39
2
10
56.185357
20
518.598282
11
56.950724
21
518.446041
0
LINE
8
boundary
62
5
39
2
10
56.950724
20
518.446041
11
57.599570
21
518.012496
0
LINE
8
boundary
62
5
39
2
10
57.599570
20
518.012496
11
58.033116
21
517.363649
0
LINE
8
boundary
62
5
39
2
10
58.033116
20
517.363649
11
58.185357
21
516.598282
0
LINE
8
boundary
62
5
39
2
10
58.185357
20
516.598282
11
58.033116
21
515.832916
0
LINE
8
boundary
62
5
39
2
10
58.033116
20
515.832916
11
57.599571
21
515.184069
0
LINE
8
boundary
62
5
39
2
10
57.599571
20
515.184069
11
56.950724
21
514.750523
0
LINE
8
boundary
62
5
39
2
10
56.950724
20
514.750523
11
56.185357
21
514.598283
0
LINE
8
boundary
62
5
39
2
10
56.185357
20
514.598283
11
53.683164
21
512.029659
0
LINE
8
boundary
62
5
39
2
10
53.683164
20
512.029659
11
54.250408
21
511.664045
0
LINE
8
boundary
62
5
39
2
10
54.250408
20
511.664045
11
59.538509
21
507.957026
0
LINE
8
boundary
62
5
39
2
10
59.538509
20
507.957026
11
62.610678
21
505.496934
0
LINE
8
boundary
62
5
39
2
10
62.610678
20
505.496934
11
66.323301
21
502.277345
0
LINE
8
boundary
62
5
39
2
10
66.323301
20
502.277345
11
69.426621
21
499.230817
0
LINE
8
boundary
62
5
39
2
10
69.426621
20
499.230817
11
72.731483
21
495.721385
0
LINE
8
boundary
62
5
39
2
10
72.731483
20
495.721385
11
74.922185
21
493.099469
0
LINE
8
boundary
62
5
39
2
10
74.922185
20
493.099469
11
78.723560
21
488.172288
0
LINE
8
boundary
62
5
39
2
10
78.723560
20
488.172288
11
79.355612
21
487.249509
0
LINE
8
boundary
62
5
39
2
10
79.355612
20
487.249509
11
80.383853
21
485.618489
0
LINE
8
boundary
62
5
39
2
10
80.383853
20
485.618489
11
82.862949
21
481.686098
0
LINE
8
boundary
62
5
39
2
10
82.862949
20
481.686098
11
84.262568
21
479.254925
0
LINE
8
boundary
62
5
39
2
10
84.262568
20
479.254925
11
85.239625
21
477.342787
0
LINE
8
boundary
62
5
39
2
10
85.239625
20
477.342787
11
88.064625
21
474.442787
0
LINE
8
boundary
62
5
39
2
10
88.064625
20
474.442787
11
99.529045
21
474.442787
0
LINE
8
boundary
62
5
39
2
10
99.529045
20
474.442787
11
100.294412
21
474.290546
0
LINE
8
boundary
62
5
39
2
10
100.294412
20
474.290546
11
100.943259
21
473.857001
0
LINE
8
boundary
62
5
39
2
10
100.943259
20
473.857001
11
101.376804
21
473.208154
0
LINE
8
boundary
62
5
39
2
10
101.376804
20
473.208154
11
101.529046
21
472.442787
0
LINE
8
boundary
62
5
39
2
10
101.529046
20
472.442787
11
101.376804
21
471.677420
0
LINE
8
boundary
62
5
39
2
10
101.376804
20
471.677420
11
100.943259
21
471.028573
0
LINE
8
boundary
62
5
39
2
10
100.943259
20
471.028573
11
100.294413
21
470.595028
0
LINE
8
boundary
62
5
39
2
10
100.294413
20
470.595028
11
99.529045
21
470.442787
0
LINE
8
boundary
62
5
39
2
10
99.529045
20
470.442787
11
99.529045
21
466.942787
0
LINE
8
boundary
62
5
39
2
10
99.529045
20
466.942787
11
100.294413
21
466.790546
0
LINE
8
boundary
62
5
39
2
10
100.294413
20
466.790546
11
100.943259
21
466.357001
0
LINE
8
boundary
62
5
39
2
10
100.943259
20
466.357001
11
101.376805
21
465.708154
0
LINE
8
boundary
62
5
39
2
10
101.376805
20
465.708154
11
101.529046
21
464.942787
0
LINE
8
boundary
62
5
39
2
10
101.529046
20
464.942787
11
101.376805
21
464.177420
0
LINE
8
boundary
62
5
39
2
10
101.376805
20
464.177420
11
100.943259
21
463.528573
0
LINE
8
boundary
62
5
39
2
10
100.943259
20
463.528573
11
100.294413
21
463.095028
0
LINE
8
boundary
62
5
39
2
10
100.294413
20
463.095028
11
99.529045
21
462.942787
0
LINE
8
boundary
62
5
39
2
10
99.529045
20
462.942787
11
94.769157
21
462.942787
0
LINE
8
boundary
62
5
39
2
10
94.769157
20
462.942787
11
91.944157
21
460.042787
0
LINE
8
boundary
62
5
39
2
10
91.944157
20
460.042787
11
92.394505
21
458.447053
0
LINE
8
boundary
62
5
39
2
10
92.394505
20
458.447053
11
93.193901
21
455.107153
0
LINE
8
boundary
62
5
39
2
10
93.193901
20
455.107153
11
93.341678
21
454.489735
0
LINE
8
boundary
62
5
39
2
10
93.341678
20
454.489735
11
93.847829
21
451.909820
0
LINE
8
boundary
62
5
39
2
10
93.847829
20
451.909820
11
94.060358
21
450.672967
0
LINE
8
boundary
62
5
39
2
10
94.060358
20
450.672967
11
94.086848
21
450.475204
0
LINE
8
boundary
62
5
39
2
10
94.086848
20
450.475204
11
94.557073
21
446.964752
0
LINE
8
boundary
62
5
39
2
10
94.557073
20
446.964752
11
94.617363
21
446.335683
0
LINE
8
boundary
62
5
39
2
10
94.617363
20
446.335683
11
94.904098
21
443.343841
0
LINE
8
boundary
62
5
39
2
10
94.904098
20
443.343841
11
94.955784
21
442.446004
0
LINE
8
boundary
62
5
39
2
10
94.955784
20
442.446004
11
95.109288
21
439.779519
0
LINE
8
boundary
62
5
39
2
10
95.109288
20
439.779519
11
95.129114
21
438.746935
0
LINE
8
boundary
62
5
39
2
10
95.129114
20
438.746935
11
95.177188
21
436.243053
0
LINE
8
boundary
62
5
39
2
10
95.177188
20
436.243053
11
95.156978
21
435.190468
0
LINE
8
boundary
62
5
39
2
10
95.156978
20
435.190468
11
95.109288
21
432.706573
0
LINE
8
boundary
62
5
39
2
10
95.109288
20
432.706573
11
95.053440
21
431.736430
0
LINE
8
boundary
62
5
39
2
10
95.053440
20
431.736430
11
94.904099
21
429.142262
0
LINE
8
boundary
62
5
39
2
10
94.904099
20
429.142262
11
94.828189
21
428.350219
0
LINE
8
boundary
62
5
39
2
10
94.828189
20
428.350219
11
94.572976
21
425.687292
0
LINE
8
boundary
62
5
39
2
10
94.572976
20
425.687292
11
97.397976
21
422.787292
0
LINE
8
boundary
62
5
39
2
10
97.397976
20
422.787292
11
103.157037
21
422.787292
0
LINE
8
boundary
62
5
39
2
10
103.157037
20
422.787292
11
103.922404
21
422.635051
0
LINE
8
boundary
62
5
39
2
10
103.922404
20
422.635051
11
104.571251
21
422.201505
0
LINE
8
boundary
62
5
39
2
10
104.571251
20
422.201505
11
105.004797
21
421.552658
0
LINE
8
boundary
62
5
39
2
10
105.004797
20
421.552658
11
105.157037
21
420.787292
0
LINE
8
boundary
62
5
39
2
10
105.157037
20
420.787292
11
105.004796
21
420.021925
0
LINE
8
boundary
62
5
39
2
10
105.004796
20
420.021925
11
104.571251
21
419.373078
0
LINE
8
boundary
62
5
39
2
10
104.571251
20
419.373078
11
103.922404
21
418.939533
0
LINE
8
boundary
62
5
39
2
10
103.922404
20
418.939533
11
103.157037
21
418.787292
0
LINE
8
boundary
62
5
39
2
10
103.157037
20
418.787292
11
103.157037
21
415.287292
0
LINE
8
boundary
62
5
39
2
10
103.157037
20
415.287292
11
103.922404
21
415.135051
0
LINE
8
boundary
62
5
39
2
10
103.922404
20
415.135051
11
104.571251
21
414.701506
0
LINE
8
boundary
62
5
39
2
10
104.571251
20
414.701506
11
105.004796
21
414.052658
0
LINE
8
boundary
62
5
39
2
10
105.004796
20
414.052658
11
105.157037
21
413.287292
0
LINE
8
boundary
62
5
39
2
10
105.157037
20
413.287292
11
105.004797
21
412.521925
0
LINE
8
boundary
62
5
39
2
10
105.004797
20
412.521925
11
104.571251
21
411.873078
0
LINE
8
boundary
62
5
39
2
10
104.571251
20
411.873078
11
103.922404
21
411.439533
0
LINE
8
boundary
62
5
39
2
10
103.922404
20
411.439533
11
103.157037
21
411.287292
0
LINE
8
boundary
62
5
39
2
10
103.157037
20
411.287292
11
93.560288
21
411.287292
0
LINE
8
boundary
62
5
39
2
10
93.560288
20
411.287292
11
90.735288
21
408.387292
0
LINE
8
boundary
62
5
39
2
10
90.735288
20
408.387292
11
89.805020
21
405.522594
0
LINE
8
boundary
62
5
39
2
10
89.805020
20
405.522594
11
89.684503
21
405.194044
0
LINE
8
boundary
62
5
39
2
10
89.684503
20
405.194044
11
89.314382
21
404.185033
0
LINE
8
boundary
62
5
39
2
10
89.314382
20
404.185033
11
88.359703
21
401.886826
0
LINE
8
boundary
62
5
39
2
10
88.359703
20
401.886826
11
87.957599
21
400.918828
0
LINE
8
boundary
62
5
39
2
10
87.957599
20
400.918828
11
86.868433
21
398.568389
0
LINE
8
boundary
62
5
39
2
10
86.868433
20
398.568389
11
85.687057
21
396.018952
0
LINE
8
boundary
62
5
39
2
10
85.687057
20
396.018952
11
85.229708
21
395.123897
0
LINE
8
boundary
62
5
39
2
10
85.229708
20
395.123897
11
84.262568
21
393.231176
0
LINE
8
boundary
62
5
39
2
10
84.262568
20
393.231176
11
83.386520
21
391.709466
0
LINE
8
boundary
62
5
39
2
10
83.386520
20
391.709466
11
82.862949
21
390.800008
0
LINE
8
boundary
62
5
39
2
10
82.862949
20
390.800008
11
81.331812
21
388.371274
0
LINE
8
boundary
62
5
39
2
10
81.331812
20
388.371274
11
79.355611
21
385.236591
0
LINE
8
boundary
62
5
39
2
10
79.355611
20
385.236591
11
79.105300
21
384.871143
0
LINE
8
boundary
62
5
39
2
10
79.105300
20
384.871143
11
78.723560
21
384.313811
0
LINE
8
boundary
62
5
39
2
10
78.723560
20
384.313811
11
76.625677
21
381.594625
0
LINE
8
boundary
62
5
39
2
10
76.625677
20
381.594625
11
74.922185
21
379.386632
0
LINE
8
boundary
62
5
39
2
10
74.922185
20
379.386632
11
73.953737
21
378.227555
0
LINE
8
boundary
62
5
39
2
10
73.953737
20
378.227555
11
72.731483
21
376.764712
0
LINE
8
boundary
62
5
39
2
10
72.731483
20
376.764712
11
71.046238
21
374.975150
0
LINE
8
boundary
62
5
39
2
10
71.046238
20
374.975150
11
70.157875
21
374.031796
0
LINE
8
boundary
62
5
39
2
10
70.157875
20
374.031796
11
72.982875
21
371.131796
0
LINE
8
boundary
62
5
39
2
10
72.982875
20
371.131796
11
74.726563
21
371.131796
0
LINE
8
boundary
62
5
39
2
10
74.726563
20
371.131796
11
75.491930
21
370.979556
0
LINE
8
boundary
62
5
39
2
10
75.491930
20
370.979556
11
76.140777
21
370.546010
0
LINE
8
boundary
62
5
39
2
10
76.140777
20
370.546010
11
76.574322
21
369.897163
0
LINE
8
boundary
62
5
39
2
10
76.574322
20
369.897163
11
76.726563
21
369.131796
0
LINE
8
boundary
62
5
39
2
10
76.726563
20
369.131796
11
76.574322
21
368.366430
0
LINE
8
boundary
62
5
39
2
10
76.574322
20
368.366430
11
76.140776
21
367.717583
0
LINE
8
boundary
62
5
39
2
10
76.140776
20
367.717583
11
75.491930
21
367.284037
0
LINE
8
boundary
62
5
39
2
10
75.491930
20
367.284037
11
74.726563
21
367.131797
0
LINE
8
boundary
62
5
39
2
10
74.726563
20
367.131797
11
74.726563
21
363.631796
0
LINE
8
boundary
62
5
39
2
10
74.726563
20
363.631796
11
75.491930
21
363.479555
0
LINE
8
boundary
62
5
39
2
10
75.491930
20
363.479555
11
76.140776
21
363.046010
0
LINE
8
boundary
62
5
39
2
10
76.140776
20
363.046010
11
76.574322
21
362.397163
0
LINE
8
boundary
62
5
39
2
10
76.574322
20
362.397163
11
76.726563
21
361.631797
0
LINE
8
boundary
62
5
39
2
10
76.726563
20
361.631797
11
76.574322
21
360.866429
0
LINE
8
boundary
62
5
39
2
10
76.574322
20
360.866429
11
76.140776
21
360.217583
0
LINE
8
boundary
62
5
39
2
10
76.140776
20
360.217583
11
75.491930
21
359.784038
0
LINE
8
boundary
62
5
39
2
10
75.491930
20
359.784038
11
74.726563
21
359.631796
0
LINE
8
boundary
62
5
39
2
10
74.726563
20
359.631796
11
52.401299
21
359.631797
0
LINE
8
boundary
62
5
39
2
10
52.401299
20
359.631797
11
49.039770
21
357.764424
0
LINE
8
boundary
62
5
39
2
10
49.039770
20
357.764424
11
45.008496
21
355.525007
0
LINE
8
boundary
62
5
39
2
10
45.008496
20
355.525007
11
44.674563
21
355.367152
0
LINE
8
boundary
62
5
39
2
10
44.674563
20
355.367152
11
44.183506
21
355.135022
0
LINE
8
boundary
62
5
39
2
10
44.183506
20
355.135022
11
37.738869
21
352.315997
0
LINE
8
boundary
62
5
39
2
10
37.738869
20
352.315997
11
37.738869
21
322.376301
0
LINE
8
boundary
62
5
39
2
10
37.738869
20
322.376301
11
40.563869
21
319.476301
0
LINE
8
boundary
62
5
39
2
10
40.563869
20
319.476301
11
46.684950
21
319.476302
0
LINE
8
boundary
62
5
39
2
10
46.684950
20
319.476302
11
47.450317
21
319.324060
0
LINE
8
boundary
62
5
39
2
10
47.450317
20
319.324060
11
48.099163
21
318.890515
0
LINE
8
boundary
62
5
39
2
10
48.099163
20
318.890515
11
48.532709
21
318.241668
0
LINE
8
boundary
62
5
39
2
10
48.532709
20
318.241668
11
48.684950
21
317.476301
0
LINE
8
boundary
62
5
39
2
10
48.684950
20
317.476301
11
48.532709
21
316.710934
0
LINE
8
boundary
62
5
39
2
10
48.532709
20
316.710934
11
48.099164
21
316.062087
0
LINE
8
boundary
62
5
39
2
10
48.099164
20
316.062087
11
47.450317
21
315.628542
0
LINE
8
boundary
62
5
39
2
10
47.450317
20
315.628542
11
46.684950
21
315.476301
0
LINE
8
boundary
62
5
39
2
10
46.684950
20
315.476301
11
46.684950
21
311.976301
0
LINE
8
boundary
62
5
39
2
10
46.684950
20
311.976301
11
47.450317
21
311.824060
0
LINE
8
boundary
62
5
39
2
10
47.450317
20
311.824060
11
48.099164
21
311.390515
0
LINE
8
boundary
62
5
39
2
10
48.099164
20
311.390515
11
48.532709
21
310.741668
0
LINE
8
boundary
62
5
39
2
10
48.532709
20
310.741668
11
48.684950
21
309.976301
0
LINE
8
boundary
62
5
39
2
10
48.684950
20
309.976301
11
48.532709
21
309.210934
0
LINE
8
boundary
62
5
39
2
10
48.532709
20
309.210934
11
48.099163
21
308.562088
0
LINE
8
boundary
62
5
39
2
10
48.099163
20
308.562088
11
47.450317
21
308.128542
0
LINE
8
boundary
62
5
39
2
10
47.450317
20
308.128542
11
46.684950
21
307.976301
0
LINE
8
boundary
62
5
39
2
10
46.684950
20
307.976301
11
40.563869
21
307.976301
0
LINE
8
boundary
62
5
39
2
10
40.563869
20
307.976301
11
37.738869
21
305.076302
0
LINE
8
boundary
62
5
39
2
10
37.738869
20
305.076302
11
37.738869
21
271.243054
0
LINE
8
boundary
62
5
39
2
10
37.738869
20
271.243054
11
37.693485
21
270.720806
0
LINE
8
boundary
62
5
39
2
10
37.693485
20
270.720806
11
40.518485
21
267.820806
0
LINE
8
boundary
62
5
39
2
10
40.518485
20
267.820806
11
44.179352
21
267.820806
0
LINE
8
boundary
62
5
39
2
10
44.179352
20
267.820806
11
44.944719
21
267.668565
0
LINE
8
boundary
62
5
39
2
10
44.944719
20
267.668565
11
45.593566
21
267.235019
0
LINE
8
boundary
62
5
39
2
10
45.593566
20
267.235019
11
46.027111
21
266.586173
0
LINE
8
boundary
62
5
39
2
10
46.027111
20
266.586173
11
46.179352
21
265.820806
0
LINE
8
boundary
62
5
39
2
10
46.179352
20
265.820806
11
46.027111
21
265.055439
0
LINE
8
boundary
62
5
39
2
10
46.027111
20
265.055439
11
45.593566
21
264.406592
0
LINE
8
boundary
62
5
39
2
10
45.593566
20
264.406592
11
44.944719
21
263.973047
0
LINE
8
boundary
62
5
39
2
10
44.944719
20
263.973047
11
44.179352
21
263.820806
0
LINE
8
boundary
62
5
39
2
10
44.179352
20
263.820806
11
44.179352
21
260.320806
0
LINE
8
boundary
62
5
39
2
10
44.179352
20
260.320806
11
44.944719
21
260.168565
0
LINE
8
boundary
62
5
39
2
10
44.944719
20
260.168565
11
45.593566
21
259.735020
0
LINE
8
boundary
62
5
39
2
10
45.593566
20
259.735020
11
46.027111
21
259.086173
0
LINE
8
boundary
62
5
39
2
10
46.027111
20
259.086173
11
46.179352
21
258.320806
0
LINE
8
boundary
62
5
39
2
10
46.179352
20
258.320806
11
46.027111
21
257.555439
0
LINE
8
boundary
62
5
39
2
10
46.027111
20
257.555439
11
45.593566
21
256.906592
0
LINE
8
boundary
62
5
39
2
10
45.593566
20
256.906592
11
44.944719
21
256.473047
0
LINE
8
boundary
62
5
39
2
10
44.944719
20
256.473047
11
44.179352
21
256.320806
0
LINE
8
boundary
62
5
39
2
10
44.179352
20
256.320806
11
29.336447
21
256.320806
0
LINE
8
boundary
62
5
39
2
10
29.336447
20
256.320806
11
29.094746
21
256.149244
0
LINE
8
boundary
62
5
39
2
10
29.094746
20
256.149244
11
26.358321
21
254.847870
0
LINE
8
boundary
62
5
39
2
10
26.358321
20
254.847870
11
23.438434
21
254.038035
0
LINE
8
boundary
62
5
39
2
10
23.438434
20
254.038035
11
20.422623
21
253.744025
0
LINE
8
boundary
62
5
39
2
10
20.422623
20
253.744025
11
20.238865
21
253.743057
0
LINE
8
boundary
62
5
39
2
10
20.238865
20
253.743057
11
18.504310
21
253.743056
0
LINE
8
boundary
62
5
39
2
10
18.504310
20
253.743056
11
18.143431
21
253.743055
0
LINE
8
boundary
62
5
39
2
10
18.143431
20
253.743055
11
16.290306
21
253.743056
0
LINE
8
boundary
62
5
39
2
10
16.290306
20
253.743056
11
15.581591
21
253.743056
0
LINE
8
boundary
62
5
39
2
10
15.581591
20
253.743056
11
13.676875
21
253.743056
0
LINE
8
boundary
62
5
39
2
10
13.676875
20
253.743056
11
12.645939
21
253.743056
0
LINE
8
boundary
62
5
39
2
10
12.645939
20
253.743056
11
10.758471
21
253.743056
0
LINE
8
boundary
62
5
39
2
10
10.758471
20
253.743056
11
9.442574
21
253.743057
0
LINE
8
boundary
62
5
39
2
10
9.442574
20
253.743057
11
8.901417
21
253.743057
0
LINE
8
boundary
62
5
39
2
10
8.901417
20
253.743057
11
8.587500
21
253.420806
0
LINE
8
annotation
62
1
39
211
10
52.162050
20
259.156649
11
52.162050
21
264.984963
0
LINE
8
annotation
62
1
39
211
10
52.162050
20
264.984963
11
50.866341
21
263.688888
0
LINE
8
annotation
62
1
39
211
10
54.695264
20
311.022230
11
52.293417
21
311.022230
0
LINE
8
annotation
62
1
39
211
10
52.293417
20
311.022230
11
54.512802
21
314.595155
0
LINE
8
annotation
62
1
39
211
10
54.512802
20
314.595155
11
54.512802
21
314.595155
0
LINE
8
annotation
62
1
39
211
10
54.512802
20
314.595155
11
54.515456
21
314.598438
0
LINE
8
annotation
62
1
39
211
10
54.515456
20
314.598438
11
54.518000
21
314.601749
0
LINE
8
annotation
62
1
39
211
10
54.518000
20
314.601749
11
54.520452
21
314.605116
0
LINE
8
annotation
62
1
39
211
10
54.520452
20
314.605116
11
54.522829
21
314.608566
0
LINE
8
annotation
62
1
39
211
10
54.522829
20
314.608566
11
54.525147
21
314.612128
0
LINE
8
annotation
62
1
39
211
10
54.525147
20
314.612128
11
54.527424
21
314.615830
0
LINE
8
annotation
62
1
39
211
10
54.527424
20
314.615830
11
54.529675
21
314.619699
0
LINE
8
annotation
62
1
39
211
10
54.529675
20
314.619699
11
54.531918
21
314.623764
0
LINE
8
annotation
62
1
39
211
10
54.531918
20
314.623764
11
54.534169
21
314.628052
0
LINE
8
annotation
62
1
39
211
10
54.534169
20
314.628052
11
54.534169
21
314.628052
0
LINE
8
annotation
62
1
39
211
10
54.534169
20
314.628052
11
54.625807
21
314.824806
0
LINE
8
annotation
62
1
39
211
10
54.625807
20
314.824806
11
54.679340
21
315.028759
0
LINE
8
annotation
62
1
39
211
10
54.679340
20
315.028759
11
54.696081
21
315.235303
0
LINE
8
annotation
62
1
39
211
10
54.696081
20
315.235303
11
54.677340
21
315.439828
0
LINE
8
annotation
62
1
39
211
10
54.677340
20
315.439828
11
54.624432
21
315.637727
0
LINE
8
annotation
62
1
39
211
10
54.624432
20
315.637727
11
54.538666
21
315.824391
0
LINE
8
annotation
62
1
39
211
10
54.538666
20
315.824391
11
54.421355
21
315.995211
0
LINE
8
annotation
62
1
39
211
10
54.421355
20
315.995211
11
54.273811
21
316.145578
0
LINE
8
annotation
62
1
39
211
10
54.273811
20
316.145578
11
54.097346
21
316.270885
0
LINE
8
annotation
62
1
39
211
10
54.097346
20
316.270885
11
54.097346
21
316.270885
0
LINE
8
annotation
62
1
39
211
10
54.097346
20
316.270885
11
53.900045
21
316.361221
0
LINE
8
annotation
62
1
39
211
10
53.900045
20
316.361221
11
53.695779
21
316.413930
0
LINE
8
annotation
62
1
39
211
10
53.695779
20
316.413930
11
53.489115
21
316.430197
0
LINE
8
annotation
62
1
39
211
10
53.489115
20
316.430197
11
53.284621
21
316.411210
0
LINE
8
annotation
62
1
39
211
10
53.284621
20
316.411210
11
53.086862
21
316.358154
0
LINE
8
annotation
62
1
39
211
10
53.086862
20
316.358154
11
52.900405
21
316.272217
0
LINE
8
annotation
62
1
39
211
10
52.900405
20
316.272217
11
52.729816
21
316.154584
0
LINE
8
annotation
62
1
39
211
10
52.729816
20
316.154584
11
52.579664
21
316.006441
0
LINE
8
annotation
62
1
39
211
10
52.579664
20
316.006441
11
52.454513
21
315.828975
0
LINE
8
annotation
62
1
39
211
10
52.454513
20
315.828975
11
52.296809
21
315.526455
0
LINE
8
annotation
62
1
39
211
10
81.575069
20
362.074735
11
83.043906
21
362.074735
0
LINE
8
annotation
62
1
39
211
10
83.043906
20
362.074735
11
83.043906
21
362.074735
0
LINE
8
annotation
62
1
39
211
10
83.043906
20
362.074735
11
83.308080
21
362.098433
0
LINE
8
annotation
62
1
39
211
10
83.308080
20
362.098433
11
83.556658
21
362.166733
0
LINE
8
annotation
62
1
39
211
10
83.556658
20
362.166733
11
83.785507
21
362.275441
0
LINE
8
annotation
62
1
39
211
10
83.785507
20
362.275441
11
83.990491
21
362.420366
0
LINE
8
annotation
62
1
39
211
10
83.990491
20
362.420366
11
84.167477
21
362.597314
0
LINE
8
annotation
62
1
39
211
10
84.167477
20
362.597314
11
84.312329
21
362.802094
0
LINE
8
annotation
62
1
39
211
10
84.312329
20
362.802094
11
84.420914
21
363.030513
0
LINE
8
annotation
62
1
39
211
10
84.420914
20
363.030513
11
84.489097
21
363.278379
0
LINE
8
annotation
62
1
39
211
10
84.489097
20
363.278379
11
84.512743
21
363.541498
0
LINE
8
annotation
62
1
39
211
10
84.512743
20
363.541498
11
84.512743
21
364.276954
0
LINE
8
annotation
62
1
39
211
10
84.512743
20
364.276954
11
84.512743
21
364.276954
0
LINE
8
annotation
62
1
39
211
10
84.512743
20
364.276954
11
84.489097
21
364.539964
0
LINE
8
annotation
62
1
39
211
10
84.489097
20
364.539964
11
84.420914
21
364.787772
0
LINE
8
annotation
62
1
39
211
10
84.420914
20
364.787772
11
84.312329
21
365.016173
0
LINE
8
annotation
62
1
39
211
10
84.312329
20
365.016173
11
84.167477
21
365.220967
0
LINE
8
annotation
62
1
39
211
10
84.167477
20
365.220967
11
83.990491
21
365.397950
0
LINE
8
annotation
62
1
39
211
10
83.990491
20
365.397950
11
83.785507
21
365.542919
0
LINE
8
annotation
62
1
39
211
10
83.785507
20
365.542919
11
83.556658
21
365.651672
0
LINE
8
annotation
62
1
39
211
10
83.556658
20
365.651672
11
83.308080
21
365.720005
0
LINE
8
annotation
62
1
39
211
10
83.308080
20
365.720005
11
83.043906
21
365.743717
0
LINE
8
annotation
62
1
39
211
10
83.043906
20
365.743717
11
82.308450
21
365.743717
0
LINE
8
annotation
62
1
39
211
10
82.308450
20
365.743717
11
83.043906
21
365.743717
0
LINE
8
annotation
62
1
39
211
10
83.043906
20
365.743717
11
83.043906
21
365.743717
0
LINE
8
annotation
62
1
39
211
10
83.043906
20
365.743717
11
83.308080
21
365.767435
0
LINE
8
annotation
62
1
39
211
10
83.308080
20
365.767435
11
83.556658
21
365.835808
0
LINE
8
annotation
62
1
39
211
10
83.556658
20
365.835808
11
83.785507
21
365.944669
0
LINE
8
annotation
62
1
39
211
10
83.785507
20
365.944669
11
83.990491
21
366.089848
0
LINE
8
annotation
62
1
39
211
10
83.990491
20
366.089848
11
84.167477
21
366.267178
0
LINE
8
annotation
62
1
39
211
10
84.167477
20
366.267178
11
84.312329
21
366.472490
0
LINE
8
annotation
62
1
39
211
10
84.312329
20
366.472490
11
84.420914
21
366.701614
0
LINE
8
annotation
62
1
39
211
10
84.420914
20
366.701614
11
84.489097
21
366.950383
0
LINE
8
annotation
62
1
39
211
10
84.489097
20
366.950383
11
84.512743
21
367.214628
0
LINE
8
annotation
62
1
39
211
10
84.512743
20
367.214628
11
84.512743
21
367.214628
0
LINE
8
annotation
62
1
39
211
10
84.512743
20
367.214628
11
84.489097
21
367.477639
0
LINE
8
annotation
62
1
39
211
10
84.489097
20
367.477639
11
84.420914
21
367.725446
0
LINE
8
annotation
62
1
39
211
10
84.420914
20
367.725446
11
84.312329
21
367.953848
0
LINE
8
annotation
62
1
39
211
10
84.312329
20
367.953848
11
84.167477
21
368.158642
0
LINE
8
annotation
62
1
39
211
10
84.167477
20
368.158642
11
83.990491
21
368.335624
0
LINE
8
annotation
62
1
39
211
10
83.990491
20
368.335624
11
83.785507
21
368.480593
0
LINE
8
annotation
62
1
39
211
10
83.785507
20
368.480593
11
83.556658
21
368.589346
0
LINE
8
annotation
62
1
39
211
10
83.556658
20
368.589346
11
83.308080
21
368.657680
0
LINE
8
annotation
62
1
39
211
10
83.308080
20
368.657680
11
83.043906
21
368.681392
0
LINE
8
annotation
62
1
39
211
10
83.043906
20
368.681392
11
81.575069
21
368.681392
0
LINE
8
annotation
62
1
39
211
10
111.949878
20
415.447913
11
108.771838
21
415.447913
0
LINE
8
annotation
62
1
39
211
10
108.771838
20
415.447913
11
110.041044
21
419.899107
0
LINE
8
annotation
62
1
39
211
10
110.997256
20
414.175476
11
110.997256
21
416.717478
0
LINE
8
annotation
62
1
39
211
10
106.465748
20
460.702613
11
107.953640
21
460.702613
0
LINE
8
annotation
62
1
39
211
10
107.953640
20
460.702613
11
107.953640
21
460.702613
0
LINE
8
annotation
62
1
39
211
10
107.953640
20
460.702613
11
108.220688
21
460.726624
0
LINE
8
annotation
62
1
39
211
10
108.220688
20
460.726624
11
108.472197
21
460.795846
0
LINE
8
annotation
62
1
39
211
10
108.472197
20
460.795846
11
108.703928
21
460.906063
0
LINE
8
annotation
62
1
39
211
10
108.703928
20
460.906063
11
108.911641
21
461.053060
0
LINE
8
annotation
62
1
39
211
10
108.911641
20
461.053060
11
109.091095
21
461.232620
0
LINE
8
annotation
62
1
39
211
10
109.091095
20
461.232620
11
109.238052
21
461.440529
0
LINE
8
annotation
62
1
39
211
10
109.238052
20
461.440529
11
109.348270
21
461.672570
0
LINE
8
annotation
62
1
39
211
10
109.348270
20
461.672570
11
109.417510
21
461.924528
0
LINE
8
annotation
62
1
39
211
10
109.417510
20
461.924528
11
109.441532
21
462.192186
0
LINE
8
annotation
62
1
39
211
10
109.441532
20
462.192186
11
109.441532
21
462.933401
0
LINE
8
annotation
62
1
39
211
10
109.441532
20
462.933401
11
109.441532
21
462.933401
0
LINE
8
annotation
62
1
39
211
10
109.441532
20
462.933401
11
109.417524
21
463.200930
0
LINE
8
annotation
62
1
39
211
10
109.417524
20
463.200930
11
109.348318
21
463.452540
0
LINE
8
annotation
62
1
39
211
10
109.348318
20
463.452540
11
109.238145
21
463.684078
0
LINE
8
annotation
62
1
39
211
10
109.238145
20
463.684078
11
109.091233
21
463.891390
0
LINE
8
annotation
62
1
39
211
10
109.091233
20
463.891390
11
108.911814
21
464.070323
0
LINE
8
annotation
62
1
39
211
10
108.911814
20
464.070323
11
108.704115
21
464.216723
0
LINE
8
annotation
62
1
39
211
10
108.704115
20
464.216723
11
108.472366
21
464.326437
0
LINE
8
annotation
62
1
39
211
10
108.472366
20
464.326437
11
108.220798
21
464.395312
0
LINE
8
annotation
62
1
39
211
10
108.220798
20
464.395312
11
107.953640
21
464.419193
0
LINE
8
annotation
62
1
39
211
10
107.953640
20
464.419193
11
106.465748
21
464.419193
0
LINE
8
annotation
62
1
39
211
10
106.465748
20
464.419193
11
106.465748
21
467.402961
0
LINE
8
annotation
62
1
39
211
10
106.465748
20
467.402961
11
109.441532
21
467.402961
0
LINE
8
annotation
62
1
39
211
10
67.511612
20
519.849775
11
67.511612
21
519.849775
0
LINE
8
annotation
62
1
39
211
10
67.511612
20
519.849775
11
66.984689
21
519.652210
0
LINE
8
annotation
62
1
39
211
10
66.984689
20
519.652210
11
66.501168
21
519.386015
0
LINE
8
annotation
62
1
39
211
10
66.501168
20
519.386015
11
66.066012
21
519.057860
0
LINE
8
annotation
62
1
39
211
10
66.066012
20
519.057860
11
65.684185
21
518.674413
0
LINE
8
annotation
62
1
39
211
10
65.684185
20
518.674413
11
65.360651
21
518.242344
0
LINE
8
annotation
62
1
39
211
10
65.360651
20
518.242344
11
65.100374
21
517.768322
0
LINE
8
annotation
62
1
39
211
10
65.100374
20
517.768322
11
64.908316
21
517.259017
0
LINE
8
annotation
62
1
39
211
10
64.908316
20
517.259017
11
64.789441
21
516.721098
0
LINE
8
annotation
62
1
39
211
10
64.789441
20
516.721098
11
64.748713
21
516.161234
0
LINE
8
annotation
62
1
39
211
10
64.748713
20
516.161234
11
64.748713
21
513.408204
0
LINE
8
annotation
62
1
39
211
10
64.748713
20
513.408204
11
64.748713
21
513.408204
0
LINE
8
annotation
62
1
39
211
10
64.748713
20
513.408204
11
64.778409
21
513.077323
0
LINE
8
annotation
62
1
39
211
10
64.778409
20
513.077323
11
64.864004
21
512.765853
0
LINE
8
annotation
62
1
39
211
10
64.864004
20
512.765853
11
65.000256
21
512.479003
0
LINE
8
annotation
62
1
39
211
10
65.000256
20
512.479003
11
65.181924
21
512.221986
0
LINE
8
annotation
62
1
39
211
10
65.181924
20
512.221986
11
65.403766
21
512.000013
0
LINE
8
annotation
62
1
39
211
10
65.403766
20
512.000013
11
65.660541
21
511.818295
0
LINE
8
annotation
62
1
39
211
10
65.660541
20
511.818295
11
65.947007
21
511.682044
0
LINE
8
annotation
62
1
39
211
10
65.947007
20
511.682044
11
66.257924
21
511.596472
0
LINE
8
annotation
62
1
39
211
10
66.257924
20
511.596472
11
66.588049
21
511.566790
0
LINE
8
annotation
62
1
39
211
10
66.588049
20
511.566790
11
66.588049
21
511.566790
0
LINE
8
annotation
62
1
39
211
10
66.588049
20
511.566790
11
66.918858
21
511.596472
0
LINE
8
annotation
62
1
39
211
10
66.918858
20
511.596472
11
67.230137
21
511.682044
0
LINE
8
annotation
62
1
39
211
10
67.230137
20
511.682044
11
67.516711
21
511.818295
0
LINE
8
annotation
62
1
39
211
10
67.516711
20
511.818295
11
67.773400
21
512.000013
0
LINE
8
annotation
62
1
39
211
10
67.773400
20
512.000013
11
67.995028
21
512.221986
0
LINE
8
annotation
62
1
39
211
10
67.995028
20
512.221986
11
68.176418
21
512.479003
0
LINE
8
annotation
62
1
39
211
10
68.176418
20
512.479003
11
68.312392
21
512.765853
0
LINE
8
annotation
62
1
39
211
10
68.312392
20
512.765853
11
68.397774
21
513.077323
0
LINE
8
annotation
62
1
39
211
10
68.397774
20
513.077323
11
68.427384
21
513.408204
0
LINE
8
annotation
62
1
39
211
10
68.427384
20
513.408204
11
68.427384
21
514.324495
0
LINE
8
annotation
62
1
39
211
10
68.427384
20
514.324495
11
68.427384
21
514.324495
0
LINE
8
annotation
62
1
39
211
10
68.427384
20
514.324495
11
68.397774
21
514.655215
0
LINE
8
annotation
62
1
39
211
10
68.397774
20
514.655215
11
68.312392
21
514.966256
0
LINE
8
annotation
62
1
39
211
10
68.312392
20
514.966256
11
68.176418
21
515.252484
0
LINE
8
annotation
62
1
39
211
10
68.176418
20
515.252484
11
67.995028
21
515.508763
0
LINE
8
annotation
62
1
39
211
10
67.995028
20
515.508763
11
67.773400
21
515.729961
0
LINE
8
annotation
62
1
39
211
10
67.773400
20
515.729961
11
67.516711
21
515.910941
0
LINE
8
annotation
62
1
39
211
10
67.516711
20
515.910941
11
67.230137
21
516.046569
0
LINE
8
annotation
62
1
39
211
10
67.230137
20
516.046569
11
66.918858
21
516.131712
0
LINE
8
annotation
62
1
39
211
10
66.918858
20
516.131712
11
66.588049
21
516.161234
0
LINE
8
annotation
62
1
39
211
10
66.588049
20
516.161234
11
64.748713
21
516.161234
0
LINE
8
annotation
62
1
39
211
10
64.518341
20
510.531417
11
68.659834
21
510.531417
0
LINE
8
annotation
62
1
39
211
10
20.143036
20
536.816060
11
18.282674
21
534.125217
0
LINE
8
annotation
62
1
39
211
10
18.282674
20
534.125217
11
16.421963
21
536.816060
0
LINE
8
annotation
62
1
39
211
10
18.282674
20
534.341758
11
18.282674
21
531.237423
0
LINE
8
annotation
62
1
39
211
10
25.285705
20
534.026742
11
22.235594
21
534.026742
0
LINE
8
annotation
62
1
39
211
10
29.854910
20
531.237553
11
27.377459
21
531.237553
0
LINE
8
annotation
62
1
39
211
10
27.377459
20
531.237553
11
29.666705
21
534.922944
0
LINE
8
annotation
62
1
39
211
10
29.666705
20
534.922944
11
29.666705
21
534.922944
0
LINE
8
annotation
62
1
39
211
10
29.666705
20
534.922944
11
29.669442
21
534.926331
0
LINE
8
annotation
62
1
39
211
10
29.669442
20
534.926331
11
29.672066
21
534.929746
0
LINE
8
annotation
62
1
39
211
10
29.672066
20
534.929746
11
29.674596
21
534.933219
0
LINE
8
annotation
62
1
39
211
10
29.674596
20
534.933219
11
29.677047
21
534.936778
0
LINE
8
annotation
62
1
39
211
10
29.677047
20
534.936778
11
29.679438
21
534.940452
0
LINE
8
annotation
62
1
39
211
10
29.679438
20
534.940452
11
29.681786
21
534.944271
0
LINE
8
annotation
62
1
39
211
10
29.681786
20
534.944271
11
29.684108
21
534.948262
0
LINE
8
annotation
62
1
39
211
10
29.684108
20
534.948262
11
29.686422
21
534.952454
0
LINE
8
annotation
62
1
39
211
10
29.686422
20
534.952454
11
29.688744
21
534.956877
0
LINE
8
annotation
62
1
39
211
10
29.688744
20
534.956877
11
29.688744
21
534.956877
0
LINE
8
annotation
62
1
39
211
10
29.688744
20
534.956877
11
29.783266
21
535.159825
0
LINE
8
annotation
62
1
39
211
10
29.783266
20
535.159825
11
29.838485
21
535.370198
0
LINE
8
annotation
62
1
39
211
10
29.838485
20
535.370198
11
29.855752
21
535.583243
0
LINE
8
annotation
62
1
39
211
10
29.855752
20
535.583243
11
29.836422
21
535.794206
0
LINE
8
annotation
62
1
39
211
10
29.836422
20
535.794206
11
29.781848
21
535.998334
0
LINE
8
annotation
62
1
39
211
10
29.781848
20
535.998334
11
29.693382
21
536.190874
0
LINE
8
annotation
62
1
39
211
10
29.693382
20
536.190874
11
29.572379
21
536.367070
0
LINE
8
annotation
62
1
39
211
10
29.572379
20
536.367070
11
29.420191
21
536.522171
0
LINE
8
annotation
62
1
39
211
10
29.420191
20
536.522171
11
29.238171
21
536.651423
0
LINE
8
annotation
62
1
39
211
10
29.238171
20
536.651423
11
29.238171
21
536.651423
0
LINE
8
annotation
62
1
39
211
10
29.238171
20
536.651423
11
29.034659
21
536.744602
0
LINE
8
annotation
62
1
39
211
10
29.034659
20
536.744602
11
28.823964
21
536.798970
0
LINE
8
annotation
62
1
39
211
10
28.823964
20
536.798970
11
28.610795
21
536.815749
0
LINE
8
annotation
62
1
39
211
10
28.610795
20
536.815749
11
28.399863
21
536.796164
0
LINE
8
annotation
62
1
39
211
10
28.399863
20
536.796164
11
28.195879
21
536.741439
0
LINE
8
annotation
62
1
39
211
10
28.195879
20
536.741439
11
28.003553
21
536.652796
0
LINE
8
annotation
62
1
39
211
10
28.003553
20
536.652796
11
27.827595
21
536.531460
0
LINE
8
annotation
62
1
39
211
10
27.827595
20
536.531460
11
27.672716
21
536.378654
0
LINE
8
annotation
62
1
39
211
10
27.672716
20
536.378654
11
27.543626
21
536.195603
0
LINE
8
annotation
62
1
39
211
10
27.543626
20
536.195603
11
27.380958
21
535.883560
0
LINE
8
boundary
62
5
39
2
10
45.725007
20
568.303225
11
48.534597
21
571.692105
0
LINE
8
boundary
62
5
39
2
10
48.534597
20
571.692105
11
50.896573
21
575.406849
0
LINE
8
boundary
62
5
39
2
10
50.896573
20
575.406849
11
52.773576
21
579.388704
0
LINE
8
boundary
62
5
39
2
10
52.773576
20
579.388704
11
54.135913
21
583.574677
0
LINE
8
boundary
62
5
39
2
10
54.135913
20
583.574677
11
54.962034
21
587.898541
0
LINE
8
boundary
62
5
39
2
10
54.962034
20
587.898541
11
55.238868
21
592.291901
0
LINE
8
boundary
62
5
39
2
10
55.238868
20
592.291901
11
55.238868
21
627.291919
0
LINE
8
boundary
62
5
39
2
10
55.238868
20
627.291919
11
55.489955
21
633.072001
0
LINE
8
boundary
62
5
39
2
10
55.489955
20
633.072001
11
55.892192
21
635.913717
0
LINE
8
boundary
62
5
39
2
10
55.892192
20
635.913717
11
56.300922
21
638.801309
0
LINE
8
boundary
62
5
39
2
10
56.300922
20
638.801309
11
56.964041
21
641.578836
0
LINE
8
boundary
62
5
39
2
10
56.964041
20
641.578836
11
57.644610
21
644.429466
0
LINE
8
boundary
62
5
39
2
10
57.644610
20
644.429466
11
58.560610
21
647.120358
0
LINE
8
boundary
62
5
39
2
10
58.560610
20
647.120358
11
59.509210
21
649.907008
0
LINE
8
boundary
62
5
39
2
10
59.509210
20
649.907008
11
60.668467
21
652.490022
0
LINE
8
boundary
62
5
39
2
10
60.668467
20
652.490022
11
61.878338
21
655.185809
0
LINE
8
boundary
62
5
39
2
10
61.878338
20
655.185809
11
63.269714
21
657.640817
0
LINE
8
boundary
62
5
39
2
10
63.269714
20
657.640817
11
64.731173
21
660.219489
0
LINE
8
boundary
62
5
39
2
10
64.731173
20
660.219489
11
66.342072
21
662.527407
0
LINE
8
boundary
62
5
39
2
10
66.342072
20
662.527407
11
68.042646
21
664.963795
0
LINE
8
boundary
62
5
39
2
10
68.042646
20
664.963795
11
69.859048
21
667.106597
0
LINE
8
boundary
62
5
39
2
10
69.859048
20
667.106597
11
71.783651
21
669.377046
0
LINE
8
boundary
62
5
39
2
10
71.783651
20
669.377046
11
73.790103
21
671.337787
0
LINE
8
boundary
62
5
39
2
10
73.790103
20
671.337787
11
75.921321
21
673.420449
0
LINE
8
boundary
62
5
39
2
10
75.921321
20
673.420449
11
78.100949
21
675.183361
0
LINE
8
boundary
62
5
39
2
10
78.100949
20
675.183361
11
80.419286
21
677.058463
0
LINE
8
boundary
62
5
39
2
10
80.419286
20
677.058463
11
80.508532
21
677.123731
0
LINE
8
boundary
62
5
39
2
10
80.508532
20
677.123731
11
80.567796
21
677.189154
0
LINE
8
boundary
62
5
39
2
10
80.567796
20
677.189154
11
82.497083
21
679.012176
0
LINE
8
boundary
62
5
39
2
10
82.497083
20
679.012176
11
83.438379
21
679.959098
0
LINE
8
boundary
62
5
39
2
10
83.438379
20
679.959098
11
86.329043
21
683.121584
0
LINE
8
boundary
62
5
39
2
10
86.329043
20
683.121584
11
88.838050
21
685.866620
0
LINE
8
boundary
62
5
39
2
10
88.838050
20
685.866620
11
89.488620
21
686.632052
0
LINE
8
boundary
62
5
39
2
10
89.488620
20
686.632052
11
90.229872
21
687.504176
0
LINE
8
boundary
62
5
39
2
10
90.229872
20
687.504176
11
92.404060
21
690.344225
0
LINE
8
boundary
62
5
39
2
10
92.404060
20
690.344225
11
94.001535
21
692.430937
0
LINE
8
boundary
62
5
39
2
10
94.001535
20
692.430937
11
95.117388
21
694.001094
0
LINE
8
boundary
62
5
39
2
10
95.117388
20
694.001094
11
96.607295
21
696.097602
0
LINE
8
boundary
62
5
39
2
10
96.607295
20
696.097602
11
97.625594
21
697.689192
0
LINE
8
boundary
62
5
39
2
10
97.625594
20
697.689192
11
98.253667
21
698.670860
0
LINE
8
boundary
62
5
39
2
10
98.253667
20
698.670860
11
99.910549
21
701.470026
0
LINE
8
boundary
62
5
39
2
10
99.910549
20
701.470026
11
101.750318
21
704.578157
0
LINE
8
boundary
62
5
39
2
10
101.750318
20
704.578157
11
102.035000
21
705.101623
0
LINE
8
boundary
62
5
39
2
10
102.035000
20
705.101623
11
102.539571
21
706.029423
0
LINE
8
boundary
62
5
39
2
10
102.539571
20
706.029423
11
103.935252
21
708.882523
0
LINE
8
boundary
62
5
39
2
10
103.935252
20
708.882523
11
104.573456
21
710.187157
0
LINE
8
boundary
62
5
39
2
10
104.573456
20
710.187157
11
105.659028
21
712.617780
0
LINE
8
boundary
62
5
39
2
10
105.659028
20
712.617780
11
106.932471
21
715.469064
0
LINE
8
boundary
62
5
39
2
10
106.932471
20
715.469064
11
107.242079
21
716.235902
0
LINE
8
boundary
62
5
39
2
10
107.242079
20
716.235902
11
107.997827
21
718.107745
0
LINE
8
boundary
62
5
39
2
10
107.997827
20
718.107745
11
108.645412
21
719.898596
0
LINE
8
boundary
62
5
39
2
10
108.645412
20
719.898596
11
108.856539
21
720.482455
0
LINE
8
boundary
62
5
39
2
10
108.856539
20
720.482455
11
109.867471
21
723.608133
0
LINE
8
boundary
62
5
39
2
10
109.867471
20
723.608133
11
110.402065
21
725.261022
0
LINE
8
boundary
62
5
39
2
10
110.402065
20
725.261022
11
110.964349
21
727.234577
0
LINE
8
boundary
62
5
39
2
10
110.964349
20
727.234577
11
111.699194
21
729.813784
0
LINE
8
boundary
62
5
39
2
10
111.699194
20
729.813784
11
111.941993
21
730.800342
0
LINE
8
boundary
62
5
39
2
10
111.941993
20
730.800342
11
112.774263
21
734.182096
0
LINE
8
boundary
62
5
39
2
10
112.774263
20
734.182096
11
112.804272
21
734.327019
0
LINE
8
boundary
62
5
39
2
10
112.804272
20
734.327019
11
112.955442
21
735.057055
0
LINE
8
boundary
62
5
39
2
10
112.955442
20
735.057055
11
113.491034
21
737.962831
0
LINE
8
boundary
62
5
39
2
10
113.491034
20
737.962831
11
113.574271
21
738.414421
0
LINE
8
boundary
62
5
39
2
10
113.574271
20
738.414421
11
114.051852
21
741.608535
0
LINE
8
boundary
62
5
39
2
10
114.051852
20
741.608535
11
114.188658
21
742.523508
0
LINE
8
boundary
62
5
39
2
10
114.188658
20
742.523508
11
114.501523
21
745.255447
0
LINE
8
boundary
62
5
39
2
10
114.501523
20
745.255447
11
114.648160
21
746.535881
0
LINE
8
boundary
62
5
39
2
10
114.648160
20
746.535881
11
114.838039
21
748.928042
0
LINE
8
boundary
62
5
39
2
10
114.838039
20
748.928042
11
114.961174
21
750.479335
0
LINE
8
boundary
62
5
39
2
10
114.961174
20
750.479335
11
115.057068
21
752.652369
0
LINE
8
boundary
62
5
39
2
10
115.057068
20
752.652369
11
115.133299
21
754.379819
0
LINE
8
boundary
62
5
39
2
10
115.133299
20
754.379819
11
115.151639
21
756.456902
0
LINE
8
boundary
62
5
39
2
10
115.151639
20
756.456902
11
115.167577
21
758.262093
0
LINE
8
boundary
62
5
39
2
10
115.167577
20
758.262093
11
115.111656
21
760.373669
0
LINE
8
boundary
62
5
39
2
10
115.111656
20
760.373669
11
115.064601
21
762.150410
0
LINE
8
boundary
62
5
39
2
10
115.064601
20
762.150410
11
114.923214
21
764.439625
0
LINE
8
boundary
62
5
39
2
10
114.923214
20
764.439625
11
114.822565
21
766.069232
0
LINE
8
boundary
62
5
39
2
10
114.822565
20
766.069232
11
114.567616
21
768.698550
0
LINE
8
boundary
62
5
39
2
10
114.567616
20
768.698550
11
114.437174
21
770.043802
0
LINE
8
boundary
62
5
39
2
10
114.437174
20
770.043802
11
114.019957
21
773.203555
0
LINE
8
boundary
62
5
39
2
10
114.019957
20
773.203555
11
113.901467
21
774.100924
0
LINE
8
boundary
62
5
39
2
10
113.901467
20
774.100924
11
113.247088
21
778.020589
0
LINE
8
boundary
62
5
39
2
10
113.247088
20
778.020589
11
113.205511
21
778.269634
0
LINE
8
boundary
62
5
39
2
10
113.205511
20
778.269634
11
112.955443
21
779.509864
0
LINE
8
boundary
62
5
39
2
10
112.955443
20
779.509864
11
112.263071
21
782.565133
0
LINE
8
boundary
62
5
39
2
10
112.263071
20
782.565133
11
112.027058
21
783.453936
0
LINE
8
boundary
62
5
39
2
10
112.027058
20
783.453936
11
111.079887
21
787.020897
0
LINE
8
boundary
62
5
39
2
10
111.079887
20
787.020897
11
110.292341
21
789.609737
0
LINE
8
boundary
62
5
39
2
10
110.292341
20
789.609737
11
109.662253
21
791.680985
0
LINE
8
boundary
62
5
39
2
10
109.662253
20
791.680985
11
107.997827
21
796.539702
0
LINE
8
boundary
62
5
39
2
10
107.997827
20
796.539702
11
107.978774
21
796.589550
0
LINE
8
boundary
62
5
39
2
10
107.978774
20
796.589550
11
107.964934
21
796.622099
0
LINE
8
boundary
62
5
39
2
10
107.964934
20
796.622099
11
105.799475
21
801.714675
0
LINE
8
boundary
62
5
39
2
10
105.799475
20
801.714675
11
103.827721
21
805.928319
0
LINE
8
boundary
62
5
39
2
10
103.827721
20
805.928319
11
103.247277
21
807.168729
0
LINE
8
boundary
62
5
39
2
10
103.247277
20
807.168729
11
102.539571
21
808.555515
0
LINE
8
boundary
62
5
39
2
10
102.539571
20
808.555515
11
100.068470
21
812.906796
0
LINE
8
boundary
62
5
39
2
10
100.068470
20
812.906796
11
96.607295
21
818.526603
0
LINE
8
boundary
62
5
39
2
10
96.607295
20
818.526603
11
96.271244
21
819.018431
0
LINE
8
boundary
62
5
39
2
10
96.271244
20
819.018431
11
95.266236
21
820.380062
0
LINE
8
boundary
62
5
39
2
10
95.266236
20
820.380062
11
91.556795
21
825.405780
0
LINE
8
boundary
62
5
39
2
10
91.556795
20
825.405780
11
90.229872
21
827.079033
0
LINE
8
boundary
62
5
39
2
10
90.229872
20
827.079033
11
85.822994
21
832.076698
0
LINE
8
boundary
62
5
39
2
10
85.822994
20
832.076698
11
83.438380
21
834.597378
0
LINE
8
boundary
62
5
39
2
10
83.438380
20
834.597378
11
78.862926
21
838.936748
0
LINE
8
boundary
62
5
39
2
10
78.862926
20
838.936748
11
76.265904
21
841.232294
0
LINE
8
boundary
62
5
39
2
10
76.265904
20
841.232294
11
70.462447
21
845.810290
0
LINE
8
boundary
62
5
39
2
10
70.462447
20
845.810290
11
68.747397
21
847.068648
0
LINE
8
boundary
62
5
39
2
10
68.747397
20
847.068648
11
62.468528
21
851.142628
0
LINE
8
boundary
62
5
39
2
10
62.468528
20
851.142628
11
60.919478
21
852.147712
0
LINE
8
boundary
62
5
39
2
10
60.919478
20
852.147712
11
60.440891
21
852.420531
0
LINE
8
boundary
62
5
39
2
10
60.440891
20
852.420531
11
52.820296
21
856.410155
0
LINE
8
boundary
62
5
39
2
10
52.820296
20
856.410155
11
48.668405
21
858.282665
0
LINE
8
boundary
62
5
39
2
10
48.668405
20
858.282665
11
44.489299
21
859.992573
0
LINE
8
boundary
62
5
39
2
10
44.489299
20
859.992573
11
37.048718
21
862.531792
0
LINE
8
boundary
62
5
39
2
10
37.048718
20
862.531792
11
35.967078
21
862.900920
0
LINE
8
boundary
62
5
39
2
10
35.967078
20
862.900920
11
35.312941
21
863.081489
0
LINE
8
boundary
62
5
39
2
10
35.312941
20
863.081489
11
27.295149
21
864.990918
0
LINE
8
boundary
62
5
39
2
10
27.295149
20
864.990918
11
20.636014
21
866.159385
0
LINE
8
boundary
62
5
39
2
10
20.636014
20
866.159385
11
18.515768
21
866.454878
0
LINE
8
boundary
62
5
39
2
10
18.515768
20
866.454878
11
15.621223
21
866.681273
0
LINE
8
boundary
62
5
39
2
10
15.621223
20
866.681273
11
9.671701
21
867.146611
0
LINE
8
boundary
62
5
39
2
10
9.671701
20
867.146611
11
8.587500
21
867.165754
0
LINE
8
boundary
62
5
39
2
10
8.587500
20
867.165754
11
8.587500
21
847.112182
0
LINE
8
boundary
62
5
39
2
10
8.587500
20
847.112182
11
8.587500
21
850.047130
0
LINE
8
boundary
62
5
39
2
10
8.587500
20
850.047130
11
11.412500
21
847.147130
0
LINE
8
boundary
62
5
39
2
10
11.412500
20
847.147130
11
56.185346
21
847.147130
0
LINE
8
boundary
62
5
39
2
10
56.185346
20
847.147130
11
56.950713
21
846.994889
0
LINE
8
boundary
62
5
39
2
10
56.950713
20
846.994889
11
57.599560
21
846.561343
0
LINE
8
boundary
62
5
39
2
10
57.599560
20
846.561343
11
58.033105
21
845.912497
0
LINE
8
boundary
62
5
39
2
10
58.033105
20
845.912497
11
58.185346
21
845.147130
0
LINE
8
boundary
62
5
39
2
10
58.185346
20
845.147130
11
58.033105
21
844.381763
0
LINE
8
boundary
62
5
39
2
10
58.033105
20
844.381763
11
57.599559
21
843.732916
0
LINE
8
boundary
62
5
39
2
10
57.599559
20
843.732916
11
56.950713
21
843.299371
0
LINE
8
boundary
62
5
39
2
10
56.950713
20
843.299371
11
56.185346
21
843.147130
0
LINE
8
boundary
62
5
39
2
10
56.185346
20
843.147130
11
56.185346
21
839.647130
0
LINE
8
boundary
62
5
39
2
10
56.185346
20
839.647130
11
56.950713
21
839.494889
0
LINE
8
boundary
62
5
39
2
10
56.950713
20
839.494889
11
57.599559
21
839.061343
0
LINE
8
boundary
62
5
39
2
10
57.599559
20
839.061343
11
58.033105
21
838.412497
0
LINE
8
boundary
62
5
39
2
10
58.033105
20
838.412497
11
58.185346
21
837.647130
0
LINE
8
boundary
62
5
39
2
10
58.185346
20
837.647130
11
58.033105
21
836.881763
0
LINE
8
boundary
62
5
39
2
10
58.033105
20
836.881763
11
57.599560
21
836.232916
0
LINE
8
boundary
62
5
39
2
10
57.599560
20
836.232916
11
56.950713
21
835.799371
0
LINE
8
boundary
62
5
39
2
10
56.950713
20
835.799371
11
56.185346
21
835.647130
0
LINE
8
boundary
62
5
39
2
10
56.185346
20
835.647130
11
53.683157
21
833.078511
0
LINE
8
boundary
62
5
39
2
10
53.683157
20
833.078511
11
54.250401
21
832.712898
0
LINE
8
boundary
62
5
39
2
10
54.250401
20
832.712898
11
57.215870
21
830.634082
0
LINE
8
boundary
62
5
39
2
10
57.215870
20
830.634082
11
59.538512
21
829.005872
0
LINE
8
boundary
62
5
39
2
10
59.538512
20
829.005872
11
61.004378
21
827.832056
0
LINE
8
boundary
62
5
39
2
10
61.004378
20
827.832056
11
62.610672
21
826.545787
0
LINE
8
boundary
62
5
39
2
10
62.610672
20
826.545787
11
64.570322
21
824.846379
0
LINE
8
boundary
62
5
39
2
10
64.570322
20
824.846379
11
66.323303
21
823.326189
0
LINE
8
boundary
62
5
39
2
10
66.323303
20
823.326189
11
67.922770
21
821.755997
0
LINE
8
boundary
62
5
39
2
10
67.922770
20
821.755997
11
69.426615
21
820.279671
0
LINE
8
boundary
62
5
39
2
10
69.426615
20
820.279671
11
71.046236
21
818.559791
0
LINE
8
boundary
62
5
39
2
10
71.046236
20
818.559791
11
72.731487
21
816.770229
0
LINE
8
boundary
62
5
39
2
10
72.731487
20
816.770229
11
73.953736
21
815.307393
0
LINE
8
boundary
62
5
39
2
10
73.953736
20
815.307393
11
74.922180
21
814.148321
0
LINE
8
boundary
62
5
39
2
10
74.922180
20
814.148321
11
76.625675
21
811.940330
0
LINE
8
boundary
62
5
39
2
10
76.625675
20
811.940330
11
78.723563
21
809.221131
0
LINE
8
boundary
62
5
39
2
10
78.723563
20
809.221131
11
79.105300
21
808.663804
0
LINE
8
boundary
62
5
39
2
10
79.105300
20
808.663804
11
79.355608
21
808.298362
0
LINE
8
boundary
62
5
39
2
10
79.355608
20
808.298362
11
81.331810
21
805.163679
0
LINE
8
boundary
62
5
39
2
10
81.331810
20
805.163679
11
82.862946
21
802.734950
0
LINE
8
boundary
62
5
39
2
10
82.862946
20
802.734950
11
83.386519
21
801.825489
0
LINE
8
boundary
62
5
39
2
10
83.386519
20
801.825489
11
84.262571
21
800.303766
0
LINE
8
boundary
62
5
39
2
10
84.262571
20
800.303766
11
85.229706
21
798.411049
0
LINE
8
boundary
62
5
39
2
10
85.229706
20
798.411049
11
85.239627
21
798.391634
0
LINE
8
boundary
62
5
39
2
10
85.239627
20
798.391634
11
88.064626
21
795.491635
0
LINE
8
boundary
62
5
39
2
10
88.064626
20
795.491635
11
99.529043
21
795.491635
0
LINE
8
boundary
62
5
39
2
10
99.529043
20
795.491635
11
100.294410
21
795.339394
0
LINE
8
boundary
62
5
39
2
10
100.294410
20
795.339394
11
100.943257
21
794.905848
0
LINE
8
boundary
62
5
39
2
10
100.943257
20
794.905848
11
101.376802
21
794.257001
0
LINE
8
boundary
62
5
39
2
10
101.376802
20
794.257001
11
101.529043
21
793.491635
0
LINE
8
boundary
62
5
39
2
10
101.529043
20
793.491635
11
101.376802
21
792.726268
0
LINE
8
boundary
62
5
39
2
10
101.376802
20
792.726268
11
100.943257
21
792.077421
0
LINE
8
boundary
62
5
39
2
10
100.943257
20
792.077421
11
100.294410
21
791.643876
0
LINE
8
boundary
62
5
39
2
10
100.294410
20
791.643876
11
99.529043
21
791.491635
0
LINE
8
boundary
62
5
39
2
10
99.529043
20
791.491635
11
99.529043
21
787.991635
0
LINE
8
boundary
62
5
39
2
10
99.529043
20
787.991635
11
100.294410
21
787.839394
0
LINE
8
boundary
62
5
39
2
10
100.294410
20
787.839394
11
100.943257
21
787.405848
0
LINE
8
boundary
62
5
39
2
10
100.943257
20
787.405848
11
101.376802
21
786.757002
0
LINE
8
boundary
62
5
39
2
10
101.376802
20
786.757002
11
101.529043
21
785.991634
0
LINE
8
boundary
62
5
39
2
10
101.529043
20
785.991634
11
101.376802
21
785.226268
0
LINE
8
boundary
62
5
39
2
10
101.376802
20
785.226268
11
100.943257
21
784.577421
0
LINE
8
boundary
62
5
39
2
10
100.943257
20
784.577421
11
100.294410
21
784.143875
0
LINE
8
boundary
62
5
39
2
10
100.294410
20
784.143875
11
99.529043
21
783.991635
0
LINE
8
boundary
62
5
39
2
10
99.529043
20
783.991635
11
94.769157
21
783.991635
0
LINE
8
boundary
62
5
39
2
10
94.769157
20
783.991635
11
91.944157
21
781.091634
0
LINE
8
boundary
62
5
39
2
10
91.944157
20
781.091634
11
92.394503
21
779.495903
0
LINE
8
boundary
62
5
39
2
10
92.394503
20
779.495903
11
92.667992
21
778.353258
0
LINE
8
boundary
62
5
39
2
10
92.667992
20
778.353258
11
93.341677
21
775.538586
0
LINE
8
boundary
62
5
39
2
10
93.341677
20
775.538586
11
93.421355
21
775.132459
0
LINE
8
boundary
62
5
39
2
10
93.421355
20
775.132459
11
93.847832
21
772.958648
0
LINE
8
boundary
62
5
39
2
10
93.847832
20
772.958648
11
94.034042
21
771.874963
0
LINE
8
boundary
62
5
39
2
10
94.034042
20
771.874963
11
94.060357
21
771.721817
0
LINE
8
boundary
62
5
39
2
10
94.060357
20
771.721817
11
94.487360
21
768.534040
0
LINE
8
boundary
62
5
39
2
10
94.487360
20
768.534040
11
94.557073
21
768.013601
0
LINE
8
boundary
62
5
39
2
10
94.557073
20
768.013601
11
94.828189
21
765.184735
0
LINE
8
boundary
62
5
39
2
10
94.828189
20
765.184735
11
94.904099
21
764.392689
0
LINE
8
boundary
62
5
39
2
10
94.904099
20
764.392689
11
95.053440
21
761.798507
0
LINE
8
boundary
62
5
39
2
10
95.053440
20
761.798507
11
95.109288
21
760.828367
0
LINE
8
boundary
62
5
39
2
10
95.109288
20
760.828367
11
95.156978
21
758.344480
0
LINE
8
boundary
62
5
39
2
10
95.156978
20
758.344480
11
95.177187
21
757.291902
0
LINE
8
boundary
62
5
39
2
10
95.177187
20
757.291902
11
95.129113
21
754.788006
0
LINE
8
boundary
62
5
39
2
10
95.129113
20
754.788006
11
95.109288
21
753.755420
0
LINE
8
boundary
62
5
39
2
10
95.109288
20
753.755420
11
94.955784
21
751.088943
0
LINE
8
boundary
62
5
39
2
10
94.955784
20
751.088943
11
94.904098
21
750.191109
0
LINE
8
boundary
62
5
39
2
10
94.904098
20
750.191109
11
94.617362
21
747.199264
0
LINE
8
boundary
62
5
39
2
10
94.617362
20
747.199264
11
94.572976
21
746.736139
0
LINE
8
boundary
62
5
39
2
10
94.572976
20
746.736139
11
97.397976
21
743.836140
0
LINE
8
boundary
62
5
39
2
10
97.397976
20
743.836140
11
103.157037
21
743.836139
0
LINE
8
boundary
62
5
39
2
10
103.157037
20
743.836139
11
103.922403
21
743.683899
0
LINE
8
boundary
62
5
39
2
10
103.922403
20
743.683899
11
104.571251
21
743.250353
0
LINE
8
boundary
62
5
39
2
10
104.571251
20
743.250353
11
105.004796
21
742.601507
0
LINE
8
boundary
62
5
39
2
10
105.004796
20
742.601507
11
105.157037
21
741.836139
0
LINE
8
boundary
62
5
39
2
10
105.157037
20
741.836139
11
105.004796
21
741.070773
0
LINE
8
boundary
62
5
39
2
10
105.004796
20
741.070773
11
104.571251
21
740.421926
0
LINE
8
boundary
62
5
39
2
10
104.571251
20
740.421926
11
103.922404
21
739.988380
0
LINE
8
boundary
62
5
39
2
10
103.922404
20
739.988380
11
103.157037
21
739.836139
0
LINE
8
boundary
62
5
39
2
10
103.157037
20
739.836139
11
103.157037
21
736.336139
0
LINE
8
boundary
62
5
39
2
10
103.157037
20
736.336139
11
103.922404
21
736.183898
0
LINE
8
boundary
62
5
39
2
10
103.922404
20
736.183898
11
104.571250
21
735.750353
0
LINE
8
boundary
62
5
39
2
10
104.571250
20
735.750353
11
105.004796
21
735.101506
0
LINE
8
boundary
62
5
39
2
10
105.004796
20
735.101506
11
105.157037
21
734.336140
0
LINE
8
boundary
62
5
39
2
10
105.157037
20
734.336140
11
105.004796
21
733.570772
0
LINE
8
boundary
62
5
39
2
10
105.004796
20
733.570772
11
104.571250
21
732.921926
0
LINE
8
boundary
62
5
39
2
10
104.571250
20
732.921926
11
103.922403
21
732.488381
0
LINE
8
boundary
62
5
39
2
10
103.922403
20
732.488381
11
103.157037
21
732.336140
0
LINE
8
boundary
62
5
39
2
10
103.157037
20
732.336140
11
93.560291
21
732.336139
0
LINE
8
boundary
62
5
39
2
10
93.560291
20
732.336139
11
90.735291
21
729.436139
0
LINE
8
boundary
62
5
39
2
10
90.735291
20
729.436139
11
90.007570
21
727.195179
0
LINE
8
boundary
62
5
39
2
10
90.007570
20
727.195179
11
89.805018
21
726.571439
0
LINE
8
boundary
62
5
39
2
10
89.805018
20
726.571439
11
89.314386
21
725.233890
0
LINE
8
boundary
62
5
39
2
10
89.314386
20
725.233890
11
87.957597
21
721.967670
0
LINE
8
boundary
62
5
39
2
10
87.957597
20
721.967670
11
86.793340
21
719.455182
0
LINE
8
boundary
62
5
39
2
10
86.793340
20
719.455182
11
85.687054
21
717.067796
0
LINE
8
boundary
62
5
39
2
10
85.687054
20
717.067796
11
84.262571
21
714.280030
0
LINE
8
boundary
62
5
39
2
10
84.262571
20
714.280030
11
82.862946
21
711.848851
0
LINE
8
boundary
62
5
39
2
10
82.862946
20
711.848851
11
80.383839
21
707.916438
0
LINE
8
boundary
62
5
39
2
10
80.383839
20
707.916438
11
79.355608
21
706.285434
0
LINE
8
boundary
62
5
39
2
10
79.355608
20
706.285434
11
78.723563
21
705.362664
0
LINE
8
boundary
62
5
39
2
10
78.723563
20
705.362664
11
74.922180
21
700.435475
0
LINE
8
boundary
62
5
39
2
10
74.922180
20
700.435475
11
72.731486
21
697.813563
0
LINE
8
boundary
62
5
39
2
10
72.731486
20
697.813563
11
70.157875
21
695.080644
0
LINE
8
boundary
62
5
39
2
10
70.157875
20
695.080644
11
72.982875
21
692.180644
0
LINE
8
boundary
62
5
39
2
10
72.982875
20
692.180644
11
74.726562
21
692.180644
0
LINE
8
boundary
62
5
39
2
10
74.726562
20
692.180644
11
75.491928
21
692.028403
0
LINE
8
boundary
62
5
39
2
10
75.491928
20
692.028403
11
76.140775
21
691.594857
0
LINE
8
boundary
62
5
39
2
10
76.140775
20
691.594857
11
76.574320
21
690.946011
0
LINE
8
boundary
62
5
39
2
10
76.574320
20
690.946011
11
76.726561
21
690.180644
0
LINE
8
boundary
62
5
39
2
10
76.726561
20
690.180644
11
76.574321
21
689.415277
0
LINE
8
boundary
62
5
39
2
10
76.574321
20
689.415277
11
76.140775
21
688.766431
0
LINE
8
boundary
62
5
39
2
10
76.140775
20
688.766431
11
75.491928
21
688.332885
0
LINE
8
boundary
62
5
39
2
10
75.491928
20
688.332885
11
74.726562
21
688.180644
0
LINE
8
boundary
62
5
39
2
10
74.726562
20
688.180644
11
74.726562
21
684.680644
0
LINE
8
boundary
62
5
39
2
10
74.726562
20
684.680644
11
75.491928
21
684.528403
0
LINE
8
boundary
62
5
39
2
10
75.491928
20
684.528403
11
76.140775
21
684.094858
0
LINE
8
boundary
62
5
39
2
10
76.140775
20
684.094858
11
76.574321
21
683.446011
0
LINE
8
boundary
62
5
39
2
10
76.574321
20
683.446011
11
76.726561
21
682.680644
0
LINE
8
boundary
62
5
39
2
10
76.726561
20
682.680644
11
76.574321
21
681.915277
0
LINE
8
boundary
62
5
39
2
10
76.574321
20
681.915277
11
76.140775
21
681.266431
0
LINE
8
boundary
62
5
39
2
10
76.140775
20
681.266431
11
75.491929
21
680.832885
0
LINE
8
boundary
62
5
39
2
10
75.491929
20
680.832885
11
74.726561
21
680.680644
0
LINE
8
boundary
62
5
39
2
10
74.726561
20
680.680644
11
52.401298
21
680.680644
0
LINE
8
boundary
62
5
39
2
10
52.401298
20
680.680644
11
47.180887
21
677.780644
0
LINE
8
boundary
62
5
39
2
10
47.180887
20
677.780644
11
47.119243
21
677.746400
0
LINE
8
boundary
62
5
39
2
10
47.119243
20
677.746400
11
45.008498
21
676.573856
0
LINE
8
boundary
62
5
39
2
10
45.008498
20
676.573856
11
44.183497
21
676.183865
0
LINE
8
boundary
62
5
39
2
10
44.183497
20
676.183865
11
37.738869
21
673.364844
0
LINE
8
boundary
62
5
39
2
10
37.738869
20
673.364844
11
37.738869
21
643.425148
0
LINE
8
boundary
62
5
39
2
10
37.738869
20
643.425148
11
40.563869
21
640.525149
0
LINE
8
boundary
62
5
39
2
10
40.563869
20
640.525149
11
46.684949
21
640.525149
0
LINE
8
boundary
62
5
39
2
10
46.684949
20
640.525149
11
47.450316
21
640.372908
0
LINE
8
boundary
62
5
39
2
10
47.450316
20
640.372908
11
48.099163
21
639.939363
0
LINE
8
boundary
62
5
39
2
10
48.099163
20
639.939363
11
48.532709
21
639.290516
0
LINE
8
boundary
62
5
39
2
10
48.532709
20
639.290516
11
48.684950
21
638.525149
0
LINE
8
boundary
62
5
39
2
10
48.684950
20
638.525149
11
48.532709
21
637.759782
0
LINE
8
boundary
62
5
39
2
10
48.532709
20
637.759782
11
48.099163
21
637.110935
0
LINE
8
boundary
62
5
39
2
10
48.099163
20
637.110935
11
47.450316
21
636.677390
0
LINE
8
boundary
62
5
39
2
10
47.450316
20
636.677390
11
46.684950
21
636.525149
0
LINE
8
boundary
62
5
39
2
10
46.684950
20
636.525149
11
46.684949
21
633.025149
0
LINE
8
boundary
62
5
39
2
10
46.684949
20
633.025149
11
47.450316
21
632.872908
0
LINE
8
boundary
62
5
39
2
10
47.450316
20
632.872908
11
48.099163
21
632.439363
0
LINE
8
boundary
62
5
39
2
10
48.099163
20
632.439363
11
48.532708
21
631.790516
0
LINE
8
boundary
62
5
39
2
10
48.532708
20
631.790516
11
48.684950
21
631.025149
0
LINE
8
boundary
62
5
39
2
10
48.684950
20
631.025149
11
48.532709
21
630.259782
0
LINE
8
boundary
62
5
39
2
10
48.532709
20
630.259782
11
48.099163
21
629.610935
0
LINE
8
boundary
62
5
39
2
10
48.099163
20
629.610935
11
47.450316
21
629.177390
0
LINE
8
boundary
62
5
39
2
10
47.450316
20
629.177390
11
46.684950
21
629.025149
0
LINE
8
boundary
62
5
39
2
10
46.684950
20
629.025149
11
40.563869
21
629.025149
0
LINE
8
boundary
62
5
39
2
10
40.563869
20
629.025149
11
37.738869
21
626.125149
0
LINE
8
boundary
62
5
39
2
10
37.738869
20
626.125149
11
37.738869
21
592.291901
0
LINE
8
boundary
62
5
39
2
10
37.738869
20
592.291901
11
37.693485
21
591.769653
0
LINE
8
boundary
62
5
39
2
10
37.693485
20
591.769653
11
40.518484
21
588.869654
0
LINE
8
boundary
62
5
39
2
10
40.518484
20
588.869654
11
44.179352
21
588.869653
0
LINE
8
boundary
62
5
39
2
10
44.179352
20
588.869653
11
44.944719
21
588.717413
0
LINE
8
boundary
62
5
39
2
10
44.944719
20
588.717413
11
45.593566
21
588.283867
0
LINE
8
boundary
62
5
39
2
10
45.593566
20
588.283867
11
46.027111
21
587.635020
0
LINE
8
boundary
62
5
39
2
10
46.027111
20
587.635020
11
46.179352
21
586.869653
0
LINE
8
boundary
62
5
39
2
10
46.179352
20
586.869653
11
46.027111
21
586.104287
0
LINE
8
boundary
62
5
39
2
10
46.027111
20
586.104287
11
45.593566
21
585.455440
0
LINE
8
boundary
62
5
39
2
10
45.593566
20
585.455440
11
44.944719
21
585.021894
0
LINE
8
boundary
62
5
39
2
10
44.944719
20
585.021894
11
44.179352
21
584.869654
0
LINE
8
boundary
62
5
39
2
10
44.179352
20
584.869654
11
44.179352
21
581.369653
0
LINE
8
boundary
62
5
39
2
10
44.179352
20
581.369653
11
44.944719
21
581.217413
0
LINE
8
boundary
62
5
39
2
10
44.944719
20
581.217413
11
45.593565
21
580.783867
0
LINE
8
boundary
62
5
39
2
10
45.593565
20
580.783867
11
46.027111
21
580.135021
0
LINE
8
boundary
62
5
39
2
10
46.027111
20
580.135021
11
46.179352
21
579.369653
0
LINE
8
boundary
62
5
39
2
10
46.179352
20
579.369653
11
46.027111
21
578.604287
0
LINE
8
boundary
62
5
39
2
10
46.027111
20
578.604287
11
45.593566
21
577.955440
0
LINE
8
boundary
62
5
39
2
10
45.593566
20
577.955440
11
44.944719
21
577.521895
0
LINE
8
boundary
62
5
39
2
10
44.944719
20
577.521895
11
44.179352
21
577.369654
0
LINE
8
boundary
62
5
39
2
10
44.179352
20
577.369654
11
29.336448
21
577.369654
0
LINE
8
boundary
62
5
39
2
10
29.336448
20
577.369654
11
29.094746
21
577.198091
0
LINE
8
boundary
62
5
39
2
10
29.094746
20
577.198091
11
26.358322
21
575.896717
0
LINE
8
boundary
62
5
39
2
10
26.358322
20
575.896717
11
23.438434
21
575.086884
0
LINE
8
boundary
62
5
39
2
10
23.438434
20
575.086884
11
20.422622
21
574.792872
0
LINE
8
boundary
62
5
39
2
10
20.422622
20
574.792872
11
20.238867
21
574.791904
0
LINE
8
boundary
62
5
39
2
10
20.238867
20
574.791904
11
18.504312
21
574.791904
0
LINE
8
boundary
62
5
39
2
10
18.504312
20
574.791904
11
18.143434
21
574.791904
0
LINE
8
boundary
62
5
39
2
10
18.143434
20
574.791904
11
16.290309
21
574.791903
0
LINE
8
boundary
62
5
39
2
10
16.290309
20
574.791903
11
15.581594
21
574.791904
0
LINE
8
boundary
62
5
39
2
10
15.581594
20
574.791904
11
13.676877
21
574.791903
0
LINE
8
boundary
62
5
39
2
10
13.676877
20
574.791903
11
12.645943
21
574.791904
0
LINE
8
boundary
62
5
39
2
10
12.645943
20
574.791904
11
10.758473
21
574.791904
0
LINE
8
boundary
62
5
39
2
10
10.758473
20
574.791904
11
9.442578
21
574.791904
0
LINE
8
boundary
62
5
39
2
10
9.442578
20
574.791904
11
8.901416
21
574.791904
0
LINE
8
boundary
62
5
39
2
10
8.901416
20
574.791904
11
8.587500
21
574.469654
0
LINE
8
boundary
62
5
39
2
10
8.587500
20
574.469654
11
8.587500
21
557.291906
0
LINE
8
boundary
62
5
39
2
10
8.587500
20
557.291906
11
9.442578
21
557.291906
0
LINE
8
boundary
62
5
39
2
10
9.442578
20
557.291906
11
10.758473
21
557.291906
0
LINE
8
boundary
62
5
39
2
10
10.758473
20
557.291906
11
12.645942
21
557.291906
0
LINE
8
boundary
62
5
39
2
10
12.645942
20
557.291906
11
13.676878
21
557.291906
0
LINE
8
boundary
62
5
39
2
10
13.676878
20
557.291906
11
15.581594
21
557.291906
0
LINE
8
boundary
62
5
39
2
10
15.581594
20
557.291906
11
16.290308
21
557.291906
0
LINE
8
boundary
62
5
39
2
10
16.290308
20
557.291906
11
18.143435
21
557.291906
0
LINE
8
boundary
62
5
39
2
10
18.143435
20
557.291906
11
18.504313
21
557.291906
0
LINE
8
boundary
62
5
39
2
10
18.504313
20
557.291906
11
20.238871
21
557.291906
0
LINE
8
boundary
62
5
39
2
10
20.238871
20
557.291906
11
22.355628
21
557.355977
0
LINE
8
boundary
62
5
39
2
10
22.355628
20
557.355977
11
26.724209
21
557.898010
0
LINE
8
boundary
62
5
39
2
10
26.724209
20
557.898010
11
30.990196
21
558.984123
0
LINE
8
boundary
62
5
39
2
10
30.990196
20
558.984123
11
35.086108
21
560.597119
0
LINE
8
boundary
62
5
39
2
10
35.086108
20
560.597119
11
38.947153
21
562.711512
0
LINE
8
boundary
62
5
39
2
10
38.947153
20
562.711512
11
42.512249
21
565.293828
0
LINE
8
boundary
62
5
39
2
10
42.512249
20
565.293828
11
45.725007
21
568.303225
0
LINE
8
annotation
62
1
39
211
10
52.162050
20
580.205497
11
52.162050
21
586.033810
0
LINE
8
annotation
62
1
39
211
10
52.162050
20
586.033810
11
50.866341
21
584.737736
0
LINE
8
annotation
62
1
39
211
10
54.695263
20
632.071077
11
52.293417
21
632.071077
0
LINE
8
annotation
62
1
39
211
10
52.293417
20
632.071077
11
54.512802
21
635.644002
0
LINE
8
annotation
62
1
39
211
10
54.512802
20
635.644002
11
54.512802
21
635.644002
0
LINE
8
annotation
62
1
39
211
10
54.512802
20
635.644002
11
54.515455
21
635.647285
0
LINE
8
annotation
62
1
39
211
10
54.515455
20
635.647285
11
54.517999
21
635.650596
0
LINE
8
annotation
62
1
39
211
10
54.517999
20
635.650596
11
54.520451
21
635.653963
0
LINE
8
annotation
62
1
39
211
10
54.520451
20
635.653963
11
54.522828
21
635.657414
0
LINE
8
annotation
62
1
39
211
10
54.522828
20
635.657414
11
54.525146
21
635.660976
0
LINE
8
annotation
62
1
39
211
10
54.525146
20
635.660976
11
54.527423
21
635.664678
0
LINE
8
annotation
62
1
39
211
10
54.527423
20
635.664678
11
54.529674
21
635.668547
0
LINE
8
annotation
62
1
39
211
10
54.529674
20
635.668547
11
54.531917
21
635.672612
0
LINE
8
annotation
62
1
39
211
10
54.531917
20
635.672612
11
54.534168
21
635.676900
0
LINE
8
annotation
62
1
39
211
10
54.534168
20
635.676900
11
54.534168
21
635.676900
0
LINE
8
annotation
62
1
39
211
10
54.534168
20
635.676900
11
54.625806
21
635.873654
0
LINE
8
annotation
62
1
39
211
10
54.625806
20
635.873654
11
54.679339
21
636.077607
0
LINE
8
annotation
62
1
39
211
10
54.679339
20
636.077607
11
54.696080
21
636.284150
0
LINE
8
annotation
62
1
39
211
10
54.696080
20
636.284150
11
54.677339
21
636.488676
0
LINE
8
annotation
62
1
39
211
10
54.677339
20
636.488676
11
54.624431
21
636.686575
0
LINE
8
annotation
62
1
39
211
10
54.624431
20
636.686575
11
54.538665
21
636.873238
0
LINE
8
annotation
62
1
39
211
10
54.538665
20
636.873238
11
54.421354
21
637.044058
0
LINE
8
annotation
62
1
39
211
10
54.421354
20
637.044058
11
54.273810
21
637.194426
0
LINE
8
annotation
62
1
39
211
10
54.273810
20
637.194426
11
54.097345
21
637.319733
0
LINE
8
annotation
62
1
39
211
10
54.097345
20
637.319733
11
54.097345
21
637.319733
0
LINE
8
annotation
62
1
39
211
10
54.097345
20
637.319733
11
53.900044
21
637.410069
0
LINE
8
annotation
62
1
39
211
10
53.900044
20
637.410069
11
53.695778
21
637.462777
0
LINE
8
annotation
62
1
39
211
10
53.695778
20
637.462777
11
53.489115
21
637.479044
0
LINE
8
annotation
62
1
39
211
10
53.489115
20
637.479044
11
53.284620
21
637.460057
0
LINE
8
annotation
62
1
39
211
10
53.284620
20
637.460057
11
53.086861
21
637.407002
0
LINE
8
annotation
62
1
39
211
10
53.086861
20
637.407002
11
52.900404
21
637.321064
0
LINE
8
annotation
62
1
39
211
10
52.900404
20
637.321064
11
52.729816
21
637.203431
0
LINE
8
annotation
62
1
39
211
10
52.729816
20
637.203431
11
52.579663
21
637.055289
0
LINE
8
annotation
62
1
39
211
10
52.579663
20
637.055289
11
52.454512
21
636.877823
0
LINE
8
annotation
62
1
39
211
10
52.454512
20
636.877823
11
52.296808
21
636.575303
0
LINE
8
annotation
62
1
39
211
10
81.575068
20
683.123582
11
83.043905
21
683.123582
0
LINE
8
annotation
62
1
39
211
10
83.043905
20
683.123582
11
83.043905
21
683.123582
0
LINE
8
annotation
62
1
39
211
10
83.043905
20
683.123582
11
83.308079
21
683.147280
0
LINE
8
annotation
62
1
39
211
10
83.308079
20
683.147280
11
83.556657
21
683.215580
0
LINE
8
annotation
62
1
39
211
10
83.556657
20
683.215580
11
83.785506
21
683.324288
0
LINE
8
annotation
62
1
39
211
10
83.785506
20
683.324288
11
83.990490
21
683.469213
0
LINE
8
annotation
62
1
39
211
10
83.990490
20
683.469213
11
84.167476
21
683.646162
0
LINE
8
annotation
62
1
39
211
10
84.167476
20
683.646162
11
84.312328
21
683.850942
0
LINE
8
annotation
62
1
39
211
10
84.312328
20
683.850942
11
84.420913
21
684.079361
0
LINE
8
annotation
62
1
39
211
10
84.420913
20
684.079361
11
84.489096
21
684.327226
0
LINE
8
annotation
62
1
39
211
10
84.489096
20
684.327226
11
84.512742
21
684.590346
0
LINE
8
annotation
62
1
39
211
10
84.512742
20
684.590346
11
84.512742
21
685.325801
0
LINE
8
annotation
62
1
39
211
10
84.512742
20
685.325801
11
84.512742
21
685.325801
0
LINE
8
annotation
62
1
39
211
10
84.512742
20
685.325801
11
84.489096
21
685.588812
0
LINE
8
annotation
62
1
39
211
10
84.489096
20
685.588812
11
84.420913
21
685.836619
0
LINE
8
annotation
62
1
39
211
10
84.420913
20
685.836619
11
84.312328
21
686.065021
0
LINE
8
annotation
62
1
39
211
10
84.312328
20
686.065021
11
84.167476
21
686.269815
0
LINE
8
annotation
62
1
39
211
10
84.167476
20
686.269815
11
83.990490
21
686.446798
0
LINE
8
annotation
62
1
39
211
10
83.990490
20
686.446798
11
83.785506
21
686.591767
0
LINE
8
annotation
62
1
39
211
10
83.785506
20
686.591767
11
83.556657
21
686.700519
0
LINE
8
annotation
62
1
39
211
10
83.556657
20
686.700519
11
83.308079
21
686.768853
0
LINE
8
annotation
62
1
39
211
10
83.308079
20
686.768853
11
83.043905
21
686.792565
0
LINE
8
annotation
62
1
39
211
10
83.043905
20
686.792565
11
82.308449
21
686.792565
0
LINE
8
annotation
62
1
39
211
10
82.308449
20
686.792565
11
83.043905
21
686.792565
0
LINE
8
annotation
62
1
39
211
10
83.043905
20
686.792565
11
83.043905
21
686.792565
0
LINE
8
annotation
62
1
39
211
10
83.043905
20
686.792565
11
83.308079
21
686.816282
0
LINE
8
annotation
62
1
39
211
10
83.308079
20
686.816282
11
83.556657
21
686.884656
0
LINE
8
annotation
62
1
39
211
10
83.556657
20
686.884656
11
83.785506
21
686.993516
0
LINE
8
annotation
62
1
39
211
10
83.785506
20
686.993516
11
83.990490
21
687.138696
0
LINE
8
annotation
62
1
39
211
10
83.990490
20
687.138696
11
84.167476
21
687.316026
0
LINE
8
annotation
62
1
39
211
10
84.167476
20
687.316026
11
84.312328
21
687.521337
0
LINE
8
annotation
62
1
39
211
10
84.312328
20
687.521337
11
84.420913
21
687.750462
0
LINE
8
annotation
62
1
39
211
10
84.420913
20
687.750462
11
84.489096
21
687.999231
0
LINE
8
annotation
62
1
39
211
10
84.489096
20
687.999231
11
84.512742
21
688.263476
0
LINE
8
annotation
62
1
39
211
10
84.512742
20
688.263476
11
84.512742
21
688.263476
0
LINE
8
annotation
62
1
39
211
10
84.512742
20
688.263476
11
84.489096
21
688.526486
0
LINE
8
annotation
62
1
39
211
10
84.489096
20
688.526486
11
84.420913
21
688.774294
0
LINE
8
annotation
62
1
39
211
10
84.420913
20
688.774294
11
84.312328
21
689.002696
0
LINE
8
annotation
62
1
39
211
10
84.312328
20
689.002696
11
84.167476
21
689.207490
0
LINE
8
annotation
62
1
39
211
10
84.167476
20
689.207490
11
83.990490
21
689.384472
0
LINE
8
annotation
62
1
39
211
10
83.990490
20
689.384472
11
83.785506
21
689.529441
0
LINE
8
annotation
62
1
39
211
10
83.785506
20
689.529441
11
83.556657
21
689.638194
0
LINE
8
annotation
62
1
39
211
10
83.556657
20
689.638194
11
83.308079
21
689.706528
0
LINE
8
annotation
62
1
39
211
10
83.308079
20
689.706528
11
83.043905
21
689.730239
0
LINE
8
annotation
62
1
39
211
10
83.043905
20
689.730239
11
81.575068
21
689.730239
0
LINE
8
annotation
62
1
39
211
10
111.949877
20
736.496760
11
108.771837
21
736.496760
0
LINE
8
annotation
62
1
39
211
10
108.771837
20
736.496760
11
110.041043
21
740.947955
0
LINE
8
annotation
62
1
39
211
10
110.997255
20
735.224324
11
110.997255
21
737.766325
0
LINE
8
annotation
62
1
39
211
10
106.465745
20
781.751461
11
107.953637
21
781.751461
0
LINE
8
annotation
62
1
39
211
10
107.953637
20
781.751461
11
107.953637
21
781.751461
0
LINE
8
annotation
62
1
39
211
10
107.953637
20
781.751461
11
108.220685
21
781.775472
0
LINE
8
annotation
62
1
39
211
10
108.220685
20
781.775472
11
108.472194
21
781.844694
0
LINE
8
annotation
62
1
39
211
10
108.472194
20
781.844694
11
108.703925
21
781.954911
0
LINE
8
annotation
62
1
39
211
10
108.703925
20
781.954911
11
108.911638
21
782.101907
0
LINE
8
annotation
62
1
39
211
10
108.911638
20
782.101907
11
109.091092
21
782.281468
0
LINE
8
annotation
62
1
39
211
10
109.091092
20
782.281468
11
109.238049
21
782.489377
0
LINE
8
annotation
62
1
39
211
10
109.238049
20
782.489377
11
109.348267
21
782.721418
0
LINE
8
annotation
62
1
39
211
10
109.348267
20
782.721418
11
109.417507
21
782.973375
0
LINE
8
annotation
62
1
39
211
10
109.417507
20
782.973375
11
109.441529
21
783.241034
0
LINE
8
annotation
62
1
39
211
10
109.441529
20
783.241034
11
109.441529
21
783.982249
0
LINE
8
annotation
62
1
39
211
10
109.441529
20
783.982249
11
109.441529
21
783.982249
0
LINE
8
annotation
62
1
39
211
10
109.441529
20
783.982249
11
109.417521
21
784.249778
0
LINE
8
annotation
62
1
39
211
10
109.417521
20
784.249778
11
109.348315
21
784.501388
0
LINE
8
annotation
62
1
39
211
10
109.348315
20
784.501388
11
109.238142
21
784.732926
0
LINE
8
annotation
62
1
39
211
10
109.238142
20
784.732926
11
109.091231
21
784.940238
0
LINE
8
annotation
62
1
39
211
10
109.091231
20
784.940238
11
108.911811
21
785.119171
0
LINE
8
annotation
62
1
39
211
10
108.911811
20
785.119171
11
108.704112
21
785.265571
0
LINE
8
annotation
62
1
39
211
10
108.704112
20
785.265571
11
108.472364
21
785.375285
0
LINE
8
annotation
62
1
39
211
10
108.472364
20
785.375285
11
108.220795
21
785.444159
0
LINE
8
annotation
62
1
39
211
10
108.220795
20
785.444159
11
107.953637
21
785.468040
0
LINE
8
annotation
62
1
39
211
10
107.953637
20
785.468040
11
106.465745
21
785.468040
0
LINE
8
annotation
62
1
39
211
10
106.465745
20
785.468040
11
106.465745
21
788.451808
0
LINE
8
annotation
62
1
39
211
10
106.465745
20
788.451808
11
109.441529
21
788.451808
0
LINE
8
annotation
62
1
39
211
10
67.511569
20
840.898610
11
67.511569
21
840.898610
0
LINE
8
annotation
62
1
39
211
10
67.511569
20
840.898610
11
66.984647
21
840.701046
0
LINE
8
annotation
62
1
39
211
10
66.984647
20
840.701046
11
66.501127
21
840.434853
0
LINE
8
annotation
62
1
39
211
10
66.501127
20
840.434853
11
66.065973
21
840.106698
0
LINE
8
annotation
62
1
39
211
10
66.065973
20
840.106698
11
65.684147
21
839.723252
0
LINE
8
annotation
62
1
39
211
10
65.684147
20
839.723252
11
65.360614
21
839.291184
0
LINE
8
annotation
62
1
39
211
10
65.360614
20
839.291184
11
65.100337
21
838.817164
0
LINE
8
annotation
62
1
39
211
10
65.100337
20
838.817164
11
64.908280
21
838.307860
0
LINE
8
annotation
62
1
39
211
10
64.908280
20
838.307860
11
64.789405
21
837.769942
0
LINE
8
annotation
62
1
39
211
10
64.789405
20
837.769942
11
64.748678
21
837.210080
0
LINE
8
annotation
62
1
39
211
10
64.748678
20
837.210080
11
64.748678
21
834.457058
0
LINE
8
annotation
62
1
39
211
10
64.748678
20
834.457058
11
64.748678
21
834.457058
0
LINE
8
annotation
62
1
39
211
10
64.748678
20
834.457058
11
64.778374
21
834.126179
0
LINE
8
annotation
62
1
39
211
10
64.778374
20
834.126179
11
64.863969
21
833.814709
0
LINE
8
annotation
62
1
39
211
10
64.863969
20
833.814709
11
65.000220
21
833.527860
0
LINE
8
annotation
62
1
39
211
10
65.000220
20
833.527860
11
65.181888
21
833.270843
0
LINE
8
annotation
62
1
39
211
10
65.181888
20
833.270843
11
65.403729
21
833.048871
0
LINE
8
annotation
62
1
39
211
10
65.403729
20
833.048871
11
65.660503
21
832.867154
0
LINE
8
annotation
62
1
39
211
10
65.660503
20
832.867154
11
65.946969
21
832.730904
0
LINE
8
annotation
62
1
39
211
10
65.946969
20
832.730904
11
66.257884
21
832.645332
0
LINE
8
annotation
62
1
39
211
10
66.257884
20
832.645332
11
66.588008
21
832.615650
0
LINE
8
annotation
62
1
39
211
10
66.588008
20
832.615650
11
66.588008
21
832.615650
0
LINE
8
annotation
62
1
39
211
10
66.588008
20
832.615650
11
66.918816
21
832.645332
0
LINE
8
annotation
62
1
39
211
10
66.918816
20
832.645332
11
67.230095
21
832.730904
0
LINE
8
annotation
62
1
39
211
10
67.230095
20
832.730904
11
67.516667
21
832.867154
0
LINE
8
annotation
62
1
39
211
10
67.516667
20
832.867154
11
67.773356
21
833.048871
0
LINE
8
annotation
62
1
39
211
10
67.773356
20
833.048871
11
67.994984
21
833.270843
0
LINE
8
annotation
62
1
39
211
10
67.994984
20
833.270843
11
68.176373
21
833.527860
0
LINE
8
annotation
62
1
39
211
10
68.176373
20
833.527860
11
68.312347
21
833.814709
0
LINE
8
annotation
62
1
39
211
10
68.312347
20
833.814709
11
68.397728
21
834.126179
0
LINE
8
annotation
62
1
39
211
10
68.397728
20
834.126179
11
68.427339
21
834.457058
0
LINE
8
annotation
62
1
39
211
10
68.427339
20
834.457058
11
68.427339
21
835.373347
0
LINE
8
annotation
62
1
39
211
10
68.427339
20
835.373347
11
68.427339
21
835.373347
0
LINE
8
annotation
62
1
39
211
10
68.427339
20
835.373347
11
68.397728
21
835.704066
0
LINE
8
annotation
62
1
39
211
10
68.397728
20
835.704066
11
68.312347
21
836.015106
0
LINE
8
annotation
62
1
39
211
10
68.312347
20
836.015106
11
68.176373
21
836.301333
0
LINE
8
annotation
62
1
39
211
10
68.176373
20
836.301333
11
67.994984
21
836.557612
0
LINE
8
annotation
62
1
39
211
10
67.994984
20
836.557612
11
67.773356
21
836.778808
0
LINE
8
annotation
62
1
39
211
10
67.773356
20
836.778808
11
67.516667
21
836.959788
0
LINE
8
annotation
62
1
39
211
10
67.516667
20
836.959788
11
67.230095
21
837.095416
0
LINE
8
annotation
62
1
39
211
10
67.230095
20
837.095416
11
66.918816
21
837.180558
0
LINE
8
annotation
62
1
39
211
10
66.918816
20
837.180558
11
66.588008
21
837.210080
0
LINE
8
annotation
62
1
39
211
10
66.588008
20
837.210080
11
64.748678
21
837.210080
0
LINE
8
annotation
62
1
39
211
10
64.518307
20
831.580279
11
68.659787
21
831.580279
0
LINE
8
annotation
62
1
39
211
10
20.143457
20
857.864908
11
18.283095
21
855.174065
0
LINE
8
annotation
62
1
39
211
10
18.283095
20
855.174065
11
16.422384
21
857.864908
0
LINE
8
annotation
62
1
39
211
10
18.283095
20
855.390606
11
18.283095
21
852.286271
0
LINE
8
annotation
62
1
39
211
10
25.286126
20
855.075590
11
22.236015
21
855.075590
0
LINE
8
annotation
62
1
39
211
10
27.377459
20
852.286621
11
28.616185
21
852.286621
0
LINE
8
annotation
62
1
39
211
10
28.616185
20
852.286621
11
28.616185
21
852.286621
0
LINE
8
annotation
62
1
39
211
10
28.616185
20
852.286621
11
28.838972
21
852.306606
0
LINE
8
annotation
62
1
39
211
10
28.838972
20
852.306606
11
29.048608
21
852.364206
0
LINE
8
annotation
62
1
39
211
10
29.048608
20
852.364206
11
29.241604
21
852.455884
0
LINE
8
annotation
62
1
39
211
10
29.241604
20
852.455884
11
29.414475
21
852.578104
0
LINE
8
annotation
62
1
39
211
10
29.414475
20
852.578104
11
29.563734
21
852.727331
0
LINE
8
annotation
62
1
39
211
10
29.563734
20
852.727331
11
29.685893
21
852.900030
0
LINE
8
annotation
62
1
39
211
10
29.685893
20
852.900030
11
29.777467
21
853.092664
0
LINE
8
annotation
62
1
39
211
10
29.777467
20
853.092664
11
29.834968
21
853.301699
0
LINE
8
annotation
62
1
39
211
10
29.834968
20
853.301699
11
29.854910
21
853.523597
0
LINE
8
annotation
62
1
39
211
10
29.854910
20
853.523597
11
29.854910
21
854.143834
0
LINE
8
annotation
62
1
39
211
10
29.854910
20
854.143834
11
29.854910
21
854.143834
0
LINE
8
annotation
62
1
39
211
10
29.854910
20
854.143834
11
29.834968
21
854.365641
0
LINE
8
annotation
62
1
39
211
10
29.834968
20
854.365641
11
29.777467
21
854.574626
0
LINE
8
annotation
62
1
39
211
10
29.777467
20
854.574626
11
29.685893
21
854.767246
0
LINE
8
annotation
62
1
39
211
10
29.685893
20
854.767246
11
29.563734
21
854.939956
0
LINE
8
annotation
62
1
39
211
10
29.563734
20
854.939956
11
29.414475
21
855.089212
0
LINE
8
annotation
62
1
39
211
10
29.414475
20
855.089212
11
29.241604
21
855.211470
0
LINE
8
annotation
62
1
39
211
10
29.241604
20
855.211470
11
29.048608
21
855.303185
0
LINE
8
annotation
62
1
39
211
10
29.048608
20
855.303185
11
28.838972
21
855.360814
0
LINE
8
annotation
62
1
39
211
10
28.838972
20
855.360814
11
28.616185
21
855.380811
0
LINE
8
annotation
62
1
39
211
10
28.616185
20
855.380811
11
27.995947
21
855.380811
0
LINE
8
annotation
62
1
39
211
10
27.995947
20
855.380811
11
28.616185
21
855.380811
0
LINE
8
annotation
62
1
39
211
10
28.616185
20
855.380811
11
28.616185
21
855.380811
0
LINE
8
annotation
62
1
39
211
10
28.616185
20
855.380811
11
28.838972
21
855.400812
0
LINE
8
annotation
62
1
39
211
10
28.838972
20
855.400812
11
29.048608
21
855.458474
0
LINE
8
annotation
62
1
39
211
10
29.048608
20
855.458474
11
29.241604
21
855.550281
0
LINE
8
annotation
62
1
39
211
10
29.241604
20
855.550281
11
29.414475
21
855.672716
0
LINE
8
annotation
62
1
39
211
10
29.414475
20
855.672716
11
29.563734
21
855.822265
0
LINE
8
annotation
62
1
39
211
10
29.563734
20
855.822265
11
29.685893
21
855.995412
0
LINE
8
annotation
62
1
39
211
10
29.685893
20
855.995412
11
29.777467
21
856.188641
0
LINE
8
annotation
62
1
39
211
10
29.777467
20
856.188641
11
29.834968
21
856.398437
0
LINE
8
annotation
62
1
39
211
10
29.834968
20
856.398437
11
29.854910
21
856.621285
0
LINE
8
annotation
62
1
39
211
10
29.854910
20
856.621285
11
29.854910
21
856.621285
0
LINE
8
annotation
62
1
39
211
10
29.854910
20
856.621285
11
29.834968
21
856.843091
0
LINE
8
annotation
62
1
39
211
10
29.834968
20
856.843091
11
29.777467
21
857.052077
0
LINE
8
annotation
62
1
39
211
10
29.777467
20
857.052077
11
29.685893
21
857.244697
0
LINE
8
annotation
62
1
39
211
10
29.685893
20
857.244697
11
29.563734
21
857.417407
0
LINE
8
annotation
62
1
39
211
10
29.563734
20
857.417407
11
29.414475
21
857.566663
0
LINE
8
annotation
62
1
39
211
10
29.414475
20
857.566663
11
29.241604
21
857.688921
0
LINE
8
annotation
62
1
39
211
10
29.241604
20
857.688921
11
29.048608
21
857.780636
0
LINE
8
annotation
62
1
39
211
10
29.048608
20
857.780636
11
28.838972
21
857.838264
0
LINE
8
annotation
62
1
39
211
10
28.838972
20
857.838264
11
28.616185
21
857.858261
0
LINE
8
annotation
62
1
39
211
10
28.616185
20
857.858261
11
27.377459
21
857.858261
0
LINE
8
hole
62
5
39
2
10
36.118927
20
905.867121
11
34.650112
21
907.541982
0
LINE
8
hole
62
5
39
2
10
34.650112
20
907.541982
11
33.315914
21
909.063345
0
LINE
8
hole
62
5
39
2
10
33.315914
20
909.063345
11
32.078278
21
910.915596
0
LINE
8
hole
62
5
39
2
10
32.078278
20
910.915596
11
30.954069
21
912.598090
0
LINE
8
hole
62
5
39
2
10
30.954069
20
912.598090
11
29.968791
21
914.596039
0
LINE
8
hole
62
5
39
2
10
29.968791
20
914.596039
11
29.073812
21
916.410878
0
LINE
8
hole
62
5
39
2
10
29.073812
20
916.410878
11
28.357747
21
918.520340
0
LINE
8
hole
62
5
39
2
10
28.357747
20
918.520340
11
27.707308
21
920.436471
0
LINE
8
hole
62
5
39
2
10
27.707308
20
920.436471
11
27.272707
21
922.621351
0
LINE
8
hole
62
5
39
2
10
27.272707
20
922.621351
11
26.877938
21
924.605989
0
LINE
8
hole
62
5
39
2
10
26.877938
20
924.605989
11
26.732240
21
926.828903
0
LINE
8
hole
62
5
39
2
10
26.732240
20
926.828903
11
26.599896
21
928.848090
0
LINE
8
hole
62
5
39
2
10
26.599896
20
928.848090
11
26.745593
21
931.071004
0
LINE
8
hole
62
5
39
2
10
26.745593
20
931.071004
11
26.877937
21
933.090190
0
LINE
8
hole
62
5
39
2
10
26.877937
20
933.090190
11
27.312538
21
935.275071
0
LINE
8
hole
62
5
39
2
10
27.312538
20
935.275071
11
27.707308
21
937.259708
0
LINE
8
hole
62
5
39
2
10
27.707308
20
937.259708
11
28.423373
21
939.369170
0
LINE
8
hole
62
5
39
2
10
28.423373
20
939.369170
11
29.073812
21
941.285301
0
LINE
8
hole
62
5
39
2
10
29.073812
20
941.285301
11
30.059091
21
943.283251
0
LINE
8
hole
62
5
39
2
10
30.059091
20
943.283251
11
30.954069
21
945.098089
0
LINE
8
hole
62
5
39
2
10
30.954069
20
945.098089
11
32.191706
21
946.950341
0
LINE
8
hole
62
5
39
2
10
32.191706
20
946.950341
11
33.315913
21
948.632835
0
LINE
8
hole
62
5
39
2
10
33.315913
20
948.632835
11
34.784728
21
950.307696
0
LINE
8
hole
62
5
39
2
10
34.784728
20
950.307696
11
36.118927
21
951.829059
0
LINE
8
hole
62
5
39
2
10
36.118927
20
951.829059
11
37.793788
21
953.297873
0
LINE
8
hole
62
5
39
2
10
37.793788
20
953.297873
11
39.315151
21
954.632072
0
LINE
8
hole
62
5
39
2
10
39.315151
20
954.632072
11
41.167402
21
955.869708
0
LINE
8
hole
62
5
39
2
10
41.167402
20
955.869708
11
42.849896
21
956.993916
0
LINE
8
hole
62
5
39
2
10
42.849896
20
956.993916
11
44.847845
21
957.979194
0
LINE
8
hole
62
5
39
2
10
44.847845
20
957.979194
11
46.662684
21
958.874173
0
LINE
8
hole
62
5
39
2
10
46.662684
20
958.874173
11
48.772146
21
959.590238
0
LINE
8
hole
62
5
39
2
10
48.772146
20
959.590238
11
50.688277
21
960.240677
0
LINE
8
hole
62
5
39
2
10
50.688277
20
960.240677
11
52.873157
21
960.675278
0
LINE
8
hole
62
5
39
2
10
52.873157
20
960.675278
11
54.857795
21
961.070048
0
LINE
8
hole
62
5
39
2
10
54.857795
20
961.070048
11
57.080709
21
961.215745
0
LINE
8
hole
62
5
39
2
10
57.080709
20
961.215745
11
59.099896
21
961.348089
0
LINE
8
hole
62
5
39
2
10
59.099896
20
961.348089
11
61.322810
21
961.202392
0
LINE
8
hole
62
5
39
2
10
61.322810
20
961.202392
11
63.341997
21
961.070048
0
LINE
8
hole
62
5
39
2
10
63.341997
20
961.070048
11
65.526876
21
960.635447
0
LINE
8
hole
62
5
39
2
10
65.526876
20
960.635447
11
67.511515
21
960.240678
0
LINE
8
hole
62
5
39
2
10
67.511515
20
960.240678
11
69.620976
21
959.524612
0
LINE
8
hole
62
5
39
2
10
69.620976
20
959.524612
11
71.537107
21
958.874173
0
LINE
8
hole
62
5
39
2
10
71.537107
20
958.874173
11
73.535056
21
957.888894
0
LINE
8
hole
62
5
39
2
10
73.535056
20
957.888894
11
75.349896
21
956.993916
0
LINE
8
hole
62
5
39
2
10
75.349896
20
956.993916
11
77.202147
21
955.756280
0
LINE
8
hole
62
5
39
2
10
77.202147
20
955.756280
11
78.884641
21
954.632072
0
LINE
8
hole
62
5
39
2
10
78.884641
20
954.632072
11
80.559503
21
953.163258
0
LINE
8
hole
62
5
39
2
10
80.559503
20
953.163258
11
82.080865
21
951.829059
0
LINE
8
hole
62
5
39
2
10
82.080865
20
951.829059
11
83.549679
21
950.154197
0
LINE
8
hole
62
5
39
2
10
83.549679
20
950.154197
11
84.883878
21
948.632835
0
LINE
8
hole
62
5
39
2
10
84.883878
20
948.632835
11
86.121514
21
946.780583
0
LINE
8
hole
62
5
39
2
10
86.121514
20
946.780583
11
87.245722
21
945.098089
0
LINE
8
hole
62
5
39
2
10
87.245722
20
945.098089
11
88.231000
21
943.100140
0
LINE
8
hole
62
5
39
2
10
88.231000
20
943.100140
11
89.125979
21
941.285301
0
LINE
8
hole
62
5
39
2
10
89.125979
20
941.285301
11
89.842045
21
939.175840
0
LINE
8
hole
62
5
39
2
10
89.842045
20
939.175840
11
90.492483
21
937.259708
0
LINE
8
hole
62
5
39
2
10
90.492483
20
937.259708
11
90.927084
21
935.074828
0
LINE
8
hole
62
5
39
2
10
90.927084
20
935.074828
11
91.321854
21
933.090190
0
LINE
8
hole
62
5
39
2
10
91.321854
20
933.090190
11
91.467551
21
930.867276
0
LINE
8
hole
62
5
39
2
10
91.467551
20
930.867276
11
91.599895
21
928.848090
0
LINE
8
hole
62
5
39
2
10
91.599895
20
928.848090
11
91.454198
21
926.625175
0
LINE
8
hole
62
5
39
2
10
91.454198
20
926.625175
11
91.321854
21
924.605989
0
LINE
8
hole
62
5
39
2
10
91.321854
20
924.605989
11
90.887253
21
922.421109
0
LINE
8
hole
62
5
39
2
10
90.887253
20
922.421109
11
90.492484
21
920.436471
0
LINE
8
hole
62
5
39
2
10
90.492484
20
920.436471
11
89.776418
21
918.327009
0
LINE
8
hole
62
5
39
2
10
89.776418
20
918.327009
11
89.125979
21
916.410878
0
LINE
8
hole
62
5
39
2
10
89.125979
20
916.410878
11
88.140701
21
914.412929
0
LINE
8
hole
62
5
39
2
10
88.140701
20
914.412929
11
87.245722
21
912.598090
0
LINE
8
hole
62
5
39
2
10
87.245722
20
912.598090
11
86.008086
21
910.745839
0
LINE
8
hole
62
5
39
2
10
86.008086
20
910.745839
11
84.883878
21
909.063345
0
LINE
8
hole
62
5
39
2
10
84.883878
20
909.063345
11
83.415064
21
907.388483
0
LINE
8
hole
62
5
39
2
10
83.415064
20
907.388483
11
82.080865
21
905.867121
0
LINE
8
hole
62
5
39
2
10
82.080865
20
905.867121
11
80.406003
21
904.398306
0
LINE
8
hole
62
5
39
2
10
80.406003
20
904.398306
11
78.884641
21
903.064108
0
LINE
8
hole
62
5
39
2
10
78.884641
20
903.064108
11
77.032390
21
901.826471
0
LINE
8
hole
62
5
39
2
10
77.032390
20
901.826471
11
75.349896
21
900.702263
0
LINE
8
hole
62
5
39
2
10
75.349896
20
900.702263
11
73.351946
21
899.716985
0
LINE
8
hole
62
5
39
2
10
73.351946
20
899.716985
11
71.537107
21
898.822006
0
LINE
8
hole
62
5
39
2
10
71.537107
20
898.822006
11
69.427646
21
898.105941
0
LINE
8
hole
62
5
39
2
10
69.427646
20
898.105941
11
67.511514
21
897.455502
0
LINE
8
hole
62
5
39
2
10
67.511514
20
897.455502
11
65.326634
21
897.020901
0
LINE
8
hole
62
5
39
2
10
65.326634
20
897.020901
11
63.341996
21
896.626131
0
LINE
8
hole
62
5
39
2
10
63.341996
20
896.626131
11
61.119082
21
896.480434
0
LINE
8
hole
62
5
39
2
10
61.119082
20
896.480434
11
59.099896
21
896.348090
0
LINE
8
hole
62
5
39
2
10
59.099896
20
896.348090
11
56.876981
21
896.493787
0
LINE
8
hole
62
5
39
2
10
56.876981
20
896.493787
11
54.857795
21
896.626131
0
LINE
8
hole
62
5
39
2
10
54.857795
20
896.626131
11
52.672915
21
897.060732
0
LINE
8
hole
62
5
39
2
10
52.672915
20
897.060732
11
50.688277
21
897.455502
0
LINE
8
hole
62
5
39
2
10
50.688277
20
897.455502
11
48.578815
21
898.171567
0
LINE
8
hole
62
5
39
2
10
48.578815
20
898.171567
11
46.662684
21
898.822006
0
LINE
8
hole
62
5
39
2
10
46.662684
20
898.822006
11
44.664735
21
899.807285
0
LINE
8
hole
62
5
39
2
10
44.664735
20
899.807285
11
42.849896
21
900.702263
0
LINE
8
hole
62
5
39
2
10
42.849896
20
900.702263
11
40.997645
21
901.939900
0
LINE
8
hole
62
5
39
2
10
40.997645
20
901.939900
11
39.315151
21
903.064107
0
LINE
8
hole
62
5
39
2
10
39.315151
20
903.064107
11
37.640289
21
904.532922
0
LINE
8
hole
62
5
39
2
10
37.640289
20
904.532922
11
36.118927
21
905.867121
0
LINE
8
boundary
62
5
39
2
10
8.910857
20
923.141762
11
9.032075
21
922.290901
0
LINE
8
boundary
62
5
39
2
10
9.032075
20
922.290901
11
9.314078
21
920.311453
0
LINE
8
boundary
62
5
39
2
10
9.314078
20
920.311453
11
9.483240
21
919.468814
0
LINE
8
boundary
62
5
39
2
10
9.483240
20
919.468814
11
9.876778
21
917.508491
0
LINE
8
boundary
62
5
39
2
10
9.876778
20
917.508491
11
10.093341
21
916.676771
0
LINE
8
boundary
62
5
39
2
10
10.093341
20
916.676771
11
10.597153
21
914.741852
0
LINE
8
boundary
62
5
39
2
10
10.597153
20
914.741852
11
10.860424
21
913.923717
0
LINE
8
boundary
62
5
39
2
10
10.860424
20
913.923717
11
11.472899
21
912.020401
0
LINE
8
boundary
62
5
39
2
10
11.472899
20
912.020401
11
11.782034
21
911.218471
0
LINE
8
boundary
62
5
39
2
10
11.782034
20
911.218471
11
12.501208
21
909.352854
0
LINE
8
boundary
62
5
39
2
10
12.501208
20
909.352854
11
12.855217
21
908.569697
0
LINE
8
boundary
62
5
39
2
10
12.855217
20
908.569697
11
13.678785
21
906.747755
0
LINE
8
boundary
62
5
39
2
10
13.678785
20
906.747755
11
14.076534
21
905.985881
0
LINE
8
boundary
62
5
39
2
10
14.076534
20
905.985881
11
15.001863
21
904.213451
0
LINE
8
boundary
62
5
39
2
10
15.001863
20
904.213451
11
15.442079
21
903.475300
0
LINE
8
boundary
62
5
39
2
10
15.442079
20
903.475300
11
16.466197
21
901.758058
0
LINE
8
boundary
62
5
39
2
10
16.466197
20
901.758058
11
16.947470
21
901.045994
0
LINE
8
boundary
62
5
39
2
10
16.947470
20
901.045994
11
18.067102
21
899.389444
0
LINE
8
boundary
62
5
39
2
10
18.067102
20
899.389444
11
18.587886
21
898.705748
0
LINE
8
boundary
62
5
39
2
10
18.587886
20
898.705748
11
19.799447
21
897.115193
0
LINE
8
boundary
62
5
39
2
10
19.799447
20
897.115193
11
20.358079
21
896.462057
0
LINE
8
boundary
62
5
39
2
10
20.358079
20
896.462057
11
21.657683
21
894.942595
0
LINE
8
boundary
62
5
39
2
10
21.657683
20
894.942595
11
22.252371
21
894.322107
0
LINE
8
boundary
62
5
39
2
10
22.252371
20
894.322107
11
23.635857
21
892.878602
0
LINE
8
boundary
62
5
39
2
10
23.635857
20
892.878602
11
24.264697
21
892.292754
0
LINE
8
boundary
62
5
39
2
10
24.264697
20
892.292754
11
25.727632
21
890.929833
0
LINE
8
boundary
62
5
39
2
10
25.727632
20
890.929833
11
26.388609
21
890.380501
0
LINE
8
boundary
62
5
39
2
10
26.388609
20
890.380501
11
26.735847
21
890.091913
0
LINE
8
boundary
62
5
39
2
10
26.735847
20
890.091913
11
30.659821
21
891.088435
0
LINE
8
boundary
62
5
39
2
10
30.659821
20
891.088435
11
33.347209
21
895.743128
0
LINE
8
boundary
62
5
39
2
10
33.347209
20
895.743128
11
33.861737
21
896.329835
0
LINE
8
boundary
62
5
39
2
10
33.861737
20
896.329835
11
34.561622
21
896.674980
0
LINE
8
boundary
62
5
39
2
10
34.561622
20
896.674980
11
35.340312
21
896.726018
0
LINE
8
boundary
62
5
39
2
10
35.340312
20
896.726018
11
36.079260
21
896.475179
0
LINE
8
boundary
62
5
39
2
10
36.079260
20
896.475179
11
36.665966
21
895.960651
0
LINE
8
boundary
62
5
39
2
10
36.665966
20
895.960651
11
37.011111
21
895.260766
0
LINE
8
boundary
62
5
39
2
10
37.011111
20
895.260766
11
37.062150
21
894.482075
0
LINE
8
boundary
62
5
39
2
10
37.062150
20
894.482075
11
36.811311
21
893.743128
0
LINE
8
boundary
62
5
39
2
10
36.811311
20
893.743128
11
39.842399
21
891.993128
0
LINE
8
boundary
62
5
39
2
10
39.842399
20
891.993128
11
40.356927
21
892.579835
0
LINE
8
boundary
62
5
39
2
10
40.356927
20
892.579835
11
41.056812
21
892.924980
0
LINE
8
boundary
62
5
39
2
10
41.056812
20
892.924980
11
41.835503
21
892.976018
0
LINE
8
boundary
62
5
39
2
10
41.835503
20
892.976018
11
42.574450
21
892.725179
0
LINE
8
boundary
62
5
39
2
10
42.574450
20
892.725179
11
43.161157
21
892.210651
0
LINE
8
boundary
62
5
39
2
10
43.161157
20
892.210651
11
43.506302
21
891.510766
0
LINE
8
boundary
62
5
39
2
10
43.506302
20
891.510766
11
43.557340
21
890.732076
0
LINE
8
boundary
62
5
39
2
10
43.557340
20
890.732076
11
43.306501
21
889.993128
0
LINE
8
boundary
62
5
39
2
10
43.306501
20
889.993128
11
40.619114
21
885.338436
0
LINE
8
boundary
62
5
39
2
10
40.619114
20
885.338436
11
41.718087
21
881.441914
0
LINE
8
boundary
62
5
39
2
10
41.718087
20
881.441914
11
42.947854
21
880.987735
0
LINE
8
boundary
62
5
39
2
10
42.947854
20
880.987735
11
43.769633
21
880.736068
0
LINE
8
boundary
62
5
39
2
10
43.769633
20
880.736068
11
45.681425
21
880.150588
0
LINE
8
boundary
62
5
39
2
10
45.681425
20
880.150588
11
46.516127
21
879.945817
0
LINE
8
boundary
62
5
39
2
10
46.516127
20
879.945817
11
48.457982
21
879.469434
0
LINE
8
boundary
62
5
39
2
10
48.457982
20
879.469434
11
49.302931
21
879.312213
0
LINE
8
boundary
62
5
39
2
10
49.302931
20
879.312213
11
51.268626
21
878.946457
0
LINE
8
boundary
62
5
39
2
10
51.268626
20
878.946457
11
52.121117
21
878.837293
0
LINE
8
boundary
62
5
39
2
10
52.121117
20
878.837293
11
54.104356
21
878.583324
0
LINE
8
boundary
62
5
39
2
10
54.104356
20
878.583324
11
54.961657
21
878.522562
0
LINE
8
boundary
62
5
39
2
10
54.961657
20
878.522562
11
56.956089
21
878.381207
0
LINE
8
boundary
62
5
39
2
10
56.956089
20
878.381207
11
57.815455
21
878.369045
0
LINE
8
boundary
62
5
39
2
10
57.815455
20
878.369045
11
59.814689
21
878.340753
0
LINE
8
boundary
62
5
39
2
10
59.814689
20
878.340753
11
60.673366
21
878.377231
0
LINE
8
boundary
62
5
39
2
10
60.673366
20
878.377231
11
62.670999
21
878.462090
0
LINE
8
boundary
62
5
39
2
10
62.670999
20
878.462090
11
63.526237
21
878.547088
0
LINE
8
boundary
62
5
39
2
10
63.526237
20
878.547088
11
65.515870
21
878.744825
0
LINE
8
boundary
62
5
39
2
10
65.515870
20
878.744825
11
66.364930
21
878.878071
0
LINE
8
boundary
62
5
39
2
10
66.364930
20
878.878071
11
68.340189
21
879.188057
0
LINE
8
boundary
62
5
39
2
10
68.340189
20
879.188057
11
69.180350
21
879.369125
0
LINE
8
boundary
62
5
39
2
10
69.180350
20
879.369125
11
71.134908
21
879.790363
0
LINE
8
boundary
62
5
39
2
10
71.134908
20
879.790363
11
71.963480
21
880.018675
0
LINE
8
boundary
62
5
39
2
10
71.963480
20
880.018675
11
73.891075
21
880.549819
0
LINE
8
boundary
62
5
39
2
10
73.891075
20
880.549819
11
74.705403
21
880.824639
0
LINE
8
boundary
62
5
39
2
10
74.705403
20
880.824639
11
76.599862
21
881.463988
0
LINE
8
boundary
62
5
39
2
10
76.599862
20
881.463988
11
77.397337
21
881.784441
0
LINE
8
boundary
62
5
39
2
10
77.397337
20
881.784441
11
79.252591
21
882.529941
0
LINE
8
boundary
62
5
39
2
10
79.252591
20
882.529941
11
80.030660
21
882.894997
0
LINE
8
boundary
62
5
39
2
10
80.030660
20
882.894997
11
81.840764
21
883.744267
0
LINE
8
boundary
62
5
39
2
10
81.840764
20
883.744267
11
82.596935
21
884.152757
0
LINE
8
boundary
62
5
39
2
10
82.596935
20
884.152757
11
84.356093
21
885.103075
0
LINE
8
boundary
62
5
39
2
10
84.356093
20
885.103075
11
85.087941
21
885.553692
0
LINE
8
boundary
62
5
39
2
10
85.087941
20
885.553692
11
86.790518
21
886.602008
0
LINE
8
boundary
62
5
39
2
10
86.790518
20
886.602008
11
87.495701
21
887.093306
0
LINE
8
boundary
62
5
39
2
10
87.495701
20
887.093306
11
89.136243
21
888.236272
0
LINE
8
boundary
62
5
39
2
10
89.136243
20
888.236272
11
89.812501
21
888.766681
0
LINE
8
boundary
62
5
39
2
10
89.812501
20
888.766681
11
91.385749
21
890.000623
0
LINE
8
boundary
62
5
39
2
10
91.385749
20
890.000623
11
92.030916
21
890.568440
0
LINE
8
boundary
62
5
39
2
10
92.030916
20
890.568440
11
93.531839
21
891.889415
0
LINE
8
boundary
62
5
39
2
10
93.531839
20
891.889415
11
94.143848
21
892.492825
0
LINE
8
boundary
62
5
39
2
10
94.143848
20
892.492825
11
95.567626
21
893.896600
0
LINE
8
boundary
62
5
39
2
10
95.567626
20
893.896600
11
96.144517
21
894.533667
0
LINE
8
boundary
62
5
39
2
10
96.144517
20
894.533667
11
97.486600
21
896.015746
0
LINE
8
boundary
62
5
39
2
10
97.486600
20
896.015746
11
98.026525
21
896.684430
0
LINE
8
boundary
62
5
39
2
10
98.026525
20
896.684430
11
99.282609
21
898.240059
0
LINE
8
boundary
62
5
39
2
10
99.282609
20
898.240059
11
99.783839
21
898.938217
0
LINE
8
boundary
62
5
39
2
10
99.783839
20
898.938217
11
100.949904
21
900.562423
0
LINE
8
boundary
62
5
39
2
10
100.949904
20
900.562423
11
101.410831
21
901.287822
0
LINE
8
boundary
62
5
39
2
10
101.410831
20
901.287822
11
102.483137
21
902.975394
0
LINE
8
boundary
62
5
39
2
10
102.483137
20
902.975394
11
102.902286
21
903.725707
0
LINE
8
boundary
62
5
39
2
10
102.902286
20
903.725707
11
103.877401
21
905.471240
0
LINE
8
boundary
62
5
39
2
10
103.877401
20
905.471240
11
104.253431
21
906.244064
0
LINE
8
boundary
62
5
39
2
10
104.253431
20
906.244064
11
105.128227
21
908.041972
0
LINE
8
boundary
62
5
39
2
10
105.128227
20
908.041972
11
105.459933
21
908.834835
0
LINE
8
boundary
62
5
39
2
10
105.459933
20
908.834835
11
106.231612
21
910.679351
0
LINE
8
boundary
62
5
39
2
10
106.231612
20
910.679351
11
106.517928
21
911.489709
0
LINE
8
boundary
62
5
39
2
10
106.517928
20
911.489709
11
107.184022
21
913.374930
0
LINE
8
boundary
62
5
39
2
10
107.184022
20
913.374930
11
107.424035
21
914.200188
0
LINE
8
boundary
62
5
39
2
10
107.424035
20
914.200188
11
107.982404
21
916.120074
0
LINE
8
boundary
62
5
39
2
10
107.982404
20
916.120074
11
108.175344
21
916.957589
0
LINE
8
boundary
62
5
39
2
10
108.175344
20
916.957589
11
108.624197
21
918.905991
0
LINE
8
boundary
62
5
39
2
10
108.624197
20
918.905991
11
108.769443
21
919.753080
0
LINE
8
boundary
62
5
39
2
10
108.769443
20
919.753080
11
108.845749
21
920.198090
0
LINE
8
boundary
62
5
39
2
10
108.845749
20
920.198090
11
106.020749
21
923.098090
0
LINE
8
boundary
62
5
39
2
10
106.020749
20
923.098090
11
100.645978
21
923.098090
0
LINE
8
boundary
62
5
39
2
10
100.645978
20
923.098090
11
99.880611
21
923.250331
0
LINE
8
boundary
62
5
39
2
10
99.880611
20
923.250331
11
99.231764
21
923.683876
0
LINE
8
boundary
62
5
39
2
10
99.231764
20
923.683876
11
98.798219
21
924.332723
0
LINE
8
boundary
62
5
39
2
10
98.798219
20
924.332723
11
98.645978
21
925.098090
0
LINE
8
boundary
62
5
39
2
10
98.645978
20
925.098090
11
98.798219
21
925.863456
0
LINE
8
boundary
62
5
39
2
10
98.798219
20
925.863456
11
99.231764
21
926.512303
0
LINE
8
boundary
62
5
39
2
10
99.231764
20
926.512303
11
99.880611
21
926.945849
0
LINE
8
boundary
62
5
39
2
10
99.880611
20
926.945849
11
100.645978
21
927.098090
0
LINE
8
boundary
62
5
39
2
10
100.645978
20
927.098090
11
100.645978
21
930.598090
0
LINE
8
boundary
62
5
39
2
10
100.645978
20
930.598090
11
99.880611
21
930.750330
0
LINE
8
boundary
62
5
39
2
10
99.880611
20
930.750330
11
99.231764
21
931.183876
0
LINE
8
boundary
62
5
39
2
10
99.231764
20
931.183876
11
98.798219
21
931.832723
0
LINE
8
boundary
62
5
39
2
10
98.798219
20
931.832723
11
98.645978
21
932.598090
0
LINE
8
boundary
62
5
39
2
10
98.645978
20
932.598090
11
98.798219
21
933.363456
0
LINE
8
boundary
62
5
39
2
10
98.798219
20
933.363456
11
99.231764
21
934.012303
0
LINE
8
boundary
62
5
39
2
10
99.231764
20
934.012303
11
99.880611
21
934.445849
0
LINE
8
boundary
62
5
39
2
10
99.880611
20
934.445849
11
100.645978
21
934.598090
0
LINE
8
boundary
62
5
39
2
10
100.645978
20
934.598090
11
106.020751
21
934.598090
0
LINE
8
boundary
62
5
39
2
10
106.020751
20
934.598090
11
108.845751
21
937.498090
0
LINE
8
boundary
62
5
39
2
10
108.845751
20
937.498090
11
108.624197
21
938.790188
0
LINE
8
boundary
62
5
39
2
10
108.624197
20
938.790188
11
108.431257
21
939.627703
0
LINE
8
boundary
62
5
39
2
10
108.431257
20
939.627703
11
107.982404
21
941.576105
0
LINE
8
boundary
62
5
39
2
10
107.982404
20
941.576105
11
107.742391
21
942.401363
0
LINE
8
boundary
62
5
39
2
10
107.742391
20
942.401363
11
107.184022
21
944.321249
0
LINE
8
boundary
62
5
39
2
10
107.184022
20
944.321249
11
106.897706
21
945.131606
0
LINE
8
boundary
62
5
39
2
10
106.897706
20
945.131606
11
106.231612
21
947.016828
0
LINE
8
boundary
62
5
39
2
10
106.231612
20
947.016828
11
105.899907
21
947.809690
0
LINE
8
boundary
62
5
39
2
10
105.899907
20
947.809690
11
105.128227
21
949.654207
0
LINE
8
boundary
62
5
39
2
10
105.128227
20
949.654207
11
104.752196
21
950.427031
0
LINE
8
boundary
62
5
39
2
10
104.752196
20
950.427031
11
103.877401
21
952.224940
0
LINE
8
boundary
62
5
39
2
10
103.877401
20
952.224940
11
103.458252
21
952.975252
0
LINE
8
boundary
62
5
39
2
10
103.458252
20
952.975252
11
102.483137
21
954.720786
0
LINE
8
boundary
62
5
39
2
10
102.483137
20
954.720786
11
102.022209
21
955.446185
0
LINE
8
boundary
62
5
39
2
10
102.022209
20
955.446185
11
100.949904
21
957.133756
0
LINE
8
boundary
62
5
39
2
10
100.949904
20
957.133756
11
100.448674
21
957.831915
0
LINE
8
boundary
62
5
39
2
10
100.448674
20
957.831915
11
99.282609
21
959.456121
0
LINE
8
boundary
62
5
39
2
10
99.282609
20
959.456121
11
98.742684
21
960.124805
0
LINE
8
boundary
62
5
39
2
10
98.742684
20
960.124805
11
97.486600
21
961.680433
0
LINE
8
boundary
62
5
39
2
10
97.486600
20
961.680433
11
96.909710
21
962.317501
0
LINE
8
boundary
62
5
39
2
10
96.909710
20
962.317501
11
95.567626
21
963.799579
0
LINE
8
boundary
62
5
39
2
10
95.567626
20
963.799579
11
94.955618
21
964.402989
0
LINE
8
boundary
62
5
39
2
10
94.955618
20
964.402989
11
93.531839
21
965.806764
0
LINE
8
boundary
62
5
39
2
10
93.531839
20
965.806764
11
92.886672
21
966.374580
0
LINE
8
boundary
62
5
39
2
10
92.886672
20
966.374580
11
91.385750
21
967.695556
0
LINE
8
boundary
62
5
39
2
10
91.385750
20
967.695556
11
90.709492
21
968.225965
0
LINE
8
boundary
62
5
39
2
10
90.709492
20
968.225965
11
89.136243
21
969.459908
0
LINE
8
boundary
62
5
39
2
10
89.136243
20
969.459908
11
88.431061
21
969.951206
0
LINE
8
boundary
62
5
39
2
10
88.431061
20
969.951206
11
86.790518
21
971.094171
0
LINE
8
boundary
62
5
39
2
10
86.790518
20
971.094171
11
86.058671
21
971.544788
0
LINE
8
boundary
62
5
39
2
10
86.058671
20
971.544788
11
84.356094
21
972.593104
0
LINE
8
boundary
62
5
39
2
10
84.356094
20
972.593104
11
83.599923
21
973.001594
0
LINE
8
boundary
62
5
39
2
10
83.599923
20
973.001594
11
81.840764
21
973.951912
0
LINE
8
boundary
62
5
39
2
10
81.840764
20
973.951912
11
81.062696
21
974.316968
0
LINE
8
boundary
62
5
39
2
10
81.062696
20
974.316968
11
79.252591
21
975.166239
0
LINE
8
boundary
62
5
39
2
10
79.252591
20
975.166239
11
78.455115
21
975.486692
0
LINE
8
boundary
62
5
39
2
10
78.455115
20
975.486692
11
76.599862
21
976.232191
0
LINE
8
boundary
62
5
39
2
10
76.599862
20
976.232191
11
75.785533
21
976.507011
0
LINE
8
boundary
62
5
39
2
10
75.785533
20
976.507011
11
73.891075
21
977.146360
0
LINE
8
boundary
62
5
39
2
10
73.891075
20
977.146360
11
73.062503
21
977.374672
0
LINE
8
boundary
62
5
39
2
10
73.062503
20
977.374672
11
71.134908
21
977.905816
0
LINE
8
boundary
62
5
39
2
10
71.134908
20
977.905816
11
70.294747
21
978.086884
0
LINE
8
boundary
62
5
39
2
10
70.294747
20
978.086884
11
68.340189
21
978.508122
0
LINE
8
boundary
62
5
39
2
10
68.340189
20
978.508122
11
67.491129
21
978.641369
0
LINE
8
boundary
62
5
39
2
10
67.491129
20
978.641369
11
65.515870
21
978.951354
0
LINE
8
boundary
62
5
39
2
10
65.515870
20
978.951354
11
64.660631
21
979.036351
0
LINE
8
boundary
62
5
39
2
10
64.660631
20
979.036351
11
62.670999
21
979.234089
0
LINE
8
boundary
62
5
39
2
10
62.670999
20
979.234089
11
61.812322
21
979.270567
0
LINE
8
boundary
62
5
39
2
10
61.812322
20
979.270567
11
59.814689
21
979.355426
0
LINE
8
boundary
62
5
39
2
10
59.814689
20
979.355426
11
58.955323
21
979.343263
0
LINE
8
boundary
62
5
39
2
10
58.955323
20
979.343263
11
56.956089
21
979.314972
0
LINE
8
boundary
62
5
39
2
10
56.956089
20
979.314972
11
56.098788
21
979.254209
0
LINE
8
boundary
62
5
39
2
10
56.098788
20
979.254209
11
54.104356
21
979.112855
0
LINE
8
boundary
62
5
39
2
10
54.104356
20
979.112855
11
53.251866
21
979.003691
0
LINE
8
boundary
62
5
39
2
10
53.251866
20
979.003691
11
51.268626
21
978.749722
0
LINE
8
boundary
62
5
39
2
10
51.268626
20
978.749722
11
50.423677
21
978.592500
0
LINE
8
boundary
62
5
39
2
10
50.423677
20
978.592500
11
48.457981
21
978.226745
0
LINE
8
boundary
62
5
39
2
10
48.457981
20
978.226745
11
47.623280
21
978.021973
0
LINE
8
boundary
62
5
39
2
10
47.623280
20
978.021973
11
45.681425
21
977.545591
0
LINE
8
boundary
62
5
39
2
10
45.681425
20
977.545591
11
44.859647
21
977.293923
0
LINE
8
boundary
62
5
39
2
10
44.859647
20
977.293923
11
42.947854
21
976.708444
0
LINE
8
boundary
62
5
39
2
10
42.947854
20
976.708444
11
42.141629
21
976.410689
0
LINE
8
boundary
62
5
39
2
10
42.141629
20
976.410689
11
41.718087
21
976.254266
0
LINE
8
boundary
62
5
39
2
10
41.718087
20
976.254266
11
40.619113
21
972.357744
0
LINE
8
boundary
62
5
39
2
10
40.619113
20
972.357744
11
43.306501
21
967.703051
0
LINE
8
boundary
62
5
39
2
10
43.306501
20
967.703051
11
43.557340
21
966.964104
0
LINE
8
boundary
62
5
39
2
10
43.557340
20
966.964104
11
43.506302
21
966.185413
0
LINE
8
boundary
62
5
39
2
10
43.506302
20
966.185413
11
43.161157
21
965.485529
0
LINE
8
boundary
62
5
39
2
10
43.161157
20
965.485529
11
42.574450
21
964.971001
0
LINE
8
boundary
62
5
39
2
10
42.574450
20
964.971001
11
41.835503
21
964.720162
0
LINE
8
boundary
62
5
39
2
10
41.835503
20
964.720162
11
41.056812
21
964.771200
0
LINE
8
boundary
62
5
39
2
10
41.056812
20
964.771200
11
40.356927
21
965.116345
0
LINE
8
boundary
62
5
39
2
10
40.356927
20
965.116345
11
39.842399
21
965.703051
0
LINE
8
boundary
62
5
39
2
10
39.842399
20
965.703051
11
36.811311
21
963.953052
0
LINE
8
boundary
62
5
39
2
10
36.811311
20
963.953052
11
37.062150
21
963.214104
0
LINE
8
boundary
62
5
39
2
10
37.062150
20
963.214104
11
37.011111
21
962.435413
0
LINE
8
boundary
62
5
39
2
10
37.011111
20
962.435413
11
36.665966
21
961.735529
0
LINE
8
boundary
62
5
39
2
10
36.665966
20
961.735529
11
36.079260
21
961.221001
0
LINE
8
boundary
62
5
39
2
10
36.079260
20
961.221001
11
35.340312
21
960.970162
0
LINE
8
boundary
62
5
39
2
10
35.340312
20
960.970162
11
34.561622
21
961.021200
0
LINE
8
boundary
62
5
39
2
10
34.561622
20
961.021200
11
33.861737
21
961.366345
0
LINE
8
boundary
62
5
39
2
10
33.861737
20
961.366345
11
33.347209
21
961.953051
0
LINE
8
boundary
62
5
39
2
10
33.347209
20
961.953051
11
30.659821
21
966.607744
0
LINE
8
boundary
62
5
39
2
10
30.659821
20
966.607744
11
26.735847
21
967.604266
0
LINE
8
boundary
62
5
39
2
10
26.735847
20
967.604266
11
25.727632
21
966.766346
0
LINE
8
boundary
62
5
39
2
10
25.727632
20
966.766346
11
25.098792
21
966.180499
0
LINE
8
boundary
62
5
39
2
10
25.098792
20
966.180499
11
23.635857
21
964.817578
0
LINE
8
boundary
62
5
39
2
10
23.635857
20
964.817578
11
23.041170
21
964.197090
0
LINE
8
boundary
62
5
39
2
10
23.041170
20
964.197090
11
21.657683
21
962.753584
0
LINE
8
boundary
62
5
39
2
10
21.657683
20
962.753584
11
21.099051
21
962.100448
0
LINE
8
boundary
62
5
39
2
10
21.099051
20
962.100448
11
19.799447
21
960.580986
0
LINE
8
boundary
62
5
39
2
10
19.799447
20
960.580986
11
19.278663
21
959.897290
0
LINE
8
boundary
62
5
39
2
10
19.278663
20
959.897290
11
18.067102
21
958.306735
0
LINE
8
boundary
62
5
39
2
10
18.067102
20
958.306735
11
17.585829
21
957.594672
0
LINE
8
boundary
62
5
39
2
10
17.585829
20
957.594672
11
16.466197
21
955.938121
0
LINE
8
boundary
62
5
39
2
10
16.466197
20
955.938121
11
16.025982
21
955.199970
0
LINE
8
boundary
62
5
39
2
10
16.025982
20
955.199970
11
15.001863
21
953.482728
0
LINE
8
boundary
62
5
39
2
10
15.001863
20
953.482728
11
14.604114
21
952.720854
0
LINE
8
boundary
62
5
39
2
10
14.604114
20
952.720854
11
13.678785
21
950.948424
0
LINE
8
boundary
62
5
39
2
10
13.678785
20
950.948424
11
13.324777
21
950.165267
0
LINE
8
boundary
62
5
39
2
10
13.324777
20
950.165267
11
12.501208
21
948.343325
0
LINE
8
boundary
62
5
39
2
10
12.501208
20
948.343325
11
12.192073
21
947.541395
0
LINE
8
boundary
62
5
39
2
10
12.192073
20
947.541395
11
11.472899
21
945.675779
0
LINE
8
boundary
62
5
39
2
10
11.472899
20
945.675779
11
11.209628
21
944.857644
0
LINE
8
boundary
62
5
39
2
10
11.209628
20
944.857644
11
10.597153
21
942.954327
0
LINE
8
boundary
62
5
39
2
10
10.597153
20
942.954327
11
10.380590
21
942.122607
0
LINE
8
boundary
62
5
39
2
10
10.380590
20
942.122607
11
9.876778
21
940.187688
0
LINE
8
boundary
62
5
39
2
10
9.876778
20
940.187688
11
9.707616
21
939.345049
0
LINE
8
boundary
62
5
39
2
10
9.707616
20
939.345049
11
9.314078
21
937.384726
0
LINE
8
boundary
62
5
39
2
10
9.314078
20
937.384726
11
9.192859
21
936.533865
0
LINE
8
boundary
62
5
39
2
10
9.192859
20
936.533865
11
8.910857
21
934.554418
0
LINE
8
boundary
62
5
39
2
10
8.910857
20
934.554418
11
8.837970
21
933.698062
0
LINE
8
boundary
62
5
39
2
10
8.837970
20
933.698062
11
8.668405
21
931.705831
0
LINE
8
boundary
62
5
39
2
10
8.668405
20
931.705831
11
8.644083
21
930.846723
0
LINE
8
boundary
62
5
39
2
10
8.644083
20
930.846723
11
8.587500
21
928.848089
0
LINE
8
boundary
62
5
39
2
10
8.587500
20
928.848089
11
8.611823
21
927.988982
0
LINE
8
boundary
62
5
39
2
10
8.611823
20
927.988982
11
8.668405
21
925.990348
0
LINE
8
boundary
62
5
39
2
10
8.668405
20
925.990348
11
8.741291
21
925.133993
0
LINE
8
boundary
62
5
39
2
10
8.741291
20
925.133993
11
8.910857
21
923.141762
0
LINE
8
annotation
62
1
39
211
10
93.541021
20
930.390924
11
93.541021
21
936.585255
0
LINE
8
annotation
62
1
39
211
10
93.541021
20
936.585255
11
92.163942
21
935.207788
0
LINE
8
annotation
62
1
39
211
10
39.681042
20
958.849143
11
40.934919
21
956.677364
0
LINE
8
annotation
62
1
39
211
10
40.934919
20
956.677364
11
36.545613
21
956.818923
0
LINE
8
annotation
62
1
39
211
10
36.545613
20
956.818923
11
36.545613
21
956.818923
0
LINE
8
annotation
62
1
39
211
10
36.545613
20
956.818923
11
36.541259
21
956.819608
0
LINE
8
annotation
62
1
39
211
10
36.541259
20
956.819608
11
36.536937
21
956.820180
0
LINE
8
annotation
62
1
39
211
10
36.536937
20
956.820180
11
36.532613
21
956.820640
0
LINE
8
annotation
62
1
39
211
10
36.532613
20
956.820640
11
36.528252
21
956.820988
0
LINE
8
annotation
62
1
39
211
10
36.528252
20
956.820988
11
36.523821
21
956.821224
0
LINE
8
annotation
62
1
39
211
10
36.523821
20
956.821224
11
36.519285
21
956.821350
0
LINE
8
annotation
62
1
39
211
10
36.519285
20
956.821350
11
36.514611
21
956.821366
0
LINE
8
annotation
62
1
39
211
10
36.514611
20
956.821366
11
36.509765
21
956.821272
0
LINE
8
annotation
62
1
39
211
10
36.509765
20
956.821272
11
36.504713
21
956.821069
0
LINE
8
annotation
62
1
39
211
10
36.504713
20
956.821069
11
36.504713
21
956.821069
0
LINE
8
annotation
62
1
39
211
10
36.504713
20
956.821069
11
36.278966
21
956.801214
0
LINE
8
annotation
62
1
39
211
10
36.278966
20
956.801214
11
36.066602
21
956.743146
0
LINE
8
annotation
62
1
39
211
10
36.066602
20
956.743146
11
35.871103
21
956.650458
0
LINE
8
annotation
62
1
39
211
10
35.871103
20
956.650458
11
35.695952
21
956.526741
0
LINE
8
annotation
62
1
39
211
10
35.695952
20
956.526741
11
35.544631
21
956.375588
0
LINE
8
annotation
62
1
39
211
10
35.544631
20
956.375588
11
35.420621
21
956.200590
0
LINE
8
annotation
62
1
39
211
10
35.420621
20
956.200590
11
35.327406
21
956.005340
0
LINE
8
annotation
62
1
39
211
10
35.327406
20
956.005340
11
35.268466
21
955.793430
0
LINE
8
annotation
62
1
39
211
10
35.268466
20
955.793430
11
35.247285
21
955.568452
0
LINE
8
annotation
62
1
39
211
10
35.247285
20
955.568452
11
35.247285
21
955.568452
0
LINE
8
annotation
62
1
39
211
10
35.247285
20
955.568452
11
35.268603
21
955.342890
0
LINE
8
annotation
62
1
39
211
10
35.268603
20
955.342890
11
35.327580
21
955.130674
0
LINE
8
annotation
62
1
39
211
10
35.327580
20
955.130674
11
35.420758
21
954.935314
0
LINE
8
annotation
62
1
39
211
10
35.420758
20
954.935314
11
35.544683
21
954.760320
0
LINE
8
annotation
62
1
39
211
10
35.544683
20
954.760320
11
35.695896
21
954.609201
0
LINE
8
annotation
62
1
39
211
10
35.695896
20
954.609201
11
35.870941
21
954.485468
0
LINE
8
annotation
62
1
39
211
10
35.870941
20
954.485468
11
36.066361
21
954.392630
0
LINE
8
annotation
62
1
39
211
10
36.066361
20
954.392630
11
36.278700
21
954.334198
0
LINE
8
annotation
62
1
39
211
10
36.278700
20
954.334198
11
36.504502
21
954.313680
0
LINE
8
annotation
62
1
39
211
10
36.504502
20
954.313680
11
36.860373
21
954.329012
0
LINE
8
annotation
62
1
39
211
10
44.081822
20
899.202528
11
43.454846
21
898.116573
0
LINE
8
annotation
62
1
39
211
10
43.454846
20
898.116573
11
43.454846
21
898.116573
0
LINE
8
annotation
62
1
39
211
10
43.454846
20
898.116573
11
43.359603
21
897.911146
0
LINE
8
annotation
62
1
39
211
10
43.359603
20
897.911146
11
43.303993
21
897.698210
0
LINE
8
annotation
62
1
39
211
10
43.303993
20
897.698210
11
43.286679
21
897.482614
0
LINE
8
annotation
62
1
39
211
10
43.286679
20
897.482614
11
43.306329
21
897.269201
0
LINE
8
annotation
62
1
39
211
10
43.306329
20
897.269201
11
43.361605
21
897.062820
0
LINE
8
annotation
62
1
39
211
10
43.361605
20
897.062820
11
43.451175
21
896.868315
0
LINE
8
annotation
62
1
39
211
10
43.451175
20
896.868315
11
43.573702
21
896.690534
0
LINE
8
annotation
62
1
39
211
10
43.573702
20
896.690534
11
43.727852
21
896.534323
0
LINE
8
annotation
62
1
39
211
10
43.727852
20
896.534323
11
43.912291
21
896.404527
0
LINE
8
annotation
62
1
39
211
10
43.912291
20
896.404527
11
44.456035
21
896.090596
0
LINE
8
annotation
62
1
39
211
10
44.456035
20
896.090596
11
44.456035
21
896.090596
0
LINE
8
annotation
62
1
39
211
10
44.456035
20
896.090596
11
44.660580
21
895.995812
0
LINE
8
annotation
62
1
39
211
10
44.660580
20
895.995812
11
44.872895
21
895.940445
0
LINE
8
annotation
62
1
39
211
10
44.872895
20
895.940445
11
45.088109
21
895.923231
0
LINE
8
annotation
62
1
39
211
10
45.088109
20
895.923231
11
45.301349
21
895.942908
0
LINE
8
annotation
62
1
39
211
10
45.301349
20
895.942908
11
45.507745
21
895.998213
0
LINE
8
annotation
62
1
39
211
10
45.507745
20
895.998213
11
45.702423
21
896.087884
0
LINE
8
annotation
62
1
39
211
10
45.702423
20
896.087884
11
45.880511
21
896.210657
0
LINE
8
annotation
62
1
39
211
10
45.880511
20
896.210657
11
46.037138
21
896.365270
0
LINE
8
annotation
62
1
39
211
10
46.037138
20
896.365270
11
46.167432
21
896.550460
0
LINE
8
annotation
62
1
39
211
10
46.167432
20
896.550460
11
46.481363
21
897.094204
0
LINE
8
annotation
62
1
39
211
10
46.481363
20
897.094204
11
46.167432
21
896.550460
0
LINE
8
annotation
62
1
39
211
10
46.167432
20
896.550460
11
46.167432
21
896.550460
0
LINE
8
annotation
62
1
39
211
10
46.167432
20
896.550460
11
46.072204
21
896.345025
0
LINE
8
annotation
62
1
39
211
10
46.072204
20
896.345025
11
46.016649
21
896.132058
0
LINE
8
annotation
62
1
39
211
10
46.016649
20
896.132058
11
45.999448
21
895.916396
0
LINE
8
annotation
62
1
39
211
10
45.999448
20
895.916396
11
46.019286
21
895.702875
0
LINE
8
annotation
62
1
39
211
10
46.019286
20
895.702875
11
46.074844
21
895.496330
0
LINE
8
annotation
62
1
39
211
10
46.074844
20
895.496330
11
46.164806
21
895.301599
0
LINE
8
annotation
62
1
39
211
10
46.164806
20
895.301599
11
46.287855
21
895.123517
0
LINE
8
annotation
62
1
39
211
10
46.287855
20
895.123517
11
46.442674
21
894.966920
0
LINE
8
annotation
62
1
39
211
10
46.442674
20
894.966920
11
46.627944
21
894.836644
0
LINE
8
annotation
62
1
39
211
10
46.627944
20
894.836644
11
46.627944
21
894.836644
0
LINE
8
annotation
62
1
39
211
10
46.627944
20
894.836644
11
46.832489
21
894.741860
0
LINE
8
annotation
62
1
39
211
10
46.832489
20
894.741860
11
47.044804
21
894.686492
0
LINE
8
annotation
62
1
39
211
10
47.044804
20
894.686492
11
47.260018
21
894.669278
0
LINE
8
annotation
62
1
39
211
10
47.260018
20
894.669278
11
47.473259
21
894.688955
0
LINE
8
annotation
62
1
39
211
10
47.473259
20
894.688955
11
47.679654
21
894.744260
0
LINE
8
annotation
62
1
39
211
10
47.679654
20
894.744260
11
47.874332
21
894.833931
0
LINE
8
annotation
62
1
39
211
10
47.874332
20
894.833931
11
48.052421
21
894.956704
0
LINE
8
annotation
62
1
39
211
10
48.052421
20
894.956704
11
48.209048
21
895.111317
0
LINE
8
annotation
62
1
39
211
10
48.209048
20
895.111317
11
48.339342
21
895.296507
0
LINE
8
annotation
62
1
39
211
10
48.339342
20
895.296507
11
48.966318
21
896.382462
0
LINE
8
annotation
62
1
39
211
10
56.354722
20
885.748395
11
52.315961
21
885.748395
0
LINE
8
annotation
62
1
39
211
10
52.315961
20
885.748395
11
56.354722
21
893.022179
0
LINE
8
annotation
62
1
39
211
10
56.354722
20
893.022179
11
52.315961
21
893.022179
0
LINE
8
annotation
62
1
39
211
10
63.060255
20
889.385287
11
59.083075
21
889.385287
0
LINE
8
annotation
62
1
39
211
10
69.018250
20
885.748336
11
65.787789
21
885.748336
0
LINE
8
annotation
62
1
39
211
10
65.787789
20
885.748336
11
68.772841
21
890.553887
0
LINE
8
annotation
62
1
39
211
10
68.772841
20
890.553887
11
68.772841
21
890.553887
0
LINE
8
annotation
62
1
39
211
10
68.772841
20
890.553887
11
68.776410
21
890.558303
0
LINE
8
annotation
62
1
39
211
10
68.776410
20
890.558303
11
68.779832
21
890.562756
0
LINE
8
annotation
62
1
39
211
10
68.779832
20
890.562756
11
68.783130
21
890.567284
0
LINE
8
annotation
62
1
39
211
10
68.783130
20
890.567284
11
68.786327
21
890.571925
0
LINE
8
annotation
62
1
39
211
10
68.786327
20
890.571925
11
68.789445
21
890.576717
0
LINE
8
annotation
62
1
39
211
10
68.789445
20
890.576717
11
68.792506
21
890.581695
0
LINE
8
annotation
62
1
39
211
10
68.792506
20
890.581695
11
68.795534
21
890.586899
0
LINE
8
annotation
62
1
39
211
10
68.795534
20
890.586899
11
68.798551
21
890.592366
0
LINE
8
annotation
62
1
39
211
10
68.798551
20
890.592366
11
68.801579
21
890.598134
0
LINE
8
annotation
62
1
39
211
10
68.801579
20
890.598134
11
68.801579
21
890.598134
0
LINE
8
annotation
62
1
39
211
10
68.801579
20
890.598134
11
68.924831
21
890.862766
0
LINE
8
annotation
62
1
39
211
10
68.924831
20
890.862766
11
68.996833
21
891.137081
0
LINE
8
annotation
62
1
39
211
10
68.996833
20
891.137081
11
69.019349
21
891.414881
0
LINE
8
annotation
62
1
39
211
10
69.019349
20
891.414881
11
68.994143
21
891.689965
0
LINE
8
annotation
62
1
39
211
10
68.994143
20
891.689965
11
68.922981
21
891.956137
0
LINE
8
annotation
62
1
39
211
10
68.922981
20
891.956137
11
68.807627
21
892.207198
0
LINE
8
annotation
62
1
39
211
10
68.807627
20
892.207198
11
68.649845
21
892.436949
0
LINE
8
annotation
62
1
39
211
10
68.649845
20
892.436949
11
68.451400
21
892.639192
0
LINE
8
annotation
62
1
39
211
10
68.451400
20
892.639192
11
68.214056
21
892.807729
0
LINE
8
annotation
62
1
39
211
10
68.214056
20
892.807729
11
68.214056
21
892.807729
0
LINE
8
annotation
62
1
39
211
10
68.214056
20
892.807729
11
67.948688
21
892.929230
0
LINE
8
annotation
62
1
39
211
10
67.948688
20
892.929230
11
67.673952
21
893.000122
0
LINE
8
annotation
62
1
39
211
10
67.673952
20
893.000122
11
67.395992
21
893.022002
0
LINE
8
annotation
62
1
39
211
10
67.395992
20
893.022002
11
67.120948
21
892.996464
0
LINE
8
annotation
62
1
39
211
10
67.120948
20
892.996464
11
66.854964
21
892.925105
0
LINE
8
annotation
62
1
39
211
10
66.854964
20
892.925105
11
66.604181
21
892.809520
0
LINE
8
annotation
62
1
39
211
10
66.604181
20
892.809520
11
66.374742
21
892.651304
0
LINE
8
annotation
62
1
39
211
10
66.374742
20
892.651304
11
66.172787
21
892.452054
0
LINE
8
annotation
62
1
39
211
10
66.172787
20
892.452054
11
66.004461
21
892.213364
0
LINE
8
annotation
62
1
39
211
10
66.004461
20
892.213364
11
65.792351
21
891.806478
0
LINE
8
boundary
62
5
39
2
10
126.342577
20
253.743055
11
126.342577
21
236.243058
0
LINE
8
boundary
62
5
39
2
10
126.342577
20
236.243058
11
137.993949
21
236.243058
0
LINE
8
boundary
62
5
39
2
10
137.993949
20
236.243058
11
140.110704
21
236.307129
0
LINE
8
boundary
62
5
39
2
10
140.110704
20
236.307129
11
144.479285
21
236.849162
0
LINE
8
boundary
62
5
39
2
10
144.479285
20
236.849162
11
148.745275
21
237.935275
0
LINE
8
boundary
62
5
39
2
10
148.745275
20
237.935275
11
152.841188
21
239.548270
0
LINE
8
boundary
62
5
39
2
10
152.841188
20
239.548270
11
156.702229
21
241.662663
0
LINE
8
boundary
62
5
39
2
10
156.702229
20
241.662663
11
160.267327
21
244.244979
0
LINE
8
boundary
62
5
39
2
10
160.267327
20
244.244979
11
163.480082
21
247.254376
0
LINE
8
boundary
62
5
39
2
10
163.480082
20
247.254376
11
166.289674
21
250.643256
0
LINE
8
boundary
62
5
39
2
10
166.289674
20
250.643256
11
168.651651
21
254.358001
0
LINE
8
boundary
62
5
39
2
10
168.651651
20
254.358001
11
170.528654
21
258.339856
0
LINE
8
boundary
62
5
39
2
10
170.528654
20
258.339856
11
171.890992
21
262.525828
0
LINE
8
boundary
62
5
39
2
10
171.890992
20
262.525828
11
172.717109
21
266.849692
0
LINE
8
boundary
62
5
39
2
10
172.717109
20
266.849692
11
172.993946
21
271.243052
0
LINE
8
boundary
62
5
39
2
10
172.993946
20
271.243052
11
172.993947
21
306.243072
0
LINE
8
boundary
62
5
39
2
10
172.993947
20
306.243072
11
173.245036
21
312.023152
0
LINE
8
boundary
62
5
39
2
10
173.245036
20
312.023152
11
173.647272
21
314.864869
0
LINE
8
boundary
62
5
39
2
10
173.647272
20
314.864869
11
174.056000
21
317.752460
0
LINE
8
boundary
62
5
39
2
10
174.056000
20
317.752460
11
174.719117
21
320.529987
0
LINE
8
boundary
62
5
39
2
10
174.719117
20
320.529987
11
175.399686
21
323.380616
0
LINE
8
boundary
62
5
39
2
10
175.399686
20
323.380616
11
176.315689
21
326.071510
0
LINE
8
boundary
62
5
39
2
10
176.315689
20
326.071510
11
177.264289
21
328.858159
0
LINE
8
boundary
62
5
39
2
10
177.264289
20
328.858159
11
178.423543
21
331.441175
0
LINE
8
boundary
62
5
39
2
10
178.423543
20
331.441175
11
179.633408
21
334.136961
0
LINE
8
boundary
62
5
39
2
10
179.633408
20
334.136961
11
181.024783
21
336.591969
0
LINE
8
boundary
62
5
39
2
10
181.024783
20
336.591969
11
182.486244
21
339.170641
0
LINE
8
boundary
62
5
39
2
10
182.486244
20
339.170641
11
184.097148
21
341.478558
0
LINE
8
boundary
62
5
39
2
10
184.097148
20
341.478558
11
185.797725
21
343.914946
0
LINE
8
boundary
62
5
39
2
10
185.797725
20
343.914946
11
187.614124
21
346.057748
0
LINE
8
boundary
62
5
39
2
10
187.614124
20
346.057748
11
189.538727
21
348.328198
0
LINE
8
boundary
62
5
39
2
10
189.538727
20
348.328198
11
191.545180
21
350.288938
0
LINE
8
boundary
62
5
39
2
10
191.545180
20
350.288938
11
193.676398
21
352.371601
0
LINE
8
boundary
62
5
39
2
10
193.676398
20
352.371601
11
195.856024
21
354.134512
0
LINE
8
boundary
62
5
39
2
10
195.856024
20
354.134512
11
198.174361
21
356.009614
0
LINE
8
boundary
62
5
39
2
10
198.174361
20
356.009614
11
198.383261
21
356.140308
0
LINE
8
boundary
62
5
39
2
10
198.383261
20
356.140308
11
202.758772
21
360.593642
0
LINE
8
boundary
62
5
39
2
10
202.758772
20
360.593642
11
205.327542
21
363.501130
0
LINE
8
boundary
62
5
39
2
10
205.327542
20
363.501130
11
207.896309
21
366.408612
0
LINE
8
boundary
62
5
39
2
10
207.896309
20
366.408612
11
210.253592
21
369.490050
0
LINE
8
boundary
62
5
39
2
10
210.253592
20
369.490050
11
212.610871
21
372.571482
0
LINE
8
boundary
62
5
39
2
10
212.610871
20
372.571482
11
214.744921
21
375.811528
0
LINE
8
boundary
62
5
39
2
10
214.744921
20
375.811528
11
216.878967
21
379.051569
0
LINE
8
boundary
62
5
39
2
10
216.878967
20
379.051569
11
218.779153
21
382.434077
0
LINE
8
boundary
62
5
39
2
10
218.779153
20
382.434077
11
220.679335
21
385.816581
0
LINE
8
boundary
62
5
39
2
10
220.679335
20
385.816581
11
222.336181
21
389.324705
0
LINE
8
boundary
62
5
39
2
10
222.336181
20
389.324705
11
223.993025
21
392.832823
0
LINE
8
boundary
62
5
39
2
10
223.993025
20
392.832823
11
225.398288
21
396.449077
0
LINE
8
boundary
62
5
39
2
10
225.398288
20
396.449077
11
226.803549
21
400.065325
0
LINE
8
boundary
62
5
39
2
10
226.803549
20
400.065325
11
227.950222
21
403.771701
0
LINE
8
boundary
62
5
39
2
10
227.950222
20
403.771701
11
229.096892
21
407.478071
0
LINE
8
boundary
62
5
39
2
10
229.096892
20
407.478071
11
229.979276
21
411.256096
0
LINE
8
boundary
62
5
39
2
10
229.979276
20
411.256096
11
230.861659
21
415.034117
0
LINE
8
boundary
62
5
39
2
10
230.861659
20
415.034117
11
231.475333
21
418.864977
0
LINE
8
boundary
62
5
39
2
10
231.475333
20
418.864977
11
232.089006
21
422.695830
0
LINE
8
boundary
62
5
39
2
10
232.089006
20
422.695830
11
232.430937
21
426.560423
0
LINE
8
boundary
62
5
39
2
10
232.430937
20
426.560423
11
232.772868
21
430.425009
0
LINE
8
boundary
62
5
39
2
10
232.772868
20
430.425009
11
232.841341
21
434.304112
0
LINE
8
boundary
62
5
39
2
10
232.841341
20
434.304112
11
232.909814
21
438.183208
0
LINE
8
boundary
62
5
39
2
10
232.909814
20
438.183208
11
232.704484
21
442.057472
0
LINE
8
boundary
62
5
39
2
10
232.704484
20
442.057472
11
232.499156
21
445.931730
0
LINE
8
boundary
62
5
39
2
10
232.499156
20
445.931730
11
232.021053
21
449.781846
0
LINE
8
boundary
62
5
39
2
10
232.021053
20
449.781846
11
231.542952
21
453.631957
0
LINE
8
boundary
62
5
39
2
10
231.542952
20
453.631957
11
230.794463
21
457.438773
0
LINE
8
boundary
62
5
39
2
10
230.794463
20
457.438773
11
230.045975
21
461.245584
0
LINE
8
boundary
62
5
39
2
10
230.045975
20
461.245584
11
229.030811
21
464.990117
0
LINE
8
boundary
62
5
39
2
10
229.030811
20
464.990117
11
228.015648
21
468.734643
0
LINE
8
boundary
62
5
39
2
10
228.015648
20
468.734643
11
226.738884
21
472.398247
0
LINE
8
boundary
62
5
39
2
10
226.738884
20
472.398247
11
225.462121
21
476.061844
0
LINE
8
boundary
62
5
39
2
10
225.462121
20
476.061844
11
223.930107
21
479.626243
0
LINE
8
boundary
62
5
39
2
10
223.930107
20
479.626243
11
222.398095
21
483.190636
0
LINE
8
boundary
62
5
39
2
10
222.398095
20
483.190636
11
220.618472
21
486.638105
0
LINE
8
boundary
62
5
39
2
10
220.618472
20
486.638105
11
218.838852
21
490.085569
0
LINE
8
boundary
62
5
39
2
10
218.838852
20
490.085569
11
216.820478
21
493.398893
0
LINE
8
boundary
62
5
39
2
10
216.820478
20
493.398893
11
214.802108
21
496.712212
0
LINE
8
boundary
62
5
39
2
10
214.802108
20
496.712212
11
212.555041
21
499.874946
0
LINE
8
boundary
62
5
39
2
10
212.555041
20
499.874946
11
210.307978
21
503.037674
0
LINE
8
boundary
62
5
39
2
10
210.307978
20
503.037674
11
207.843416
21
506.033993
0
LINE
8
boundary
62
5
39
2
10
207.843416
20
506.033993
11
205.378858
21
509.030307
0
LINE
8
boundary
62
5
39
2
10
205.378858
20
509.030307
11
202.709082
21
511.845333
0
LINE
8
boundary
62
5
39
2
10
202.709082
20
511.845333
11
200.039309
21
514.660353
0
LINE
8
boundary
62
5
39
2
10
200.039309
20
514.660353
11
197.177609
21
517.280036
0
LINE
8
boundary
62
5
39
2
10
197.177609
20
517.280036
11
194.315912
21
519.899714
0
LINE
8
boundary
62
5
39
2
10
194.315912
20
519.899714
11
191.276551
21
522.311021
0
LINE
8
boundary
62
5
39
2
10
191.276551
20
522.311021
11
188.237195
21
524.722324
0
LINE
8
boundary
62
5
39
2
10
188.237195
20
524.722324
11
185.035317
21
526.913211
0
LINE
8
boundary
62
5
39
2
10
185.035317
20
526.913211
11
181.833444
21
529.104094
0
LINE
8
boundary
62
5
39
2
10
181.833444
20
529.104094
11
178.484993
21
531.063672
0
LINE
8
boundary
62
5
39
2
10
178.484993
20
531.063672
11
175.136547
21
533.023246
0
LINE
8
boundary
62
5
39
2
10
175.136547
20
533.023246
11
171.658216
21
534.741760
0
LINE
8
boundary
62
5
39
2
10
171.658216
20
534.741760
11
168.179889
21
536.460270
0
LINE
8
boundary
62
5
39
2
10
168.179889
20
536.460270
11
164.588999
21
537.929144
0
LINE
8
boundary
62
5
39
2
10
164.588999
20
537.929144
11
160.998115
21
539.398015
0
LINE
8
boundary
62
5
39
2
10
160.998115
20
539.398015
11
157.312557
21
540.609921
0
LINE
8
boundary
62
5
39
2
10
157.312557
20
540.609921
11
153.627005
21
541.821826
0
LINE
8
boundary
62
5
39
2
10
153.627005
20
541.821826
11
149.865139
21
542.770732
0
LINE
8
boundary
62
5
39
2
10
149.865139
20
542.770732
11
146.103280
21
543.719638
0
LINE
8
boundary
62
5
39
2
10
146.103280
20
543.719638
11
142.283852
21
544.400835
0
LINE
8
boundary
62
5
39
2
10
142.283852
20
544.400835
11
138.464429
21
545.082031
0
LINE
8
boundary
62
5
39
2
10
138.464429
20
545.082031
11
134.606463
21
545.492114
0
LINE
8
boundary
62
5
39
2
10
134.606463
20
545.492114
11
130.748503
21
545.902197
0
LINE
8
boundary
62
5
39
2
10
130.748503
20
545.902197
11
126.871222
21
546.039113
0
LINE
8
boundary
62
5
39
2
10
126.871222
20
546.039113
11
126.342577
21
546.057781
0
LINE
8
boundary
62
5
39
2
10
126.342577
20
546.057781
11
126.342577
21
526.111489
0
LINE
8
boundary
62
5
39
2
10
126.342577
20
526.111489
11
126.342577
21
528.998281
0
LINE
8
boundary
62
5
39
2
10
126.342577
20
528.998281
11
129.167577
21
526.098281
0
LINE
8
boundary
62
5
39
2
10
129.167577
20
526.098281
11
173.921092
21
526.098281
0
LINE
8
boundary
62
5
39
2
10
173.921092
20
526.098281
11
174.686458
21
525.946040
0
LINE
8
boundary
62
5
39
2
10
174.686458
20
525.946040
11
175.335305
21
525.512495
0
LINE
8
boundary
62
5
39
2
10
175.335305
20
525.512495
11
175.768851
21
524.863648
0
LINE
8
boundary
62
5
39
2
10
175.768851
20
524.863648
11
175.921092
21
524.098281
0
LINE
8
boundary
62
5
39
2
10
175.921092
20
524.098281
11
175.768851
21
523.332914
0
LINE
8
boundary
62
5
39
2
10
175.768851
20
523.332914
11
175.335306
21
522.684068
0
LINE
8
boundary
62
5
39
2
10
175.335306
20
522.684068
11
174.686459
21
522.250522
0
LINE
8
boundary
62
5
39
2
10
174.686459
20
522.250522
11
173.921092
21
522.098281
0
LINE
8
boundary
62
5
39
2
10
173.921092
20
522.098281
11
173.921092
21
518.598281
0
LINE
8
boundary
62
5
39
2
10
173.921092
20
518.598281
11
174.686459
21
518.446040
0
LINE
8
boundary
62
5
39
2
10
174.686459
20
518.446040
11
175.335305
21
518.012495
0
LINE
8
boundary
62
5
39
2
10
175.335305
20
518.012495
11
175.768851
21
517.363648
0
LINE
8
boundary
62
5
39
2
10
175.768851
20
517.363648
11
175.921092
21
516.598281
0
LINE
8
boundary
62
5
39
2
10
175.921092
20
516.598281
11
175.768851
21
515.832914
0
LINE
8
boundary
62
5
39
2
10
175.768851
20
515.832914
11
175.335305
21
515.184068
0
LINE
8
boundary
62
5
39
2
10
175.335305
20
515.184068
11
174.686459
21
514.750522
0
LINE
8
boundary
62
5
39
2
10
174.686459
20
514.750522
11
173.921092
21
514.598281
0
LINE
8
boundary
62
5
39
2
10
173.921092
20
514.598281
11
171.428036
21
512.039037
0
LINE
8
boundary
62
5
39
2
10
171.428036
20
512.039037
11
175.894616
21
509.054567
0
LINE
8
boundary
62
5
39
2
10
175.894616
20
509.054567
11
181.444266
21
504.679579
0
LINE
8
boundary
62
5
39
2
10
181.444266
20
504.679579
11
186.633557
21
499.882670
0
LINE
8
boundary
62
5
39
2
10
186.633557
20
499.882670
11
191.430478
21
494.693367
0
LINE
8
boundary
62
5
39
2
10
191.430478
20
494.693367
11
195.805477
21
489.143718
0
LINE
8
boundary
62
5
39
2
10
195.805477
20
489.143718
11
199.731558
21
483.267926
0
LINE
8
boundary
62
5
39
2
10
199.731558
20
483.267926
11
203.049801
21
477.342785
0
LINE
8
boundary
62
5
39
2
10
203.049801
20
477.342785
11
205.874800
21
474.442786
0
LINE
8
boundary
62
5
39
2
10
205.874800
20
474.442786
11
217.282141
21
474.442786
0
LINE
8
boundary
62
5
39
2
10
217.282141
20
474.442786
11
218.047508
21
474.290545
0
LINE
8
boundary
62
5
39
2
10
218.047508
20
474.290545
11
218.696354
21
473.856999
0
LINE
8
boundary
62
5
39
2
10
218.696354
20
473.856999
11
219.129900
21
473.208153
0
LINE
8
boundary
62
5
39
2
10
219.129900
20
473.208153
11
219.282140
21
472.442786
0
LINE
8
boundary
62
5
39
2
10
219.282140
20
472.442786
11
219.129900
21
471.677419
0
LINE
8
boundary
62
5
39
2
10
219.129900
20
471.677419
11
218.696354
21
471.028573
0
LINE
8
boundary
62
5
39
2
10
218.696354
20
471.028573
11
218.047508
21
470.595027
0
LINE
8
boundary
62
5
39
2
10
218.047508
20
470.595027
11
217.282141
21
470.442786
0
LINE
8
boundary
62
5
39
2
10
217.282141
20
470.442786
11
217.282141
21
466.942786
0
LINE
8
boundary
62
5
39
2
10
217.282141
20
466.942786
11
218.047507
21
466.790545
0
LINE
8
boundary
62
5
39
2
10
218.047507
20
466.790545
11
218.696354
21
466.356999
0
LINE
8
boundary
62
5
39
2
10
218.696354
20
466.356999
11
219.129900
21
465.708153
0
LINE
8
boundary
62
5
39
2
10
219.129900
20
465.708153
11
219.282141
21
464.942786
0
LINE
8
boundary
62
5
39
2
10
219.282141
20
464.942786
11
219.129899
21
464.177419
0
LINE
8
boundary
62
5
39
2
10
219.129899
20
464.177419
11
218.696354
21
463.528572
0
LINE
8
boundary
62
5
39
2
10
218.696354
20
463.528572
11
218.047507
21
463.095027
0
LINE
8
boundary
62
5
39
2
10
218.047507
20
463.095027
11
217.282141
21
462.942786
0
LINE
8
boundary
62
5
39
2
10
217.282141
20
462.942786
11
212.545468
21
462.942786
0
LINE
8
boundary
62
5
39
2
10
212.545468
20
462.942786
11
209.720468
21
460.042786
0
LINE
8
boundary
62
5
39
2
10
209.720468
20
460.042786
11
210.507232
21
457.253143
0
LINE
8
boundary
62
5
39
2
10
210.507232
20
457.253143
11
211.885897
21
450.322148
0
LINE
8
boundary
62
5
39
2
10
211.885897
20
450.322148
11
212.716503
21
443.304382
0
LINE
8
boundary
62
5
39
2
10
212.716503
20
443.304382
11
212.993945
21
436.243053
0
LINE
8
boundary
62
5
39
2
10
212.993945
20
436.243053
11
212.716503
21
429.181726
0
LINE
8
boundary
62
5
39
2
10
212.716503
20
429.181726
11
212.302911
21
425.687290
0
LINE
8
boundary
62
5
39
2
10
212.302911
20
425.687290
11
215.127911
21
422.787290
0
LINE
8
boundary
62
5
39
2
10
215.127911
20
422.787290
11
220.859261
21
422.787291
0
LINE
8
boundary
62
5
39
2
10
220.859261
20
422.787291
11
221.624628
21
422.635049
0
LINE
8
boundary
62
5
39
2
10
221.624628
20
422.635049
11
222.273474
21
422.201504
0
LINE
8
boundary
62
5
39
2
10
222.273474
20
422.201504
11
222.707020
21
421.552657
0
LINE
8
boundary
62
5
39
2
10
222.707020
20
421.552657
11
222.859261
21
420.787291
0
LINE
8
boundary
62
5
39
2
10
222.859261
20
420.787291
11
222.707020
21
420.021924
0
LINE
8
boundary
62
5
39
2
10
222.707020
20
420.021924
11
222.273474
21
419.373077
0
LINE
8
boundary
62
5
39
2
10
222.273474
20
419.373077
11
221.624628
21
418.939532
0
LINE
8
boundary
62
5
39
2
10
221.624628
20
418.939532
11
220.859261
21
418.787291
0
LINE
8
boundary
62
5
39
2
10
220.859261
20
418.787291
11
220.859261
21
415.287290
0
LINE
8
boundary
62
5
39
2
10
220.859261
20
415.287290
11
221.624627
21
415.135050
0
LINE
8
boundary
62
5
39
2
10
221.624627
20
415.135050
11
222.273474
21
414.701504
0
LINE
8
boundary
62
5
39
2
10
222.273474
20
414.701504
11
222.707020
21
414.052658
0
LINE
8
boundary
62
5
39
2
10
222.707020
20
414.052658
11
222.859261
21
413.287291
0
LINE
8
boundary
62
5
39
2
10
222.859261
20
413.287291
11
222.707020
21
412.521924
0
LINE
8
boundary
62
5
39
2
10
222.707020
20
412.521924
11
222.273475
21
411.873077
0
LINE
8
boundary
62
5
39
2
10
222.273475
20
411.873077
11
221.624628
21
411.439532
0
LINE
8
boundary
62
5
39
2
10
221.624628
20
411.439532
11
220.859261
21
411.287291
0
LINE
8
boundary
62
5
39
2
10
220.859261
20
411.287291
11
211.397706
21
411.287291
0
LINE
8
boundary
62
5
39
2
10
211.397706
20
411.287291
11
208.572706
21
408.387291
0
LINE
8
boundary
62
5
39
2
10
208.572706
20
408.387291
11
206.143097
21
401.801533
0
LINE
8
boundary
62
5
39
2
10
206.143097
20
401.801533
11
203.184539
21
395.383914
0
LINE
8
boundary
62
5
39
2
10
203.184539
20
395.383914
11
199.731558
21
389.218180
0
LINE
8
boundary
62
5
39
2
10
199.731558
20
389.218180
11
195.805478
21
383.342387
0
LINE
8
boundary
62
5
39
2
10
195.805478
20
383.342387
11
191.430477
21
377.792733
0
LINE
8
boundary
62
5
39
2
10
191.430477
20
377.792733
11
187.953917
21
374.031796
0
LINE
8
boundary
62
5
39
2
10
187.953917
20
374.031796
11
190.778917
21
371.131795
0
LINE
8
boundary
62
5
39
2
10
190.778917
20
371.131795
11
192.446504
21
371.131795
0
LINE
8
boundary
62
5
39
2
10
192.446504
20
371.131795
11
193.211871
21
370.979554
0
LINE
8
boundary
62
5
39
2
10
193.211871
20
370.979554
11
193.860718
21
370.546009
0
LINE
8
boundary
62
5
39
2
10
193.860718
20
370.546009
11
194.294263
21
369.897162
0
LINE
8
boundary
62
5
39
2
10
194.294263
20
369.897162
11
194.446504
21
369.131795
0
LINE
8
boundary
62
5
39
2
10
194.446504
20
369.131795
11
194.294263
21
368.366428
0
LINE
8
boundary
62
5
39
2
10
194.294263
20
368.366428
11
193.860718
21
367.717582
0
LINE
8
boundary
62
5
39
2
10
193.860718
20
367.717582
11
193.211871
21
367.284036
0
LINE
8
boundary
62
5
39
2
10
193.211871
20
367.284036
11
192.446504
21
367.131796
0
LINE
8
boundary
62
5
39
2
10
192.446504
20
367.131796
11
192.446504
21
363.631795
0
LINE
8
boundary
62
5
39
2
10
192.446504
20
363.631795
11
193.211871
21
363.479554
0
LINE
8
boundary
62
5
39
2
10
193.211871
20
363.479554
11
193.860717
21
363.046009
0
LINE
8
boundary
62
5
39
2
10
193.860717
20
363.046009
11
194.294263
21
362.397162
0
LINE
8
boundary
62
5
39
2
10
194.294263
20
362.397162
11
194.446504
21
361.631795
0
LINE
8
boundary
62
5
39
2
10
194.446504
20
361.631795
11
194.294263
21
360.866428
0
LINE
8
boundary
62
5
39
2
10
194.294263
20
360.866428
11
193.860718
21
360.217582
0
LINE
8
boundary
62
5
39
2
10
193.860718
20
360.217582
11
193.211871
21
359.784036
0
LINE
8
boundary
62
5
39
2
10
193.211871
20
359.784036
11
192.446504
21
359.631795
0
LINE
8
boundary
62
5
39
2
10
192.446504
20
359.631795
11
170.207924
21
359.631795
0
LINE
8
boundary
62
5
39
2
10
170.207924
20
359.631795
11
170.018815
21
359.505437
0
LINE
8
boundary
62
5
39
2
10
170.018815
20
359.505437
11
165.066127
21
356.731796
0
LINE
8
boundary
62
5
39
2
10
165.066127
20
356.731796
11
163.853092
21
356.052463
0
LINE
8
boundary
62
5
39
2
10
163.853092
20
356.052463
11
157.435454
21
353.093894
0
LINE
8
boundary
62
5
39
2
10
157.435454
20
353.093894
11
155.493945
21
352.315996
0
LINE
8
boundary
62
5
39
2
10
155.493945
20
352.315996
11
155.493945
21
322.376300
0
LINE
8
boundary
62
5
39
2
10
155.493945
20
322.376300
11
158.318945
21
319.476300
0
LINE
8
boundary
62
5
39
2
10
158.318945
20
319.476300
11
164.440028
21
319.476300
0
LINE
8
boundary
62
5
39
2
10
164.440028
20
319.476300
11
165.205394
21
319.324059
0
LINE
8
boundary
62
5
39
2
10
165.205394
20
319.324059
11
165.854241
21
318.890514
0
LINE
8
boundary
62
5
39
2
10
165.854241
20
318.890514
11
166.287787
21
318.241667
0
LINE
8
boundary
62
5
39
2
10
166.287787
20
318.241667
11
166.440028
21
317.476300
0
LINE
8
boundary
62
5
39
2
10
166.440028
20
317.476300
11
166.287787
21
316.710934
0
LINE
8
boundary
62
5
39
2
10
166.287787
20
316.710934
11
165.854241
21
316.062087
0
LINE
8
boundary
62
5
39
2
10
165.854241
20
316.062087
11
165.205394
21
315.628541
0
LINE
8
boundary
62
5
39
2
10
165.205394
20
315.628541
11
164.440028
21
315.476300
0
LINE
8
boundary
62
5
39
2
10
164.440028
20
315.476300
11
164.440028
21
311.976300
0
LINE
8
boundary
62
5
39
2
10
164.440028
20
311.976300
11
165.205395
21
311.824060
0
LINE
8
boundary
62
5
39
2
10
165.205395
20
311.824060
11
165.854241
21
311.390514
0
LINE
8
boundary
62
5
39
2
10
165.854241
20
311.390514
11
166.287787
21
310.741667
0
LINE
8
boundary
62
5
39
2
10
166.287787
20
310.741667
11
166.440028
21
309.976300
0
LINE
8
boundary
62
5
39
2
10
166.440028
20
309.976300
11
166.287787
21
309.210933
0
LINE
8
boundary
62
5
39
2
10
166.287787
20
309.210933
11
165.854241
21
308.562087
0
LINE
8
boundary
62
5
39
2
10
165.854241
20
308.562087
11
165.205395
21
308.128541
0
LINE
8
boundary
62
5
39
2
10
165.205395
20
308.128541
11
164.440028
21
307.976300
0
LINE
8
boundary
62
5
39
2
10
164.440028
20
307.976300
11
158.318945
21
307.976300
0
LINE
8
boundary
62
5
39
2
10
158.318945
20
307.976300
11
155.493945
21
305.076300
0
LINE
8
boundary
62
5
39
2
10
155.493945
20
305.076300
11
155.493945
21
271.243111
0
LINE
8
boundary
62
5
39
2
10
155.493945
20
271.243111
11
155.448557
21
270.720805
0
LINE
8
boundary
62
5
39
2
10
155.448557
20
270.720805
11
158.273557
21
267.820805
0
LINE
8
boundary
62
5
39
2
10
158.273557
20
267.820805
11
161.934429
21
267.820805
0
LINE
8
boundary
62
5
39
2
10
161.934429
20
267.820805
11
162.699796
21
267.668564
0
LINE
8
boundary
62
5
39
2
10
162.699796
20
267.668564
11
163.348643
21
267.235019
0
LINE
8
boundary
62
5
39
2
10
163.348643
20
267.235019
11
163.782188
21
266.586172
0
LINE
8
boundary
62
5
39
2
10
163.782188
20
266.586172
11
163.934429
21
265.820805
0
LINE
8
boundary
62
5
39
2
10
163.934429
20
265.820805
11
163.782188
21
265.055438
0
LINE
8
boundary
62
5
39
2
10
163.782188
20
265.055438
11
163.348643
21
264.406591
0
LINE
8
boundary
62
5
39
2
10
163.348643
20
264.406591
11
162.699796
21
263.973046
0
LINE
8
boundary
62
5
39
2
10
162.699796
20
263.973046
11
161.934430
21
263.820805
0
LINE
8
boundary
62
5
39
2
10
161.934430
20
263.820805
11
161.934430
21
260.320805
0
LINE
8
boundary
62
5
39
2
10
161.934430
20
260.320805
11
162.699796
21
260.168564
0
LINE
8
boundary
62
5
39
2
10
162.699796
20
260.168564
11
163.348643
21
259.735018
0
LINE
8
boundary
62
5
39
2
10
163.348643
20
259.735018
11
163.782188
21
259.086172
0
LINE
8
boundary
62
5
39
2
10
163.782188
20
259.086172
11
163.934429
21
258.320805
0
LINE
8
boundary
62
5
39
2
10
163.934429
20
258.320805
11
163.782189
21
257.555438
0
LINE
8
boundary
62
5
39
2
10
163.782189
20
257.555438
11
163.348643
21
256.906591
0
LINE
8
boundary
62
5
39
2
10
163.348643
20
256.906591
11
162.699796
21
256.473046
0
LINE
8
boundary
62
5
39
2
10
162.699796
20
256.473046
11
161.934429
21
256.320805
0
LINE
8
boundary
62
5
39
2
10
161.934429
20
256.320805
11
147.091525
21
256.320805
0
LINE
8
boundary
62
5
39
2
10
147.091525
20
256.320805
11
146.849824
21
256.149244
0
LINE
8
boundary
62
5
39
2
10
146.849824
20
256.149244
11
144.113401
21
254.847870
0
LINE
8
boundary
62
5
39
2
10
144.113401
20
254.847870
11
141.193514
21
254.038036
0
LINE
8
boundary
62
5
39
2
10
141.193514
20
254.038036
11
138.177705
21
253.744024
0
LINE
8
boundary
62
5
39
2
10
138.177705
20
253.744024
11
137.993944
21
253.743055
0
LINE
8
boundary
62
5
39
2
10
137.993944
20
253.743055
11
126.656493
21
253.743055
0
LINE
8
boundary
62
5
39
2
10
126.656493
20
253.743055
11
126.342577
21
253.420805
0
LINE
8
boundary
62
5
39
2
10
126.342577
20
253.420805
11
126.342577
21
253.743055
0
LINE
8
annotation
62
1
39
211
10
169.917127
20
259.156648
11
169.917127
21
264.984961
0
LINE
8
annotation
62
1
39
211
10
169.917127
20
264.984961
11
168.621418
21
263.688887
0
LINE
8
annotation
62
1
39
211
10
172.450344
20
311.022228
11
170.048496
21
311.022228
0
LINE
8
annotation
62
1
39
211
10
170.048496
20
311.022228
11
172.267882
21
314.595154
0
LINE
8
annotation
62
1
39
211
10
172.267882
20
314.595154
11
172.267882
21
314.595154
0
LINE
8
annotation
62
1
39
211
10
172.267882
20
314.595154
11
172.270535
21
314.598437
0
LINE
8
annotation
62
1
39
211
10
172.270535
20
314.598437
11
172.273079
21
314.601748
0
LINE
8
annotation
62
1
39
211
10
172.273079
20
314.601748
11
172.275532
21
314.605115
0
LINE
8
annotation
62
1
39
211
10
172.275532
20
314.605115
11
172.277908
21
314.608565
0
LINE
8
annotation
62
1
39
211
10
172.277908
20
314.608565
11
172.280227
21
314.612127
0
LINE
8
annotation
62
1
39
211
10
172.280227
20
314.612127
11
172.282503
21
314.615829
0
LINE
8
annotation
62
1
39
211
10
172.282503
20
314.615829
11
172.284754
21
314.619699
0
LINE
8
annotation
62
1
39
211
10
172.284754
20
314.619699
11
172.286997
21
314.623763
0
LINE
8
annotation
62
1
39
211
10
172.286997
20
314.623763
11
172.289248
21
314.628051
0
LINE
8
annotation
62
1
39
211
10
172.289248
20
314.628051
11
172.289248
21
314.628051
0
LINE
8
annotation
62
1
39
211
10
172.289248
20
314.628051
11
172.380886
21
314.824805
0
LINE
8
annotation
62
1
39
211
10
172.380886
20
314.824805
11
172.434420
21
315.028759
0
LINE
8
annotation
62
1
39
211
10
172.434420
20
315.028759
11
172.451160
21
315.235302
0
LINE
8
annotation
62
1
39
211
10
172.451160
20
315.235302
11
172.432420
21
315.439828
0
LINE
8
annotation
62
1
39
211
10
172.432420
20
315.439828
11
172.379511
21
315.637726
0
LINE
8
annotation
62
1
39
211
10
172.379511
20
315.637726
11
172.293745
21
315.824390
0
LINE
8
annotation
62
1
39
211
10
172.293745
20
315.824390
11
172.176434
21
315.995210
0
LINE
8
annotation
62
1
39
211
10
172.176434
20
315.995210
11
172.028890
21
316.145578
0
LINE
8
annotation
62
1
39
211
10
172.028890
20
316.145578
11
171.852425
21
316.270885
0
LINE
8
annotation
62
1
39
211
10
171.852425
20
316.270885
11
171.852425
21
316.270885
0
LINE
8
annotation
62
1
39
211
10
171.852425
20
316.270885
11
171.655124
21
316.361221
0
LINE
8
annotation
62
1
39
211
10
171.655124
20
316.361221
11
171.450858
21
316.413929
0
LINE
8
annotation
62
1
39
211
10
171.450858
20
316.413929
11
171.244195
21
316.430197
0
LINE
8
annotation
62
1
39
211
10
171.244195
20
316.430197
11
171.039700
21
316.411209
0
LINE
8
annotation
62
1
39
211
10
171.039700
20
316.411209
11
170.841941
21
316.358154
0
LINE
8
annotation
62
1
39
211
10
170.841941
20
316.358154
11
170.655484
21
316.272216
0
LINE
8
annotation
62
1
39
211
10
170.655484
20
316.272216
11
170.484895
21
316.154583
0
LINE
8
annotation
62
1
39
211
10
170.484895
20
316.154583
11
170.334743
21
316.006440
0
LINE
8
annotation
62
1
39
211
10
170.334743
20
316.006440
11
170.209592
21
315.828975
0
LINE
8
annotation
62
1
39
211
10
170.209592
20
315.828975
11
170.051888
21
315.526455
0
LINE
8
annotation
62
1
39
211
10
199.317641
20
362.063725
11
200.791367
21
362.063725
0
LINE
8
annotation
62
1
39
211
10
200.791367
20
362.063725
11
200.791367
21
362.063725
0
LINE
8
annotation
62
1
39
211
10
200.791367
20
362.063725
11
201.056421
21
362.087502
0
LINE
8
annotation
62
1
39
211
10
201.056421
20
362.087502
11
201.305826
21
362.156029
0
LINE
8
annotation
62
1
39
211
10
201.305826
20
362.156029
11
201.535437
21
362.265099
0
LINE
8
annotation
62
1
39
211
10
201.535437
20
362.265099
11
201.741104
21
362.410506
0
LINE
8
annotation
62
1
39
211
10
201.741104
20
362.410506
11
201.918678
21
362.588044
0
LINE
8
annotation
62
1
39
211
10
201.918678
20
362.588044
11
202.064013
21
362.793506
0
LINE
8
annotation
62
1
39
211
10
202.064013
20
362.793506
11
202.172959
21
363.022685
0
LINE
8
annotation
62
1
39
211
10
202.172959
20
363.022685
11
202.241369
21
363.271376
0
LINE
8
annotation
62
1
39
211
10
202.241369
20
363.271376
11
202.265094
21
363.535371
0
LINE
8
annotation
62
1
39
211
10
202.265094
20
363.535371
11
202.265094
21
364.273275
0
LINE
8
annotation
62
1
39
211
10
202.265094
20
364.273275
11
202.265094
21
364.273275
0
LINE
8
annotation
62
1
39
211
10
202.265094
20
364.273275
11
202.241369
21
364.537161
0
LINE
8
annotation
62
1
39
211
10
202.241369
20
364.537161
11
202.172959
21
364.785793
0
LINE
8
annotation
62
1
39
211
10
202.172959
20
364.785793
11
202.064013
21
365.014955
0
LINE
8
annotation
62
1
39
211
10
202.064013
20
365.014955
11
201.918678
21
365.220431
0
LINE
8
annotation
62
1
39
211
10
201.918678
20
365.220431
11
201.741104
21
365.398003
0
LINE
8
annotation
62
1
39
211
10
201.741104
20
365.398003
11
201.535437
21
365.543454
0
LINE
8
annotation
62
1
39
211
10
201.535437
20
365.543454
11
201.305826
21
365.652569
0
LINE
8
annotation
62
1
39
211
10
201.305826
20
365.652569
11
201.056421
21
365.721130
0
LINE
8
annotation
62
1
39
211
10
201.056421
20
365.721130
11
200.791367
21
365.744921
0
LINE
8
annotation
62
1
39
211
10
200.791367
20
365.744921
11
200.053463
21
365.744921
0
LINE
8
annotation
62
1
39
211
10
200.053463
20
365.744921
11
200.791367
21
365.744921
0
LINE
8
annotation
62
1
39
211
10
200.791367
20
365.744921
11
200.791367
21
365.744921
0
LINE
8
annotation
62
1
39
211
10
200.791367
20
365.744921
11
201.056421
21
365.768717
0
LINE
8
annotation
62
1
39
211
10
201.056421
20
365.768717
11
201.305826
21
365.837318
0
LINE
8
annotation
62
1
39
211
10
201.305826
20
365.837318
11
201.535437
21
365.946541
0
LINE
8
annotation
62
1
39
211
10
201.535437
20
365.946541
11
201.741104
21
366.092204
0
LINE
8
annotation
62
1
39
211
10
201.741104
20
366.092204
11
201.918678
21
366.270124
0
LINE
8
annotation
62
1
39
211
10
201.918678
20
366.270124
11
202.064013
21
366.476119
0
LINE
8
annotation
62
1
39
211
10
202.064013
20
366.476119
11
202.172959
21
366.706007
0
LINE
8
annotation
62
1
39
211
10
202.172959
20
366.706007
11
202.241369
21
366.955604
0
LINE
8
annotation
62
1
39
211
10
202.241369
20
366.955604
11
202.265094
21
367.220728
0
LINE
8
annotation
62
1
39
211
10
202.265094
20
367.220728
11
202.265094
21
367.220728
0
LINE
8
annotation
62
1
39
211
10
202.265094
20
367.220728
11
202.241369
21
367.484614
0
LINE
8
annotation
62
1
39
211
10
202.241369
20
367.484614
11
202.172959
21
367.733247
0
LINE
8
annotation
62
1
39
211
10
202.172959
20
367.733247
11
202.064013
21
367.962409
0
LINE
8
annotation
62
1
39
211
10
202.064013
20
367.962409
11
201.918678
21
368.167884
0
LINE
8
annotation
62
1
39
211
10
201.918678
20
368.167884
11
201.741104
21
368.345456
0
LINE
8
annotation
62
1
39
211
10
201.741104
20
368.345456
11
201.535437
21
368.490908
0
LINE
8
annotation
62
1
39
211
10
201.535437
20
368.490908
11
201.305826
21
368.600022
0
LINE
8
annotation
62
1
39
211
10
201.305826
20
368.600022
11
201.056421
21
368.668583
0
LINE
8
annotation
62
1
39
211
10
201.056421
20
368.668583
11
200.791367
21
368.692374
0
LINE
8
annotation
62
1
39
211
10
200.791367
20
368.692374
11
199.317641
21
368.692374
0
LINE
8
annotation
62
1
39
211
10
229.606304
20
415.456237
11
226.444911
21
415.456237
0
LINE
8
annotation
62
1
39
211
10
226.444911
20
415.456237
11
227.707469
21
419.884115
0
LINE
8
annotation
62
1
39
211
10
228.658672
20
414.190466
11
228.658672
21
416.719152
0
LINE
8
annotation
62
1
39
211
10
224.226711
20
460.698784
11
225.716303
21
460.698784
0
LINE
8
annotation
62
1
39
211
10
225.716303
20
460.698784
11
225.716303
21
460.698784
0
LINE
8
annotation
62
1
39
211
10
225.716303
20
460.698784
11
225.983656
21
460.722823
0
LINE
8
annotation
62
1
39
211
10
225.983656
20
460.722823
11
226.235453
21
460.792124
0
LINE
8
annotation
62
1
39
211
10
226.235453
20
460.792124
11
226.467448
21
460.902467
0
LINE
8
annotation
62
1
39
211
10
226.467448
20
460.902467
11
226.675398
21
461.049631
0
LINE
8
annotation
62
1
39
211
10
226.675398
20
461.049631
11
226.855058
21
461.229397
0
LINE
8
annotation
62
1
39
211
10
226.855058
20
461.229397
11
227.002182
21
461.437543
0
LINE
8
annotation
62
1
39
211
10
227.002182
20
461.437543
11
227.112526
21
461.669849
0
LINE
8
annotation
62
1
39
211
10
227.112526
20
461.669849
11
227.181846
21
461.922095
0
LINE
8
annotation
62
1
39
211
10
227.181846
20
461.922095
11
227.205895
21
462.190059
0
LINE
8
annotation
62
1
39
211
10
227.205895
20
462.190059
11
227.205895
21
462.932121
0
LINE
8
annotation
62
1
39
211
10
227.205895
20
462.932121
11
227.205895
21
462.932121
0
LINE
8
annotation
62
1
39
211
10
227.205895
20
462.932121
11
227.181860
21
463.199956
0
LINE
8
annotation
62
1
39
211
10
227.181860
20
463.199956
11
227.112575
21
463.451853
0
LINE
8
annotation
62
1
39
211
10
227.112575
20
463.451853
11
227.002276
21
463.683656
0
LINE
8
annotation
62
1
39
211
10
227.002276
20
463.683656
11
226.855196
21
463.891205
0
LINE
8
annotation
62
1
39
211
10
226.855196
20
463.891205
11
226.675571
21
464.070342
0
LINE
8
annotation
62
1
39
211
10
226.675571
20
464.070342
11
226.467635
21
464.216910
0
LINE
8
annotation
62
1
39
211
10
226.467635
20
464.216910
11
226.235622
21
464.326749
0
LINE
8
annotation
62
1
39
211
10
226.235622
20
464.326749
11
225.983767
21
464.395702
0
LINE
8
annotation
62
1
39
211
10
225.983767
20
464.395702
11
225.716303
21
464.419610
0
LINE
8
annotation
62
1
39
211
10
225.716303
20
464.419610
11
224.226711
21
464.419610
0
LINE
8
annotation
62
1
39
211
10
224.226711
20
464.419610
11
224.226711
21
467.406788
0
LINE
8
annotation
62
1
39
211
10
224.226711
20
467.406788
11
227.205895
21
467.406788
0
LINE
8
annotation
62
1
39
211
10
185.107838
20
519.798535
11
185.107838
21
519.798535
0
LINE
8
annotation
62
1
39
211
10
185.107838
20
519.798535
11
184.587433
21
519.603415
0
LINE
8
annotation
62
1
39
211
10
184.587433
20
519.603415
11
184.109894
21
519.340514
0
LINE
8
annotation
62
1
39
211
10
184.109894
20
519.340514
11
183.680122
21
519.016418
0
LINE
8
annotation
62
1
39
211
10
183.680122
20
519.016418
11
183.303019
21
518.637715
0
LINE
8
annotation
62
1
39
211
10
183.303019
20
518.637715
11
182.983488
21
518.210992
0
LINE
8
annotation
62
1
39
211
10
182.983488
20
518.210992
11
182.726431
21
517.742834
0
LINE
8
annotation
62
1
39
211
10
182.726431
20
517.742834
11
182.536749
21
517.239830
0
LINE
8
annotation
62
1
39
211
10
182.536749
20
517.239830
11
182.419345
21
516.708566
0
LINE
8
annotation
62
1
39
211
10
182.419345
20
516.708566
11
182.379121
21
516.155629
0
LINE
8
annotation
62
1
39
211
10
182.379121
20
516.155629
11
182.379121
21
513.436659
0
LINE
8
annotation
62
1
39
211
10
182.379121
20
513.436659
11
182.379121
21
513.436659
0
LINE
8
annotation
62
1
39
211
10
182.379121
20
513.436659
11
182.408450
21
513.109872
0
LINE
8
annotation
62
1
39
211
10
182.408450
20
513.109872
11
182.492986
21
512.802255
0
LINE
8
annotation
62
1
39
211
10
182.492986
20
512.802255
11
182.627552
21
512.518955
0
LINE
8
annotation
62
1
39
211
10
182.627552
20
512.518955
11
182.806972
21
512.265117
0
LINE
8
annotation
62
1
39
211
10
182.806972
20
512.265117
11
183.026070
21
512.045890
0
LINE
8
annotation
62
1
39
211
10
183.026070
20
512.045890
11
183.279668
21
511.866421
0
LINE
8
annotation
62
1
39
211
10
183.279668
20
511.866421
11
183.562590
21
511.731856
0
LINE
8
annotation
62
1
39
211
10
183.562590
20
511.731856
11
183.869660
21
511.647342
0
LINE
8
annotation
62
1
39
211
10
183.869660
20
511.647342
11
184.195700
21
511.618027
0
LINE
8
annotation
62
1
39
211
10
184.195700
20
511.618027
11
184.195700
21
511.618027
0
LINE
8
annotation
62
1
39
211
10
184.195700
20
511.618027
11
184.522416
21
511.647342
0
LINE
8
annotation
62
1
39
211
10
184.522416
20
511.647342
11
184.829845
21
511.731856
0
LINE
8
annotation
62
1
39
211
10
184.829845
20
511.731856
11
185.112873
21
511.866421
0
LINE
8
annotation
62
1
39
211
10
185.112873
20
511.866421
11
185.366386
21
512.045890
0
LINE
8
annotation
62
1
39
211
10
185.366386
20
512.045890
11
185.585273
21
512.265117
0
LINE
8
annotation
62
1
39
211
10
185.585273
20
512.265117
11
185.764418
21
512.518955
0
LINE
8
annotation
62
1
39
211
10
185.764418
20
512.518955
11
185.898710
21
512.802255
0
LINE
8
annotation
62
1
39
211
10
185.898710
20
512.802255
11
185.983035
21
513.109872
0
LINE
8
annotation
62
1
39
211
10
185.983035
20
513.109872
11
186.012280
21
513.436659
0
LINE
8
annotation
62
1
39
211
10
186.012280
20
513.436659
11
186.012280
21
514.341614
0
LINE
8
annotation
62
1
39
211
10
186.012280
20
514.341614
11
186.012280
21
514.341614
0
LINE
8
annotation
62
1
39
211
10
186.012280
20
514.341614
11
185.983035
21
514.668242
0
LINE
8
annotation
62
1
39
211
10
185.983035
20
514.668242
11
185.898710
21
514.975435
0
LINE
8
annotation
62
1
39
211
10
185.898710
20
514.975435
11
185.764418
21
515.258122
0
LINE
8
annotation
62
1
39
211
10
185.764418
20
515.258122
11
185.585273
21
515.511231
0
LINE
8
annotation
62
1
39
211
10
185.585273
20
515.511231
11
185.366386
21
515.729691
0
LINE
8
annotation
62
1
39
211
10
185.366386
20
515.729691
11
185.112873
21
515.908432
0
LINE
8
annotation
62
1
39
211
10
185.112873
20
515.908432
11
184.829845
21
516.042383
0
LINE
8
annotation
62
1
39
211
10
184.829845
20
516.042383
11
184.522416
21
516.126472
0
LINE
8
annotation
62
1
39
211
10
184.522416
20
516.126472
11
184.195700
21
516.155629
0
LINE
8
annotation
62
1
39
211
10
184.195700
20
516.155629
11
182.379121
21
516.155629
0
LINE
8
annotation
62
1
39
211
10
182.151599
20
510.595464
11
186.241853
21
510.595464
0
LINE
8
annotation
62
1
39
211
10
138.518622
20
536.758710
11
136.658615
21
534.068380
0
LINE
8
annotation
62
1
39
211
10
136.658615
20
534.068380
11
134.798259
21
536.758710
0
LINE
8
annotation
62
1
39
211
10
136.658615
20
534.284880
11
136.658615
21
531.181138
0
LINE
8
annotation
62
1
39
211
10
143.660310
20
533.969924
11
140.610780
21
533.969924
0
LINE
8
annotation
62
1
39
211
10
146.991307
20
531.181312
11
146.991307
21
536.758535
0
LINE
8
annotation
62
1
39
211
10
146.991307
20
536.758535
11
145.751419
21
535.518297
0
LINE
8
hole
62
5
39
2
10
273.616568
20
310.842004
11
273.153192
21
313.267632
0
LINE
8
hole
62
5
39
2
10
273.153192
20
313.267632
11
272.895836
21
317.325981
0
LINE
8
hole
62
5
39
2
10
272.895836
20
317.325981
11
272.705406
21
320.328949
0
LINE
8
hole
62
5
39
2
10
272.705406
20
320.328949
11
272.966999
21
324.454127
0
LINE
8
hole
62
5
39
2
10
272.966999
20
324.454127
11
273.153191
21
327.390267
0
LINE
8
hole
62
5
39
2
10
273.153191
20
327.390267
11
274.110895
21
332.403561
0
LINE
8
hole
62
5
39
2
10
274.110895
20
332.403561
11
274.493819
21
334.408050
0
LINE
8
hole
62
5
39
2
10
274.493819
20
334.408050
11
276.596274
21
340.956785
0
LINE
8
hole
62
5
39
2
10
276.596274
20
340.956785
11
276.733026
21
341.339031
0
LINE
8
hole
62
5
39
2
10
276.733026
20
341.339031
11
276.830281
21
341.530763
0
LINE
8
hole
62
5
39
2
10
276.830281
20
341.530763
11
280.183042
21
348.140478
0
LINE
8
hole
62
5
39
2
10
280.183042
20
348.140478
11
284.488644
21
354.629458
0
LINE
8
hole
62
5
39
2
10
284.488644
20
354.629458
11
284.582201
21
354.770458
0
LINE
8
hole
62
5
39
2
10
284.582201
20
354.770458
11
284.656150
21
354.859645
0
LINE
8
hole
62
5
39
2
10
284.656150
20
354.859645
11
290.622346
21
361.188095
0
LINE
8
hole
62
5
39
2
10
290.622346
20
361.188095
11
291.974368
21
362.368638
0
LINE
8
hole
62
5
39
2
10
291.974368
20
362.368638
11
298.637723
21
367.353820
0
LINE
8
hole
62
5
39
2
10
298.637723
20
367.353820
11
298.728289
21
367.410609
0
LINE
8
hole
62
5
39
2
10
298.728289
20
367.410609
11
298.859792
21
367.478780
0
LINE
8
hole
62
5
39
2
10
298.859792
20
367.478780
11
305.055767
21
370.690773
0
LINE
8
hole
62
5
39
2
10
305.055767
20
370.690773
11
310.893153
21
373.063982
0
LINE
8
hole
62
5
39
2
10
310.893153
20
373.063982
11
311.067701
21
373.134945
0
LINE
8
hole
62
5
39
2
10
311.067701
20
373.134945
11
311.391713
21
373.229621
0
LINE
8
hole
62
5
39
2
10
311.391713
20
373.229621
11
316.856662
21
374.583070
0
LINE
8
hole
62
5
39
2
10
316.856662
20
374.583070
11
318.409462
21
374.814767
0
LINE
8
hole
62
5
39
2
10
318.409462
20
374.814767
11
322.503083
21
375.425582
0
LINE
8
hole
62
5
39
2
10
322.503083
20
375.425582
11
324.742645
21
375.537200
0
LINE
8
hole
62
5
39
2
10
324.742645
20
375.537200
11
328.079984
21
375.703528
0
LINE
8
hole
62
5
39
2
10
328.079984
20
375.703528
11
330.363459
21
375.589722
0
LINE
8
hole
62
5
39
2
10
330.363459
20
375.589722
11
333.656885
21
375.425582
0
LINE
8
hole
62
5
39
2
10
333.656885
20
375.425582
11
335.518528
21
375.147802
0
LINE
8
hole
62
5
39
2
10
335.518528
20
375.147802
11
339.303305
21
374.583070
0
LINE
8
hole
62
5
39
2
10
339.303305
20
374.583070
11
340.370279
21
374.318822
0
LINE
8
hole
62
5
39
2
10
340.370279
20
374.318822
11
344.768255
21
373.229621
0
LINE
8
hole
62
5
39
2
10
344.768255
20
373.229621
11
345.015987
21
373.157234
0
LINE
8
hole
62
5
39
2
10
345.015987
20
373.157234
11
345.092266
21
373.134945
0
LINE
8
hole
62
5
39
2
10
345.092266
20
373.134945
11
349.202029
21
371.464105
0
LINE
8
hole
62
5
39
2
10
349.202029
20
371.464105
11
351.104200
21
370.690774
0
LINE
8
hole
62
5
39
2
10
351.104200
20
370.690774
11
355.064087
21
368.680595
0
LINE
8
hole
62
5
39
2
10
355.064087
20
368.680595
11
356.196929
21
368.105001
0
LINE
8
hole
62
5
39
2
10
356.196929
20
368.105001
11
357.419807
21
367.417293
0
LINE
8
hole
62
5
39
2
10
357.419807
20
367.417293
11
357.431678
21
367.410609
0
LINE
8
hole
62
5
39
2
10
357.431678
20
367.410609
11
357.467683
21
367.388033
0
LINE
8
hole
62
5
39
2
10
357.467683
20
367.388033
11
357.522244
21
367.353819
0
LINE
8
hole
62
5
39
2
10
357.522244
20
367.353819
11
361.110824
21
364.669025
0
LINE
8
hole
62
5
39
2
10
361.110824
20
364.669025
11
364.185599
21
362.368638
0
LINE
8
hole
62
5
39
2
10
364.185599
20
362.368638
11
364.846735
21
361.791354
0
LINE
8
hole
62
5
39
2
10
364.846735
20
361.791354
11
365.537621
21
361.188095
0
LINE
8
hole
62
5
39
2
10
365.537621
20
361.188095
11
368.172145
21
358.393609
0
LINE
8
hole
62
5
39
2
10
368.172145
20
358.393609
11
371.503817
21
354.859645
0
LINE
8
hole
62
5
39
2
10
371.503817
20
354.859645
11
371.546783
21
354.807826
0
LINE
8
hole
62
5
39
2
10
371.546783
20
354.807826
11
371.577766
21
354.770458
0
LINE
8
hole
62
5
39
2
10
371.577766
20
354.770458
11
374.343964
21
350.601516
0
LINE
8
hole
62
5
39
2
10
374.343964
20
350.601516
11
375.976926
21
348.140478
0
LINE
8
hole
62
5
39
2
10
375.976926
20
348.140478
11
377.013559
21
346.096832
0
LINE
8
hole
62
5
39
2
10
377.013559
20
346.096832
11
379.426942
21
341.339031
0
LINE
8
hole
62
5
39
2
10
379.426942
20
341.339031
11
379.457489
21
341.253646
0
LINE
8
hole
62
5
39
2
10
379.457489
20
341.253646
11
379.563693
21
340.956785
0
LINE
8
hole
62
5
39
2
10
379.563693
20
340.956785
11
381.229424
21
335.768358
0
LINE
8
hole
62
5
39
2
10
381.229424
20
335.768358
11
381.666148
21
334.408050
0
LINE
8
hole
62
5
39
2
10
381.666148
20
334.408050
11
382.543399
21
329.815895
0
LINE
8
hole
62
5
39
2
10
382.543399
20
329.815895
11
383.006776
21
327.390267
0
LINE
8
hole
62
5
39
2
10
383.006776
20
327.390267
11
383.264131
21
323.331918
0
LINE
8
hole
62
5
39
2
10
383.264131
20
323.331918
11
383.454562
21
320.328949
0
LINE
8
hole
62
5
39
2
10
383.454562
20
320.328949
11
383.192969
21
316.203772
0
LINE
8
hole
62
5
39
2
10
383.192969
20
316.203772
11
383.006776
21
313.267631
0
LINE
8
hole
62
5
39
2
10
383.006776
20
313.267631
11
382.049073
21
308.254338
0
LINE
8
hole
62
5
39
2
10
382.049073
20
308.254338
11
381.666148
21
306.249849
0
LINE
8
hole
62
5
39
2
10
381.666148
20
306.249849
11
379.563693
21
299.701114
0
LINE
8
hole
62
5
39
2
10
379.563693
20
299.701114
11
379.426941
21
299.318867
0
LINE
8
hole
62
5
39
2
10
379.426941
20
299.318867
11
379.329686
21
299.127135
0
LINE
8
hole
62
5
39
2
10
379.329686
20
299.127135
11
375.976926
21
292.517420
0
LINE
8
hole
62
5
39
2
10
375.976926
20
292.517420
11
371.671324
21
286.028441
0
LINE
8
hole
62
5
39
2
10
371.671324
20
286.028441
11
371.577767
21
285.887441
0
LINE
8
hole
62
5
39
2
10
371.577767
20
285.887441
11
371.503817
21
285.798254
0
LINE
8
hole
62
5
39
2
10
371.503817
20
285.798254
11
365.537621
21
279.469803
0
LINE
8
hole
62
5
39
2
10
365.537621
20
279.469803
11
364.185599
21
278.289261
0
LINE
8
hole
62
5
39
2
10
364.185599
20
278.289261
11
357.522244
21
273.304079
0
LINE
8
hole
62
5
39
2
10
357.522244
20
273.304079
11
357.431678
21
273.247290
0
LINE
8
hole
62
5
39
2
10
357.431678
20
273.247290
11
357.300176
21
273.179118
0
LINE
8
hole
62
5
39
2
10
357.300176
20
273.179118
11
351.104200
21
269.967125
0
LINE
8
hole
62
5
39
2
10
351.104200
20
269.967125
11
345.266814
21
267.593916
0
LINE
8
hole
62
5
39
2
10
345.266814
20
267.593916
11
345.092266
21
267.522954
0
LINE
8
hole
62
5
39
2
10
345.092266
20
267.522954
11
344.768255
21
267.428278
0
LINE
8
hole
62
5
39
2
10
344.768255
20
267.428278
11
339.303306
21
266.074828
0
LINE
8
hole
62
5
39
2
10
339.303306
20
266.074828
11
337.750506
21
265.843132
0
LINE
8
hole
62
5
39
2
10
337.750506
20
265.843132
11
333.656885
21
265.232316
0
LINE
8
hole
62
5
39
2
10
333.656885
20
265.232316
11
331.417322
21
265.120699
0
LINE
8
hole
62
5
39
2
10
331.417322
20
265.120699
11
328.079984
21
264.954371
0
LINE
8
hole
62
5
39
2
10
328.079984
20
264.954371
11
325.796508
21
265.068177
0
LINE
8
hole
62
5
39
2
10
325.796508
20
265.068177
11
322.503082
21
265.232316
0
LINE
8
hole
62
5
39
2
10
322.503082
20
265.232316
11
320.641439
21
265.510096
0
LINE
8
hole
62
5
39
2
10
320.641439
20
265.510096
11
316.856662
21
266.074828
0
LINE
8
hole
62
5
39
2
10
316.856662
20
266.074828
11
315.789688
21
266.339077
0
LINE
8
hole
62
5
39
2
10
315.789688
20
266.339077
11
311.391713
21
267.428278
0
LINE
8
hole
62
5
39
2
10
311.391713
20
267.428278
11
311.143981
21
267.500665
0
LINE
8
hole
62
5
39
2
10
311.143981
20
267.500665
11
311.067701
21
267.522953
0
LINE
8
hole
62
5
39
2
10
311.067701
20
267.522953
11
306.957938
21
269.193794
0
LINE
8
hole
62
5
39
2
10
306.957938
20
269.193794
11
305.055767
21
269.967125
0
LINE
8
hole
62
5
39
2
10
305.055767
20
269.967125
11
302.826085
21
271.122992
0
LINE
8
hole
62
5
39
2
10
302.826085
20
271.122992
11
298.728289
21
273.247289
0
LINE
8
hole
62
5
39
2
10
298.728289
20
273.247289
11
298.692285
21
273.269866
0
LINE
8
hole
62
5
39
2
10
298.692285
20
273.269866
11
298.637723
21
273.304079
0
LINE
8
hole
62
5
39
2
10
298.637723
20
273.304079
11
295.049143
21
275.988873
0
LINE
8
hole
62
5
39
2
10
295.049143
20
275.988873
11
291.974368
21
278.289261
0
LINE
8
hole
62
5
39
2
10
291.974368
20
278.289261
11
291.313232
21
278.866545
0
LINE
8
hole
62
5
39
2
10
291.313232
20
278.866545
11
290.622346
21
279.469803
0
LINE
8
hole
62
5
39
2
10
290.622346
20
279.469803
11
287.987822
21
282.264290
0
LINE
8
hole
62
5
39
2
10
287.987822
20
282.264290
11
284.656151
21
285.798253
0
LINE
8
hole
62
5
39
2
10
284.656151
20
285.798253
11
284.613184
21
285.850073
0
LINE
8
hole
62
5
39
2
10
284.613184
20
285.850073
11
284.582201
21
285.887441
0
LINE
8
hole
62
5
39
2
10
284.582201
20
285.887441
11
281.816003
21
290.056383
0
LINE
8
hole
62
5
39
2
10
281.816003
20
290.056383
11
280.183041
21
292.517420
0
LINE
8
hole
62
5
39
2
10
280.183041
20
292.517420
11
279.146408
21
294.561067
0
LINE
8
hole
62
5
39
2
10
279.146408
20
294.561067
11
276.733026
21
299.318867
0
LINE
8
hole
62
5
39
2
10
276.733026
20
299.318867
11
276.702478
21
299.404253
0
LINE
8
hole
62
5
39
2
10
276.702478
20
299.404253
11
276.596274
21
299.701114
0
LINE
8
hole
62
5
39
2
10
276.596274
20
299.701114
11
274.930543
21
304.889541
0
LINE
8
hole
62
5
39
2
10
274.930543
20
304.889541
11
274.493819
21
306.249849
0
LINE
8
hole
62
5
39
2
10
274.493819
20
306.249849
11
273.616568
21
310.842004
0
LINE
8
boundary
62
5
39
2
10
278.213788
20
252.606188
11
278.766307
21
252.215156
0
LINE
8
boundary
62
5
39
2
10
278.766307
20
252.215156
11
282.690281
21
253.211678
0
LINE
8
boundary
62
5
39
2
10
282.690281
20
253.211678
11
288.306491
21
262.939239
0
LINE
8
boundary
62
5
39
2
10
288.306491
20
262.939239
11
288.821019
21
263.525946
0
LINE
8
boundary
62
5
39
2
10
288.821019
20
263.525946
11
289.520903
21
263.871091
0
LINE
8
boundary
62
5
39
2
10
289.520903
20
263.871091
11
290.299594
21
263.922129
0
LINE
8
boundary
62
5
39
2
10
290.299594
20
263.922129
11
291.038542
21
263.671290
0
LINE
8
boundary
62
5
39
2
10
291.038542
20
263.671290
11
291.625248
21
263.156762
0
LINE
8
boundary
62
5
39
2
10
291.625248
20
263.156762
11
291.970393
21
262.456877
0
LINE
8
boundary
62
5
39
2
10
291.970393
20
262.456877
11
292.021432
21
261.678187
0
LINE
8
boundary
62
5
39
2
10
292.021432
20
261.678187
11
291.770592
21
260.939239
0
LINE
8
boundary
62
5
39
2
10
291.770592
20
260.939239
11
294.801682
21
259.189239
0
LINE
8
boundary
62
5
39
2
10
294.801682
20
259.189239
11
295.316209
21
259.775946
0
LINE
8
boundary
62
5
39
2
10
295.316209
20
259.775946
11
296.016094
21
260.121091
0
LINE
8
boundary
62
5
39
2
10
296.016094
20
260.121091
11
296.794785
21
260.172129
0
LINE
8
boundary
62
5
39
2
10
296.794785
20
260.172129
11
297.533732
21
259.921290
0
LINE
8
boundary
62
5
39
2
10
297.533732
20
259.921290
11
298.120439
21
259.406762
0
LINE
8
boundary
62
5
39
2
10
298.120439
20
259.406762
11
298.465584
21
258.706877
0
LINE
8
boundary
62
5
39
2
10
298.465584
20
258.706877
11
298.516622
21
257.928187
0
LINE
8
boundary
62
5
39
2
10
298.516622
20
257.928187
11
298.265783
21
257.189239
0
LINE
8
boundary
62
5
39
2
10
298.265783
20
257.189239
11
292.679836
21
247.514095
0
LINE
8
boundary
62
5
39
2
10
292.679836
20
247.514095
11
293.778810
21
243.617574
0
LINE
8
boundary
62
5
39
2
10
293.778810
20
243.617574
11
298.765073
21
241.494894
0
LINE
8
boundary
62
5
39
2
10
298.765073
20
241.494894
11
299.093936
21
241.354899
0
LINE
8
boundary
62
5
39
2
10
299.093936
20
241.354899
11
299.521972
21
241.201572
0
LINE
8
boundary
62
5
39
2
10
299.521972
20
241.201572
11
304.778909
21
239.564220
0
LINE
8
boundary
62
5
39
2
10
304.778909
20
239.564220
11
307.029691
21
238.999148
0
LINE
8
boundary
62
5
39
2
10
307.029691
20
238.999148
11
310.205505
21
238.201845
0
LINE
8
boundary
62
5
39
2
10
310.205505
20
238.201845
11
313.911707
21
237.499910
0
LINE
8
boundary
62
5
39
2
10
313.911707
20
237.499910
11
315.441901
21
237.210099
0
LINE
8
boundary
62
5
39
2
10
315.441901
20
237.210099
11
319.940498
21
236.639729
0
LINE
8
boundary
62
5
39
2
10
319.940498
20
236.639729
11
320.547857
21
236.562723
0
LINE
8
boundary
62
5
39
2
10
320.547857
20
236.562723
11
325.376291
21
236.255854
0
LINE
8
boundary
62
5
39
2
10
325.376291
20
236.255854
11
325.577627
21
236.243058
0
LINE
8
boundary
62
5
39
2
10
325.577627
20
236.243058
11
330.394437
21
236.243058
0
LINE
8
boundary
62
5
39
2
10
330.394437
20
236.243058
11
330.582340
21
236.243058
0
LINE
8
boundary
62
5
39
2
10
330.582340
20
236.243058
11
335.119059
21
236.531388
0
LINE
8
boundary
62
5
39
2
10
335.119059
20
236.531388
11
335.612111
21
236.562723
0
LINE
8
boundary
62
5
39
2
10
335.612111
20
236.562723
11
339.642111
21
237.073680
0
LINE
8
boundary
62
5
39
2
10
339.642111
20
237.073680
11
340.718066
21
237.210099
0
LINE
8
boundary
62
5
39
2
10
340.718066
20
237.210099
11
344.034750
21
237.838261
0
LINE
8
boundary
62
5
39
2
10
344.034750
20
237.838261
11
345.954462
21
238.201845
0
LINE
8
boundary
62
5
39
2
10
345.954462
20
238.201845
11
348.354568
21
238.804407
0
LINE
8
boundary
62
5
39
2
10
348.354568
20
238.804407
11
351.381058
21
239.564220
0
LINE
8
boundary
62
5
39
2
10
351.381058
20
239.564220
11
352.650342
21
239.959556
0
LINE
8
boundary
62
5
39
2
10
352.650342
20
239.959556
11
356.637995
21
241.201572
0
LINE
8
boundary
62
5
39
2
10
356.637995
20
241.201572
11
356.942850
21
241.310774
0
LINE
8
boundary
62
5
39
2
10
356.942850
20
241.310774
11
357.066032
21
241.354899
0
LINE
8
boundary
62
5
39
2
10
357.066032
20
241.354899
11
357.394894
21
241.494894
0
LINE
8
boundary
62
5
39
2
10
357.394894
20
241.494894
11
363.053402
21
243.903752
0
LINE
8
boundary
62
5
39
2
10
363.053402
20
243.903752
11
368.795107
21
246.724582
0
LINE
8
boundary
62
5
39
2
10
368.795107
20
246.724582
11
369.549498
21
247.151112
0
LINE
8
boundary
62
5
39
2
10
369.549498
20
247.151112
11
373.141691
21
249.443866
0
LINE
8
boundary
62
5
39
2
10
373.141691
20
249.443866
11
376.567050
21
251.630144
0
LINE
8
boundary
62
5
39
2
10
376.567050
20
251.630144
11
377.196950
21
252.075941
0
LINE
8
boundary
62
5
39
2
10
377.196950
20
252.075941
11
377.946179
21
252.606187
0
LINE
8
boundary
62
5
39
2
10
377.946179
20
252.606187
11
380.999311
21
255.101709
0
LINE
8
boundary
62
5
39
2
10
380.999311
20
255.101709
11
384.298246
21
257.798152
0
LINE
8
boundary
62
5
39
2
10
384.298246
20
257.798152
11
384.901773
21
258.337418
0
LINE
8
boundary
62
5
39
2
10
384.901773
20
258.337418
11
385.439327
21
258.817733
0
LINE
8
boundary
62
5
39
2
10
385.439327
20
258.817733
11
388.499807
21
261.997290
0
LINE
8
boundary
62
5
39
2
10
388.499807
20
261.997290
11
391.706705
21
265.328951
0
LINE
8
boundary
62
5
39
2
10
391.706705
20
265.328951
11
392.166140
21
265.889890
0
LINE
8
boundary
62
5
39
2
10
392.166140
20
265.889890
11
392.948477
21
266.845072
0
LINE
8
boundary
62
5
39
2
10
392.948477
20
266.845072
11
396.908458
21
271.956955
0
LINE
8
boundary
62
5
39
2
10
396.908458
20
271.956955
11
396.999655
21
272.074718
0
LINE
8
boundary
62
5
39
2
10
396.999655
20
272.074718
11
397.024586
21
272.108128
0
LINE
8
boundary
62
5
39
2
10
397.024586
20
272.108128
11
397.110689
21
272.245763
0
LINE
8
boundary
62
5
39
2
10
397.110689
20
272.245763
11
401.410913
21
279.122226
0
LINE
8
boundary
62
5
39
2
10
401.410913
20
279.122226
11
402.796170
21
281.827552
0
LINE
8
boundary
62
5
39
2
10
402.796170
20
281.827552
11
404.435775
21
285.205577
0
LINE
8
boundary
62
5
39
2
10
404.435775
20
285.205577
11
404.984976
21
286.337080
0
LINE
8
boundary
62
5
39
2
10
404.984976
20
286.337080
11
406.763179
21
290.987329
0
LINE
8
boundary
62
5
39
2
10
406.763179
20
290.987329
11
407.807185
21
293.717541
0
LINE
8
boundary
62
5
39
2
10
407.807185
20
293.717541
11
408.773032
21
297.124935
0
LINE
8
boundary
62
5
39
2
10
408.773032
20
297.124935
11
409.935962
21
301.227652
0
LINE
8
boundary
62
5
39
2
10
409.935962
20
301.227652
11
410.386856
21
303.633487
0
LINE
8
boundary
62
5
39
2
10
410.386856
20
303.633487
11
411.360929
21
308.830819
0
LINE
8
boundary
62
5
39
2
10
411.360929
20
308.830819
11
411.519553
21
310.531889
0
LINE
8
boundary
62
5
39
2
10
411.519553
20
310.531889
11
411.626517
21
311.678949
0
LINE
8
boundary
62
5
39
2
10
411.626517
20
311.678949
11
408.801517
21
314.578949
0
LINE
8
boundary
62
5
39
2
10
408.801517
20
314.578949
11
397.632542
21
314.578949
0
LINE
8
boundary
62
5
39
2
10
397.632542
20
314.578949
11
396.867175
21
314.731190
0
LINE
8
boundary
62
5
39
2
10
396.867175
20
314.731190
11
396.218329
21
315.164736
0
LINE
8
boundary
62
5
39
2
10
396.218329
20
315.164736
11
395.784783
21
315.813583
0
LINE
8
boundary
62
5
39
2
10
395.784783
20
315.813583
11
395.632542
21
316.578949
0
LINE
8
boundary
62
5
39
2
10
395.632542
20
316.578949
11
395.784783
21
317.344316
0
LINE
8
boundary
62
5
39
2
10
395.784783
20
317.344316
11
396.218329
21
317.993163
0
LINE
8
boundary
62
5
39
2
10
396.218329
20
317.993163
11
396.867175
21
318.426708
0
LINE
8
boundary
62
5
39
2
10
396.867175
20
318.426708
11
397.632542
21
318.578950
0
LINE
8
boundary
62
5
39
2
10
397.632542
20
318.578950
11
397.632542
21
322.078949
0
LINE
8
boundary
62
5
39
2
10
397.632542
20
322.078949
11
396.867175
21
322.231190
0
LINE
8
boundary
62
5
39
2
10
396.867175
20
322.231190
11
396.218328
21
322.664736
0
LINE
8
boundary
62
5
39
2
10
396.218328
20
322.664736
11
395.784783
21
323.313583
0
LINE
8
boundary
62
5
39
2
10
395.784783
20
323.313583
11
395.632542
21
324.078949
0
LINE
8
boundary
62
5
39
2
10
395.632542
20
324.078949
11
395.784783
21
324.844316
0
LINE
8
boundary
62
5
39
2
10
395.784783
20
324.844316
11
396.218329
21
325.493163
0
LINE
8
boundary
62
5
39
2
10
396.218329
20
325.493163
11
396.867175
21
325.926709
0
LINE
8
boundary
62
5
39
2
10
396.867175
20
325.926709
11
397.632542
21
326.078949
0
LINE
8
boundary
62
5
39
2
10
397.632542
20
326.078949
11
408.801519
21
326.078949
0
LINE
8
boundary
62
5
39
2
10
408.801519
20
326.078949
11
411.626519
21
328.978949
0
LINE
8
boundary
62
5
39
2
10
411.626519
20
328.978949
11
411.360929
21
331.827080
0
LINE
8
boundary
62
5
39
2
10
411.360929
20
331.827080
11
410.975291
21
333.884723
0
LINE
8
boundary
62
5
39
2
10
410.975291
20
333.884723
11
409.935961
21
339.430247
0
LINE
8
boundary
62
5
39
2
10
409.935961
20
339.430247
11
408.995658
21
342.747530
0
LINE
8
boundary
62
5
39
2
10
408.995658
20
342.747530
11
407.807185
21
346.940358
0
LINE
8
boundary
62
5
39
2
10
407.807185
20
346.940358
11
405.745858
21
352.331010
0
LINE
8
boundary
62
5
39
2
10
405.745858
20
352.331010
11
404.984976
21
354.320818
0
LINE
8
boundary
62
5
39
2
10
404.984976
20
354.320818
11
402.796170
21
358.830347
0
LINE
8
boundary
62
5
39
2
10
402.796170
20
358.830347
11
401.392073
21
361.535673
0
LINE
8
boundary
62
5
39
2
10
401.392073
20
361.535673
11
400.291531
21
363.269127
0
LINE
8
boundary
62
5
39
2
10
400.291531
20
363.269127
11
396.938933
21
368.549771
0
LINE
8
boundary
62
5
39
2
10
396.938933
20
368.549771
11
392.948477
21
373.812827
0
LINE
8
boundary
62
5
39
2
10
392.948477
20
373.812827
11
391.706705
21
375.328947
0
LINE
8
boundary
62
5
39
2
10
391.706705
20
375.328947
11
388.534895
21
378.624162
0
LINE
8
boundary
62
5
39
2
10
388.534895
20
378.624162
11
385.439327
21
381.840166
0
LINE
8
boundary
62
5
39
2
10
385.439327
20
381.840166
11
384.298246
21
382.859746
0
LINE
8
boundary
62
5
39
2
10
384.298246
20
382.859746
11
377.946179
21
388.051711
0
LINE
8
boundary
62
5
39
2
10
377.946179
20
388.051711
11
376.567050
21
389.027755
0
LINE
8
boundary
62
5
39
2
10
376.567050
20
389.027755
11
371.771618
21
392.088494
0
LINE
8
boundary
62
5
39
2
10
371.771618
20
392.088494
11
369.549498
21
393.506787
0
LINE
8
boundary
62
5
39
2
10
369.549498
20
393.506787
11
368.795107
21
393.933317
0
LINE
8
boundary
62
5
39
2
10
368.795107
20
393.933317
11
363.053402
21
396.754147
0
LINE
8
boundary
62
5
39
2
10
363.053402
20
396.754147
11
357.394894
21
399.163005
0
LINE
8
boundary
62
5
39
2
10
357.394894
20
399.163005
11
357.066032
21
399.303000
0
LINE
8
boundary
62
5
39
2
10
357.066032
20
399.303000
11
356.637995
21
399.456326
0
LINE
8
boundary
62
5
39
2
10
356.637995
20
399.456326
11
351.381058
21
401.093679
0
LINE
8
boundary
62
5
39
2
10
351.381058
20
401.093679
11
349.130277
21
401.658751
0
LINE
8
boundary
62
5
39
2
10
349.130277
20
401.658751
11
345.954462
21
402.456054
0
LINE
8
boundary
62
5
39
2
10
345.954462
20
402.456054
11
342.248260
21
403.157989
0
LINE
8
boundary
62
5
39
2
10
342.248260
20
403.157989
11
340.718066
21
403.447800
0
LINE
8
boundary
62
5
39
2
10
340.718066
20
403.447800
11
336.219470
21
404.018169
0
LINE
8
boundary
62
5
39
2
10
336.219470
20
404.018169
11
335.612111
21
404.095175
0
LINE
8
boundary
62
5
39
2
10
335.612111
20
404.095175
11
330.783675
21
404.402045
0
LINE
8
boundary
62
5
39
2
10
330.783675
20
404.402045
11
330.582340
21
404.414841
0
LINE
8
boundary
62
5
39
2
10
330.582340
20
404.414841
11
325.765530
21
404.414841
0
LINE
8
boundary
62
5
39
2
10
325.765530
20
404.414841
11
325.577628
21
404.414841
0
LINE
8
boundary
62
5
39
2
10
325.577628
20
404.414841
11
321.040908
21
404.126511
0
LINE
8
boundary
62
5
39
2
10
321.040908
20
404.126511
11
320.547857
21
404.095175
0
LINE
8
boundary
62
5
39
2
10
320.547857
20
404.095175
11
316.517856
21
403.584218
0
LINE
8
boundary
62
5
39
2
10
316.517856
20
403.584218
11
315.441901
21
403.447800
0
LINE
8
boundary
62
5
39
2
10
315.441901
20
403.447800
11
312.125218
21
402.819638
0
LINE
8
boundary
62
5
39
2
10
312.125218
20
402.819638
11
310.205505
21
402.456054
0
LINE
8
boundary
62
5
39
2
10
310.205505
20
402.456054
11
307.805399
21
401.853492
0
LINE
8
boundary
62
5
39
2
10
307.805399
20
401.853492
11
304.778909
21
401.093679
0
LINE
8
boundary
62
5
39
2
10
304.778909
20
401.093679
11
303.509625
21
400.698343
0
LINE
8
boundary
62
5
39
2
10
303.509625
20
400.698343
11
299.521972
21
399.456327
0
LINE
8
boundary
62
5
39
2
10
299.521972
20
399.456327
11
299.217117
21
399.347125
0
LINE
8
boundary
62
5
39
2
10
299.217117
20
399.347125
11
299.093936
21
399.303000
0
LINE
8
boundary
62
5
39
2
10
299.093936
20
399.303000
11
298.765073
21
399.163005
0
LINE
8
boundary
62
5
39
2
10
298.765073
20
399.163005
11
293.778810
21
397.040325
0
LINE
8
boundary
62
5
39
2
10
293.778810
20
397.040325
11
292.679836
21
393.143803
0
LINE
8
boundary
62
5
39
2
10
292.679836
20
393.143803
11
298.265783
21
383.468660
0
LINE
8
boundary
62
5
39
2
10
298.265783
20
383.468660
11
298.516622
21
382.729713
0
LINE
8
boundary
62
5
39
2
10
298.516622
20
382.729713
11
298.465583
21
381.951022
0
LINE
8
boundary
62
5
39
2
10
298.465583
20
381.951022
11
298.120438
21
381.251137
0
LINE
8
boundary
62
5
39
2
10
298.120438
20
381.251137
11
297.533732
21
380.736610
0
LINE
8
boundary
62
5
39
2
10
297.533732
20
380.736610
11
296.794784
21
380.485771
0
LINE
8
boundary
62
5
39
2
10
296.794784
20
380.485771
11
296.016094
21
380.536809
0
LINE
8
boundary
62
5
39
2
10
296.016094
20
380.536809
11
295.316209
21
380.881954
0
LINE
8
boundary
62
5
39
2
10
295.316209
20
380.881954
11
294.801681
21
381.468660
0
LINE
8
boundary
62
5
39
2
10
294.801681
20
381.468660
11
291.770592
21
379.718661
0
LINE
8
boundary
62
5
39
2
10
291.770592
20
379.718661
11
292.021431
21
378.979713
0
LINE
8
boundary
62
5
39
2
10
292.021431
20
378.979713
11
291.970393
21
378.201022
0
LINE
8
boundary
62
5
39
2
10
291.970393
20
378.201022
11
291.625248
21
377.501137
0
LINE
8
boundary
62
5
39
2
10
291.625248
20
377.501137
11
291.038541
21
376.986610
0
LINE
8
boundary
62
5
39
2
10
291.038541
20
376.986610
11
290.299594
21
376.735771
0
LINE
8
boundary
62
5
39
2
10
290.299594
20
376.735771
11
289.520903
21
376.786809
0
LINE
8
boundary
62
5
39
2
10
289.520903
20
376.786809
11
288.821018
21
377.131954
0
LINE
8
boundary
62
5
39
2
10
288.821018
20
377.131954
11
288.306491
21
377.718660
0
LINE
8
boundary
62
5
39
2
10
288.306491
20
377.718660
11
282.690281
21
387.446220
0
LINE
8
boundary
62
5
39
2
10
282.690281
20
387.446220
11
278.766308
21
388.442742
0
LINE
8
boundary
62
5
39
2
10
278.766308
20
388.442742
11
278.213788
21
388.051711
0
LINE
8
boundary
62
5
39
2
10
278.213788
20
388.051711
11
275.160655
21
385.556190
0
LINE
8
boundary
62
5
39
2
10
275.160655
20
385.556190
11
271.861721
21
382.859746
0
LINE
8
boundary
62
5
39
2
10
271.861721
20
382.859746
11
271.258194
21
382.320481
0
LINE
8
boundary
62
5
39
2
10
271.258194
20
382.320481
11
270.720641
21
381.840166
0
LINE
8
boundary
62
5
39
2
10
270.720641
20
381.840166
11
267.660160
21
378.660609
0
LINE
8
boundary
62
5
39
2
10
267.660160
20
378.660609
11
264.453262
21
375.328948
0
LINE
8
boundary
62
5
39
2
10
264.453262
20
375.328948
11
263.993827
21
374.768009
0
LINE
8
boundary
62
5
39
2
10
263.993827
20
374.768009
11
263.211490
21
373.812827
0
LINE
8
boundary
62
5
39
2
10
263.211490
20
373.812827
11
260.660379
21
370.448136
0
LINE
8
boundary
62
5
39
2
10
260.660379
20
370.448136
11
259.221035
21
368.549771
0
LINE
8
boundary
62
5
39
2
10
259.221035
20
368.549771
11
257.471406
21
365.793947
0
LINE
8
boundary
62
5
39
2
10
257.471406
20
365.793947
11
254.767894
21
361.535673
0
LINE
8
boundary
62
5
39
2
10
254.767894
20
361.535673
11
254.404498
21
360.835505
0
LINE
8
boundary
62
5
39
2
10
254.404498
20
360.835505
11
253.363797
21
358.830347
0
LINE
8
boundary
62
5
39
2
10
253.363797
20
358.830347
11
251.724193
21
355.452321
0
LINE
8
boundary
62
5
39
2
10
251.724193
20
355.452321
11
251.174991
21
354.320818
0
LINE
8
boundary
62
5
39
2
10
251.174991
20
354.320818
11
249.396788
21
349.670570
0
LINE
8
boundary
62
5
39
2
10
249.396788
20
349.670570
11
248.352783
21
346.940358
0
LINE
8
boundary
62
5
39
2
10
248.352783
20
346.940358
11
247.386936
21
343.532964
0
LINE
8
boundary
62
5
39
2
10
247.386936
20
343.532964
11
246.224006
21
339.430247
0
LINE
8
boundary
62
5
39
2
10
246.224006
20
339.430247
11
245.773111
21
337.024411
0
LINE
8
boundary
62
5
39
2
10
245.773111
20
337.024411
11
244.799039
21
331.827080
0
LINE
8
boundary
62
5
39
2
10
244.799039
20
331.827080
11
244.640414
21
330.126010
0
LINE
8
boundary
62
5
39
2
10
244.640414
20
330.126010
11
244.084814
21
324.167894
0
LINE
8
boundary
62
5
39
2
10
244.084814
20
324.167894
11
244.084814
21
322.812120
0
LINE
8
boundary
62
5
39
2
10
244.084814
20
322.812120
11
244.084814
21
316.490005
0
LINE
8
boundary
62
5
39
2
10
244.084814
20
316.490005
11
244.219466
21
315.046016
0
LINE
8
boundary
62
5
39
2
10
244.219466
20
315.046016
11
244.799039
21
308.830819
0
LINE
8
boundary
62
5
39
2
10
244.799039
20
308.830819
11
245.184676
21
306.773176
0
LINE
8
boundary
62
5
39
2
10
245.184676
20
306.773176
11
246.224005
21
301.227652
0
LINE
8
boundary
62
5
39
2
10
246.224005
20
301.227652
11
247.164309
21
297.910369
0
LINE
8
boundary
62
5
39
2
10
247.164309
20
297.910369
11
248.352783
21
293.717541
0
LINE
8
boundary
62
5
39
2
10
248.352783
20
293.717541
11
250.414109
21
288.326888
0
LINE
8
boundary
62
5
39
2
10
250.414109
20
288.326888
11
251.174991
21
286.337081
0
LINE
8
boundary
62
5
39
2
10
251.174991
20
286.337081
11
253.363797
21
281.827552
0
LINE
8
boundary
62
5
39
2
10
253.363797
20
281.827552
11
254.767894
21
279.122226
0
LINE
8
boundary
62
5
39
2
10
254.767894
20
279.122226
11
255.868436
21
277.388772
0
LINE
8
boundary
62
5
39
2
10
255.868436
20
277.388772
11
259.221034
21
272.108128
0
LINE
8
boundary
62
5
39
2
10
259.221034
20
272.108128
11
263.211490
21
266.845072
0
LINE
8
boundary
62
5
39
2
10
263.211490
20
266.845072
11
264.453262
21
265.328951
0
LINE
8
boundary
62
5
39
2
10
264.453262
20
265.328951
11
267.625073
21
262.033737
0
LINE
8
boundary
62
5
39
2
10
267.625073
20
262.033737
11
270.720641
21
258.817733
0
LINE
8
boundary
62
5
39
2
10
270.720641
20
258.817733
11
271.861721
21
257.798153
0
LINE
8
boundary
62
5
39
2
10
271.861721
20
257.798153
11
278.213788
21
252.606188
0
LINE
8
annotation
62
1
39
211
10
386.549239
20
315.485268
11
386.549239
21
325.172631
0
LINE
8
annotation
62
1
39
211
10
386.549239
20
325.172631
11
384.395615
21
323.018399
0
LINE
8
annotation
62
1
39
211
10
301.628803
20
374.926578
11
303.579106
21
371.548554
0
LINE
8
annotation
62
1
39
211
10
303.579106
20
371.548554
11
296.751901
21
371.768739
0
LINE
8
annotation
62
1
39
211
10
296.751901
20
371.768739
11
296.751901
21
371.768739
0
LINE
8
annotation
62
1
39
211
10
296.751901
20
371.768739
11
296.745130
21
371.769804
0
LINE
8
annotation
62
1
39
211
10
296.745130
20
371.769804
11
296.738407
21
371.770694
0
LINE
8
annotation
62
1
39
211
10
296.738407
20
371.770694
11
296.731681
21
371.771409
0
LINE
8
annotation
62
1
39
211
10
296.731681
20
371.771409
11
296.724898
21
371.771950
0
LINE
8
annotation
62
1
39
211
10
296.724898
20
371.771950
11
296.718005
21
371.772318
0
LINE
8
annotation
62
1
39
211
10
296.718005
20
371.772318
11
296.710950
21
371.772513
0
LINE
8
annotation
62
1
39
211
10
296.710950
20
371.772513
11
296.703681
21
371.772538
0
LINE
8
annotation
62
1
39
211
10
296.703681
20
371.772538
11
296.696143
21
371.772392
0
LINE
8
annotation
62
1
39
211
10
296.696143
20
371.772392
11
296.688284
21
371.772076
0
LINE
8
annotation
62
1
39
211
10
296.688284
20
371.772076
11
296.688284
21
371.772076
0
LINE
8
annotation
62
1
39
211
10
296.688284
20
371.772076
11
296.337153
21
371.741193
0
LINE
8
annotation
62
1
39
211
10
296.337153
20
371.741193
11
296.006839
21
371.650874
0
LINE
8
annotation
62
1
39
211
10
296.006839
20
371.650874
11
295.702757
21
371.506705
0
LINE
8
annotation
62
1
39
211
10
295.702757
20
371.506705
11
295.430324
21
371.314273
0
LINE
8
annotation
62
1
39
211
10
295.430324
20
371.314273
11
295.194956
21
371.079166
0
LINE
8
annotation
62
1
39
211
10
295.194956
20
371.079166
11
295.002069
21
370.806972
0
LINE
8
annotation
62
1
39
211
10
295.002069
20
370.806972
11
294.857079
21
370.503277
0
LINE
8
annotation
62
1
39
211
10
294.857079
20
370.503277
11
294.765404
21
370.173668
0
LINE
8
annotation
62
1
39
211
10
294.765404
20
370.173668
11
294.732458
21
369.823733
0
LINE
8
annotation
62
1
39
211
10
294.732458
20
369.823733
11
294.732458
21
369.823733
0
LINE
8
annotation
62
1
39
211
10
294.732458
20
369.823733
11
294.765617
21
369.472890
0
LINE
8
annotation
62
1
39
211
10
294.765617
20
369.472890
11
294.857350
21
369.142806
0
LINE
8
annotation
62
1
39
211
10
294.857350
20
369.142806
11
295.002282
21
368.838939
0
LINE
8
annotation
62
1
39
211
10
295.002282
20
368.838939
11
295.195036
21
368.566750
0
LINE
8
annotation
62
1
39
211
10
295.195036
20
368.566750
11
295.430236
21
368.331697
0
LINE
8
annotation
62
1
39
211
10
295.430236
20
368.331697
11
295.702504
21
368.139240
0
LINE
8
annotation
62
1
39
211
10
295.702504
20
368.139240
11
296.006464
21
367.994839
0
LINE
8
annotation
62
1
39
211
10
296.006464
20
367.994839
11
296.336741
21
367.903952
0
LINE
8
annotation
62
1
39
211
10
296.336741
20
367.903952
11
296.687956
21
367.872038
0
LINE
8
annotation
62
1
39
211
10
296.687956
20
367.872038
11
297.241484
21
367.895886
0
LINE
8
annotation
62
1
39
211
10
299.998117
20
271.213370
11
299.020579
21
269.520225
0
LINE
8
annotation
62
1
39
211
10
299.020579
20
269.520225
11
299.020579
21
269.520225
0
LINE
8
annotation
62
1
39
211
10
299.020579
20
269.520225
11
298.872084
21
269.199937
0
LINE
8
annotation
62
1
39
211
10
298.872084
20
269.199937
11
298.785380
21
268.867943
0
LINE
8
annotation
62
1
39
211
10
298.785380
20
268.867943
11
298.758386
21
268.531799
0
LINE
8
annotation
62
1
39
211
10
298.758386
20
268.531799
11
298.789022
21
268.199062
0
LINE
8
annotation
62
1
39
211
10
298.789022
20
268.199062
11
298.875205
21
267.877286
0
LINE
8
annotation
62
1
39
211
10
298.875205
20
267.877286
11
299.014856
21
267.574028
0
LINE
8
annotation
62
1
39
211
10
299.014856
20
267.574028
11
299.205892
21
267.296844
0
LINE
8
annotation
62
1
39
211
10
299.205892
20
267.296844
11
299.446232
21
267.053290
0
LINE
8
annotation
62
1
39
211
10
299.446232
20
267.053290
11
299.733796
21
266.850921
0
LINE
8
annotation
62
1
39
211
10
299.733796
20
266.850921
11
300.581564
21
266.361462
0
LINE
8
annotation
62
1
39
211
10
300.581564
20
266.361462
11
300.581564
21
266.361462
0
LINE
8
annotation
62
1
39
211
10
300.581564
20
266.361462
11
300.900476
21
266.213681
0
LINE
8
annotation
62
1
39
211
10
300.900476
20
266.213681
11
301.231504
21
266.127356
0
LINE
8
annotation
62
1
39
211
10
301.231504
20
266.127356
11
301.567050
21
266.100517
0
LINE
8
annotation
62
1
39
211
10
301.567050
20
266.100517
11
301.899520
21
266.131196
0
LINE
8
annotation
62
1
39
211
10
301.899520
20
266.131196
11
302.221318
21
266.217425
0
LINE
8
annotation
62
1
39
211
10
302.221318
20
266.217425
11
302.524846
21
266.357233
0
LINE
8
annotation
62
1
39
211
10
302.524846
20
266.357233
11
302.802509
21
266.548652
0
LINE
8
annotation
62
1
39
211
10
302.802509
20
266.548652
11
303.046712
21
266.789714
0
LINE
8
annotation
62
1
39
211
10
303.046712
20
266.789714
11
303.249857
21
267.078450
0
LINE
8
annotation
62
1
39
211
10
303.249857
20
267.078450
11
303.739316
21
267.926218
0
LINE
8
annotation
62
1
39
211
10
303.739316
20
267.926218
11
303.249857
21
267.078450
0
LINE
8
annotation
62
1
39
211
10
303.249857
20
267.078450
11
303.249857
21
267.078450
0
LINE
8
annotation
62
1
39
211
10
303.249857
20
267.078450
11
303.101384
21
266.758149
0
LINE
8
annotation
62
1
39
211
10
303.101384
20
266.758149
11
303.014765
21
266.426106
0
LINE
8
annotation
62
1
39
211
10
303.014765
20
266.426106
11
302.987948
21
266.089861
0
LINE
8
annotation
62
1
39
211
10
302.987948
20
266.089861
11
303.018877
21
265.756953
0
LINE
8
annotation
62
1
39
211
10
303.018877
20
265.756953
11
303.105500
21
265.434924
0
LINE
8
annotation
62
1
39
211
10
303.105500
20
265.434924
11
303.245763
21
265.131312
0
LINE
8
annotation
62
1
39
211
10
303.245763
20
265.131312
11
303.437612
21
264.853659
0
LINE
8
annotation
62
1
39
211
10
303.437612
20
264.853659
11
303.678994
21
264.609503
0
LINE
8
annotation
62
1
39
211
10
303.678994
20
264.609503
11
303.967856
21
264.406386
0
LINE
8
annotation
62
1
39
211
10
303.967856
20
264.406386
11
303.967856
21
264.406386
0
LINE
8
annotation
62
1
39
211
10
303.967856
20
264.406386
11
304.286768
21
264.258605
0
LINE
8
annotation
62
1
39
211
10
304.286768
20
264.258605
11
304.617795
21
264.172280
0
LINE
8
annotation
62
1
39
211
10
304.617795
20
264.172280
11
304.953342
21
264.145441
0
LINE
8
annotation
62
1
39
211
10
304.953342
20
264.145441
11
305.285812
21
264.176120
0
LINE
8
annotation
62
1
39
211
10
305.285812
20
264.176120
11
305.607609
21
264.262348
0
LINE
8
annotation
62
1
39
211
10
305.607609
20
264.262348
11
305.911137
21
264.402157
0
LINE
8
annotation
62
1
39
211
10
305.911137
20
264.402157
11
306.188801
21
264.593576
0
LINE
8
annotation
62
1
39
211
10
306.188801
20
264.593576
11
306.433003
21
264.834638
0
LINE
8
annotation
62
1
39
211
10
306.433003
20
264.834638
11
306.636149
21
265.123374
0
LINE
8
annotation
62
1
39
211
10
306.636149
20
265.123374
11
307.613687
21
266.816519
0
LINE
8
annotation
62
1
39
211
10
258.791098
20
314.673608
11
255.429182
21
314.673608
0
LINE
8
annotation
62
1
39
211
10
255.429182
20
314.673608
11
258.791098
21
320.728397
0
LINE
8
annotation
62
1
39
211
10
258.791098
20
320.728397
11
255.429182
21
320.728397
0
LINE
8
annotation
62
1
39
211
10
264.372869
20
317.701003
11
261.062213
21
317.701003
0
LINE
8
annotation
62
1
39
211
10
266.642845
20
314.673798
11
267.987384
21
314.673798
0
LINE
8
annotation
62
1
39
211
10
267.987384
20
314.673798
11
267.987384
21
314.673798
0
LINE
8
annotation
62
1
39
211
10
267.987384
20
314.673798
11
268.229202
21
314.695490
0
LINE
8
annotation
62
1
39
211
10
268.229202
20
314.695490
11
268.456745
21
314.758010
0
LINE
8
annotation
62
1
39
211
10
268.456745
20
314.758010
11
268.666228
21
314.857519
0
LINE
8
annotation
62
1
39
211
10
268.666228
20
314.857519
11
268.853865
21
314.990180
0
LINE
8
annotation
62
1
39
211
10
268.853865
20
314.990180
11
269.015874
21
315.152154
0
LINE
8
annotation
62
1
39
211
10
269.015874
20
315.152154
11
269.148468
21
315.339605
0
LINE
8
annotation
62
1
39
211
10
269.148468
20
315.339605
11
269.247864
21
315.548694
0
LINE
8
annotation
62
1
39
211
10
269.247864
20
315.548694
11
269.310277
21
315.775584
0
LINE
8
annotation
62
1
39
211
10
269.310277
20
315.775584
11
269.331922
21
316.016438
0
LINE
8
annotation
62
1
39
211
10
269.331922
20
316.016438
11
269.331922
21
316.689656
0
LINE
8
annotation
62
1
39
211
10
269.331922
20
316.689656
11
269.331922
21
316.689656
0
LINE
8
annotation
62
1
39
211
10
269.331922
20
316.689656
11
269.310277
21
316.930409
0
LINE
8
annotation
62
1
39
211
10
269.310277
20
316.930409
11
269.247864
21
317.157246
0
LINE
8
annotation
62
1
39
211
10
269.247864
20
317.157246
11
269.148468
21
317.366320
0
LINE
8
annotation
62
1
39
211
10
269.148468
20
317.366320
11
269.015874
21
317.553783
0
LINE
8
annotation
62
1
39
211
10
269.015874
20
317.553783
11
268.853865
21
317.715789
0
LINE
8
annotation
62
1
39
211
10
268.853865
20
317.715789
11
268.666228
21
317.848490
0
LINE
8
annotation
62
1
39
211
10
268.666228
20
317.848490
11
268.456745
21
317.948040
0
LINE
8
annotation
62
1
39
211
10
268.456745
20
317.948040
11
268.229202
21
318.010591
0
LINE
8
annotation
62
1
39
211
10
268.229202
20
318.010591
11
267.987384
21
318.032296
0
LINE
8
annotation
62
1
39
211
10
267.987384
20
318.032296
11
267.314165
21
318.032296
0
LINE
8
annotation
62
1
39
211
10
267.314165
20
318.032296
11
267.987384
21
318.032296
0
LINE
8
annotation
62
1
39
211
10
267.987384
20
318.032296
11
267.987384
21
318.032296
0
LINE
8
annotation
62
1
39
211
10
267.987384
20
318.032296
11
268.229202
21
318.054006
0
LINE
8
annotation
62
1
39
211
10
268.229202
20
318.054006
11
268.456745
21
318.116594
0
LINE
8
annotation
62
1
39
211
10
268.456745
20
318.116594
11
268.666228
21
318.216242
0
LINE
8
annotation
62
1
39
211
10
268.666228
20
318.216242
11
268.853865
21
318.349136
0
LINE
8
annotation
62
1
39
211
10
268.853865
20
318.349136
11
269.015874
21
318.511460
0
LINE
8
annotation
62
1
39
211
10
269.015874
20
318.511460
11
269.148468
21
318.699397
0
LINE
8
annotation
62
1
39
211
10
269.148468
20
318.699397
11
269.247864
21
318.909132
0
LINE
8
annotation
62
1
39
211
10
269.247864
20
318.909132
11
269.310277
21
319.136849
0
LINE
8
annotation
62
1
39
211
10
269.310277
20
319.136849
11
269.331922
21
319.378733
0
LINE
8
annotation
62
1
39
211
10
269.331922
20
319.378733
11
269.331922
21
319.378733
0
LINE
8
annotation
62
1
39
211
10
269.331922
20
319.378733
11
269.310277
21
319.619486
0
LINE
8
annotation
62
1
39
211
10
269.310277
20
319.619486
11
269.247864
21
319.846323
0
LINE
8
annotation
62
1
39
211
10
269.247864
20
319.846323
11
269.148468
21
320.055397
0
LINE
8
annotation
62
1
39
211
10
269.148468
20
320.055397
11
269.015874
21
320.242860
0
LINE
8
annotation
62
1
39
211
10
269.015874
20
320.242860
11
268.853865
21
320.404866
0
LINE
8
annotation
62
1
39
211
10
268.853865
20
320.404866
11
268.666228
21
320.537567
0
LINE
8
annotation
62
1
39
211
10
268.666228
20
320.537567
11
268.456745
21
320.637117
0
LINE
8
annotation
62
1
39
211
10
268.456745
20
320.637117
11
268.229202
21
320.699668
0
LINE
8
annotation
62
1
39
211
10
268.229202
20
320.699668
11
267.987384
21
320.721373
0
LINE
8
annotation
62
1
39
211
10
267.987384
20
320.721373
11
266.642845
21
320.721373
0
LINE
8
hole
62
5
39
2
10
473.814840
20
282.415376
11
470.066634
21
286.025640
0
LINE
8
hole
62
5
39
2
10
470.066634
20
286.025640
11
466.679268
21
290.651757
0
LINE
8
hole
62
5
39
2
10
466.679268
20
290.651757
11
465.355700
21
292.956621
0
LINE
8
hole
62
5
39
2
10
465.355700
20
292.956621
11
464.721429
21
294.812877
0
LINE
8
hole
62
5
39
2
10
464.721429
20
294.812877
11
462.957733
21
299.974404
0
LINE
8
hole
62
5
39
2
10
462.957733
20
299.974404
11
462.507699
21
303.941805
0
LINE
8
hole
62
5
39
2
10
462.507699
20
303.941805
11
462.156754
21
307.035722
0
LINE
8
hole
62
5
39
2
10
462.156754
20
307.035722
11
462.598369
21
310.928891
0
LINE
8
hole
62
5
39
2
10
462.598369
20
310.928891
11
462.957733
21
314.097040
0
LINE
8
hole
62
5
39
2
10
462.957733
20
314.097040
11
463.874774
21
316.780874
0
LINE
8
hole
62
5
39
2
10
463.874774
20
316.780874
11
465.355700
21
321.114822
0
LINE
8
hole
62
5
39
2
10
465.355700
20
321.114822
11
465.826069
21
321.933915
0
LINE
8
hole
62
5
39
2
10
465.826069
20
321.933915
11
466.679268
21
323.419686
0
LINE
8
hole
62
5
39
2
10
466.679268
20
323.419686
11
468.681195
21
326.153710
0
LINE
8
hole
62
5
39
2
10
468.681195
20
326.153710
11
470.066634
21
328.045804
0
LINE
8
hole
62
5
39
2
10
470.066634
20
328.045804
11
471.961511
21
329.870929
0
LINE
8
hole
62
5
39
2
10
471.961511
20
329.870929
11
473.814840
21
331.656068
0
LINE
8
hole
62
5
39
2
10
473.814840
20
331.656068
11
475.742514
21
332.990519
0
LINE
8
hole
62
5
39
2
10
475.742514
20
332.990519
11
478.424643
21
334.847251
0
LINE
8
hole
62
5
39
2
10
478.424643
20
334.847251
11
479.905173
21
335.630772
0
LINE
8
hole
62
5
39
2
10
479.905173
20
335.630772
11
480.685757
21
336.043878
0
LINE
8
hole
62
5
39
2
10
480.685757
20
336.043878
11
484.884856
21
337.382776
0
LINE
8
hole
62
5
39
2
10
484.884856
20
337.382776
11
487.387492
21
338.180715
0
LINE
8
hole
62
5
39
2
10
487.387492
20
338.180715
11
490.409898
21
338.502607
0
LINE
8
hole
62
5
39
2
10
490.409898
20
338.502607
11
494.006718
21
338.885685
0
LINE
8
hole
62
5
39
2
10
494.006718
20
338.885685
11
496.949207
21
338.572304
0
LINE
8
hole
62
5
39
2
10
496.949207
20
338.572304
11
500.625943
21
338.180715
0
LINE
8
hole
62
5
39
2
10
500.625943
20
338.180715
11
505.580573
21
336.600930
0
LINE
8
hole
62
5
39
2
10
505.580573
20
336.600930
11
507.327678
21
336.043878
0
LINE
8
hole
62
5
39
2
10
507.327678
20
336.043878
11
509.588792
21
334.847251
0
LINE
8
hole
62
5
39
2
10
509.588792
20
334.847251
11
514.198594
21
331.656068
0
LINE
8
hole
62
5
39
2
10
514.198594
20
331.656068
11
517.946801
21
328.045804
0
LINE
8
hole
62
5
39
2
10
517.946801
20
328.045804
11
521.334166
21
323.419686
0
LINE
8
hole
62
5
39
2
10
521.334166
20
323.419686
11
522.657735
21
321.114823
0
LINE
8
hole
62
5
39
2
10
522.657735
20
321.114823
11
523.292006
21
319.258566
0
LINE
8
hole
62
5
39
2
10
523.292006
20
319.258566
11
525.055702
21
314.097040
0
LINE
8
hole
62
5
39
2
10
525.055702
20
314.097040
11
525.505736
21
310.129639
0
LINE
8
hole
62
5
39
2
10
525.505736
20
310.129639
11
525.856681
21
307.035722
0
LINE
8
hole
62
5
39
2
10
525.856681
20
307.035722
11
525.415067
21
303.142553
0
LINE
8
hole
62
5
39
2
10
525.415067
20
303.142553
11
525.055702
21
299.974404
0
LINE
8
hole
62
5
39
2
10
525.055702
20
299.974404
11
524.138661
21
297.290570
0
LINE
8
hole
62
5
39
2
10
524.138661
20
297.290570
11
522.657735
21
292.956621
0
LINE
8
hole
62
5
39
2
10
522.657735
20
292.956621
11
522.187365
21
292.137528
0
LINE
8
hole
62
5
39
2
10
522.187365
20
292.137528
11
521.334166
21
290.651757
0
LINE
8
hole
62
5
39
2
10
521.334166
20
290.651757
11
519.332240
21
287.917733
0
LINE
8
hole
62
5
39
2
10
519.332240
20
287.917733
11
517.946801
21
286.025640
0
LINE
8
hole
62
5
39
2
10
517.946801
20
286.025640
11
516.051924
21
284.200514
0
LINE
8
hole
62
5
39
2
10
516.051924
20
284.200514
11
514.198594
21
282.415376
0
LINE
8
hole
62
5
39
2
10
514.198594
20
282.415376
11
512.270921
21
281.080925
0
LINE
8
hole
62
5
39
2
10
512.270921
20
281.080925
11
509.588792
21
279.224193
0
LINE
8
hole
62
5
39
2
10
509.588792
20
279.224193
11
508.108262
21
278.440672
0
LINE
8
hole
62
5
39
2
10
508.108262
20
278.440672
11
507.327678
21
278.027565
0
LINE
8
hole
62
5
39
2
10
507.327678
20
278.027565
11
503.128579
21
276.688667
0
LINE
8
hole
62
5
39
2
10
503.128579
20
276.688667
11
500.625943
21
275.890728
0
LINE
8
hole
62
5
39
2
10
500.625943
20
275.890728
11
497.603537
21
275.568837
0
LINE
8
hole
62
5
39
2
10
497.603537
20
275.568837
11
494.006717
21
275.185758
0
LINE
8
hole
62
5
39
2
10
494.006717
20
275.185758
11
491.064227
21
275.499140
0
LINE
8
hole
62
5
39
2
10
491.064227
20
275.499140
11
487.387492
21
275.890728
0
LINE
8
hole
62
5
39
2
10
487.387492
20
275.890728
11
482.432862
21
277.470513
0
LINE
8
hole
62
5
39
2
10
482.432862
20
277.470513
11
480.685757
21
278.027566
0
LINE
8
hole
62
5
39
2
10
480.685757
20
278.027566
11
478.424643
21
279.224193
0
LINE
8
hole
62
5
39
2
10
478.424643
20
279.224193
11
473.814840
21
282.415376
0
LINE
8
boundary
62
5
39
2
10
431.799341
20
273.043853
11
431.860127
21
272.939990
0
LINE
8
boundary
62
5
39
2
10
431.860127
20
272.939990
11
431.988807
21
272.720118
0
LINE
8
boundary
62
5
39
2
10
431.988807
20
272.720118
11
434.934505
21
268.146933
0
LINE
8
boundary
62
5
39
2
10
434.934505
20
268.146933
11
436.427536
21
265.828998
0
LINE
8
boundary
62
5
39
2
10
436.427536
20
265.828998
11
438.146803
21
263.647006
0
LINE
8
boundary
62
5
39
2
10
438.146803
20
263.647006
11
440.715164
21
260.387398
0
LINE
8
boundary
62
5
39
2
10
440.715164
20
260.387398
11
441.517993
21
259.476073
0
LINE
8
boundary
62
5
39
2
10
441.517993
20
259.476073
11
442.100446
21
258.814901
0
LINE
8
boundary
62
5
39
2
10
442.100446
20
258.814901
11
445.284918
21
255.787982
0
LINE
8
boundary
62
5
39
2
10
445.284918
20
255.787982
11
448.693046
21
252.548525
0
LINE
8
boundary
62
5
39
2
10
448.693046
20
252.548525
11
448.996597
21
252.295493
0
LINE
8
boundary
62
5
39
2
10
448.996597
20
252.295493
11
449.308223
21
252.035724
0
LINE
8
boundary
62
5
39
2
10
449.308223
20
252.035724
11
451.405435
21
250.548136
0
LINE
8
boundary
62
5
39
2
10
451.405435
20
250.548136
11
455.329408
21
251.544658
0
LINE
8
boundary
62
5
39
2
10
455.329408
20
251.544658
11
463.503833
21
265.703175
0
LINE
8
boundary
62
5
39
2
10
463.503833
20
265.703175
11
464.018360
21
266.289882
0
LINE
8
boundary
62
5
39
2
10
464.018360
20
266.289882
11
464.718245
21
266.635027
0
LINE
8
boundary
62
5
39
2
10
464.718245
20
266.635027
11
465.496936
21
266.686065
0
LINE
8
boundary
62
5
39
2
10
465.496936
20
266.686065
11
466.235883
21
266.435226
0
LINE
8
boundary
62
5
39
2
10
466.235883
20
266.435226
11
466.822590
21
265.920698
0
LINE
8
boundary
62
5
39
2
10
466.822590
20
265.920698
11
467.167735
21
265.220813
0
LINE
8
boundary
62
5
39
2
10
467.167735
20
265.220813
11
467.218773
21
264.442123
0
LINE
8
boundary
62
5
39
2
10
467.218773
20
264.442123
11
466.967934
21
263.703175
0
LINE
8
boundary
62
5
39
2
10
466.967934
20
263.703175
11
469.999023
21
261.953175
0
LINE
8
boundary
62
5
39
2
10
469.999023
20
261.953175
11
470.513551
21
262.539882
0
LINE
8
boundary
62
5
39
2
10
470.513551
20
262.539882
11
471.213436
21
262.885027
0
LINE
8
boundary
62
5
39
2
10
471.213436
20
262.885027
11
471.992126
21
262.936065
0
LINE
8
boundary
62
5
39
2
10
471.992126
20
262.936065
11
472.731074
21
262.685226
0
LINE
8
boundary
62
5
39
2
10
472.731074
20
262.685226
11
473.317780
21
262.170698
0
LINE
8
boundary
62
5
39
2
10
473.317780
20
262.170698
11
473.662925
21
261.470813
0
LINE
8
boundary
62
5
39
2
10
473.662925
20
261.470813
11
473.713964
21
260.692123
0
LINE
8
boundary
62
5
39
2
10
473.713964
20
260.692123
11
473.463125
21
259.953175
0
LINE
8
boundary
62
5
39
2
10
473.463125
20
259.953175
11
465.301289
21
245.816460
0
LINE
8
boundary
62
5
39
2
10
465.301289
20
245.816460
11
466.400262
21
241.919939
0
LINE
8
boundary
62
5
39
2
10
466.400262
20
241.919939
11
469.604081
21
240.541612
0
LINE
8
boundary
62
5
39
2
10
469.604081
20
240.541612
11
470.575944
21
240.214235
0
LINE
8
boundary
62
5
39
2
10
470.575944
20
240.214235
11
473.251541
21
239.312960
0
LINE
8
boundary
62
5
39
2
10
473.251541
20
239.312960
11
475.318176
21
238.710190
0
LINE
8
boundary
62
5
39
2
10
475.318176
20
238.710190
11
475.922632
21
238.533890
0
LINE
8
boundary
62
5
39
2
10
475.922632
20
238.533890
11
480.360346
21
237.604727
0
LINE
8
boundary
62
5
39
2
10
480.360346
20
237.604727
11
482.051914
21
237.250560
0
LINE
8
boundary
62
5
39
2
10
482.051914
20
237.250560
11
485.593456
21
236.804156
0
LINE
8
boundary
62
5
39
2
10
485.593456
20
236.804156
11
488.059207
21
236.493366
0
LINE
8
boundary
62
5
39
2
10
488.059207
20
236.493366
11
491.116290
21
236.364720
0
LINE
8
boundary
62
5
39
2
10
491.116290
20
236.364720
11
494.006717
21
236.243058
0
LINE
8
boundary
62
5
39
2
10
494.006717
20
236.243058
11
497.063431
21
236.371689
0
LINE
8
boundary
62
5
39
2
10
497.063431
20
236.371689
11
499.954228
21
236.493366
0
LINE
8
boundary
62
5
39
2
10
499.954228
20
236.493366
11
503.627981
21
236.956433
0
LINE
8
boundary
62
5
39
2
10
503.627981
20
236.956433
11
505.961521
21
237.250560
0
LINE
8
boundary
62
5
39
2
10
505.961521
20
237.250560
11
511.101930
21
238.326846
0
LINE
8
boundary
62
5
39
2
10
511.101930
20
238.326846
11
512.090803
21
238.533890
0
LINE
8
boundary
62
5
39
2
10
512.090803
20
238.533890
11
514.761894
21
239.312960
0
LINE
8
boundary
62
5
39
2
10
514.761894
20
239.312960
11
518.409354
21
240.541612
0
LINE
8
boundary
62
5
39
2
10
518.409354
20
240.541612
11
520.880705
21
241.604812
0
LINE
8
boundary
62
5
39
2
10
520.880705
20
241.604812
11
524.992622
21
243.373808
0
LINE
8
boundary
62
5
39
2
10
524.992622
20
243.373808
11
529.117269
21
245.524506
0
LINE
8
boundary
62
5
39
2
10
529.117269
20
245.524506
11
531.928086
21
247.228624
0
LINE
8
boundary
62
5
39
2
10
531.928086
20
247.228624
11
538.705212
21
252.035724
0
LINE
8
boundary
62
5
39
2
10
538.705212
20
252.035724
11
539.320389
21
252.548525
0
LINE
8
boundary
62
5
39
2
10
539.320389
20
252.548525
11
545.912989
21
258.814901
0
LINE
8
boundary
62
5
39
2
10
545.912989
20
258.814901
11
547.298271
21
260.387397
0
LINE
8
boundary
62
5
39
2
10
547.298271
20
260.387397
11
551.585899
21
265.828998
0
LINE
8
boundary
62
5
39
2
10
551.585899
20
265.828998
11
556.024629
21
272.720119
0
LINE
8
boundary
62
5
39
2
10
556.024629
20
272.720119
11
556.214094
21
273.043853
0
LINE
8
boundary
62
5
39
2
10
556.214094
20
273.043853
11
556.322428
21
273.278814
0
LINE
8
boundary
62
5
39
2
10
556.322428
20
273.278814
11
559.617040
21
280.424313
0
LINE
8
boundary
62
5
39
2
10
559.617040
20
280.424313
11
560.948184
21
284.318941
0
LINE
8
boundary
62
5
39
2
10
560.948184
20
284.318941
11
562.183903
21
287.934425
0
LINE
8
boundary
62
5
39
2
10
562.183903
20
287.934425
11
563.528651
21
293.885097
0
LINE
8
boundary
62
5
39
2
10
563.528651
20
293.885097
11
563.902095
21
295.537591
0
LINE
8
boundary
62
5
39
2
10
563.902095
20
295.537591
11
564.222334
21
298.385722
0
LINE
8
boundary
62
5
39
2
10
564.222334
20
298.385722
11
561.397334
21
301.285722
0
LINE
8
boundary
62
5
39
2
10
561.397334
20
301.285722
11
545.033864
21
301.285722
0
LINE
8
boundary
62
5
39
2
10
545.033864
20
301.285722
11
544.268497
21
301.437963
0
LINE
8
boundary
62
5
39
2
10
544.268497
20
301.437963
11
543.619650
21
301.871508
0
LINE
8
boundary
62
5
39
2
10
543.619650
20
301.871508
11
543.186105
21
302.520355
0
LINE
8
boundary
62
5
39
2
10
543.186105
20
302.520355
11
543.033864
21
303.285722
0
LINE
8
boundary
62
5
39
2
10
543.033864
20
303.285722
11
543.186105
21
304.051089
0
LINE
8
boundary
62
5
39
2
10
543.186105
20
304.051089
11
543.619650
21
304.699935
0
LINE
8
boundary
62
5
39
2
10
543.619650
20
304.699935
11
544.268497
21
305.133481
0
LINE
8
boundary
62
5
39
2
10
544.268497
20
305.133481
11
545.033864
21
305.285722
0
LINE
8
boundary
62
5
39
2
10
545.033864
20
305.285722
11
545.033864
21
308.785722
0
LINE
8
boundary
62
5
39
2
10
545.033864
20
308.785722
11
544.268497
21
308.937963
0
LINE
8
boundary
62
5
39
2
10
544.268497
20
308.937963
11
543.619650
21
309.371508
0
LINE
8
boundary
62
5
39
2
10
543.619650
20
309.371508
11
543.186105
21
310.020355
0
LINE
8
boundary
62
5
39
2
10
543.186105
20
310.020355
11
543.033864
21
310.785722
0
LINE
8
boundary
62
5
39
2
10
543.033864
20
310.785722
11
543.186105
21
311.551089
0
LINE
8
boundary
62
5
39
2
10
543.186105
20
311.551089
11
543.619650
21
312.199935
0
LINE
8
boundary
62
5
39
2
10
543.619650
20
312.199935
11
544.268497
21
312.633481
0
LINE
8
boundary
62
5
39
2
10
544.268497
20
312.633481
11
545.033864
21
312.785722
0
LINE
8
boundary
62
5
39
2
10
545.033864
20
312.785722
11
561.397337
21
312.785722
0
LINE
8
boundary
62
5
39
2
10
561.397337
20
312.785722
11
564.222337
21
315.685722
0
LINE
8
boundary
62
5
39
2
10
564.222337
20
315.685722
11
564.043066
21
317.280122
0
LINE
8
boundary
62
5
39
2
10
564.043066
20
317.280122
11
563.902095
21
318.533853
0
LINE
8
boundary
62
5
39
2
10
563.902095
20
318.533853
11
562.694959
21
323.875598
0
LINE
8
boundary
62
5
39
2
10
562.694959
20
323.875598
11
562.183903
21
326.137019
0
LINE
8
boundary
62
5
39
2
10
562.183903
20
326.137019
11
560.857681
21
330.017227
0
LINE
8
boundary
62
5
39
2
10
560.857681
20
330.017227
11
559.617040
21
333.647131
0
LINE
8
boundary
62
5
39
2
10
559.617040
20
333.647131
11
558.644646
21
335.756112
0
LINE
8
boundary
62
5
39
2
10
558.644646
20
335.756112
11
556.214094
21
341.027591
0
LINE
8
boundary
62
5
39
2
10
556.214094
20
341.027591
11
556.153307
21
341.131454
0
LINE
8
boundary
62
5
39
2
10
556.153307
20
341.131454
11
556.024628
21
341.351325
0
LINE
8
boundary
62
5
39
2
10
556.024628
20
341.351325
11
553.078930
21
345.924511
0
LINE
8
boundary
62
5
39
2
10
553.078930
20
345.924511
11
551.585899
21
348.242445
0
LINE
8
boundary
62
5
39
2
10
551.585899
20
348.242445
11
549.866632
21
350.424437
0
LINE
8
boundary
62
5
39
2
10
549.866632
20
350.424437
11
547.298271
21
353.684046
0
LINE
8
boundary
62
5
39
2
10
547.298271
20
353.684046
11
546.495441
21
354.595370
0
LINE
8
boundary
62
5
39
2
10
546.495441
20
354.595370
11
545.912989
21
355.256543
0
LINE
8
boundary
62
5
39
2
10
545.912989
20
355.256543
11
542.728516
21
358.283461
0
LINE
8
boundary
62
5
39
2
10
542.728516
20
358.283461
11
539.320389
21
361.522919
0
LINE
8
boundary
62
5
39
2
10
539.320389
20
361.522919
11
539.016838
21
361.775951
0
LINE
8
boundary
62
5
39
2
10
539.016838
20
361.775951
11
538.705212
21
362.035720
0
LINE
8
boundary
62
5
39
2
10
538.705212
20
362.035720
11
534.873524
21
364.753601
0
LINE
8
boundary
62
5
39
2
10
534.873524
20
364.753601
11
531.928086
21
366.842819
0
LINE
8
boundary
62
5
39
2
10
531.928086
20
366.842819
11
530.784079
21
367.536401
0
LINE
8
boundary
62
5
39
2
10
530.784079
20
367.536401
11
529.117269
21
368.546938
0
LINE
8
boundary
62
5
39
2
10
529.117269
20
368.546938
11
526.451041
21
369.937181
0
LINE
8
boundary
62
5
39
2
10
526.451041
20
369.937181
11
524.992622
21
370.697635
0
LINE
8
boundary
62
5
39
2
10
524.992622
20
370.697635
11
521.953718
21
372.004998
0
LINE
8
boundary
62
5
39
2
10
521.953718
20
372.004998
11
518.409354
21
373.529832
0
LINE
8
boundary
62
5
39
2
10
518.409354
20
373.529832
11
517.437491
21
373.857209
0
LINE
8
boundary
62
5
39
2
10
517.437491
20
373.857209
11
514.761894
21
374.758484
0
LINE
8
boundary
62
5
39
2
10
514.761894
20
374.758484
11
512.695258
21
375.361253
0
LINE
8
boundary
62
5
39
2
10
512.695258
20
375.361253
11
512.090802
21
375.537554
0
LINE
8
boundary
62
5
39
2
10
512.090802
20
375.537554
11
507.653089
21
376.466716
0
LINE
8
boundary
62
5
39
2
10
507.653089
20
376.466716
11
505.961521
21
376.820884
0
LINE
8
boundary
62
5
39
2
10
505.961521
20
376.820884
11
502.419979
21
377.267288
0
LINE
8
boundary
62
5
39
2
10
502.419979
20
377.267288
11
499.954228
21
377.578078
0
LINE
8
boundary
62
5
39
2
10
499.954228
20
377.578078
11
496.897145
21
377.706724
0
LINE
8
boundary
62
5
39
2
10
496.897145
20
377.706724
11
494.006718
21
377.828386
0
LINE
8
boundary
62
5
39
2
10
494.006718
20
377.828386
11
490.950004
21
377.699755
0
LINE
8
boundary
62
5
39
2
10
490.950004
20
377.699755
11
488.059207
21
377.578078
0
LINE
8
boundary
62
5
39
2
10
488.059207
20
377.578078
11
484.385454
21
377.115011
0
LINE
8
boundary
62
5
39
2
10
484.385454
20
377.115011
11
482.051914
21
376.820884
0
LINE
8
boundary
62
5
39
2
10
482.051914
20
376.820884
11
476.911504
21
375.744597
0
LINE
8
boundary
62
5
39
2
10
476.911504
20
375.744597
11
475.922632
21
375.537554
0
LINE
8
boundary
62
5
39
2
10
475.922632
20
375.537554
11
473.251540
21
374.758484
0
LINE
8
boundary
62
5
39
2
10
473.251540
20
374.758484
11
469.604081
21
373.529832
0
LINE
8
boundary
62
5
39
2
10
469.604081
20
373.529832
11
467.132730
21
372.466632
0
LINE
8
boundary
62
5
39
2
10
467.132730
20
372.466632
11
466.400258
21
372.151513
0
LINE
8
boundary
62
5
39
2
10
466.400258
20
372.151513
11
465.301284
21
368.254991
0
LINE
8
boundary
62
5
39
2
10
465.301284
20
368.254991
11
473.463119
21
354.118278
0
LINE
8
boundary
62
5
39
2
10
473.463119
20
354.118278
11
473.713958
21
353.379330
0
LINE
8
boundary
62
5
39
2
10
473.713958
20
353.379330
11
473.662920
21
352.600639
0
LINE
8
boundary
62
5
39
2
10
473.662920
20
352.600639
11
473.317775
21
351.900755
0
LINE
8
boundary
62
5
39
2
10
473.317775
20
351.900755
11
472.731069
21
351.386227
0
LINE
8
boundary
62
5
39
2
10
472.731069
20
351.386227
11
471.992121
21
351.135388
0
LINE
8
boundary
62
5
39
2
10
471.992121
20
351.135388
11
471.213430
21
351.186426
0
LINE
8
boundary
62
5
39
2
10
471.213430
20
351.186426
11
470.513546
21
351.531571
0
LINE
8
boundary
62
5
39
2
10
470.513546
20
351.531571
11
469.999018
21
352.118278
0
LINE
8
boundary
62
5
39
2
10
469.999018
20
352.118278
11
466.967929
21
350.368277
0
LINE
8
boundary
62
5
39
2
10
466.967929
20
350.368277
11
467.218768
21
349.629330
0
LINE
8
boundary
62
5
39
2
10
467.218768
20
349.629330
11
467.167730
21
348.850639
0
LINE
8
boundary
62
5
39
2
10
467.167730
20
348.850639
11
466.822585
21
348.150755
0
LINE
8
boundary
62
5
39
2
10
466.822585
20
348.150755
11
466.235878
21
347.636227
0
LINE
8
boundary
62
5
39
2
10
466.235878
20
347.636227
11
465.496930
21
347.385388
0
LINE
8
boundary
62
5
39
2
10
465.496930
20
347.385388
11
464.718240
21
347.436426
0
LINE
8
boundary
62
5
39
2
10
464.718240
20
347.436426
11
464.018355
21
347.781571
0
LINE
8
boundary
62
5
39
2
10
464.018355
20
347.781571
11
463.503827
21
348.368277
0
LINE
8
boundary
62
5
39
2
10
463.503827
20
348.368277
11
455.329412
21
362.526779
0
LINE
8
boundary
62
5
39
2
10
455.329412
20
362.526779
11
451.405439
21
363.523301
0
LINE
8
boundary
62
5
39
2
10
451.405439
20
363.523301
11
449.308223
21
362.035720
0
LINE
8
boundary
62
5
39
2
10
449.308223
20
362.035720
11
448.693045
21
361.522919
0
LINE
8
boundary
62
5
39
2
10
448.693045
20
361.522919
11
442.100446
21
355.256543
0
LINE
8
boundary
62
5
39
2
10
442.100446
20
355.256543
11
440.715164
21
353.684046
0
LINE
8
boundary
62
5
39
2
10
440.715164
20
353.684046
11
436.427536
21
348.242445
0
LINE
8
boundary
62
5
39
2
10
436.427536
20
348.242445
11
431.988806
21
341.351325
0
LINE
8
boundary
62
5
39
2
10
431.988806
20
341.351325
11
431.799341
21
341.027591
0
LINE
8
boundary
62
5
39
2
10
431.799341
20
341.027591
11
431.691007
21
340.792630
0
LINE
8
boundary
62
5
39
2
10
431.691007
20
340.792630
11
428.396395
21
333.647130
0
LINE
8
boundary
62
5
39
2
10
428.396395
20
333.647130
11
427.065251
21
329.752502
0
LINE
8
boundary
62
5
39
2
10
427.065251
20
329.752502
11
425.829532
21
326.137019
0
LINE
8
boundary
62
5
39
2
10
425.829532
20
326.137019
11
424.484784
21
320.186347
0
LINE
8
boundary
62
5
39
2
10
424.484784
20
320.186347
11
424.111340
21
318.533853
0
LINE
8
boundary
62
5
39
2
10
424.111340
20
318.533853
11
423.338120
21
311.657002
0
LINE
8
boundary
62
5
39
2
10
423.338120
20
311.657002
11
423.250153
21
310.874667
0
LINE
8
boundary
62
5
39
2
10
423.250153
20
310.874667
11
423.250153
21
303.910924
0
LINE
8
boundary
62
5
39
2
10
423.250153
20
303.910924
11
423.250153
21
303.196777
0
LINE
8
boundary
62
5
39
2
10
423.250153
20
303.196777
11
423.970369
21
296.791322
0
LINE
8
boundary
62
5
39
2
10
423.970369
20
296.791322
11
424.111340
21
295.537591
0
LINE
8
boundary
62
5
39
2
10
424.111340
20
295.537591
11
425.318476
21
290.195845
0
LINE
8
boundary
62
5
39
2
10
425.318476
20
290.195845
11
425.829532
21
287.934424
0
LINE
8
boundary
62
5
39
2
10
425.829532
20
287.934424
11
427.155753
21
284.054217
0
LINE
8
boundary
62
5
39
2
10
427.155753
20
284.054217
11
428.396395
21
280.424313
0
LINE
8
boundary
62
5
39
2
10
428.396395
20
280.424313
11
429.368789
21
278.315333
0
LINE
8
boundary
62
5
39
2
10
429.368789
20
278.315333
11
431.799341
21
273.043853
0
LINE
8
annotation
62
1
39
211
10
530.046414
20
300.478098
11
530.046414
21
313.593346
0
LINE
8
annotation
62
1
39
211
10
530.046414
20
313.593346
11
527.130726
21
310.676836
0
LINE
8
annotation
62
1
39
211
10
479.797102
20
343.567454
11
482.444028
21
338.982844
0
LINE
8
annotation
62
1
39
211
10
482.444028
20
338.982844
11
473.178235
21
339.281675
0
LINE
8
annotation
62
1
39
211
10
473.178235
20
339.281675
11
473.178235
21
339.281675
0
LINE
8
annotation
62
1
39
211
10
473.178235
20
339.281675
11
473.169044
21
339.283121
0
LINE
8
annotation
62
1
39
211
10
473.169044
20
339.283121
11
473.159920
21
339.284329
0
LINE
8
annotation
62
1
39
211
10
473.159920
20
339.284329
11
473.150791
21
339.285300
0
LINE
8
annotation
62
1
39
211
10
473.150791
20
339.285300
11
473.141585
21
339.286034
0
LINE
8
annotation
62
1
39
211
10
473.141585
20
339.286034
11
473.132231
21
339.286533
0
LINE
8
annotation
62
1
39
211
10
473.132231
20
339.286533
11
473.122657
21
339.286799
0
LINE
8
annotation
62
1
39
211
10
473.122657
20
339.286799
11
473.112790
21
339.286832
0
LINE
8
annotation
62
1
39
211
10
473.112790
20
339.286832
11
473.102560
21
339.286633
0
LINE
8
annotation
62
1
39
211
10
473.102560
20
339.286633
11
473.091894
21
339.286205
0
LINE
8
annotation
62
1
39
211
10
473.091894
20
339.286205
11
473.091894
21
339.286205
0
LINE
8
annotation
62
1
39
211
10
473.091894
20
339.286205
11
472.615344
21
339.244291
0
LINE
8
annotation
62
1
39
211
10
472.615344
20
339.244291
11
472.167045
21
339.121711
0
LINE
8
annotation
62
1
39
211
10
472.167045
20
339.121711
11
471.754349
21
338.926046
0
LINE
8
annotation
62
1
39
211
10
471.754349
20
338.926046
11
471.384607
21
338.664881
0
LINE
8
annotation
62
1
39
211
10
471.384607
20
338.664881
11
471.065168
21
338.345797
0
LINE
8
annotation
62
1
39
211
10
471.065168
20
338.345797
11
470.803385
21
337.976378
0
LINE
8
annotation
62
1
39
211
10
470.803385
20
337.976378
11
470.606607
21
337.564207
0
LINE
8
annotation
62
1
39
211
10
470.606607
20
337.564207
11
470.482186
21
337.116866
0
LINE
8
annotation
62
1
39
211
10
470.482186
20
337.116866
11
470.437473
21
336.641940
0
LINE
8
annotation
62
1
39
211
10
470.437473
20
336.641940
11
470.437473
21
336.641940
0
LINE
8
annotation
62
1
39
211
10
470.437473
20
336.641940
11
470.482475
21
336.165780
0
LINE
8
annotation
62
1
39
211
10
470.482475
20
336.165780
11
470.606974
21
335.717794
0
LINE
8
annotation
62
1
39
211
10
470.606974
20
335.717794
11
470.803674
21
335.305390
0
LINE
8
annotation
62
1
39
211
10
470.803674
20
335.305390
11
471.065277
21
334.935978
0
LINE
8
annotation
62
1
39
211
10
471.065277
20
334.935978
11
471.384487
21
334.616968
0
LINE
8
annotation
62
1
39
211
10
471.384487
20
334.616968
11
471.754006
21
334.355768
0
LINE
8
annotation
62
1
39
211
10
471.754006
20
334.355768
11
472.166537
21
334.159788
0
LINE
8
annotation
62
1
39
211
10
472.166537
20
334.159788
11
472.614784
21
334.036437
0
LINE
8
annotation
62
1
39
211
10
472.614784
20
334.036437
11
473.091449
21
333.993125
0
LINE
8
annotation
62
1
39
211
10
473.091449
20
333.993125
11
473.842690
21
334.025490
0
LINE
8
annotation
62
1
39
211
10
472.121677
20
281.049465
11
470.798133
21
278.757020
0
LINE
8
annotation
62
1
39
211
10
470.798133
20
278.757020
11
470.798133
21
278.757020
0
LINE
8
annotation
62
1
39
211
10
470.798133
20
278.757020
11
470.597077
21
278.323364
0
LINE
8
annotation
62
1
39
211
10
470.597077
20
278.323364
11
470.479683
21
277.873859
0
LINE
8
annotation
62
1
39
211
10
470.479683
20
277.873859
11
470.443135
21
277.418735
0
LINE
8
annotation
62
1
39
211
10
470.443135
20
277.418735
11
470.484614
21
276.968222
0
LINE
8
annotation
62
1
39
211
10
470.484614
20
276.968222
11
470.601303
21
276.532552
0
LINE
8
annotation
62
1
39
211
10
470.601303
20
276.532552
11
470.790384
21
276.121954
0
LINE
8
annotation
62
1
39
211
10
470.790384
20
276.121954
11
471.049038
21
275.746659
0
LINE
8
annotation
62
1
39
211
10
471.049038
20
275.746659
11
471.374449
21
275.416897
0
LINE
8
annotation
62
1
39
211
10
471.374449
20
275.416897
11
471.763797
21
275.142899
0
LINE
8
annotation
62
1
39
211
10
471.763797
20
275.142899
11
472.911639
21
274.480193
0
LINE
8
annotation
62
1
39
211
10
472.911639
20
274.480193
11
472.911639
21
274.480193
0
LINE
8
annotation
62
1
39
211
10
472.911639
20
274.480193
11
473.343432
21
274.280104
0
LINE
8
annotation
62
1
39
211
10
473.343432
20
274.280104
11
473.791628
21
274.163223
0
LINE
8
annotation
62
1
39
211
10
473.791628
20
274.163223
11
474.245944
21
274.126885
0
LINE
8
annotation
62
1
39
211
10
474.245944
20
274.126885
11
474.696094
21
274.168423
0
LINE
8
annotation
62
1
39
211
10
474.696094
20
274.168423
11
475.131793
21
274.285172
0
LINE
8
annotation
62
1
39
211
10
475.131793
20
274.285172
11
475.542757
21
274.474466
0
LINE
8
annotation
62
1
39
211
10
475.542757
20
274.474466
11
475.918701
21
274.733640
0
LINE
8
annotation
62
1
39
211
10
475.918701
20
274.733640
11
476.249341
21
275.060027
0
LINE
8
annotation
62
1
39
211
10
476.249341
20
275.060027
11
476.524391
21
275.450963
0
LINE
8
annotation
62
1
39
211
10
476.524391
20
275.450963
11
477.187097
21
276.598804
0
LINE
8
annotation
62
1
39
211
10
477.187097
20
276.598804
11
476.524391
21
275.450963
0
LINE
8
annotation
62
1
39
211
10
476.524391
20
275.450963
11
476.524391
21
275.450963
0
LINE
8
annotation
62
1
39
211
10
476.524391
20
275.450963
11
476.323365
21
275.017290
0
LINE
8
annotation
62
1
39
211
10
476.323365
20
275.017290
11
476.206087
21
274.567718
0
LINE
8
annotation
62
1
39
211
10
476.206087
20
274.567718
11
476.169777
21
274.112456
0
LINE
8
annotation
62
1
39
211
10
476.169777
20
274.112456
11
476.211654
21
273.661714
0
LINE
8
annotation
62
1
39
211
10
476.211654
20
273.661714
11
476.328938
21
273.225700
0
LINE
8
annotation
62
1
39
211
10
476.328938
20
273.225700
11
476.518848
21
272.814623
0
LINE
8
annotation
62
1
39
211
10
476.518848
20
272.814623
11
476.778603
21
272.438693
0
LINE
8
annotation
62
1
39
211
10
476.778603
20
272.438693
11
477.105424
21
272.108117
0
LINE
8
annotation
62
1
39
211
10
477.105424
20
272.108117
11
477.496529
21
271.833105
0
LINE
8
annotation
62
1
39
211
10
477.496529
20
271.833105
11
477.496529
21
271.833105
0
LINE
8
annotation
62
1
39
211
10
477.496529
20
271.833105
11
477.928323
21
271.633016
0
LINE
8
annotation
62
1
39
211
10
477.928323
20
271.633016
11
478.376519
21
271.516135
0
LINE
8
annotation
62
1
39
211
10
478.376519
20
271.516135
11
478.830835
21
271.479797
0
LINE
8
annotation
62
1
39
211
10
478.830835
20
271.479797
11
479.280985
21
271.521335
0
LINE
8
annotation
62
1
39
211
10
479.280985
20
271.521335
11
479.716684
21
271.638084
0
LINE
8
annotation
62
1
39
211
10
479.716684
20
271.638084
11
480.127648
21
271.827378
0
LINE
8
annotation
62
1
39
211
10
480.127648
20
271.827378
11
480.503592
21
272.086552
0
LINE
8
annotation
62
1
39
211
10
480.503592
20
272.086552
11
480.834232
21
272.412939
0
LINE
8
annotation
62
1
39
211
10
480.834232
20
272.412939
11
481.109282
21
272.803875
0
LINE
8
annotation
62
1
39
211
10
481.109282
20
272.803875
11
482.432826
21
275.096320
0
LINE
8
annotation
62
1
39
211
10
491.576294
20
345.851681
11
483.085013
21
345.851681
0
LINE
8
annotation
62
1
39
211
10
483.085013
20
345.851681
11
491.576294
21
361.144426
0
LINE
8
annotation
62
1
39
211
10
491.576294
20
361.144426
11
483.085013
21
361.144426
0
LINE
8
annotation
62
1
39
211
10
505.674323
20
353.498053
11
497.312512
21
353.498053
0
LINE
8
annotation
62
1
39
211
10
516.508761
20
361.144426
11
516.508761
21
361.144426
0
LINE
8
annotation
62
1
39
211
10
516.508761
20
361.144426
11
515.535911
21
360.779665
0
LINE
8
annotation
62
1
39
211
10
515.535911
20
360.779665
11
514.643193
21
360.288194
0
LINE
8
annotation
62
1
39
211
10
514.643193
20
360.288194
11
513.839772
21
359.682326
0
LINE
8
annotation
62
1
39
211
10
513.839772
20
359.682326
11
513.134811
21
358.974374
0
LINE
8
annotation
62
1
39
211
10
513.134811
20
358.974374
11
512.537476
21
358.176652
0
LINE
8
annotation
62
1
39
211
10
512.537476
20
358.176652
11
512.056929
21
357.301473
0
LINE
8
annotation
62
1
39
211
10
512.056929
20
357.301473
11
511.702335
21
356.361150
0
LINE
8
annotation
62
1
39
211
10
511.702335
20
356.361150
11
511.482859
21
355.367998
0
LINE
8
annotation
62
1
39
211
10
511.482859
20
355.367998
11
511.407663
21
354.334330
0
LINE
8
annotation
62
1
39
211
10
511.407663
20
354.334330
11
511.407663
21
349.251454
0
LINE
8
annotation
62
1
39
211
10
511.407663
20
349.251454
11
511.407663
21
349.251454
0
LINE
8
annotation
62
1
39
211
10
511.407663
20
349.251454
11
511.462491
21
348.640555
0
LINE
8
annotation
62
1
39
211
10
511.462491
20
348.640555
11
511.620524
21
348.065492
0
LINE
8
annotation
62
1
39
211
10
511.620524
20
348.065492
11
511.872084
21
347.535886
0
LINE
8
annotation
62
1
39
211
10
511.872084
20
347.535886
11
512.207495
21
347.061359
0
LINE
8
annotation
62
1
39
211
10
512.207495
20
347.061359
11
512.617078
21
346.651533
0
LINE
8
annotation
62
1
39
211
10
512.617078
20
346.651533
11
513.091158
21
346.316031
0
LINE
8
annotation
62
1
39
211
10
513.091158
20
346.316031
11
513.620056
21
346.064473
0
LINE
8
annotation
62
1
39
211
10
513.620056
20
346.064473
11
514.194096
21
345.906483
0
LINE
8
annotation
62
1
39
211
10
514.194096
20
345.906483
11
514.803600
21
345.851681
0
LINE
8
annotation
62
1
39
211
10
514.803600
20
345.851681
11
514.803600
21
345.851681
0
LINE
8
annotation
62
1
39
211
10
514.803600
20
345.851681
11
515.414368
21
345.906483
0
LINE
8
annotation
62
1
39
211
10
515.414368
20
345.906483
11
515.989079
21
346.064473
0
LINE
8
annotation
62
1
39
211
10
515.989079
20
346.064473
11
516.518174
21
346.316031
0
LINE
8
annotation
62
1
39
211
10
516.518174
20
346.316031
11
516.992096
21
346.651533
0
LINE
8
annotation
62
1
39
211
10
516.992096
20
346.651533
11
517.401285
21
347.061359
0
LINE
8
annotation
62
1
39
211
10
517.401285
20
347.061359
11
517.736182
21
347.535886
0
LINE
8
annotation
62
1
39
211
10
517.736182
20
347.535886
11
517.987229
21
348.065492
0
LINE
8
annotation
62
1
39
211
10
517.987229
20
348.065492
11
518.144867
21
348.640555
0
LINE
8
annotation
62
1
39
211
10
518.144867
20
348.640555
11
518.199537
21
349.251454
0
LINE
8
annotation
62
1
39
211
10
518.199537
20
349.251454
11
518.199537
21
350.943189
0
LINE
8
annotation
62
1
39
211
10
518.199537
20
350.943189
11
518.199537
21
350.943189
0
LINE
8
annotation
62
1
39
211
10
518.199537
20
350.943189
11
518.144867
21
351.553792
0
LINE
8
annotation
62
1
39
211
10
518.144867
20
351.553792
11
517.987229
21
352.128062
0
LINE
8
annotation
62
1
39
211
10
517.987229
20
352.128062
11
517.736182
21
352.656519
0
LINE
8
annotation
62
1
39
211
10
517.736182
20
352.656519
11
517.401285
21
353.129685
0
LINE
8
annotation
62
1
39
211
10
517.401285
20
353.129685
11
516.992096
21
353.538077
0
LINE
8
annotation
62
1
39
211
10
516.992096
20
353.538077
11
516.518174
21
353.872218
0
LINE
8
annotation
62
1
39
211
10
516.518174
20
353.872218
11
515.989079
21
354.122627
0
LINE
8
annotation
62
1
39
211
10
515.989079
20
354.122627
11
515.414368
21
354.279825
0
LINE
8
annotation
62
1
39
211
10
515.414368
20
354.279825
11
514.803600
21
354.334330
0
LINE
8
annotation
62
1
39
211
10
514.803600
20
354.334330
11
511.407663
21
354.334330
0
LINE
8
annotation
62
1
39
211
10
510.982332
20
343.940088
11
518.628704
21
343.940088
0
LINE
8
frame
62
5
39
2
10
0.000000
20
0.000000
11
600.000000
21
0.000000
0
LINE
8
frame
62
5
39
2
10
600.000000
20
0.000000
11
600.000000
21
1000.000000
0
LINE
8
frame
62
5
39
2
10
600.000000
20
1000.000000
11
0.000000
21
1000.000000
0
LINE
8
frame
62
5
39
2
10
0.000000
20
1000.000000
11
0.000000
21
0.000000
0
ENDSEC
0
EOF
