0
SECTION
2
HEADER
9
$INSUNITS
70
4
9
$ACADVER
1
AC1014
9
$HANDSEED
5
FFFF
0
ENDSEC
0
SECTION
2
TABLES
0
TABLE
2
VPORT
5
8
100
AcDbSymbolTable
0
ENDTAB
0
TABLE
2
LTYPE
5
5
100
AcDbSymbolTable
0
LTYPE
5
14
100
AcDbSymbolTableRecord
100
AcDbLinetypeTableRecord
2
BYBLOCK
70
0
0
LTYPE
5
15
100
AcDbSymbolTableRecord
100
AcDbLinetypeTableRecord
2
BYLAYER
70
0
0
ENDTAB
0
TABLE
2
LAYER
5
2
100
AcDbSymbolTable
70
2
0
LAYER
5
50
100
AcDbSymbolTableRecord
100
AcDbLayerTableRecord
2
0
70
0
6
CONTINUOUS
0
ENDTAB
0
TABLE
2
STYLE
5
3
100
AcDbSymbolTable
70
1
0
STYLE
5
11
100
AcDbSymbolTableRecord
100
AcDbTextStyleTableRecord
2
STANDARD
70
0
0
ENDTAB
0
TABLE
2
VIEW
5
6
100
AcDbSymbolTable
70
0
0
ENDTAB
0
TABLE
2
UCS
5
7
100
AcDbSymbolTable
70
0
0
ENDTAB
0
TABLE
2
APPID
5
9
100
AcDbSymbolTable
70
2
0
APPID
5
12
100
AcDbSymbolTableRecord
100
AcDbRegAppTableRecord
2
ACAD
70
0
0
ENDTAB
0
TABLE
2
DIMSTYLE
5
A
100
AcDbSymbolTable
70
1
0
ENDTAB
0
TABLE
2
BLOCK_RECORD
5
1
100
AcDbSymbolTable
70
1
0
BLOCK_RECORD
5
1F
100
AcDbSymbolTableRecord
100
AcDbBlockTableRecord
2
*MODEL_SPACE
0
BLOCK_RECORD
5
1B
100
AcDbSymbolTableRecord
100
AcDbBlockTableRecord
2
*PAPER_SPACE
0
ENDTAB
0
ENDSEC
0
SECTION
2
BLOCKS
0
BLOCK
5
20
100
AcDbEntity
100
AcDbBlockBegin
2
*MODEL_SPACE
0
ENDBLK
5
21
100
AcDbEntity
100
AcDbBlockEnd
0
BLOCK
5
1C
100
AcDbEntity
100
AcDbBlockBegin
2
*PAPER_SPACE
0
ENDBLK
5
1D
100
AcDbEntity
100
AcDbBlockEnd
0
ENDSEC
0
SECTION
2
ENTITIES
0
CIRCLE
5
100
100
AcDbEntity
8
0
100
AcDbCircle
10
-20.000000298023224
20
0
30
0
40
2.5
0
SPLINE
5
101
100
AcDbEntity
8
0
100
AcDbSpline
70
1064
71
3
72
8
73
4
74
0
42
0.000000001
43
0.0000000001
44
0.0000000001
40
-0.78228714307276359
40
-0.78228714307276359
40
-0.78228714307276359
40
-0.78228714307276359
40
-0
40
-0
40
-0
40
-0
10
-16.50502809904313
20
3.5756355139130509
30
0
10
-14.651852514083828
20
3.9170914102428838
30
0
10
-12.955525141794556
20
4.4854722409041372
30
0
10
-11.232243982950846
20
5.3341457684834825
30
0
0
SPLINE
5
102
100
AcDbEntity
8
0
100
AcDbSpline
70
1064
71
3
72
8
73
4
74
0
42
0.000000001
43
0.0000000001
44
0.0000000001
40
-1
40
-1
40
-1
40
-1
40
-0
40
-0
40
-0
40
-0
10
-11.232243982950846
20
5.3341457684834825
30
0
10
-7.215782101949058
20
7.3121581077575737
30
0
10
-4.0311593850453704
20
10.496108627319343
30
0
10
-2.0604552994171783
20
14.504007562001551
30
0
0
SPLINE
5
103
100
AcDbEntity
8
0
100
AcDbSpline
70
1064
71
3
72
8
73
4
74
0
42
0.000000001
43
0.0000000001
44
0.0000000001
40
-1
40
-1
40
-1
40
-1
40
-0
40
-0
40
-0
40
-0
10
-2.0604552994171783
20
14.504007562001551
30
0
10
-0.97449942429860448
20
16.712557347615569
30
0
10
-0.34855876589814827
20
18.868829154968267
30
0
10
-0.068375609566768025
20
21.366423797607432
30
0
0
SPLINE
5
104
100
AcDbEntity
8
0
100
AcDbSpline
70
1064
71
3
72
8
73
4
74
0
42
0.000000001
43
0.0000000001
44
0.0000000001
40
-1
40
-1
40
-1
40
-1
40
-0
40
-0
40
-0
40
-0
10
-0.068375609566768025
20
21.366423797607432
30
0
10
0.022791872483988607
20
22.179100290934251
30
0
10
0.022791872483988607
20
24.684006341298428
30
0
10
-0.068375609566768025
20
25.496682834625251
30
0
0
SPLINE
5
105
100
AcDbEntity
8
0
100
AcDbSpline
70
1064
71
3
72
8
73
4
74
0
42
0.000000001
43
0.0000000001
44
0.0000000001
40
-1
40
-1
40
-1
40
-1
40
-0
40
-0
40
-0
40
-0
10
-0.068375609566768025
20
25.496682834625251
30
0
10
-0.44158362994591405
20
28.823506577809663
30
0
10
-1.5512779245773953
20
31.906603272755952
30
0
10
-3.3446473181247716
20
34.599232037862151
30
0
0
SPLINE
5
106
100
AcDbEntity
8
0
100
AcDbSpline
70
1064
71
3
72
8
73
4
74
0
42
0.000000001
43
0.0000000001
44
0.0000000001
40
-1
40
-1
40
-1
40
-1
40
-0
40
-0
40
-0
40
-0
10
-3.3446473181247716
20
34.599232037862151
30
0
10
-6.6836228450139377
20
39.612508074442559
30
0
10
-11.964348642031354
20
42.821235020955413
30
0
10
-18.022664451599123
20
43.518043263753263
30
0
0
SPLINE
5
107
100
AcDbEntity
8
0
100
AcDbSpline
70
1064
71
3
72
8
73
4
74
0
42
0.000000001
43
0.0000000001
44
0.0000000001
40
-1
40
-1
40
-1
40
-1
40
-0
40
-0
40
-0
40
-0
10
-18.022664451599123
20
43.518043263753263
30
0
10
-18.742648363113407
20
43.600838597615578
30
0
10
-21.493772427241012
20
43.602768389383961
30
0
10
-22.222926886876429
20
43.520966211954772
30
0
0
SPLINE
5
108
100
AcDbEntity
8
0
100
AcDbSpline
70
1064
71
3
72
8
73
4
74
0
42
0.000000001
43
0.0000000001
44
0.0000000001
40
-1
40
-1
40
-1
40
-1
40
-0
40
-0
40
-0
40
-0
10
-22.222926886876429
20
43.520966211954772
30
0
10
-24.715913041432703
20
43.241299819946299
30
0
10
-27.022514820098881
20
42.566647847493499
30
0
10
-29.188358879089357
20
41.483663241068534
30
0
0
SPLINE
5
109
100
AcDbEntity
8
0
100
AcDbSpline
70
1064
71
3
72
8
73
4
74
0
42
0.000000001
43
0.0000000001
44
0.0000000001
40
-1
40
-1
40
-1
40
-1
40
-0
40
-0
40
-0
40
-0
10
-29.188358879089357
20
41.483663241068534
30
0
10
-33.138148069381714
20
39.508662668863941
30
0
10
-36.308454799652104
20
36.318143590291349
30
0
10
-38.255162525177006
20
32.359095033009851
30
0
0
SPLINE
5
110
100
AcDbEntity
8
0
100
AcDbSpline
70
1064
71
3
72
8
73
4
74
0
42
0.000000001
43
0.0000000001
44
0.0000000001
40
-1
40
-1
40
-1
40
-1
40
-0
40
-0
40
-0
40
-0
10
-38.255162525177006
20
32.359095033009851
30
0
10
-39.348736763000495
20
30.135066541035975
30
0
10
-39.992806784311938
20
27.905151780446378
30
0
10
-40.247365697224936
20
25.461676088968925
30
0
0
SPLINE
5
111
100
AcDbEntity
8
0
100
AcDbSpline
70
1064
71
3
72
8
73
4
74
0
42
0.000000001
43
0.0000000001
44
0.0000000001
40
-1
40
-1
40
-1
40
-1
40
-0
40
-0
40
-0
40
-0
10
-40.247365697224936
20
25.461676088968925
30
0
10
-40.337524922688807
20
24.595990880330412
30
0
10
-40.337456289927175
20
22.170787652333583
30
0
10
-40.247224394480398
20
21.366423797607432
30
0
0
SPLINE
5
112
100
AcDbEntity
8
0
100
AcDbSpline
70
1064
71
3
72
8
73
4
74
0
42
0.000000001
43
0.0000000001
44
0.0000000001
40
-1
40
-1
40
-1
40
-1
40
-0
40
-0
40
-0
40
-0
10
-40.247224394480398
20
21.366423797607432
30
0
10
-39.967041238149015
20
18.868829154968267
30
0
10
-39.341098340352382
20
16.712557347615569
30
0
10
-38.255142339070645
20
14.504007562001551
30
0
0
SPLINE
5
113
100
AcDbEntity
8
0
100
AcDbSpline
70
1064
71
3
72
8
73
4
74
0
42
0.000000001
43
0.0000000001
44
0.0000000001
40
-1
40
-1
40
-1
40
-1
40
-0
40
-0
40
-0
40
-0
10
-38.255142339070645
20
14.504007562001551
30
0
10
-36.284437370300296
20
10.496108627319343
30
0
10
-33.09981667200725
20
7.3121581077575737
30
0
10
-29.083350753784181
20
5.3341457684834825
30
0
0
SPLINE
5
114
100
AcDbEntity
8
0
100
AcDbSpline
70
1064
71
3
72
8
73
4
74
0
42
0.000000001
43
0.0000000001
44
0.0000000001
40
-1
40
-1
40
-1
40
-1
40
-0.18021325173303676
40
-0.18021325173303676
40
-0.18021325173303676
40
-0.18021325173303676
10
-29.083350753784181
20
5.3341457684834825
30
0
10
-27.277460979651416
20
4.4447903474270332
30
0
10
-25.501172390099029
20
3.8632438345533568
30
0
10
-23.542962462349109
20
3.5280900076606914
30
0
0
ARC
5
115
100
AcDbEntity
8
0
100
AcDbCircle
10
-20.000000298023224
20
0
30
0
40
4.9999999999999947
100
AcDbArc
50
-224.87949310343473
51
45.653616663477258
0
SPLINE
5
116
100
AcDbEntity
8
0
100
AcDbSpline
70
1064
71
3
72
8
73
4
74
0
42
0.000000001
43
0.0000000001
44
0.0000000001
40
0
40
0
40
0
40
0
40
1
40
1
40
1
40
1
10
-25.687193791071579
20
36.506060091654469
30
0
10
-25.761113293965661
20
36.82487138112387
30
0
10
-25.757271877924602
20
36.898300361633304
30
0
10
-25.658793958028163
20
37.048589960734056
30
0
0
SPLINE
5
117
100
AcDbEntity
8
0
100
AcDbSpline
70
1064
71
3
72
8
73
4
74
0
42
0.000000001
43
0.0000000001
44
0.0000000001
40
0
40
0
40
0
40
0
40
1
40
1
40
1
40
1
10
-25.658793958028163
20
37.048589960734056
30
0
10
-25.512761608759568
20
37.271460723876963
30
0
10
-25.434596967697146
20
37.267342758178721
30
0
10
-24.978590806325279
20
37.012747510274259
30
0
0
SPLINE
5
118
100
AcDbEntity
8
0
100
AcDbSpline
70
1064
71
3
72
8
73
4
74
0
42
0.000000001
43
0.0000000001
44
0.0000000001
40
0
40
0
40
0
40
0
40
1
40
1
40
1
40
1
10
-24.978590806325279
20
37.012747510274259
30
0
10
-24.028309663136802
20
36.482183965047213
30
0
10
-23.12348359425863
20
36.082216453552256
30
0
10
-22.491547441482549
20
35.913379859924326
30
0
0
SPLINE
5
119
100
AcDbEntity
8
0
100
AcDbSpline
70
1064
71
3
72
8
73
4
74
0
42
0.000000001
43
0.0000000001
44
0.0000000001
40
0
40
0
40
0
40
0
40
1
40
1
40
1
40
1
10
-22.491547441482549
20
35.913379859924326
30
0
10
-21.866856082280481
20
35.746473058064787
30
0
10
-21.679371563593548
20
35.728975741068531
30
0
10
-20.472815688451135
20
35.724962743123385
30
0
0
SPLINE
5
120
100
AcDbEntity
8
0
100
AcDbSpline
70
1064
71
3
72
8
73
4
74
0
42
0.000000001
43
0.0000000001
44
0.0000000001
40
0
40
0
40
0
40
0
40
1
40
1
40
1
40
1
10
-20.472815688451135
20
35.724962743123385
30
0
10
-19.346317911148073
20
35.721208127339693
30
0
10
-19.034016640981044
20
35.744381777445483
30
0
10
-18.432434336344404
20
35.876285870869964
30
0
0
SPLINE
5
121
100
AcDbEntity
8
0
100
AcDbSpline
70
1064
71
3
72
8
73
4
74
0
42
0.000000001
43
0.0000000001
44
0.0000000001
40
0
40
0
40
0
40
0
40
1
40
1
40
1
40
1
10
-18.432434336344404
20
35.876285870869964
30
0
10
-17.590302276611332
20
36.060940297444674
30
0
10
-16.650553234418236
20
36.369375928243016
30
0
10
-15.782526437441511
20
36.746024449666351
30
0
0
SPLINE
5
122
100
AcDbEntity
8
0
100
AcDbSpline
70
1064
71
3
72
8
73
4
74
0
42
0.000000001
43
0.0000000001
44
0.0000000001
40
0
40
0
40
0
40
0
40
1
40
1
40
1
40
1
10
-15.782526437441511
20
36.746024449666351
30
0
10
-15.30031265417735
20
36.955265553792323
30
0
10
-15.098350660006208
20
37.00948543548585
30
0
10
-14.921752508481346
20
36.977123069763195
30
0
0
SPLINE
5
123
100
AcDbEntity
8
0
100
AcDbSpline
70
1064
71
3
72
8
73
4
74
0
42
0.000000001
43
0.0000000001
44
0.0000000001
40
0
40
0
40
0
40
0
40
1
40
1
40
1
40
1
10
-14.921752508481346
20
36.977123069763195
30
0
10
-14.259066859881084
20
36.855675379435233
30
0
10
-14.582143473625184
20
36.007406743367525
30
0
10
-15.844860124588017
20
34.553417650858577
30
0
0
SPLINE
5
124
100
AcDbEntity
8
0
100
AcDbSpline
70
1064
71
3
72
8
73
4
74
0
42
0.000000001
43
0.0000000001
44
0.0000000001
40
0
40
0
40
0
40
0
40
1
40
1
40
1
40
1
10
-15.844860124588017
20
34.553417650858577
30
0
10
-17.691521469751997
20
32.42702935536704
30
0
10
-20.14900430043539
20
31.82140175501506
30
0
10
-22.379674021402998
20
32.942962010701507
30
0
0
SPLINE
5
125
100
AcDbEntity
8
0
100
AcDbSpline
70
1064
71
3
72
8
73
4
74
0
42
0.000000001
43
0.0000000001
44
0.0000000001
40
0
40
0
40
0
40
0
40
1
40
1
40
1
40
1
10
-22.379674021402998
20
32.942962010701507
30
0
10
-23.137892436981208
20
33.324188741048182
30
0
10
-23.954267024993896
20
33.953421974182135
30
0
10
-24.635951836903892
20
34.682019297281911
30
0
0
SPLINE
5
126
100
AcDbEntity
8
0
100
AcDbSpline
70
1064
71
3
72
8
73
4
74
0
42
0.000000001
43
0.0000000001
44
0.0000000001
40
0
40
0
40
0
40
0
40
1
40
1
40
1
40
1
10
-24.635951836903892
20
34.682019297281911
30
0
10
-25.233987442652392
20
35.321208318074554
30
0
10
-25.53261666297913
20
35.839377593994151
30
0
10
-25.687193791071579
20
36.506060091654469
30
0
0
SPLINE
5
127
100
AcDbEntity
8
0
100
AcDbSpline
70
1064
71
3
72
8
73
4
74
0
42
0.000000001
43
0.0000000001
44
0.0000000001
40
0
40
0
40
0
40
0
40
1
40
1
40
1
40
1
10
-15.800813031196597
20
25.958242193857835
30
0
10
-15.720782184600832
20
27.076806831359875
30
0
10
-14.859634812672935
20
27.734219868977874
30
0
10
-13.367378918329877
20
27.815965525309252
30
0
0
SPLINE
5
128
100
AcDbEntity
8
0
100
AcDbSpline
70
1064
71
3
72
8
73
4
74
0
42
0.000000001
43
0.0000000001
44
0.0000000001
40
0
40
0
40
0
40
0
40
1
40
1
40
1
40
1
10
-13.367378918329877
20
27.815965525309252
30
0
10
-12.805332112312319
20
27.84675337473552
30
0
10
-12.748227636019392
20
27.836232376098646
30
0
10
-12.337391924858094
20
27.626353391011563
30
0
0
SPLINE
5
129
100
AcDbEntity
8
0
100
AcDbSpline
70
1064
71
3
72
8
73
4
74
0
42
0.000000001
43
0.0000000001
44
0.0000000001
40
0
40
0
40
0
40
0
40
1
40
1
40
1
40
1
10
-12.337391924858094
20
27.626353391011563
30
0
10
-11.774969657262169
20
27.339012241363534
30
0
10
-11.310366233189901
20
26.878773053487155
30
0
10
-11.157249569892883
20
26.457291189829519
30
0
0
SPLINE
5
130
100
AcDbEntity
8
0
100
AcDbSpline
70
1064
71
3
72
8
73
4
74
0
42
0.000000001
43
0.0000000001
44
0.0000000001
40
0
40
0
40
0
40
0
40
1
40
1
40
1
40
1
10
-11.157249569892883
20
26.457291189829519
30
0
10
-10.999092435836793
20
26.021933396657317
30
0
10
-10.83198175430298
20
25.881639957427993
30
0
10
-10.471944379806519
20
25.881950823465996
30
0
0
SPLINE
5
131
100
AcDbEntity
8
0
100
AcDbSpline
70
1064
71
3
72
8
73
4
74
0
42
0.000000001
43
0.0000000001
44
0.0000000001
40
0
40
0
40
0
40
0
40
1
40
1
40
1
40
1
10
-10.471944379806519
20
25.881950823465996
30
0
10
-10.312573051452638
20
25.882092126210541
30
0
10
-9.4585079749425276
20
25.991642125447598
30
0
10
-8.5740224361419699
20
26.125407377878833
30
0
0
SPLINE
5
132
100
AcDbEntity
8
0
100
AcDbSpline
70
1064
71
3
72
8
73
4
74
0
42
0.000000001
43
0.0000000001
44
0.0000000001
40
0
40
0
40
0
40
0
40
1
40
1
40
1
40
1
10
-8.5740224361419699
20
26.125407377878833
30
0
10
-7.6150955835978191
20
26.270428403218595
30
0
10
-6.940299785137177
20
26.343049939473477
30
0
10
-6.9025436917940786
20
26.305293846130382
30
0
0
SPLINE
5
133
100
AcDbEntity
8
0
100
AcDbSpline
70
1064
71
3
72
8
73
4
74
0
42
0.000000001
43
0.0000000001
44
0.0000000001
40
0
40
0
40
0
40
0
40
1
40
1
40
1
40
1
10
-6.9025436917940786
20
26.305293846130382
30
0
10
-6.7396130482355767
20
26.142363707224536
30
0
10
-7.1201529463132225
20
25.516929499308276
30
0
10
-7.642789912223817
20
25.088665103912362
30
0
0
SPLINE
5
134
100
AcDbEntity
8
0
100
AcDbSpline
70
1064
71
3
72
8
73
4
74
0
42
0.000000001
43
0.0000000001
44
0.0000000001
40
0
40
0
40
0
40
0
40
1
40
1
40
1
40
1
10
-7.642789912223817
20
25.088665103912362
30
0
10
-8.1779942433039352
20
24.650105794270843
30
0
10
-9.9831458886464457
20
23.93997472127279
30
0
10
-11.234283788998924
20
23.675807221730558
30
0
0
SPLINE
5
135
100
AcDbEntity
8
0
100
AcDbSpline
70
1064
71
3
72
8
73
4
74
0
42
0.000000001
43
0.0000000001
44
0.0000000001
40
0
40
0
40
0
40
0
40
1
40
1
40
1
40
1
10
-11.234283788998924
20
23.675807221730558
30
0
10
-11.973609018325808
20
23.519704023997001
30
0
10
-13.156275645891826
20
23.465803082784021
30
0
10
-13.682397238413495
20
23.564234574635829
30
0
0
SPLINE
5
136
100
AcDbEntity
8
0
100
AcDbSpline
70
1064
71
3
72
8
73
4
74
0
42
0.000000001
43
0.0000000001
44
0.0000000001
40
0
40
0
40
0
40
0
40
1
40
1
40
1
40
1
10
-13.682397238413495
20
23.564234574635829
30
0
10
-14.583676608403525
20
23.732853158315031
30
0
10
-15.25818122227987
20
24.238171958923349
30
0
10
-15.623221723238629
20
25.018247890472416
30
0
0
SPLINE
5
137
100
AcDbEntity
8
0
100
AcDbSpline
70
1064
71
3
72
8
73
4
74
0
42
0.000000001
43
0.0000000001
44
0.0000000001
40
0
40
0
40
0
40
0
40
1
40
1
40
1
40
1
10
-15.623221723238629
20
25.018247890472416
30
0
10
-15.813332454363508
20
25.424505392710373
30
0
10
-15.83195110956828
20
25.523049926757821
30
0
10
-15.800813031196597
20
25.958242193857835
30
0
0
SPLINE
5
138
100
AcDbEntity
8
0
100
AcDbSpline
70
1064
71
3
72
18
73
14
74
0
42
0.000000001
43
0.0000000001
44
0.0000000001
40
-0.5399228738824251
40
-0.5399228738824251
40
-0.5399228738824251
40
-0.5399228738824251
40
-0.44562060224690947
40
-0.44562060224690947
40
-0.36241257357024914
40
-0.36241257357024914
40
-0.27781773386967912
40
-0.27781773386967912
40
-0.19708705398793541
40
-0.19708705398793541
40
-0.10783613888203709
40
-0.10783613888203709
40
-0
40
-0
40
-0
40
-0
10
-31.582562303543096
20
27.763796552022306
30
0
10
-31.837932484998696
20
27.710084567673718
30
0
10
-32.087859450762444
20
27.62789513706285
30
0
10
-32.526184426737679
20
27.408208024678487
30
0
10
-32.717512728947916
20
27.278699713170859
30
0
10
-33.052407779242714
20
26.959571089134439
30
0
10
-33.191612287945127
20
26.772198064697822
30
0
10
-33.38403868522677
20
26.359956704324365
30
0
10
-33.437274681633703
20
26.144716432701436
30
0
10
-33.458977240351494
20
25.677427475801515
30
0
10
-33.417547844881248
20
25.43501805883265
30
0
10
-33.231684093661144
20
24.924157791739837
30
0
10
-33.061950454432065
20
24.645275744341749
30
0
10
-32.819451840718592
20
24.379943021138519
30
0
0
SPLINE
5
139
100
AcDbEntity
8
0
100
AcDbSpline
70
1064
71
3
72
10
73
6
74
0
42
0.000000001
43
0.0000000001
44
0.0000000001
40
-0.20911400913310918
40
-0.20911400913310918
40
-0.20911400913310918
40
-0.20911400913310918
40
-0.10444051416475769
40
-0.10444051416475769
40
-0
40
-0
40
-0
40
-0
10
-29.952086083094287
20
27.61761684417726
30
0
10
-30.20074908821773
20
27.741865150150748
30
0
10
-30.438158875540108
20
27.814258386936977
30
0
10
-30.958983855454136
20
27.86095314474036
30
0
10
-31.241881341621802
20
27.835451930636683
30
0
10
-31.582562303543096
20
27.763796552022306
30
0
0
SPLINE
5
140
100
AcDbEntity
8
0
100
AcDbSpline
70
1064
71
3
72
12
73
8
74
0
42
0.000000001
43
0.0000000001
44
0.0000000001
40
-0.18886747444494062
40
-0.18886747444494062
40
-0.18886747444494062
40
-0.18886747444494062
40
-0.14841280700277665
40
-0.14841280700277665
40
-0.10121962072313298
40
-0.10121962072313298
40
-0
40
-0
40
-0
40
-0
10
-28.752102804183966
20
26.401339340209972
30
0
10
-28.782886901198932
20
26.516440917947101
30
0
10
-28.838296035517736
20
26.627888919542968
30
0
10
-28.977878494813922
20
26.845989514494157
30
0
10
-29.070130575588941
20
26.956421050508581
30
0
10
-29.37903147331312
20
27.269515944594289
30
0
10
-29.650267534295889
20
27.466807459579584
30
0
10
-29.952086083094287
20
27.61761684417726
30
0
0
SPLINE
5
141
100
AcDbEntity
8
0
100
AcDbSpline
70
1064
71
3
72
16
73
12
74
0
42
0.000000001
43
0.0000000001
44
0.0000000001
40
-0.15195385644407175
40
-0.15195385644407175
40
-0.15195385644407175
40
-0.15195385644407175
40
-0.11957608797360259
40
-0.11957608797360259
40
-0.086244122838620235
40
-0.086244122838620235
40
-0.061786884125341043
40
-0.061786884125341043
40
-0.035898001936898613
40
-0.035898001936898613
40
-0
40
-0
40
-0
40
-0
10
-27.837964884440108
20
25.905713907877612
30
0
10
-27.955282240236858
20
25.895533530499169
30
0
10
-28.061976784802802
20
25.889665493964582
30
0
10
-28.253473953452819
20
25.893530448512987
30
0
10
-28.333334603666842
20
25.903691429602624
30
0
10
-28.449608348302398
20
25.939194309753116
30
0
10
-28.495241419220893
20
25.960806535384087
30
0
10
-28.579499577635122
20
26.025670575715726
30
0
10
-28.614974855511083
20
26.068009460655492
30
0
10
-28.688061458010615
20
26.193367627971021
30
0
10
-28.72118491094648
20
26.285742623029577
30
0
10
-28.752102804183966
20
26.401339340209972
30
0
0
SPLINE
5
142
100
AcDbEntity
8
0
100
AcDbSpline
70
1064
71
3
72
10
73
6
74
0
42
0.000000001
43
0.0000000001
44
0.0000000001
40
-0.27188200922241856
40
-0.27188200922241856
40
-0.27188200922241856
40
-0.27188200922241856
40
-0.060903063853527964
40
-0.060903063853527964
40
-0
40
-0
40
-0
40
-0
10
-25.96815814971924
20
26.154027239481614
30
0
10
-26.328371402076179
20
26.100059703919577
30
0
10
-26.724942871485965
20
26.043939217785056
30
0
10
-27.183153465116085
20
25.983086601507061
30
0
10
-27.635714056441955
20
25.923256686832818
30
0
10
-27.837964884440108
20
25.905713907877612
30
0
0
SPLINE
5
143
100
AcDbEntity
8
0
100
AcDbSpline
70
1064
71
3
72
20
73
16
74
0
42
0.000000001
43
0.0000000001
44
0.0000000001
40
-0.13915069158525756
40
-0.13915069158525756
40
-0.13915069158525756
40
-0.13915069158525756
40
-0.13890508411478142
40
-0.13890508411478142
40
-0.13858811933201798
40
-0.13858811933201798
40
-0.13773874415141216
40
-0.13773874415141216
40
-0.13515665721663686
40
-0.13515665721663686
40
-0.12649423953967717
40
-0.12649423953967717
40
-0.09643341769800079
40
-0.09643341769800079
40
-0
40
-0
40
-0
40
-0
10
-24.543487358093262
20
26.302051957448327
30
0
10
-24.544064018828816
20
26.302598675159551
30
0
10
-24.544769922166459
20
26.303058701213899
30
0
10
-24.546367068293225
20
26.303925297358802
30
0
10
-24.547363377616701
20
26.304337438126396
30
0
10
-24.55090828351187
20
26.305598777756583
30
0
10
-24.553954915568085
20
26.306266787750616
30
0
10
-24.564799577749259
20
26.308201268171977
30
0
10
-24.575129118981064
20
26.308880764079639
30
0
10
-24.610791996543774
20
26.310383262216476
30
0
10
-24.647211331926258
20
26.309138314524564
30
0
10
-24.768469827764513
20
26.303375438621575
30
0
10
-24.891934651786212
20
26.291704861522032
30
0
10
-25.290125632139304
20
26.250332591311963
30
0
10
-25.650261416827135
20
26.201654740687946
30
0
10
-25.96815814971924
20
26.154027239481614
30
0
0
SPLINE
5
144
100
AcDbEntity
8
0
100
AcDbSpline
70
1064
71
3
72
18
73
14
74
0
42
0.000000001
43
0.0000000001
44
0.0000000001
40
-0.16174681625789208
40
-0.16174681625789208
40
-0.16174681625789208
40
-0.16174681625789208
40
-0.091356664907804835
40
-0.091356664907804835
40
-0.039317017525598172
40
-0.039317017525598172
40
-0.018948626050275981
40
-0.018948626050275981
40
-0.0099670077657529992
40
-0.0099670077657529992
40
-0.0045723309047090007
40
-0.0045723309047090007
40
-0
40
-0
40
-0
40
-0
10
-25.665073855717981
20
24.81663713455201
30
0
10
-25.416758864025702
20
24.951276961675845
30
0
10
-25.157844821945524
20
25.176098299933326
30
0
10
-24.791391135194591
20
25.588012514405115
30
0
10
-24.662403223326873
20
25.769287063809614
30
0
10
-24.553705940787051
20
25.985613830435362
30
0
10
-24.52399173512007
20
26.056306490851938
30
0
10
-24.504531520366996
20
26.152168777338542
30
0
10
-24.501128423486797
20
26.183699676477978
30
0
10
-24.505804573827806
20
26.231393666750037
30
0
10
-24.509884391702499
20
26.249113837024556
30
0
10
-24.523809520983178
20
26.279278954289818
30
0
10
-24.532427054483726
20
26.29156573290372
30
0
10
-24.543487358093262
20
26.302051957448327
30
0
0
SPLINE
5
145
100
AcDbEntity
8
0
100
AcDbSpline
70
1064
71
3
72
10
73
6
74
0
42
0.000000001
43
0.0000000001
44
0.0000000001
40
-0.16982114919374441
40
-0.16982114919374441
40
-0.16982114919374441
40
-0.16982114919374441
40
-0.084652128669229276
40
-0.084652128669229276
40
-0
40
-0
40
-0
40
-0
10
-28.032344977060959
20
23.888564745585128
30
0
10
-27.670641939137806
20
23.993238501691273
30
0
10
-27.204463696496937
20
24.157498405927882
30
0
10
-26.324145550065204
20
24.502621055907788
30
0
10
-25.913130084042571
20
24.682137544661028
30
0
10
-25.665073855717981
20
24.81663713455201
30
0
0
SPLINE
5
146
100
AcDbEntity
8
0
100
AcDbSpline
70
1064
71
3
72
14
73
10
74
0
42
0.000000001
43
0.0000000001
44
0.0000000001
40
-0.49608934500989105
40
-0.49608934500989105
40
-0.49608934500989105
40
-0.49608934500989105
40
-0.44632698702207907
40
-0.44632698702207907
40
-0.39565774076913296
40
-0.39565774076913296
40
-0.28454566485579802
40
-0.28454566485579802
40
-0
40
-0
40
-0
40
-0
10
-32.819451840718592
20
24.379943021138519
30
0
10
-32.707383849990663
20
24.257323078336093
30
0
10
-32.583950749966576
20
24.14736539717833
30
0
10
-32.312136633600808
20
23.951107230637461
30
0
10
-32.165904312940214
20
23.86712406791699
30
0
10
-31.674725695111107
20
23.642587566181668
30
0
10
-31.309221569421126
20
23.557899125314027
30
0
10
-29.995321570493417
20
23.423031721449973
30
0
10
-28.943445547754347
20
23.624897175093121
30
0
10
-28.032344977060959
20
23.888564745585128
30
0
0
SPLINE
5
147
100
AcDbEntity
8
0
100
AcDbSpline
70
1064
71
3
72
8
73
4
74
0
42
0.000000001
43
0.0000000001
44
0.0000000001
40
0
40
0
40
0
40
0
40
1
40
1
40
1
40
1
10
-4.9487546801567088
20
21.253849919637055
30
0
10
-4.5929377158482874
20
21.587348620096847
30
0
10
-4.1970149954160068
20
21.945991134643563
30
0
10
-4.0689275900522874
20
22.050841808319099
30
0
0
SPLINE
5
148
100
AcDbEntity
8
0
100
AcDbSpline
70
1064
71
3
72
8
73
4
74
0
42
0.000000001
43
0.0000000001
44
0.0000000001
40
0
40
0
40
0
40
0
40
1
40
1
40
1
40
1
10
-4.0689275900522874
20
22.050841808319099
30
0
10
-3.8518769860267641
20
22.228515879313157
30
0
10
-3.5108947912851973
20
22.30227994918824
30
0
10
-3.4034244656562813
20
22.194809118906669
30
0
0
SPLINE
5
149
100
AcDbEntity
8
0
100
AcDbSpline
70
1064
71
3
72
8
73
4
74
0
42
0.000000001
43
0.0000000001
44
0.0000000001
40
0
40
0
40
0
40
0
40
1
40
1
40
1
40
1
10
-3.4034244656562813
20
22.194809118906669
30
0
10
-3.314394905169805
20
22.10578031539918
30
0
10
-3.357865937550863
20
21.884060160319017
30
0
10
-3.5744880914688117
20
21.32234137852987
30
0
0
SPLINE
5
150
100
AcDbEntity
8
0
100
AcDbSpline
70
1064
71
3
72
8
73
4
74
0
42
0.000000001
43
0.0000000001
44
0.0000000001
40
0
40
0
40
0
40
0
40
1
40
1
40
1
40
1
10
-3.5744880914688117
20
21.32234137852987
30
0
10
-4.039921921491624
20
20.115430227915454
30
0
10
-5.7386632641156519
20
18.461647129058846
30
0
10
-7.3120001872380582
20
17.683751296997077
30
0
0
SPLINE
5
151
100
AcDbEntity
8
0
100
AcDbSpline
70
1064
71
3
72
8
73
4
74
0
42
0.000000001
43
0.0000000001
44
0.0000000001
40
0
40
0
40
0
40
0
40
1
40
1
40
1
40
1
10
-7.3120001872380582
20
17.683751296997077
30
0
10
-8.1361746867497775
20
17.276258405049649
30
0
10
-8.7438330094019587
20
17.133659712473559
30
0
10
-9.6571453173955284
20
17.133409404754644
30
0
0
SPLINE
5
152
100
AcDbEntity
8
0
100
AcDbSpline
70
1064
71
3
72
8
73
4
74
0
42
0.000000001
43
0.0000000001
44
0.0000000001
40
0
40
0
40
0
40
0
40
1
40
1
40
1
40
1
10
-9.6571453173955284
20
17.133409404754644
30
0
10
-10.79100698630015
20
17.133142948150642
30
0
10
-11.674151158332826
20
17.431497637430837
30
0
10
-12.489141988754273
20
18.090287367502853
30
0
0
SPLINE
5
153
100
AcDbEntity
8
0
100
AcDbSpline
70
1064
71
3
72
8
73
4
74
0
42
0.000000001
43
0.0000000001
44
0.0000000001
40
0
40
0
40
0
40
0
40
1
40
1
40
1
40
1
10
-12.489141988754273
20
18.090287367502853
30
0
10
-13.275780423482262
20
18.726157792409268
30
0
10
-13.579807408650719
20
19.32268549601238
30
0
10
-13.216372712453207
20
19.517190742492687
30
0
0
SPLINE
5
154
100
AcDbEntity
8
0
100
AcDbSpline
70
1064
71
3
72
8
73
4
74
0
42
0.000000001
43
0.0000000001
44
0.0000000001
40
0
40
0
40
0
40
0
40
1
40
1
40
1
40
1
10
-13.216372712453207
20
19.517190742492687
30
0
10
-12.972677961985273
20
19.647613175710053
30
0
10
-12.399519713719688
20
19.540158494313566
30
0
10
-11.89658590157827
20
19.269773674011237
30
0
0
SPLINE
5
155
100
AcDbEntity
8
0
100
AcDbSpline
70
1064
71
3
72
8
73
4
74
0
42
0.000000001
43
0.0000000001
44
0.0000000001
40
0
40
0
40
0
40
0
40
1
40
1
40
1
40
1
10
-11.89658590157827
20
19.269773674011237
30
0
10
-11.017851384480796
20
18.797342077891042
30
0
10
-9.8186725219090789
20
18.690416272481293
30
0
10
-8.7120873292287211
20
18.9858318646749
30
0
0
SPLINE
5
156
100
AcDbEntity
8
0
100
AcDbSpline
70
1064
71
3
72
8
73
4
74
0
42
0.000000001
43
0.0000000001
44
0.0000000001
40
0
40
0
40
0
40
0
40
1
40
1
40
1
40
1
10
-8.7120873292287211
20
18.9858318646749
30
0
10
-7.6087349414825454
20
19.280379454294845
30
0
10
-6.0557557066281644
20
20.216304238637299
30
0
10
-4.9487546801567088
20
21.253849919637055
30
0
0
SPLINE
5
157
100
AcDbEntity
8
0
100
AcDbSpline
70
1064
71
3
72
8
73
4
74
0
42
0.000000001
43
0.0000000001
44
0.0000000001
40
0
40
0
40
0
40
0
40
1
40
1
40
1
40
1
10
-36.744963200887049
20
21.332353687286385
30
0
10
-37.014710140228274
20
22.031834570566822
30
0
10
-37.007192834218344
20
22.198386096954358
30
0
10
-36.704550615946459
20
22.227813402811698
30
0
0
SPLINE
5
158
100
AcDbEntity
8
0
100
AcDbSpline
70
1064
71
3
72
8
73
4
74
0
42
0.000000001
43
0.0000000001
44
0.0000000001
40
0
40
0
40
0
40
0
40
1
40
1
40
1
40
1
10
-36.704550615946459
20
22.227813402811698
30
0
10
-36.527998892466236
20
22.244983704884859
30
0
10
-36.405210844675707
20
22.182120132446297
30
0
10
-36.074509938557945
20
21.905275758107514
30
0
0
SPLINE
5
159
100
AcDbEntity
8
0
100
AcDbSpline
70
1064
71
3
72
8
73
4
74
0
42
0.000000001
43
0.0000000001
44
0.0000000001
40
0
40
0
40
0
40
0
40
1
40
1
40
1
40
1
10
-36.074509938557945
20
21.905275758107514
30
0
10
-35.848595110575367
20
21.716160202026373
30
0
10
-35.600754133860278
20
21.490309969584153
30
0
10
-35.523748175303147
20
21.403388595581063
30
0
0
SPLINE
5
160
100
AcDbEntity
8
0
100
AcDbSpline
70
1064
71
3
72
8
73
4
74
0
42
0.000000001
43
0.0000000001
44
0.0000000001
40
0
40
0
40
0
40
0
40
1
40
1
40
1
40
1
10
-35.523748175303147
20
21.403388595581063
30
0
10
-35.306485112508142
20
21.158147589365647
30
0
10
-34.382062371571863
20
20.407414182027193
30
0
10
-33.887757110595707
20
20.074787521362314
30
0
0
SPLINE
5
161
100
AcDbEntity
8
0
100
AcDbSpline
70
1064
71
3
72
8
73
4
74
0
42
0.000000001
43
0.0000000001
44
0.0000000001
40
0
40
0
40
0
40
0
40
1
40
1
40
1
40
1
10
-33.887757110595707
20
20.074787521362314
30
0
10
-33.313113164901736
20
19.688094393412278
30
0
10
-32.141000843048097
20
19.129326820373542
30
0
10
-31.60350337028504
20
18.985835901896166
30
0
0
SPLINE
5
162
100
AcDbEntity
8
0
100
AcDbSpline
70
1064
71
3
72
8
73
4
74
0
42
0.000000001
43
0.0000000001
44
0.0000000001
40
0
40
0
40
0
40
0
40
1
40
1
40
1
40
1
10
-31.60350337028504
20
18.985835901896166
30
0
10
-30.496917168299362
20
18.690424346923837
30
0
10
-29.297739315032963
20
18.797346115112312
30
0
10
-28.419005807240808
20
19.269777711232514
30
0
0
SPLINE
5
163
100
AcDbEntity
8
0
100
AcDbSpline
70
1064
71
3
72
8
73
4
74
0
42
0.000000001
43
0.0000000001
44
0.0000000001
40
0
40
0
40
0
40
0
40
1
40
1
40
1
40
1
10
-28.419005807240808
20
19.269777711232514
30
0
10
-27.307944345474247
20
19.867112859090177
30
0
10
-26.559871466954554
20
19.541321214040124
30
0
10
-27.178910716374716
20
18.729706509908048
30
0
0
SPLINE
5
164
100
AcDbEntity
8
0
100
AcDbSpline
70
1064
71
3
72
8
73
4
74
0
42
0.000000001
43
0.0000000001
44
0.0000000001
40
0
40
0
40
0
40
0
40
1
40
1
40
1
40
1
10
-27.178910716374716
20
18.729706509908048
30
0
10
-27.693220408757533
20
18.055397701263438
30
0
10
-28.656606372197473
20
17.448336887359623
30
0
10
-29.544550800323492
20
17.239035224914552
30
0
0
SPLINE
5
165
100
AcDbEntity
8
0
100
AcDbSpline
70
1064
71
3
72
8
73
4
74
0
42
0.000000001
43
0.0000000001
44
0.0000000001
40
0
40
0
40
0
40
0
40
1
40
1
40
1
40
1
10
-29.544550800323492
20
17.239035224914552
30
0
10
-30.115244325002038
20
17.104515012105317
30
0
10
-31.180806303024298
20
17.103513781229658
30
0
10
-31.813519620895391
20
17.23691972096762
30
0
0
SPLINE
5
166
100
AcDbEntity
8
0
100
AcDbSpline
70
1064
71
3
72
8
73
4
74
0
42
0.000000001
43
0.0000000001
44
0.0000000001
40
0
40
0
40
0
40
0
40
1
40
1
40
1
40
1
10
-31.813519620895391
20
17.23691972096762
30
0
10
-32.749414126078292
20
17.434226799011235
30
0
10
-34.011635208129888
20
18.163817278544112
30
0
10
-35.014602088928228
20
19.087214565277108
30
0
0
SPLINE
5
167
100
AcDbEntity
8
0
100
AcDbSpline
70
1064
71
3
72
8
73
4
74
0
42
0.000000001
43
0.0000000001
44
0.0000000001
40
0
40
0
40
0
40
0
40
1
40
1
40
1
40
1
10
-35.014602088928228
20
19.087214565277108
30
0
10
-35.865684668223068
20
19.870778656005868
30
0
10
-36.497412904103605
20
20.690443579355886
30
0
10
-36.744963200887049
20
21.332353687286385
30
0
0
ENDSEC
0
SECTION
2
OBJECTS
0
DICTIONARY
5
C
100
AcDbDictionary
3
ACAD_GROUP
350
D
3
ACAD_MLINESTYLE
350
17
0
DICTIONARY
5
D
100
AcDbDictionary
0
DICTIONARY
5
1A
330
C
100
AcDbDictionary
0
DICTIONARY
5
17
100
AcDbDictionary
0
ENDSEC
0
EOF
