  0
SECTION
  2
HEADER
  9
$ACADVER
  1
AC1009
  9
$DWGCODEPAGE
  3
ansi_1252
  9
$INSBASE
 10
0.0
 20
0.0
 30
0.0
  9
$EXTMIN
 10
-220.1839548677258
 20
-3415.458684752555
 30
0.0
  9
$EXTMAX
 10
2179.816045132274
 20
-2215.458684752555
 30
0.0
  9
$LIMMIN
 10
0.0
 20
0.0
  9
$LIMMAX
 10
12.0
 20
9.0
  9
$ORTHOMODE
 70
     0
  9
$REGENMODE
 70
     1
  9
$FILLMODE
 70
     1
  9
$QTEXTMODE
 70
     0
  9
$MIRRTEXT
 70
     1
  9
$DRAGMODE
 70
     2
  9
$LTSCALE
 40
1.0
  9
$OSMODE
 70
    37
  9
$ATTMODE
 70
     1
  9
$TEXTSIZE
 40
0.2
  9
$TRACEWID
 40
0.05
  9
$TEXTSTYLE
  7
STANDARD
  9
$CLAYER
  8
DEFAULT
  9
$CELTYPE
  6
BYLAYER
  9
$CECOLOR
 62
   256
  9
$DIMSCALE
 40
1.0
  9
$DIMASZ
 40
0.18
  9
$DIMEXO
 40
0.0625
  9
$DIMDLI
 40
0.38
  9
$DIMRND
 40
0.0
  9
$DIMDLE
 40
0.0
  9
$DIMEXE
 40
0.18
  9
$DIMTP
 40
0.0
  9
$DIMTM
 40
0.0
  9
$DIMTXT
 40
0.18
  9
$DIMCEN
 40
0.09
  9
$DIMTSZ
 40
0.0
  9
$DIMTOL
 70
     0
  9
$DIMLIM
 70
     0
  9
$DIMTIH
 70
     1
  9
$DIMTOH
 70
     1
  9
$DIMSE1
 70
     0
  9
$DIMSE2
 70
     0
  9
$DIMTAD
 70
     0
  9
$DIMZIN
 70
     0
  9
$DIMBLK
  1

  9
$DIMASO
 70
     1
  9
$DIMSHO
 70
     1
  9
$DIMPOST
  1

  9
$DIMAPOST
  1

  9
$DIMALT
 70
     0
  9
$DIMALTD
 70
     2
  9
$DIMALTF
 40
25.4
  9
$DIMLFAC
 40
1.0
  9
$DIMTOFL
 70
     0
  9
$DIMTVP
 40
0.0
  9
$DIMTIX
 70
     0
  9
$DIMSOXD
 70
     0
  9
$DIMSAH
 70
     0
  9
$DIMBLK1
  1

  9
$DIMBLK2
  1

  9
$DIMSTYLE
  2
STANDARD
  9
$DIMCLRD
 70
     0
  9
$DIMCLRE
 70
     0
  9
$DIMCLRT
 70
     0
  9
$DIMTFAC
 40
1.0
  9
$DIMGAP
 40
0.09
  9
$LUNITS
 70
     2
  9
$LUPREC
 70
     3
  9
$SKETCHINC
 40
0.1
  9
$FILLETRAD
 40
0.5
  9
$AUNITS
 70
     0
  9
$AUPREC
 70
     0
  9
$MENU
  1
.
  9
$ELEVATION
 40
0.0
  9
$PELEVATION
 40
0.0
  9
$THICKNESS
 40
0.0
  9
$LIMCHECK
 70
     0
  9
$CHAMFERA
 40
0.0
  9
$CHAMFERB
 40
0.0
  9
$SKPOLY
 70
     0
  9
$TDCREATE
 40
2457931.455141146
  9
$TDUPDATE
 40
2457931.455215856
  9
$TDINDWG
 40
0.0000000116
  9
$TDUSRTIMER
 40
0.0000000116
  9
$USRTIMER
 70
     1
  9
$ANGBASE
 50
0.0
  9
$ANGDIR
 70
     0
  9
$PDMODE
 70
     0
  9
$PDSIZE
 40
0.0
  9
$PLINEWID
 40
0.0
  9
$COORDS
 70
     1
  9
$SPLFRAME
 70
     0
  9
$SPLINETYPE
 70
     6
  9
$SPLINESEGS
 70
     8
  9
$ATTDIA
 70
     0
  9
$ATTREQ
 70
     1
  9
$HANDLING
 70
     1
  9
$HANDSEED
  5
572
  9
$SURFTAB1
 70
     6
  9
$SURFTAB2
 70
     6
  9
$SURFTYPE
 70
     6
  9
$SURFU
 70
     6
  9
$SURFV
 70
     6
  9
$UCSNAME
  2

  9
$UCSORG
 10
0.0
 20
0.0
 30
0.0
  9
$UCSXDIR
 10
1.0
 20
0.0
 30
0.0
  9
$UCSYDIR
 10
0.0
 20
1.0
 30
0.0
  9
$PUCSNAME
  2

  9
$PUCSORG
 10
0.0
 20
0.0
 30
0.0
  9
$PUCSXDIR
 10
1.0
 20
0.0
 30
0.0
  9
$PUCSYDIR
 10
0.0
 20
1.0
 30
0.0
  9
$USERI1
 70
     0
  9
$USERI2
 70
     0
  9
$USERI3
 70
     0
  9
$USERI4
 70
     0
  9
$USERI5
 70
     0
  9
$USERR1
 40
0.0
  9
$USERR2
 40
0.0
  9
$USERR3
 40
0.0
  9
$USERR4
 40
0.0
  9
$USERR5
 40
0.0
  9
$WORLDVIEW
 70
     1
  9
$SHADEDGE
 70
     3
  9
$SHADEDIF
 70
    70
  9
$TILEMODE
 70
     1
  9
$MAXACTVP
 70
    64
  9
$PLIMCHECK
 70
     0
  9
$PEXTMIN
 10
1.000000000000000E+20
 20
1.000000000000000E+20
 30
1.000000000000000E+20
  9
$PEXTMAX
 10
-1.000000000000000E+20
 20
-1.000000000000000E+20
 30
-1.000000000000000E+20
  9
$PLIMMIN
 10
0.0
 20
0.0
  9
$PLIMMAX
 10
12.0
 20
9.0
  9
$UNITMODE
 70
     0
  9
$VISRETAIN
 70
     1
  9
$PLINEGEN
 70
     0
  9
$PSLTSCALE
 70
     1
  0
ENDSEC
  0
SECTION
  2
TABLES
  0
TABLE
  2
VPORT
 70
     1
  0
VPORT
  2
*ACTIVE
 70
     0
 10
0.0
 20
0.0
 11
1.0
 21
1.0
 12
979.8160451322742
 22
-2815.458684752555
 13
0.0
 23
0.0
 14
0.5
 24
0.5
 15
0.5
 25
0.5
 16
0.0
 26
0.0
 36
1.0
 17
0.0
 27
0.0
 37
0.0
 40
1224.0
 41
2.0
 42
50.0
 43
0.0
 44
0.0
 50
0.0
 51
0.0
 71
     0
 72
   100
 73
     1
 74
     3
 75
     0
 76
     0
 77
     0
 78
     0
  0
ENDTAB
  0
TABLE
  2
LTYPE
 70
     1
  0
LTYPE
  2
CONTINUOUS
 70
     0
  3
Solid line
 72
    65
 73
     0
 40
0.0
  0
ENDTAB
  0
TABLE
  2
LAYER
 70
     3
  0
LAYER
  2
0
 70
     0
 62
     7
  6
CONTINUOUS
  0
LAYER
  2
DEFAULT
 70
     0
 62
     7
  6
CONTINUOUS
  0
LAYER
  2
LAYER_04
 70
     0
 62
    96
  6
CONTINUOUS
  0
ENDTAB
  0
TABLE
  2
STYLE
 70
     1
  0
STYLE
  2
STANDARD
 70
     0
 40
0.0
 41
1.0
 50
0.0
 71
     0
 42
0.2
  3
txt
  4

  0
ENDTAB
  0
TABLE
  2
VIEW
 70
     0
  0
ENDTAB
  0
TABLE
  2
UCS
 70
     0
  0
ENDTAB
  0
TABLE
  2
APPID
 70
     1
  0
APPID
  2
ACAD
 70
     0
  0
ENDTAB
  0
TABLE
  2
DIMSTYLE
 70
     1
  0
DIMSTYLE
  2
STANDARD
 70
     0
  3

  4

  5

  6

  7

 40
1.0
 41
0.18
 42
0.0625
 43
0.38
 44
0.18
 45
0.0
 46
0.0
 47
0.0
 48
0.0
140
0.18
141
0.09
142
0.0
143
25.4
144
1.0
145
0.0
146
1.0
147
0.09
 71
     0
 72
     0
 73
     1
 74
     1
 75
     0
 76
     0
 77
     0
 78
     0
170
     0
171
     2
172
     0
173
     0
174
     0
175
     0
176
     0
177
     0
178
     0
  0
ENDTAB
  0
ENDSEC
  0
SECTION
  2
BLOCKS
  0
BLOCK
  8
0
  2
$MODEL_SPACE
 70
     0
 10
0.0
 20
0.0
 30
0.0
  3
$MODEL_SPACE
  1

  0
ENDBLK
  5
21
  8
0
  0
BLOCK
 67
     1
  8
0
  2
$PAPER_SPACE
 70
     0
 10
0.0
 20
0.0
 30
0.0
  3
$PAPER_SPACE
  1

  0
ENDBLK
  5
1D
 67
     1
  8
0
  0
ENDSEC
  0
SECTION
  2
ENTITIES
  0
LINE
  5
6F
  8
DEFAULT
 10
609.3963363281359
 20
-2451.460417306151
 30
0.0
 11
609.3963363281359
 21
-2407.960417306151
 31
0.0
  0
LINE
  5
70
  8
DEFAULT
 10
609.3963363281359
 20
-2407.960417306151
 30
0.0
 11
510.3963363281357
 21
-2407.960417306151
 31
0.0
  0
LINE
  5
71
  8
DEFAULT
 10
510.3963363281357
 20
-2407.960417306151
 30
0.0
 11
510.3963363281357
 21
-2451.460417306151
 31
0.0
  0
ARC
  5
72
  8
DEFAULT
 10
510.3963363281357
 20
-2454.710417306151
 30
0.0
 40
3.25
 50
270.0
 51
90.0
  0
LINE
  5
73
  8
DEFAULT
 10
510.3963363281357
 20
-2457.960417306151
 30
0.0
 11
499.3963363281357
 21
-2457.960417306151
 31
0.0
  0
ARC
  5
74
  8
DEFAULT
 10
499.3963363281357
 20
-2454.710417306151
 30
0.0
 40
3.25
 50
90.0
 51
270.0
  0
LINE
  5
75
  8
DEFAULT
 10
499.3963363281357
 20
-2451.460417306151
 30
0.0
 11
499.3963363281357
 21
-2407.960417306151
 31
0.0
  0
LINE
  5
76
  8
DEFAULT
 10
499.3963363281357
 20
-2407.960417306151
 30
0.0
 11
454.8963363281358
 21
-2407.960417306151
 31
0.0
  0
LINE
  5
77
  8
DEFAULT
 10
454.8963363281358
 20
-2407.960417306151
 30
0.0
 11
454.8963363281358
 21
-2507.960417306151
 31
0.0
  0
LINE
  5
78
  8
DEFAULT
 10
454.8963363281358
 20
-2507.960417306151
 30
0.0
 11
504.8963363281357
 21
-2507.960417306151
 31
0.0
  0
LINE
  5
79
  8
DEFAULT
 10
504.8963363281357
 20
-2507.960417306151
 30
0.0
 11
651.8071104476148
 21
-2507.960417306152
 31
0.0
  0
LINE
  5
7A
  8
DEFAULT
 10
651.8071104476148
 20
-2507.960417306152
 30
0.0
 11
651.8071104476148
 21
-2407.960417306152
 31
0.0
  0
LINE
  5
7B
  8
DEFAULT
 10
651.8071104476148
 20
-2407.960417306152
 30
0.0
 11
620.3963363281359
 21
-2407.960417306152
 31
0.0
  0
LINE
  5
7C
  8
DEFAULT
 10
620.3963363281359
 20
-2407.960417306152
 30
0.0
 11
620.3963363281359
 21
-2451.460417306151
 31
0.0
  0
ARC
  5
7D
  8
DEFAULT
 10
620.3963363281359
 20
-2454.710417306151
 30
0.0
 40
3.25
 50
270.0
 51
90.0
  0
LINE
  5
7E
  8
DEFAULT
 10
620.3963363281359
 20
-2457.960417306152
 30
0.0
 11
609.3963363281359
 21
-2457.960417306151
 31
0.0
  0
ARC
  5
7F
  8
DEFAULT
 10
609.3963363281359
 20
-2454.710417306151
 30
0.0
 40
3.25
 50
90.0
 51
270.0
  0
LINE
  5
80
  8
DEFAULT
 10
177.6271191439367
 20
-2452.322689403284
 30
0.0
 11
177.6271191439367
 21
-2408.822689403284
 31
0.0
  0
LINE
  5
81
  8
DEFAULT
 10
177.6271191439367
 20
-2408.822689403284
 30
0.0
 11
78.62711914393681
 21
-2408.822689403285
 31
0.0
  0
LINE
  5
82
  8
DEFAULT
 10
78.62711914393681
 20
-2408.822689403285
 30
0.0
 11
78.62711914393674
 21
-2452.322689403285
 31
0.0
  0
ARC
  5
83
  8
DEFAULT
 10
78.62711914393674
 20
-2455.572689403285
 30
0.0
 40
3.25
 50
270.0
 51
90.0
  0
LINE
  5
84
  8
DEFAULT
 10
78.62711914393674
 20
-2458.822689403285
 30
0.0
 11
67.62711914393674
 21
-2458.822689403285
 31
0.0
  0
ARC
  5
85
  8
DEFAULT
 10
67.62711914393674
 20
-2455.572689403285
 30
0.0
 40
3.25
 50
90.0
 51
270.0
  0
LINE
  5
86
  8
DEFAULT
 10
67.62711914393674
 20
-2452.322689403285
 30
0.0
 11
67.6271191439367
 21
-2408.822689403285
 31
0.0
  0
LINE
  5
87
  8
DEFAULT
 10
67.6271191439367
 20
-2408.822689403285
 30
0.0
 11
-31.3728808560633
 21
-2408.822689403285
 31
0.0
  0
LINE
  5
88
  8
DEFAULT
 10
-31.3728808560633
 20
-2408.822689403285
 30
0.0
 11
-31.3728808560633
 21
-2452.322689403285
 31
0.0
  0
ARC
  5
89
  8
DEFAULT
 10
-31.3728808560633
 20
-2455.572689403285
 30
0.0
 40
3.25
 50
270.0
 51
90.0
  0
LINE
  5
8A
  8
DEFAULT
 10
-31.3728808560633
 20
-2458.822689403285
 30
0.0
 11
-42.3728808560633
 21
-2458.822689403285
 31
0.0
  0
ARC
  5
8B
  8
DEFAULT
 10
-42.3728808560633
 20
-2455.572689403285
 30
0.0
 40
3.25
 50
90.0
 51
270.0
  0
LINE
  5
8C
  8
DEFAULT
 10
-42.3728808560633
 20
-2452.322689403285
 30
0.0
 11
-42.3728808560633
 21
-2408.822689403285
 31
0.0
  0
LINE
  5
8D
  8
DEFAULT
 10
-42.3728808560633
 20
-2408.822689403285
 30
0.0
 11
-141.3728808560633
 21
-2408.822689403285
 31
0.0
  0
LINE
  5
8E
  8
DEFAULT
 10
-141.3728808560633
 20
-2408.822689403285
 30
0.0
 11
-141.3728808560633
 21
-2452.322689403285
 31
0.0
  0
ARC
  5
8F
  8
DEFAULT
 10
-141.3728808560633
 20
-2455.572689403285
 30
0.0
 40
3.25
 50
270.0
 51
90.0
  0
LINE
  5
90
  8
DEFAULT
 10
-141.3728808560633
 20
-2458.822689403285
 30
0.0
 11
-152.3728808560633
 21
-2458.822689403285
 31
0.0
  0
ARC
  5
91
  8
DEFAULT
 10
-152.3728808560633
 20
-2455.572689403285
 30
0.0
 40
3.25
 50
90.0
 51
270.0
  0
LINE
  5
92
  8
DEFAULT
 10
-152.3728808560633
 20
-2452.322689403285
 30
0.0
 11
-152.3728808560633
 21
-2408.822689403285
 31
0.0
  0
LINE
  5
93
  8
DEFAULT
 10
-152.3728808560633
 20
-2408.822689403285
 30
0.0
 11
-196.8728808560633
 21
-2408.822689403285
 31
0.0
  0
LINE
  5
94
  8
DEFAULT
 10
-196.8728808560633
 20
-2408.822689403285
 30
0.0
 11
-196.8728808560633
 21
-2508.822689403285
 31
0.0
  0
LINE
  5
95
  8
DEFAULT
 10
-196.8728808560633
 20
-2508.822689403285
 30
0.0
 11
-146.8728808560633
 21
-2508.822689403285
 31
0.0
  0
LINE
  5
96
  8
DEFAULT
 10
-146.8728808560633
 20
-2508.822689403285
 30
0.0
 11
183.1271191439369
 21
-2508.822689403284
 31
0.0
  0
LINE
  5
97
  8
DEFAULT
 10
183.1271191439369
 20
-2508.822689403284
 30
0.0
 11
233.1271191439369
 21
-2508.822689403284
 31
0.0
  0
LINE
  5
98
  8
DEFAULT
 10
233.1271191439369
 20
-2508.822689403284
 30
0.0
 11
233.1271191439368
 21
-2408.822689403284
 31
0.0
  0
LINE
  5
99
  8
DEFAULT
 10
233.1271191439368
 20
-2408.822689403284
 30
0.0
 11
188.6271191439367
 21
-2408.822689403284
 31
0.0
  0
LINE
  5
9A
  8
DEFAULT
 10
188.6271191439367
 20
-2408.822689403284
 30
0.0
 11
188.6271191439368
 21
-2452.322689403285
 31
0.0
  0
ARC
  5
9B
  8
DEFAULT
 10
188.6271191439367
 20
-2455.572689403284
 30
0.0
 40
3.25
 50
270.0
 51
90.0
  0
LINE
  5
9C
  8
DEFAULT
 10
188.6271191439367
 20
-2458.822689403284
 30
0.0
 11
177.6271191439367
 21
-2458.822689403284
 31
0.0
  0
ARC
  5
9D
  8
DEFAULT
 10
177.6271191439367
 20
-2455.572689403284
 30
0.0
 40
3.25
 50
90.0
 51
270.0
  0
LINE
  5
9E
  8
DEFAULT
 10
400.0563406762969
 20
-2451.891553354718
 30
0.0
 11
400.0563406762969
 21
-2408.391553354718
 31
0.0
  0
LINE
  5
9F
  8
DEFAULT
 10
400.0563406762969
 20
-2408.391553354718
 30
0.0
 11
301.0563406762968
 21
-2408.391553354718
 31
0.0
  0
LINE
  5
A0
  8
DEFAULT
 10
301.0563406762968
 20
-2408.391553354718
 30
0.0
 11
301.0563406762968
 21
-2451.891553354718
 31
0.0
  0
ARC
  5
A1
  8
DEFAULT
 10
301.0563406762968
 20
-2455.141553354718
 30
0.0
 40
3.25
 50
270.0
 51
90.0
  0
LINE
  5
A2
  8
DEFAULT
 10
301.0563406762968
 20
-2458.391553354718
 30
0.0
 11
290.0563406762968
 21
-2458.391553354718
 31
0.0
  0
ARC
  5
A3
  8
DEFAULT
 10
290.0563406762968
 20
-2455.141553354718
 30
0.0
 40
3.25
 50
90.0
 51
270.0
  0
LINE
  5
A4
  8
DEFAULT
 10
290.0563406762968
 20
-2451.891553354718
 30
0.0
 11
290.0563406762968
 21
-2408.391553354718
 31
0.0
  0
LINE
  5
A5
  8
DEFAULT
 10
290.0563406762968
 20
-2408.391553354718
 30
0.0
 11
245.5563406762968
 21
-2408.391553354718
 31
0.0
  0
LINE
  5
A6
  8
DEFAULT
 10
245.5563406762968
 20
-2408.391553354718
 30
0.0
 11
245.5563406762968
 21
-2508.391553354718
 31
0.0
  0
LINE
  5
A7
  8
DEFAULT
 10
245.5563406762968
 20
-2508.391553354718
 30
0.0
 11
295.5563406762968
 21
-2508.391553354718
 31
0.0
  0
LINE
  5
A8
  8
DEFAULT
 10
295.5563406762968
 20
-2508.391553354718
 30
0.0
 11
442.4671147957759
 21
-2508.391553354718
 31
0.0
  0
LINE
  5
A9
  8
DEFAULT
 10
442.4671147957759
 20
-2508.391553354718
 30
0.0
 11
442.4671147957759
 21
-2408.391553354718
 31
0.0
  0
LINE
  5
AA
  8
DEFAULT
 10
442.4671147957759
 20
-2408.391553354718
 30
0.0
 11
411.0563406762969
 21
-2408.391553354718
 31
0.0
  0
LINE
  5
AB
  8
DEFAULT
 10
411.0563406762969
 20
-2408.391553354718
 30
0.0
 11
411.0563406762969
 21
-2451.891553354718
 31
0.0
  0
ARC
  5
AC
  8
DEFAULT
 10
411.0563406762969
 20
-2455.141553354718
 30
0.0
 40
3.25
 50
270.0
 51
90.0
  0
LINE
  5
AD
  8
DEFAULT
 10
411.0563406762969
 20
-2458.391553354718
 30
0.0
 11
400.0563406762969
 21
-2458.391553354718
 31
0.0
  0
ARC
  5
AE
  8
DEFAULT
 10
400.0563406762969
 20
-2455.141553354718
 30
0.0
 40
3.25
 50
90.0
 51
270.0
  0
LINE
  5
AF
  8
DEFAULT
 10
400.0563406762969
 20
-2557.901354065242
 30
0.0
 11
400.0563406762969
 21
-2514.401354065242
 31
0.0
  0
LINE
  5
B0
  8
DEFAULT
 10
400.0563406762969
 20
-2514.401354065242
 30
0.0
 11
301.0563406762968
 21
-2514.401354065242
 31
0.0
  0
LINE
  5
B1
  8
DEFAULT
 10
301.0563406762968
 20
-2514.401354065242
 30
0.0
 11
301.0563406762968
 21
-2557.901354065242
 31
0.0
  0
ARC
  5
B2
  8
DEFAULT
 10
301.0563406762968
 20
-2561.151354065242
 30
0.0
 40
3.25
 50
270.0
 51
90.0
  0
LINE
  5
B3
  8
DEFAULT
 10
301.0563406762968
 20
-2564.401354065242
 30
0.0
 11
290.0563406762968
 21
-2564.401354065242
 31
0.0
  0
ARC
  5
B4
  8
DEFAULT
 10
290.0563406762968
 20
-2561.151354065242
 30
0.0
 40
3.25
 50
90.0
 51
270.0
  0
LINE
  5
B5
  8
DEFAULT
 10
290.0563406762968
 20
-2557.901354065242
 30
0.0
 11
290.0563406762968
 21
-2514.401354065242
 31
0.0
  0
LINE
  5
B6
  8
DEFAULT
 10
290.0563406762968
 20
-2514.401354065242
 30
0.0
 11
245.5563406762968
 21
-2514.401354065242
 31
0.0
  0
LINE
  5
B7
  8
DEFAULT
 10
245.5563406762968
 20
-2514.401354065242
 30
0.0
 11
245.5563406762968
 21
-2614.401354065242
 31
0.0
  0
LINE
  5
B8
  8
DEFAULT
 10
245.5563406762968
 20
-2614.401354065242
 30
0.0
 11
295.5563406762968
 21
-2614.401354065242
 31
0.0
  0
LINE
  5
B9
  8
DEFAULT
 10
295.5563406762968
 20
-2614.401354065242
 30
0.0
 11
442.4671147957759
 21
-2614.401354065242
 31
0.0
  0
LINE
  5
BA
  8
DEFAULT
 10
442.4671147957759
 20
-2614.401354065242
 30
0.0
 11
442.4671147957759
 21
-2514.401354065242
 31
0.0
  0
LINE
  5
BB
  8
DEFAULT
 10
442.4671147957759
 20
-2514.401354065242
 30
0.0
 11
411.0563406762969
 21
-2514.401354065242
 31
0.0
  0
LINE
  5
BC
  8
DEFAULT
 10
411.0563406762969
 20
-2514.401354065242
 30
0.0
 11
411.0563406762969
 21
-2557.901354065242
 31
0.0
  0
ARC
  5
BD
  8
DEFAULT
 10
411.0563406762969
 20
-2561.151354065242
 30
0.0
 40
3.25
 50
270.0
 51
90.0
  0
LINE
  5
BE
  8
DEFAULT
 10
411.0563406762969
 20
-2564.401354065242
 30
0.0
 11
400.0563406762969
 21
-2564.401354065242
 31
0.0
  0
ARC
  5
BF
  8
DEFAULT
 10
400.0563406762969
 20
-2561.151354065242
 30
0.0
 40
3.25
 50
90.0
 51
270.0
  0
LINE
  5
C0
  8
DEFAULT
 10
177.6271191439367
 20
-2558.332490113808
 30
0.0
 11
177.6271191439367
 21
-2514.832490113808
 31
0.0
  0
LINE
  5
C1
  8
DEFAULT
 10
177.6271191439367
 20
-2514.832490113808
 30
0.0
 11
78.62711914393681
 21
-2514.832490113808
 31
0.0
  0
LINE
  5
C2
  8
DEFAULT
 10
78.62711914393681
 20
-2514.832490113808
 30
0.0
 11
78.62711914393674
 21
-2558.332490113808
 31
0.0
  0
ARC
  5
C3
  8
DEFAULT
 10
78.62711914393674
 20
-2561.582490113808
 30
0.0
 40
3.25
 50
270.0
 51
90.0
  0
LINE
  5
C4
  8
DEFAULT
 10
78.62711914393674
 20
-2564.832490113808
 30
0.0
 11
67.62711914393674
 21
-2564.832490113808
 31
0.0
  0
ARC
  5
C5
  8
DEFAULT
 10
67.62711914393674
 20
-2561.582490113808
 30
0.0
 40
3.25
 50
90.0
 51
270.0
  0
LINE
  5
C6
  8
DEFAULT
 10
67.62711914393674
 20
-2558.332490113808
 30
0.0
 11
67.6271191439367
 21
-2514.832490113808
 31
0.0
  0
LINE
  5
C7
  8
DEFAULT
 10
67.6271191439367
 20
-2514.832490113808
 30
0.0
 11
-31.3728808560633
 21
-2514.832490113808
 31
0.0
  0
LINE
  5
C8
  8
DEFAULT
 10
-31.3728808560633
 20
-2514.832490113808
 30
0.0
 11
-31.3728808560633
 21
-2558.332490113808
 31
0.0
  0
ARC
  5
C9
  8
DEFAULT
 10
-31.3728808560633
 20
-2561.582490113808
 30
0.0
 40
3.25
 50
270.0
 51
90.0
  0
LINE
  5
CA
  8
DEFAULT
 10
-31.3728808560633
 20
-2564.832490113808
 30
0.0
 11
-42.3728808560633
 21
-2564.832490113808
 31
0.0
  0
ARC
  5
CB
  8
DEFAULT
 10
-42.3728808560633
 20
-2561.582490113808
 30
0.0
 40
3.25
 50
90.0
 51
270.0
  0
LINE
  5
CC
  8
DEFAULT
 10
-42.3728808560633
 20
-2558.332490113808
 30
0.0
 11
-42.3728808560633
 21
-2514.832490113808
 31
0.0
  0
LINE
  5
CD
  8
DEFAULT
 10
-42.3728808560633
 20
-2514.832490113808
 30
0.0
 11
-141.3728808560633
 21
-2514.832490113808
 31
0.0
  0
LINE
  5
CE
  8
DEFAULT
 10
-141.3728808560633
 20
-2514.832490113808
 30
0.0
 11
-141.3728808560633
 21
-2558.332490113808
 31
0.0
  0
ARC
  5
CF
  8
DEFAULT
 10
-141.3728808560633
 20
-2561.582490113808
 30
0.0
 40
3.25
 50
270.0
 51
90.0
  0
LINE
  5
D0
  8
DEFAULT
 10
-141.3728808560633
 20
-2564.832490113808
 30
0.0
 11
-152.3728808560633
 21
-2564.832490113808
 31
0.0
  0
ARC
  5
D1
  8
DEFAULT
 10
-152.3728808560633
 20
-2561.582490113808
 30
0.0
 40
3.25
 50
90.0
 51
270.0
  0
LINE
  5
D2
  8
DEFAULT
 10
-152.3728808560633
 20
-2558.332490113808
 30
0.0
 11
-152.3728808560633
 21
-2514.832490113808
 31
0.0
  0
LINE
  5
D3
  8
DEFAULT
 10
-152.3728808560633
 20
-2514.832490113808
 30
0.0
 11
-196.8728808560633
 21
-2514.832490113809
 31
0.0
  0
LINE
  5
D4
  8
DEFAULT
 10
-196.8728808560633
 20
-2514.832490113809
 30
0.0
 11
-196.8728808560633
 21
-2614.832490113809
 31
0.0
  0
LINE
  5
D5
  8
DEFAULT
 10
-196.8728808560633
 20
-2614.832490113809
 30
0.0
 11
-146.8728808560633
 21
-2614.832490113808
 31
0.0
  0
LINE
  5
D6
  8
DEFAULT
 10
-146.8728808560633
 20
-2614.832490113808
 30
0.0
 11
183.1271191439369
 21
-2614.832490113808
 31
0.0
  0
LINE
  5
D7
  8
DEFAULT
 10
183.1271191439369
 20
-2614.832490113808
 30
0.0
 11
233.1271191439369
 21
-2614.832490113808
 31
0.0
  0
LINE
  5
D8
  8
DEFAULT
 10
233.1271191439369
 20
-2614.832490113808
 30
0.0
 11
233.1271191439368
 21
-2514.832490113808
 31
0.0
  0
LINE
  5
D9
  8
DEFAULT
 10
233.1271191439368
 20
-2514.832490113808
 30
0.0
 11
188.6271191439367
 21
-2514.832490113808
 31
0.0
  0
LINE
  5
DA
  8
DEFAULT
 10
188.6271191439367
 20
-2514.832490113808
 30
0.0
 11
188.6271191439368
 21
-2558.332490113808
 31
0.0
  0
ARC
  5
DB
  8
DEFAULT
 10
188.6271191439367
 20
-2561.582490113808
 30
0.0
 40
3.25
 50
270.0
 51
90.0
  0
LINE
  5
DC
  8
DEFAULT
 10
188.6271191439367
 20
-2564.832490113808
 30
0.0
 11
177.6271191439367
 21
-2564.832490113808
 31
0.0
  0
ARC
  5
DD
  8
DEFAULT
 10
177.6271191439367
 20
-2561.582490113808
 30
0.0
 40
3.25
 50
90.0
 51
270.0
  0
LINE
  5
DE
  8
DEFAULT
 10
609.3963363281359
 20
-2557.470218016675
 30
0.0
 11
609.3963363281359
 21
-2513.970218016675
 31
0.0
  0
LINE
  5
DF
  8
DEFAULT
 10
609.3963363281359
 20
-2513.970218016675
 30
0.0
 11
510.3963363281357
 21
-2513.970218016675
 31
0.0
  0
LINE
  5
E0
  8
DEFAULT
 10
510.3963363281357
 20
-2513.970218016675
 30
0.0
 11
510.3963363281357
 21
-2557.470218016675
 31
0.0
  0
ARC
  5
E1
  8
DEFAULT
 10
510.3963363281357
 20
-2560.720218016675
 30
0.0
 40
3.25
 50
270.0
 51
90.0
  0
LINE
  5
E2
  8
DEFAULT
 10
510.3963363281357
 20
-2563.970218016675
 30
0.0
 11
499.3963363281357
 21
-2563.970218016675
 31
0.0
  0
ARC
  5
E3
  8
DEFAULT
 10
499.3963363281357
 20
-2560.720218016675
 30
0.0
 40
3.25
 50
90.0
 51
270.0
  0
LINE
  5
E4
  8
DEFAULT
 10
499.3963363281357
 20
-2557.470218016675
 30
0.0
 11
499.3963363281357
 21
-2513.970218016675
 31
0.0
  0
LINE
  5
E5
  8
DEFAULT
 10
499.3963363281357
 20
-2513.970218016675
 30
0.0
 11
454.8963363281358
 21
-2513.970218016675
 31
0.0
  0
LINE
  5
E6
  8
DEFAULT
 10
454.8963363281358
 20
-2513.970218016675
 30
0.0
 11
454.8963363281358
 21
-2613.970218016675
 31
0.0
  0
LINE
  5
E7
  8
DEFAULT
 10
454.8963363281358
 20
-2613.970218016675
 30
0.0
 11
504.8963363281357
 21
-2613.970218016675
 31
0.0
  0
LINE
  5
E8
  8
DEFAULT
 10
504.8963363281357
 20
-2613.970218016675
 30
0.0
 11
651.8071104476148
 21
-2613.970218016675
 31
0.0
  0
LINE
  5
E9
  8
DEFAULT
 10
651.8071104476148
 20
-2613.970218016675
 30
0.0
 11
651.8071104476148
 21
-2513.970218016675
 31
0.0
  0
LINE
  5
EA
  8
DEFAULT
 10
651.8071104476148
 20
-2513.970218016675
 30
0.0
 11
620.3963363281359
 21
-2513.970218016675
 31
0.0
  0
LINE
  5
EB
  8
DEFAULT
 10
620.3963363281359
 20
-2513.970218016675
 30
0.0
 11
620.3963363281359
 21
-2557.470218016675
 31
0.0
  0
ARC
  5
EC
  8
DEFAULT
 10
620.3963363281359
 20
-2560.720218016675
 30
0.0
 40
3.25
 50
270.0
 51
90.0
  0
LINE
  5
ED
  8
DEFAULT
 10
620.3963363281359
 20
-2563.970218016675
 30
0.0
 11
609.3963363281359
 21
-2563.970218016675
 31
0.0
  0
ARC
  5
EE
  8
DEFAULT
 10
609.3963363281359
 20
-2560.720218016675
 30
0.0
 40
3.25
 50
90.0
 51
270.0
  0
LINE
  5
EF
  8
DEFAULT
 10
400.0563406762969
 20
-2663.911154775766
 30
0.0
 11
400.0563406762969
 21
-2620.411154775766
 31
0.0
  0
LINE
  5
F0
  8
DEFAULT
 10
400.0563406762969
 20
-2620.411154775766
 30
0.0
 11
301.0563406762968
 21
-2620.411154775766
 31
0.0
  0
LINE
  5
F1
  8
DEFAULT
 10
301.0563406762968
 20
-2620.411154775766
 30
0.0
 11
301.0563406762968
 21
-2663.911154775766
 31
0.0
  0
ARC
  5
F2
  8
DEFAULT
 10
301.0563406762968
 20
-2667.161154775766
 30
0.0
 40
3.25
 50
270.0
 51
90.0
  0
LINE
  5
F3
  8
DEFAULT
 10
301.0563406762968
 20
-2670.411154775766
 30
0.0
 11
290.0563406762968
 21
-2670.411154775766
 31
0.0
  0
ARC
  5
F4
  8
DEFAULT
 10
290.0563406762968
 20
-2667.161154775766
 30
0.0
 40
3.25
 50
90.0
 51
270.0
  0
LINE
  5
F5
  8
DEFAULT
 10
290.0563406762968
 20
-2663.911154775766
 30
0.0
 11
290.0563406762968
 21
-2620.411154775766
 31
0.0
  0
LINE
  5
F6
  8
DEFAULT
 10
290.0563406762968
 20
-2620.411154775766
 30
0.0
 11
245.5563406762968
 21
-2620.411154775766
 31
0.0
  0
LINE
  5
F7
  8
DEFAULT
 10
245.5563406762968
 20
-2620.411154775766
 30
0.0
 11
245.5563406762968
 21
-2720.411154775766
 31
0.0
  0
LINE
  5
F8
  8
DEFAULT
 10
245.5563406762968
 20
-2720.411154775766
 30
0.0
 11
295.5563406762968
 21
-2720.411154775766
 31
0.0
  0
LINE
  5
F9
  8
DEFAULT
 10
295.5563406762968
 20
-2720.411154775766
 30
0.0
 11
442.4671147957759
 21
-2720.411154775766
 31
0.0
  0
LINE
  5
FA
  8
DEFAULT
 10
442.4671147957759
 20
-2720.411154775766
 30
0.0
 11
442.4671147957759
 21
-2620.411154775766
 31
0.0
  0
LINE
  5
FB
  8
DEFAULT
 10
442.4671147957759
 20
-2620.411154775766
 30
0.0
 11
411.0563406762969
 21
-2620.411154775766
 31
0.0
  0
LINE
  5
FC
  8
DEFAULT
 10
411.0563406762969
 20
-2620.411154775766
 30
0.0
 11
411.0563406762969
 21
-2663.911154775766
 31
0.0
  0
ARC
  5
FD
  8
DEFAULT
 10
411.0563406762969
 20
-2667.161154775766
 30
0.0
 40
3.25
 50
270.0
 51
90.0
  0
LINE
  5
FE
  8
DEFAULT
 10
411.0563406762969
 20
-2670.411154775766
 30
0.0
 11
400.0563406762969
 21
-2670.411154775766
 31
0.0
  0
ARC
  5
FF
  8
DEFAULT
 10
400.0563406762969
 20
-2667.161154775766
 30
0.0
 40
3.25
 50
90.0
 51
270.0
  0
LINE
  5
100
  8
DEFAULT
 10
177.6271191439367
 20
-2664.342290824332
 30
0.0
 11
177.6271191439367
 21
-2620.842290824332
 31
0.0
  0
LINE
  5
101
  8
DEFAULT
 10
177.6271191439367
 20
-2620.842290824332
 30
0.0
 11
78.62711914393681
 21
-2620.842290824332
 31
0.0
  0
LINE
  5
102
  8
DEFAULT
 10
78.62711914393681
 20
-2620.842290824332
 30
0.0
 11
78.62711914393674
 21
-2664.342290824332
 31
0.0
  0
ARC
  5
103
  8
DEFAULT
 10
78.62711914393674
 20
-2667.592290824332
 30
0.0
 40
3.25
 50
270.0
 51
90.0
  0
LINE
  5
104
  8
DEFAULT
 10
78.62711914393674
 20
-2670.842290824332
 30
0.0
 11
67.62711914393674
 21
-2670.842290824332
 31
0.0
  0
ARC
  5
105
  8
DEFAULT
 10
67.62711914393674
 20
-2667.592290824332
 30
0.0
 40
3.25
 50
90.0
 51
270.0
  0
LINE
  5
106
  8
DEFAULT
 10
67.62711914393674
 20
-2664.342290824332
 30
0.0
 11
67.6271191439367
 21
-2620.842290824332
 31
0.0
  0
LINE
  5
107
  8
DEFAULT
 10
67.6271191439367
 20
-2620.842290824332
 30
0.0
 11
-31.3728808560633
 21
-2620.842290824333
 31
0.0
  0
LINE
  5
108
  8
DEFAULT
 10
-31.3728808560633
 20
-2620.842290824333
 30
0.0
 11
-31.3728808560633
 21
-2664.342290824333
 31
0.0
  0
ARC
  5
109
  8
DEFAULT
 10
-31.3728808560633
 20
-2667.592290824333
 30
0.0
 40
3.25
 50
270.0
 51
90.0
  0
LINE
  5
10A
  8
DEFAULT
 10
-31.3728808560633
 20
-2670.842290824333
 30
0.0
 11
-42.3728808560633
 21
-2670.842290824333
 31
0.0
  0
ARC
  5
10B
  8
DEFAULT
 10
-42.3728808560633
 20
-2667.592290824333
 30
0.0
 40
3.25
 50
90.0
 51
270.0
  0
LINE
  5
10C
  8
DEFAULT
 10
-42.3728808560633
 20
-2664.342290824333
 30
0.0
 11
-42.3728808560633
 21
-2620.842290824333
 31
0.0
  0
LINE
  5
10D
  8
DEFAULT
 10
-42.3728808560633
 20
-2620.842290824333
 30
0.0
 11
-141.3728808560633
 21
-2620.842290824333
 31
0.0
  0
LINE
  5
10E
  8
DEFAULT
 10
-141.3728808560633
 20
-2620.842290824333
 30
0.0
 11
-141.3728808560633
 21
-2664.342290824333
 31
0.0
  0
ARC
  5
10F
  8
DEFAULT
 10
-141.3728808560633
 20
-2667.592290824333
 30
0.0
 40
3.25
 50
270.0
 51
90.0
  0
LINE
  5
110
  8
DEFAULT
 10
-141.3728808560633
 20
-2670.842290824333
 30
0.0
 11
-152.3728808560633
 21
-2670.842290824333
 31
0.0
  0
ARC
  5
111
  8
DEFAULT
 10
-152.3728808560633
 20
-2667.592290824333
 30
0.0
 40
3.25
 50
90.0
 51
270.0
  0
LINE
  5
112
  8
DEFAULT
 10
-152.3728808560633
 20
-2664.342290824333
 30
0.0
 11
-152.3728808560633
 21
-2620.842290824333
 31
0.0
  0
LINE
  5
113
  8
DEFAULT
 10
-152.3728808560633
 20
-2620.842290824333
 30
0.0
 11
-196.8728808560633
 21
-2620.842290824333
 31
0.0
  0
LINE
  5
114
  8
DEFAULT
 10
-196.8728808560633
 20
-2620.842290824333
 30
0.0
 11
-196.8728808560633
 21
-2720.842290824333
 31
0.0
  0
LINE
  5
115
  8
DEFAULT
 10
-196.8728808560633
 20
-2720.842290824333
 30
0.0
 11
-146.8728808560633
 21
-2720.842290824333
 31
0.0
  0
LINE
  5
116
  8
DEFAULT
 10
-146.8728808560633
 20
-2720.842290824333
 30
0.0
 11
183.1271191439369
 21
-2720.842290824332
 31
0.0
  0
LINE
  5
117
  8
DEFAULT
 10
183.1271191439369
 20
-2720.842290824332
 30
0.0
 11
233.1271191439369
 21
-2720.842290824332
 31
0.0
  0
LINE
  5
118
  8
DEFAULT
 10
233.1271191439369
 20
-2720.842290824332
 30
0.0
 11
233.1271191439368
 21
-2620.842290824332
 31
0.0
  0
LINE
  5
119
  8
DEFAULT
 10
233.1271191439368
 20
-2620.842290824332
 30
0.0
 11
188.6271191439367
 21
-2620.842290824332
 31
0.0
  0
LINE
  5
11A
  8
DEFAULT
 10
188.6271191439367
 20
-2620.842290824332
 30
0.0
 11
188.6271191439368
 21
-2664.342290824332
 31
0.0
  0
ARC
  5
11B
  8
DEFAULT
 10
188.6271191439367
 20
-2667.592290824332
 30
0.0
 40
3.25
 50
270.0
 51
90.0
  0
LINE
  5
11C
  8
DEFAULT
 10
188.6271191439367
 20
-2670.842290824332
 30
0.0
 11
177.6271191439367
 21
-2670.842290824332
 31
0.0
  0
ARC
  5
11D
  8
DEFAULT
 10
177.6271191439367
 20
-2667.592290824332
 30
0.0
 40
3.25
 50
90.0
 51
270.0
  0
LINE
  5
11E
  8
DEFAULT
 10
609.3963363281359
 20
-2663.480018727199
 30
0.0
 11
609.3963363281359
 21
-2619.980018727199
 31
0.0
  0
LINE
  5
11F
  8
DEFAULT
 10
609.3963363281359
 20
-2619.980018727199
 30
0.0
 11
510.3963363281357
 21
-2619.980018727199
 31
0.0
  0
LINE
  5
120
  8
DEFAULT
 10
510.3963363281357
 20
-2619.980018727199
 30
0.0
 11
510.3963363281357
 21
-2663.480018727199
 31
0.0
  0
ARC
  5
121
  8
DEFAULT
 10
510.3963363281357
 20
-2666.730018727199
 30
0.0
 40
3.25
 50
270.0
 51
90.0
  0
LINE
  5
122
  8
DEFAULT
 10
510.3963363281357
 20
-2669.980018727199
 30
0.0
 11
499.3963363281357
 21
-2669.980018727199
 31
0.0
  0
ARC
  5
123
  8
DEFAULT
 10
499.3963363281357
 20
-2666.730018727199
 30
0.0
 40
3.25
 50
90.0
 51
270.0
  0
LINE
  5
124
  8
DEFAULT
 10
499.3963363281357
 20
-2663.480018727199
 30
0.0
 11
499.3963363281357
 21
-2619.980018727199
 31
0.0
  0
LINE
  5
125
  8
DEFAULT
 10
499.3963363281357
 20
-2619.980018727199
 30
0.0
 11
454.8963363281358
 21
-2619.980018727199
 31
0.0
  0
LINE
  5
126
  8
DEFAULT
 10
454.8963363281358
 20
-2619.980018727199
 30
0.0
 11
454.8963363281358
 21
-2719.980018727199
 31
0.0
  0
LINE
  5
127
  8
DEFAULT
 10
454.8963363281358
 20
-2719.980018727199
 30
0.0
 11
504.8963363281357
 21
-2719.980018727199
 31
0.0
  0
LINE
  5
128
  8
DEFAULT
 10
504.8963363281357
 20
-2719.980018727199
 30
0.0
 11
651.8071104476148
 21
-2719.980018727199
 31
0.0
  0
LINE
  5
129
  8
DEFAULT
 10
651.8071104476148
 20
-2719.980018727199
 30
0.0
 11
651.8071104476148
 21
-2619.980018727199
 31
0.0
  0
LINE
  5
12A
  8
DEFAULT
 10
651.8071104476148
 20
-2619.980018727199
 30
0.0
 11
620.3963363281359
 21
-2619.980018727199
 31
0.0
  0
LINE
  5
12B
  8
DEFAULT
 10
620.3963363281359
 20
-2619.980018727199
 30
0.0
 11
620.3963363281359
 21
-2663.480018727199
 31
0.0
  0
ARC
  5
12C
  8
DEFAULT
 10
620.3963363281359
 20
-2666.730018727199
 30
0.0
 40
3.25
 50
270.0
 51
90.0
  0
LINE
  5
12D
  8
DEFAULT
 10
620.3963363281359
 20
-2669.980018727199
 30
0.0
 11
609.3963363281359
 21
-2669.980018727199
 31
0.0
  0
ARC
  5
12E
  8
DEFAULT
 10
609.3963363281359
 20
-2666.730018727199
 30
0.0
 40
3.25
 50
90.0
 51
270.0
  0
LINE
  5
12F
  8
DEFAULT
 10
400.0563406762969
 20
-2769.92095548629
 30
0.0
 11
400.0563406762969
 21
-2726.42095548629
 31
0.0
  0
LINE
  5
130
  8
DEFAULT
 10
400.0563406762969
 20
-2726.42095548629
 30
0.0
 11
301.0563406762968
 21
-2726.42095548629
 31
0.0
  0
LINE
  5
131
  8
DEFAULT
 10
301.0563406762968
 20
-2726.42095548629
 30
0.0
 11
301.0563406762968
 21
-2769.92095548629
 31
0.0
  0
ARC
  5
132
  8
DEFAULT
 10
301.0563406762968
 20
-2773.17095548629
 30
0.0
 40
3.25
 50
270.0
 51
90.0
  0
LINE
  5
133
  8
DEFAULT
 10
301.0563406762968
 20
-2776.42095548629
 30
0.0
 11
290.0563406762968
 21
-2776.42095548629
 31
0.0
  0
ARC
  5
134
  8
DEFAULT
 10
290.0563406762968
 20
-2773.17095548629
 30
0.0
 40
3.25
 50
90.0
 51
270.0
  0
LINE
  5
135
  8
DEFAULT
 10
290.0563406762968
 20
-2769.92095548629
 30
0.0
 11
290.0563406762968
 21
-2726.42095548629
 31
0.0
  0
LINE
  5
136
  8
DEFAULT
 10
290.0563406762968
 20
-2726.42095548629
 30
0.0
 11
245.5563406762968
 21
-2726.42095548629
 31
0.0
  0
LINE
  5
137
  8
DEFAULT
 10
245.5563406762968
 20
-2726.42095548629
 30
0.0
 11
245.5563406762968
 21
-2826.42095548629
 31
0.0
  0
LINE
  5
138
  8
DEFAULT
 10
245.5563406762968
 20
-2826.42095548629
 30
0.0
 11
295.5563406762968
 21
-2826.42095548629
 31
0.0
  0
LINE
  5
139
  8
DEFAULT
 10
295.5563406762968
 20
-2826.42095548629
 30
0.0
 11
442.4671147957759
 21
-2826.42095548629
 31
0.0
  0
LINE
  5
13A
  8
DEFAULT
 10
442.4671147957759
 20
-2826.42095548629
 30
0.0
 11
442.4671147957759
 21
-2726.42095548629
 31
0.0
  0
LINE
  5
13B
  8
DEFAULT
 10
442.4671147957759
 20
-2726.42095548629
 30
0.0
 11
411.0563406762969
 21
-2726.42095548629
 31
0.0
  0
LINE
  5
13C
  8
DEFAULT
 10
411.0563406762969
 20
-2726.42095548629
 30
0.0
 11
411.0563406762969
 21
-2769.92095548629
 31
0.0
  0
ARC
  5
13D
  8
DEFAULT
 10
411.0563406762969
 20
-2773.17095548629
 30
0.0
 40
3.25
 50
270.0
 51
90.0
  0
LINE
  5
13E
  8
DEFAULT
 10
411.0563406762969
 20
-2776.42095548629
 30
0.0
 11
400.0563406762969
 21
-2776.42095548629
 31
0.0
  0
ARC
  5
13F
  8
DEFAULT
 10
400.0563406762969
 20
-2773.17095548629
 30
0.0
 40
3.25
 50
90.0
 51
270.0
  0
LINE
  5
140
  8
DEFAULT
 10
177.6271191439367
 20
-2770.352091534856
 30
0.0
 11
177.6271191439367
 21
-2726.852091534856
 31
0.0
  0
LINE
  5
141
  8
DEFAULT
 10
177.6271191439367
 20
-2726.852091534856
 30
0.0
 11
78.62711914393681
 21
-2726.852091534856
 31
0.0
  0
LINE
  5
142
  8
DEFAULT
 10
78.62711914393681
 20
-2726.852091534856
 30
0.0
 11
78.62711914393674
 21
-2770.352091534856
 31
0.0
  0
ARC
  5
143
  8
DEFAULT
 10
78.62711914393674
 20
-2773.602091534856
 30
0.0
 40
3.25
 50
270.0
 51
90.0
  0
LINE
  5
144
  8
DEFAULT
 10
78.62711914393674
 20
-2776.852091534856
 30
0.0
 11
67.62711914393674
 21
-2776.852091534856
 31
0.0
  0
ARC
  5
145
  8
DEFAULT
 10
67.62711914393674
 20
-2773.602091534856
 30
0.0
 40
3.25
 50
90.0
 51
270.0
  0
LINE
  5
146
  8
DEFAULT
 10
67.62711914393674
 20
-2770.352091534856
 30
0.0
 11
67.6271191439367
 21
-2726.852091534856
 31
0.0
  0
LINE
  5
147
  8
DEFAULT
 10
67.6271191439367
 20
-2726.852091534856
 30
0.0
 11
-31.3728808560633
 21
-2726.852091534856
 31
0.0
  0
LINE
  5
148
  8
DEFAULT
 10
-31.3728808560633
 20
-2726.852091534856
 30
0.0
 11
-31.3728808560633
 21
-2770.352091534856
 31
0.0
  0
ARC
  5
149
  8
DEFAULT
 10
-31.3728808560633
 20
-2773.602091534856
 30
0.0
 40
3.25
 50
270.0
 51
90.0
  0
LINE
  5
14A
  8
DEFAULT
 10
-31.3728808560633
 20
-2776.852091534856
 30
0.0
 11
-42.3728808560633
 21
-2776.852091534856
 31
0.0
  0
ARC
  5
14B
  8
DEFAULT
 10
-42.3728808560633
 20
-2773.602091534856
 30
0.0
 40
3.25
 50
90.0
 51
270.0
  0
LINE
  5
14C
  8
DEFAULT
 10
-42.3728808560633
 20
-2770.352091534856
 30
0.0
 11
-42.3728808560633
 21
-2726.852091534856
 31
0.0
  0
LINE
  5
14D
  8
DEFAULT
 10
-42.3728808560633
 20
-2726.852091534856
 30
0.0
 11
-141.3728808560633
 21
-2726.852091534856
 31
0.0
  0
LINE
  5
14E
  8
DEFAULT
 10
-141.3728808560633
 20
-2726.852091534856
 30
0.0
 11
-141.3728808560633
 21
-2770.352091534856
 31
0.0
  0
ARC
  5
14F
  8
DEFAULT
 10
-141.3728808560633
 20
-2773.602091534856
 30
0.0
 40
3.25
 50
270.0
 51
90.0
  0
LINE
  5
150
  8
DEFAULT
 10
-141.3728808560633
 20
-2776.852091534856
 30
0.0
 11
-152.3728808560633
 21
-2776.852091534856
 31
0.0
  0
ARC
  5
151
  8
DEFAULT
 10
-152.3728808560633
 20
-2773.602091534856
 30
0.0
 40
3.25
 50
90.0
 51
270.0
  0
LINE
  5
152
  8
DEFAULT
 10
-152.3728808560633
 20
-2770.352091534856
 30
0.0
 11
-152.3728808560633
 21
-2726.852091534856
 31
0.0
  0
LINE
  5
153
  8
DEFAULT
 10
-152.3728808560633
 20
-2726.852091534856
 30
0.0
 11
-196.8728808560633
 21
-2726.852091534857
 31
0.0
  0
LINE
  5
154
  8
DEFAULT
 10
-196.8728808560633
 20
-2726.852091534857
 30
0.0
 11
-196.8728808560633
 21
-2826.852091534857
 31
0.0
  0
LINE
  5
155
  8
DEFAULT
 10
-196.8728808560633
 20
-2826.852091534857
 30
0.0
 11
-146.8728808560633
 21
-2826.852091534856
 31
0.0
  0
LINE
  5
156
  8
DEFAULT
 10
-146.8728808560633
 20
-2826.852091534856
 30
0.0
 11
183.1271191439369
 21
-2826.852091534856
 31
0.0
  0
LINE
  5
157
  8
DEFAULT
 10
183.1271191439369
 20
-2826.852091534856
 30
0.0
 11
233.1271191439369
 21
-2826.852091534856
 31
0.0
  0
LINE
  5
158
  8
DEFAULT
 10
233.1271191439369
 20
-2826.852091534856
 30
0.0
 11
233.1271191439368
 21
-2726.852091534856
 31
0.0
  0
LINE
  5
159
  8
DEFAULT
 10
233.1271191439368
 20
-2726.852091534856
 30
0.0
 11
188.6271191439367
 21
-2726.852091534856
 31
0.0
  0
LINE
  5
15A
  8
DEFAULT
 10
188.6271191439367
 20
-2726.852091534856
 30
0.0
 11
188.6271191439368
 21
-2770.352091534856
 31
0.0
  0
ARC
  5
15B
  8
DEFAULT
 10
188.6271191439367
 20
-2773.602091534856
 30
0.0
 40
3.25
 50
270.0
 51
90.0
  0
LINE
  5
15C
  8
DEFAULT
 10
188.6271191439367
 20
-2776.852091534856
 30
0.0
 11
177.6271191439367
 21
-2776.852091534856
 31
0.0
  0
ARC
  5
15D
  8
DEFAULT
 10
177.6271191439367
 20
-2773.602091534856
 30
0.0
 40
3.25
 50
90.0
 51
270.0
  0
LINE
  5
15E
  8
DEFAULT
 10
609.3963363281359
 20
-2769.489819437723
 30
0.0
 11
609.3963363281359
 21
-2725.989819437723
 31
0.0
  0
LINE
  5
15F
  8
DEFAULT
 10
609.3963363281359
 20
-2725.989819437723
 30
0.0
 11
510.3963363281357
 21
-2725.989819437723
 31
0.0
  0
LINE
  5
160
  8
DEFAULT
 10
510.3963363281357
 20
-2725.989819437723
 30
0.0
 11
510.3963363281357
 21
-2769.489819437723
 31
0.0
  0
ARC
  5
161
  8
DEFAULT
 10
510.3963363281357
 20
-2772.739819437723
 30
0.0
 40
3.25
 50
270.0
 51
90.0
  0
LINE
  5
162
  8
DEFAULT
 10
510.3963363281357
 20
-2775.989819437723
 30
0.0
 11
499.3963363281357
 21
-2775.989819437723
 31
0.0
  0
ARC
  5
163
  8
DEFAULT
 10
499.3963363281357
 20
-2772.739819437723
 30
0.0
 40
3.25
 50
90.0
 51
270.0
  0
LINE
  5
164
  8
DEFAULT
 10
499.3963363281357
 20
-2769.489819437723
 30
0.0
 11
499.3963363281357
 21
-2725.989819437723
 31
0.0
  0
LINE
  5
165
  8
DEFAULT
 10
499.3963363281357
 20
-2725.989819437723
 30
0.0
 11
454.8963363281358
 21
-2725.989819437723
 31
0.0
  0
LINE
  5
166
  8
DEFAULT
 10
454.8963363281358
 20
-2725.989819437723
 30
0.0
 11
454.8963363281358
 21
-2825.989819437723
 31
0.0
  0
LINE
  5
167
  8
DEFAULT
 10
454.8963363281358
 20
-2825.989819437723
 30
0.0
 11
504.8963363281357
 21
-2825.989819437723
 31
0.0
  0
LINE
  5
168
  8
DEFAULT
 10
504.8963363281357
 20
-2825.989819437723
 30
0.0
 11
651.8071104476148
 21
-2825.989819437723
 31
0.0
  0
LINE
  5
169
  8
DEFAULT
 10
651.8071104476148
 20
-2825.989819437723
 30
0.0
 11
651.8071104476148
 21
-2725.989819437723
 31
0.0
  0
LINE
  5
16A
  8
DEFAULT
 10
651.8071104476148
 20
-2725.989819437723
 30
0.0
 11
620.3963363281359
 21
-2725.989819437723
 31
0.0
  0
LINE
  5
16B
  8
DEFAULT
 10
620.3963363281359
 20
-2725.989819437723
 30
0.0
 11
620.3963363281359
 21
-2769.489819437723
 31
0.0
  0
ARC
  5
16C
  8
DEFAULT
 10
620.3963363281359
 20
-2772.739819437723
 30
0.0
 40
3.25
 50
270.0
 51
90.0
  0
LINE
  5
16D
  8
DEFAULT
 10
620.3963363281359
 20
-2775.989819437723
 30
0.0
 11
609.3963363281359
 21
-2775.989819437723
 31
0.0
  0
ARC
  5
16E
  8
DEFAULT
 10
609.3963363281359
 20
-2772.739819437723
 30
0.0
 40
3.25
 50
90.0
 51
270.0
  0
LINE
  5
16F
  8
DEFAULT
 10
110.0378932634165
 20
-2837.121668879758
 30
0.0
 11
78.62711914393749
 21
-2837.121668879758
 31
0.0
  0
LINE
  5
170
  8
DEFAULT
 10
78.62711914393749
 20
-2837.121668879758
 30
0.0
 11
78.62711914393742
 21
-2880.621668879758
 31
0.0
  0
ARC
  5
171
  8
DEFAULT
 10
78.62711914393742
 20
-2883.871668879758
 30
0.0
 40
3.25
 50
270.0
 51
90.0
  0
LINE
  5
172
  8
DEFAULT
 10
78.62711914393742
 20
-2887.121668879758
 30
0.0
 11
67.62711914393742
 21
-2887.121668879758
 31
0.0
  0
ARC
  5
173
  8
DEFAULT
 10
67.62711914393742
 20
-2883.871668879758
 30
0.0
 40
3.25
 50
90.0
 51
270.0
  0
LINE
  5
174
  8
DEFAULT
 10
67.62711914393742
 20
-2880.621668879758
 30
0.0
 11
67.62711914393738
 21
-2837.121668879758
 31
0.0
  0
LINE
  5
175
  8
DEFAULT
 10
67.62711914393738
 20
-2837.121668879758
 30
0.0
 11
-31.37288085606262
 21
-2837.121668879759
 31
0.0
  0
LINE
  5
176
  8
DEFAULT
 10
-31.37288085606262
 20
-2837.121668879759
 30
0.0
 11
-31.37288085606262
 21
-2880.621668879759
 31
0.0
  0
ARC
  5
177
  8
DEFAULT
 10
-31.37288085606262
 20
-2883.871668879759
 30
0.0
 40
3.25
 50
270.0
 51
90.0
  0
LINE
  5
178
  8
DEFAULT
 10
-31.37288085606262
 20
-2887.121668879759
 30
0.0
 11
-42.37288085606262
 21
-2887.121668879759
 31
0.0
  0
ARC
  5
179
  8
DEFAULT
 10
-42.37288085606262
 20
-2883.871668879759
 30
0.0
 40
3.25
 50
90.0
 51
270.0
  0
LINE
  5
17A
  8
DEFAULT
 10
-42.37288085606262
 20
-2880.621668879758
 30
0.0
 11
-42.37288085606262
 21
-2837.121668879759
 31
0.0
  0
LINE
  5
17B
  8
DEFAULT
 10
-42.37288085606262
 20
-2837.121668879759
 30
0.0
 11
-141.3728808560626
 21
-2837.121668879759
 31
0.0
  0
LINE
  5
17C
  8
DEFAULT
 10
-141.3728808560626
 20
-2837.121668879759
 30
0.0
 11
-141.3728808560626
 21
-2880.621668879759
 31
0.0
  0
ARC
  5
17D
  8
DEFAULT
 10
-141.3728808560626
 20
-2883.871668879759
 30
0.0
 40
3.25
 50
270.0
 51
90.0
  0
LINE
  5
17E
  8
DEFAULT
 10
-141.3728808560626
 20
-2887.121668879759
 30
0.0
 11
-152.3728808560626
 21
-2887.121668879759
 31
0.0
  0
ARC
  5
17F
  8
DEFAULT
 10
-152.3728808560626
 20
-2883.871668879759
 30
0.0
 40
3.25
 50
90.0
 51
270.0
  0
LINE
  5
180
  8
DEFAULT
 10
-152.3728808560626
 20
-2880.621668879759
 30
0.0
 11
-152.3728808560626
 21
-2837.121668879759
 31
0.0
  0
LINE
  5
181
  8
DEFAULT
 10
-152.3728808560626
 20
-2837.121668879759
 30
0.0
 11
-196.8728808560626
 21
-2837.121668879759
 31
0.0
  0
LINE
  5
182
  8
DEFAULT
 10
-196.8728808560626
 20
-2837.121668879759
 30
0.0
 11
-196.8728808560626
 21
-2937.121668879759
 31
0.0
  0
LINE
  5
183
  8
DEFAULT
 10
-196.8728808560626
 20
-2937.121668879759
 30
0.0
 11
-146.8728808560626
 21
-2937.121668879759
 31
0.0
  0
LINE
  5
184
  8
DEFAULT
 10
-146.8728808560626
 20
-2937.121668879759
 30
0.0
 11
110.0378932634166
 21
-2937.121668879758
 31
0.0
  0
LINE
  5
185
  8
DEFAULT
 10
110.0378932634166
 20
-2937.121668879758
 30
0.0
 11
110.0378932634165
 21
-2837.121668879758
 31
0.0
  0
LINE
  5
186
  8
DEFAULT
 10
110.0378932634172
 20
-2947.39124622466
 30
0.0
 11
78.62711914393817
 21
-2947.39124622466
 31
0.0
  0
LINE
  5
187
  8
DEFAULT
 10
78.62711914393817
 20
-2947.39124622466
 30
0.0
 11
78.6271191439381
 21
-2990.89124622466
 31
0.0
  0
ARC
  5
188
  8
DEFAULT
 10
78.6271191439381
 20
-2994.14124622466
 30
0.0
 40
3.25
 50
270.0
 51
90.0
  0
LINE
  5
189
  8
DEFAULT
 10
78.6271191439381
 20
-2997.39124622466
 30
0.0
 11
67.6271191439381
 21
-2997.39124622466
 31
0.0
  0
ARC
  5
18A
  8
DEFAULT
 10
67.6271191439381
 20
-2994.14124622466
 30
0.0
 40
3.25
 50
90.0
 51
270.0
  0
LINE
  5
18B
  8
DEFAULT
 10
67.6271191439381
 20
-2990.89124622466
 30
0.0
 11
67.62711914393806
 21
-2947.39124622466
 31
0.0
  0
LINE
  5
18C
  8
DEFAULT
 10
67.62711914393806
 20
-2947.39124622466
 30
0.0
 11
-31.37288085606194
 21
-2947.39124622466
 31
0.0
  0
LINE
  5
18D
  8
DEFAULT
 10
-31.37288085606194
 20
-2947.39124622466
 30
0.0
 11
-31.37288085606194
 21
-2990.89124622466
 31
0.0
  0
ARC
  5
18E
  8
DEFAULT
 10
-31.37288085606194
 20
-2994.14124622466
 30
0.0
 40
3.25
 50
270.0
 51
90.0
  0
LINE
  5
18F
  8
DEFAULT
 10
-31.37288085606194
 20
-2997.39124622466
 30
0.0
 11
-42.37288085606194
 21
-2997.39124622466
 31
0.0
  0
ARC
  5
190
  8
DEFAULT
 10
-42.37288085606194
 20
-2994.14124622466
 30
0.0
 40
3.25
 50
90.0
 51
270.0
  0
LINE
  5
191
  8
DEFAULT
 10
-42.37288085606194
 20
-2990.89124622466
 30
0.0
 11
-42.37288085606194
 21
-2947.39124622466
 31
0.0
  0
LINE
  5
192
  8
DEFAULT
 10
-42.37288085606194
 20
-2947.39124622466
 30
0.0
 11
-141.372880856062
 21
-2947.39124622466
 31
0.0
  0
LINE
  5
193
  8
DEFAULT
 10
-141.372880856062
 20
-2947.39124622466
 30
0.0
 11
-141.372880856062
 21
-2990.89124622466
 31
0.0
  0
ARC
  5
194
  8
DEFAULT
 10
-141.372880856062
 20
-2994.14124622466
 30
0.0
 40
3.25
 50
270.0
 51
90.0
  0
LINE
  5
195
  8
DEFAULT
 10
-141.372880856062
 20
-2997.39124622466
 30
0.0
 11
-152.372880856062
 21
-2997.39124622466
 31
0.0
  0
ARC
  5
196
  8
DEFAULT
 10
-152.372880856062
 20
-2994.14124622466
 30
0.0
 40
3.25
 50
90.0
 51
270.0
  0
LINE
  5
197
  8
DEFAULT
 10
-152.372880856062
 20
-2990.89124622466
 30
0.0
 11
-152.372880856062
 21
-2947.39124622466
 31
0.0
  0
LINE
  5
198
  8
DEFAULT
 10
-152.372880856062
 20
-2947.39124622466
 30
0.0
 11
-196.872880856062
 21
-2947.39124622466
 31
0.0
  0
LINE
  5
199
  8
DEFAULT
 10
-196.872880856062
 20
-2947.39124622466
 30
0.0
 11
-196.872880856062
 21
-3047.39124622466
 31
0.0
  0
LINE
  5
19A
  8
DEFAULT
 10
-196.872880856062
 20
-3047.39124622466
 30
0.0
 11
-146.872880856062
 21
-3047.39124622466
 31
0.0
  0
LINE
  5
19B
  8
DEFAULT
 10
-146.872880856062
 20
-3047.39124622466
 30
0.0
 11
110.0378932634173
 21
-3047.39124622466
 31
0.0
  0
LINE
  5
19C
  8
DEFAULT
 10
110.0378932634173
 20
-3047.39124622466
 30
0.0
 11
110.0378932634172
 21
-2947.39124622466
 31
0.0
  0
LINE
  5
19D
  8
DEFAULT
 10
110.0378932634179
 20
-3057.660823569562
 30
0.0
 11
78.62711914393886
 21
-3057.660823569562
 31
0.0
  0
LINE
  5
19E
  8
DEFAULT
 10
78.62711914393886
 20
-3057.660823569562
 30
0.0
 11
78.62711914393878
 21
-3101.160823569562
 31
0.0
  0
ARC
  5
19F
  8
DEFAULT
 10
78.62711914393878
 20
-3104.410823569562
 30
0.0
 40
3.25
 50
270.0
 51
90.0
  0
LINE
  5
1A0
  8
DEFAULT
 10
78.62711914393878
 20
-3107.660823569562
 30
0.0
 11
67.62711914393878
 21
-3107.660823569562
 31
0.0
  0
ARC
  5
1A1
  8
DEFAULT
 10
67.62711914393878
 20
-3104.410823569562
 30
0.0
 40
3.25
 50
90.0
 51
270.0
  0
LINE
  5
1A2
  8
DEFAULT
 10
67.62711914393878
 20
-3101.160823569562
 30
0.0
 11
67.62711914393874
 21
-3057.660823569562
 31
0.0
  0
LINE
  5
1A3
  8
DEFAULT
 10
67.62711914393874
 20
-3057.660823569562
 30
0.0
 11
-31.37288085606126
 21
-3057.660823569562
 31
0.0
  0
LINE
  5
1A4
  8
DEFAULT
 10
-31.37288085606126
 20
-3057.660823569562
 30
0.0
 11
-31.37288085606126
 21
-3101.160823569562
 31
0.0
  0
ARC
  5
1A5
  8
DEFAULT
 10
-31.37288085606126
 20
-3104.410823569562
 30
0.0
 40
3.25
 50
270.0
 51
90.0
  0
LINE
  5
1A6
  8
DEFAULT
 10
-31.37288085606126
 20
-3107.660823569562
 30
0.0
 11
-42.37288085606126
 21
-3107.660823569562
 31
0.0
  0
ARC
  5
1A7
  8
DEFAULT
 10
-42.37288085606126
 20
-3104.410823569562
 30
0.0
 40
3.25
 50
90.0
 51
270.0
  0
LINE
  5
1A8
  8
DEFAULT
 10
-42.37288085606126
 20
-3101.160823569562
 30
0.0
 11
-42.37288085606126
 21
-3057.660823569562
 31
0.0
  0
LINE
  5
1A9
  8
DEFAULT
 10
-42.37288085606126
 20
-3057.660823569562
 30
0.0
 11
-141.3728808560613
 21
-3057.660823569562
 31
0.0
  0
LINE
  5
1AA
  8
DEFAULT
 10
-141.3728808560613
 20
-3057.660823569562
 30
0.0
 11
-141.3728808560613
 21
-3101.160823569562
 31
0.0
  0
ARC
  5
1AB
  8
DEFAULT
 10
-141.3728808560613
 20
-3104.410823569562
 30
0.0
 40
3.25
 50
270.0
 51
90.0
  0
LINE
  5
1AC
  8
DEFAULT
 10
-141.3728808560613
 20
-3107.660823569562
 30
0.0
 11
-152.3728808560613
 21
-3107.660823569562
 31
0.0
  0
ARC
  5
1AD
  8
DEFAULT
 10
-152.3728808560613
 20
-3104.410823569562
 30
0.0
 40
3.25
 50
90.0
 51
270.0
  0
LINE
  5
1AE
  8
DEFAULT
 10
-152.3728808560613
 20
-3101.160823569562
 30
0.0
 11
-152.3728808560613
 21
-3057.660823569562
 31
0.0
  0
LINE
  5
1AF
  8
DEFAULT
 10
-152.3728808560613
 20
-3057.660823569562
 30
0.0
 11
-196.8728808560613
 21
-3057.660823569562
 31
0.0
  0
LINE
  5
1B0
  8
DEFAULT
 10
-196.8728808560613
 20
-3057.660823569562
 30
0.0
 11
-196.8728808560613
 21
-3157.660823569562
 31
0.0
  0
LINE
  5
1B1
  8
DEFAULT
 10
-196.8728808560613
 20
-3157.660823569562
 30
0.0
 11
-146.8728808560613
 21
-3157.660823569562
 31
0.0
  0
LINE
  5
1B2
  8
DEFAULT
 10
-146.8728808560613
 20
-3157.660823569562
 30
0.0
 11
110.037893263418
 21
-3157.660823569562
 31
0.0
  0
LINE
  5
1B3
  8
DEFAULT
 10
110.037893263418
 20
-3157.660823569562
 30
0.0
 11
110.0378932634179
 21
-3057.660823569562
 31
0.0
  0
LINE
  5
1B4
  8
DEFAULT
 10
110.0378932634186
 20
-3167.930400914463
 30
0.0
 11
78.62711914393954
 21
-3167.930400914463
 31
0.0
  0
LINE
  5
1B5
  8
DEFAULT
 10
78.62711914393954
 20
-3167.930400914463
 30
0.0
 11
78.62711914393947
 21
-3211.430400914463
 31
0.0
  0
ARC
  5
1B6
  8
DEFAULT
 10
78.62711914393947
 20
-3214.680400914463
 30
0.0
 40
3.25
 50
270.0
 51
90.0
  0
LINE
  5
1B7
  8
DEFAULT
 10
78.62711914393947
 20
-3217.930400914463
 30
0.0
 11
67.62711914393947
 21
-3217.930400914463
 31
0.0
  0
ARC
  5
1B8
  8
DEFAULT
 10
67.62711914393947
 20
-3214.680400914463
 30
0.0
 40
3.25
 50
90.0
 51
270.0
  0
LINE
  5
1B9
  8
DEFAULT
 10
67.62711914393947
 20
-3211.430400914463
 30
0.0
 11
67.62711914393942
 21
-3167.930400914463
 31
0.0
  0
LINE
  5
1BA
  8
DEFAULT
 10
67.62711914393942
 20
-3167.930400914463
 30
0.0
 11
-31.37288085606058
 21
-3167.930400914463
 31
0.0
  0
LINE
  5
1BB
  8
DEFAULT
 10
-31.37288085606058
 20
-3167.930400914463
 30
0.0
 11
-31.37288085606058
 21
-3211.430400914463
 31
0.0
  0
ARC
  5
1BC
  8
DEFAULT
 10
-31.37288085606058
 20
-3214.680400914463
 30
0.0
 40
3.25
 50
270.0
 51
90.0
  0
LINE
  5
1BD
  8
DEFAULT
 10
-31.37288085606058
 20
-3217.930400914463
 30
0.0
 11
-42.37288085606058
 21
-3217.930400914463
 31
0.0
  0
ARC
  5
1BE
  8
DEFAULT
 10
-42.37288085606058
 20
-3214.680400914463
 30
0.0
 40
3.25
 50
90.0
 51
270.0
  0
LINE
  5
1BF
  8
DEFAULT
 10
-42.37288085606058
 20
-3211.430400914463
 30
0.0
 11
-42.37288085606058
 21
-3167.930400914463
 31
0.0
  0
LINE
  5
1C0
  8
DEFAULT
 10
-42.37288085606058
 20
-3167.930400914463
 30
0.0
 11
-141.3728808560606
 21
-3167.930400914463
 31
0.0
  0
LINE
  5
1C1
  8
DEFAULT
 10
-141.3728808560606
 20
-3167.930400914463
 30
0.0
 11
-141.3728808560606
 21
-3211.430400914463
 31
0.0
  0
ARC
  5
1C2
  8
DEFAULT
 10
-141.3728808560606
 20
-3214.680400914463
 30
0.0
 40
3.25
 50
270.0
 51
90.0
  0
LINE
  5
1C3
  8
DEFAULT
 10
-141.3728808560606
 20
-3217.930400914463
 30
0.0
 11
-152.3728808560606
 21
-3217.930400914463
 31
0.0
  0
ARC
  5
1C4
  8
DEFAULT
 10
-152.3728808560606
 20
-3214.680400914463
 30
0.0
 40
3.25
 50
90.0
 51
270.0
  0
LINE
  5
1C5
  8
DEFAULT
 10
-152.3728808560606
 20
-3211.430400914463
 30
0.0
 11
-152.3728808560606
 21
-3167.930400914463
 31
0.0
  0
LINE
  5
1C6
  8
DEFAULT
 10
-152.3728808560606
 20
-3167.930400914463
 30
0.0
 11
-196.8728808560606
 21
-3167.930400914464
 31
0.0
  0
LINE
  5
1C7
  8
DEFAULT
 10
-196.8728808560606
 20
-3167.930400914464
 30
0.0
 11
-196.8728808560606
 21
-3267.930400914464
 31
0.0
  0
LINE
  5
1C8
  8
DEFAULT
 10
-196.8728808560606
 20
-3267.930400914464
 30
0.0
 11
-146.8728808560606
 21
-3267.930400914463
 31
0.0
  0
LINE
  5
1C9
  8
DEFAULT
 10
-146.8728808560606
 20
-3267.930400914463
 30
0.0
 11
110.0378932634187
 21
-3267.930400914463
 31
0.0
  0
LINE
  5
1CA
  8
DEFAULT
 10
110.0378932634187
 20
-3267.930400914463
 30
0.0
 11
110.0378932634186
 21
-3167.930400914463
 31
0.0
  0
LINE
  5
1CB
  8
DEFAULT
 10
110.0378932634192
 20
-3278.199978259365
 30
0.0
 11
78.62711914394022
 21
-3278.199978259365
 31
0.0
  0
LINE
  5
1CC
  8
DEFAULT
 10
78.62711914394022
 20
-3278.199978259365
 30
0.0
 11
78.62711914394015
 21
-3321.699978259365
 31
0.0
  0
ARC
  5
1CD
  8
DEFAULT
 10
78.62711914394015
 20
-3324.949978259365
 30
0.0
 40
3.25
 50
270.0
 51
90.0
  0
LINE
  5
1CE
  8
DEFAULT
 10
78.62711914394015
 20
-3328.199978259365
 30
0.0
 11
67.62711914394015
 21
-3328.199978259365
 31
0.0
  0
ARC
  5
1CF
  8
DEFAULT
 10
67.62711914394015
 20
-3324.949978259365
 30
0.0
 40
3.25
 50
90.0
 51
270.0
  0
LINE
  5
1D0
  8
DEFAULT
 10
67.62711914394015
 20
-3321.699978259365
 30
0.0
 11
67.6271191439401
 21
-3278.199978259365
 31
0.0
  0
LINE
  5
1D1
  8
DEFAULT
 10
67.6271191439401
 20
-3278.199978259365
 30
0.0
 11
-31.37288085605989
 21
-3278.199978259366
 31
0.0
  0
LINE
  5
1D2
  8
DEFAULT
 10
-31.37288085605989
 20
-3278.199978259366
 30
0.0
 11
-31.37288085605989
 21
-3321.699978259366
 31
0.0
  0
ARC
  5
1D3
  8
DEFAULT
 10
-31.37288085605989
 20
-3324.949978259366
 30
0.0
 40
3.25
 50
270.0
 51
90.0
  0
LINE
  5
1D4
  8
DEFAULT
 10
-31.37288085605989
 20
-3328.199978259366
 30
0.0
 11
-42.37288085605989
 21
-3328.199978259366
 31
0.0
  0
ARC
  5
1D5
  8
DEFAULT
 10
-42.37288085605989
 20
-3324.949978259366
 30
0.0
 40
3.25
 50
90.0
 51
270.0
  0
LINE
  5
1D6
  8
DEFAULT
 10
-42.37288085605989
 20
-3321.699978259365
 30
0.0
 11
-42.37288085605989
 21
-3278.199978259366
 31
0.0
  0
LINE
  5
1D7
  8
DEFAULT
 10
-42.37288085605989
 20
-3278.199978259366
 30
0.0
 11
-141.3728808560599
 21
-3278.199978259366
 31
0.0
  0
LINE
  5
1D8
  8
DEFAULT
 10
-141.3728808560599
 20
-3278.199978259366
 30
0.0
 11
-141.3728808560599
 21
-3321.699978259366
 31
0.0
  0
ARC
  5
1D9
  8
DEFAULT
 10
-141.3728808560599
 20
-3324.949978259366
 30
0.0
 40
3.25
 50
270.0
 51
90.0
  0
LINE
  5
1DA
  8
DEFAULT
 10
-141.3728808560599
 20
-3328.199978259366
 30
0.0
 11
-152.3728808560599
 21
-3328.199978259366
 31
0.0
  0
ARC
  5
1DB
  8
DEFAULT
 10
-152.3728808560599
 20
-3324.949978259366
 30
0.0
 40
3.25
 50
90.0
 51
270.0
  0
LINE
  5
1DC
  8
DEFAULT
 10
-152.3728808560599
 20
-3321.699978259366
 30
0.0
 11
-152.3728808560599
 21
-3278.199978259366
 31
0.0
  0
LINE
  5
1DD
  8
DEFAULT
 10
-152.3728808560599
 20
-3278.199978259366
 30
0.0
 11
-196.8728808560599
 21
-3278.199978259366
 31
0.0
  0
LINE
  5
1DE
  8
DEFAULT
 10
-196.8728808560599
 20
-3278.199978259366
 30
0.0
 11
-196.8728808560599
 21
-3378.199978259366
 31
0.0
  0
LINE
  5
1DF
  8
DEFAULT
 10
-196.8728808560599
 20
-3378.199978259366
 30
0.0
 11
-146.8728808560599
 21
-3378.199978259366
 31
0.0
  0
LINE
  5
1E0
  8
DEFAULT
 10
-146.8728808560599
 20
-3378.199978259366
 30
0.0
 11
110.0378932634193
 21
-3378.199978259365
 31
0.0
  0
LINE
  5
1E1
  8
DEFAULT
 10
110.0378932634193
 20
-3378.199978259365
 30
0.0
 11
110.0378932634192
 21
-3278.199978259365
 31
0.0
  0
LINE
  5
1E2
  8
DEFAULT
 10
177.7971169698567
 20
-3249.121668879759
 30
0.0
 11
177.7971169698567
 21
-3260.321668879758
 31
0.0
  0
ARC
  5
1E3
  8
DEFAULT
 10
181.0471169698567
 20
-3260.321668879758
 30
0.0
 40
3.25
 50
180.0
 51
0.0
  0
LINE
  5
1E4
  8
DEFAULT
 10
184.2971169698567
 20
-3260.321668879758
 30
0.0
 11
227.7971169698568
 21
-3260.321668879758
 31
0.0
  0
LINE
  5
1E5
  8
DEFAULT
 10
227.7971169698568
 20
-3260.321668879758
 30
0.0
 11
227.7971169698568
 21
-3285.321668879758
 31
0.0
  0
LINE
  5
1E6
  8
DEFAULT
 10
227.7971169698568
 20
-3285.321668879758
 30
0.0
 11
184.2971169698569
 21
-3285.321668879758
 31
0.0
  0
ARC
  5
1E7
  8
DEFAULT
 10
181.0471169698569
 20
-3285.321668879758
 30
0.0
 40
3.25
 50
0.0
 51
180.0
  0
LINE
  5
1E8
  8
DEFAULT
 10
177.7971169698569
 20
-3285.321668879758
 30
0.0
 11
177.7971169698569
 21
-3296.521668879759
 31
0.0
  0
ARC
  5
1E9
  8
DEFAULT
 10
181.0471169698569
 20
-3296.521668879759
 30
0.0
 40
3.25
 50
180.0
 51
0.0
  0
LINE
  5
1EA
  8
DEFAULT
 10
184.2971169698569
 20
-3296.521668879759
 30
0.0
 11
227.7971169698568
 21
-3296.521668879758
 31
0.0
  0
LINE
  5
1EB
  8
DEFAULT
 10
227.7971169698568
 20
-3296.521668879758
 30
0.0
 11
227.7971169698568
 21
-3321.521668879758
 31
0.0
  0
LINE
  5
1EC
  8
DEFAULT
 10
227.7971169698568
 20
-3321.521668879758
 30
0.0
 11
184.2971169698568
 21
-3321.521668879759
 31
0.0
  0
ARC
  5
1ED
  8
DEFAULT
 10
181.0471169698568
 20
-3321.521668879759
 30
0.0
 40
3.25
 50
0.0
 51
180.0
  0
LINE
  5
1EE
  8
DEFAULT
 10
177.7971169698568
 20
-3321.521668879759
 30
0.0
 11
177.7971169698568
 21
-3332.721668879758
 31
0.0
  0
ARC
  5
1EF
  8
DEFAULT
 10
181.0471169698568
 20
-3332.721668879758
 30
0.0
 40
3.25
 50
180.0
 51
0.0
  0
LINE
  5
1F0
  8
DEFAULT
 10
184.2971169698568
 20
-3332.721668879758
 30
0.0
 11
227.7971169698568
 21
-3332.721668879759
 31
0.0
  0
LINE
  5
1F1
  8
DEFAULT
 10
227.7971169698568
 20
-3332.721668879759
 30
0.0
 11
227.7971169698567
 21
-3382.721668879759
 31
0.0
  0
LINE
  5
1F2
  8
DEFAULT
 10
227.7971169698567
 20
-3382.721668879759
 30
0.0
 11
127.7971169698567
 21
-3382.721668879759
 31
0.0
  0
LINE
  5
1F3
  8
DEFAULT
 10
127.7971169698567
 20
-3382.721668879759
 30
0.0
 11
127.7971169698568
 21
-3290.321668879758
 31
0.0
  0
ARC
  5
1F4
  8
DEFAULT
 10
127.7971169698568
 20
-3287.071668879758
 30
0.0
 40
3.25
 50
270.0
 51
90.0
  0
LINE
  5
1F5
  8
DEFAULT
 10
127.7971169698568
 20
-3283.821668879758
 30
0.0
 11
116.7971169698568
 21
-3283.821668879758
 31
0.0
  0
LINE
  5
1F6
  8
DEFAULT
 10
116.7971169698568
 20
-3283.821668879758
 30
0.0
 11
116.7971169698568
 21
-3233.821668879758
 31
0.0
  0
LINE
  5
1F7
  8
DEFAULT
 10
116.7971169698568
 20
-3233.821668879758
 30
0.0
 11
127.7971169698568
 21
-3233.821668879758
 31
0.0
  0
ARC
  5
1F8
  8
DEFAULT
 10
127.7971169698568
 20
-3230.571668879758
 30
0.0
 40
3.25
 50
270.0
 51
90.0
  0
LINE
  5
1F9
  8
DEFAULT
 10
127.7971169698568
 20
-3227.321668879758
 30
0.0
 11
127.7971169698569
 21
-3141.421668879758
 31
0.0
  0
ARC
  5
1FA
  8
DEFAULT
 10
127.7971169698569
 20
-3138.171668879758
 30
0.0
 40
3.25
 50
270.0
 51
90.0
  0
LINE
  5
1FB
  8
DEFAULT
 10
127.7971169698569
 20
-3134.921668879758
 30
0.0
 11
116.7971169698569
 21
-3134.921668879758
 31
0.0
  0
LINE
  5
1FC
  8
DEFAULT
 10
116.7971169698569
 20
-3134.921668879758
 30
0.0
 11
116.7971169698568
 21
-3084.921668879758
 31
0.0
  0
LINE
  5
1FD
  8
DEFAULT
 10
116.7971169698568
 20
-3084.921668879758
 30
0.0
 11
127.7971169698569
 21
-3084.921668879758
 31
0.0
  0
ARC
  5
1FE
  8
DEFAULT
 10
127.7971169698569
 20
-3081.671668879758
 30
0.0
 40
3.25
 50
270.0
 51
90.0
  0
LINE
  5
1FF
  8
DEFAULT
 10
127.7971169698569
 20
-3078.421668879758
 30
0.0
 11
127.7971169698569
 21
-2992.521668879758
 31
0.0
  0
ARC
  5
200
  8
DEFAULT
 10
127.7971169698569
 20
-2989.271668879758
 30
0.0
 40
3.25
 50
270.0
 51
90.0
  0
LINE
  5
201
  8
DEFAULT
 10
127.7971169698569
 20
-2986.021668879758
 30
0.0
 11
116.7971169698569
 21
-2986.021668879758
 31
0.0
  0
LINE
  5
202
  8
DEFAULT
 10
116.7971169698569
 20
-2986.021668879758
 30
0.0
 11
116.7971169698569
 21
-2936.021668879758
 31
0.0
  0
LINE
  5
203
  8
DEFAULT
 10
116.7971169698569
 20
-2936.021668879758
 30
0.0
 11
127.7971169698569
 21
-2936.021668879758
 31
0.0
  0
ARC
  5
204
  8
DEFAULT
 10
127.7971169698569
 20
-2932.771668879758
 30
0.0
 40
3.25
 50
270.0
 51
90.0
  0
LINE
  5
205
  8
DEFAULT
 10
127.7971169698569
 20
-2929.521668879758
 30
0.0
 11
127.7971169698569
 21
-2837.121668879758
 31
0.0
  0
LINE
  5
206
  8
DEFAULT
 10
127.7971169698569
 20
-2837.121668879758
 30
0.0
 11
227.7971169698569
 21
-2837.121668879758
 31
0.0
  0
LINE
  5
207
  8
DEFAULT
 10
227.7971169698569
 20
-2837.121668879758
 30
0.0
 11
227.7971169698569
 21
-2887.121668879758
 31
0.0
  0
LINE
  5
208
  8
DEFAULT
 10
227.7971169698569
 20
-2887.121668879758
 30
0.0
 11
184.2971169698569
 21
-2887.121668879758
 31
0.0
  0
ARC
  5
209
  8
DEFAULT
 10
181.0471169698569
 20
-2887.121668879758
 30
0.0
 40
3.25
 50
0.0
 51
180.0
  0
LINE
  5
20A
  8
DEFAULT
 10
177.7971169698569
 20
-2887.121668879758
 30
0.0
 11
177.7971169698569
 21
-2898.321668879758
 31
0.0
  0
ARC
  5
20B
  8
DEFAULT
 10
181.0471169698569
 20
-2898.321668879758
 30
0.0
 40
3.25
 50
180.0
 51
0.0
  0
LINE
  5
20C
  8
DEFAULT
 10
184.2971169698569
 20
-2898.321668879758
 30
0.0
 11
227.7971169698569
 21
-2898.321668879758
 31
0.0
  0
LINE
  5
20D
  8
DEFAULT
 10
227.7971169698569
 20
-2898.321668879758
 30
0.0
 11
227.7971169698569
 21
-2923.321668879758
 31
0.0
  0
LINE
  5
20E
  8
DEFAULT
 10
227.7971169698569
 20
-2923.321668879758
 30
0.0
 11
184.2971169698569
 21
-2923.321668879758
 31
0.0
  0
ARC
  5
20F
  8
DEFAULT
 10
181.0471169698569
 20
-2923.321668879758
 30
0.0
 40
3.25
 50
0.0
 51
180.0
  0
LINE
  5
210
  8
DEFAULT
 10
177.7971169698569
 20
-2923.321668879758
 30
0.0
 11
177.7971169698569
 21
-2934.521668879758
 31
0.0
  0
ARC
  5
211
  8
DEFAULT
 10
181.0471169698569
 20
-2934.521668879758
 30
0.0
 40
3.25
 50
180.0
 51
0.0
  0
LINE
  5
212
  8
DEFAULT
 10
184.2971169698569
 20
-2934.521668879758
 30
0.0
 11
227.7971169698569
 21
-2934.521668879758
 31
0.0
  0
LINE
  5
213
  8
DEFAULT
 10
227.7971169698569
 20
-2934.521668879758
 30
0.0
 11
227.7971169698569
 21
-2959.521668879758
 31
0.0
  0
LINE
  5
214
  8
DEFAULT
 10
227.7971169698569
 20
-2959.521668879758
 30
0.0
 11
184.2971169698569
 21
-2959.521668879758
 31
0.0
  0
ARC
  5
215
  8
DEFAULT
 10
181.0471169698569
 20
-2959.521668879758
 30
0.0
 40
3.25
 50
0.0
 51
180.0
  0
LINE
  5
216
  8
DEFAULT
 10
177.7971169698569
 20
-2959.521668879758
 30
0.0
 11
177.7971169698569
 21
-2970.721668879758
 31
0.0
  0
ARC
  5
217
  8
DEFAULT
 10
181.0471169698569
 20
-2970.721668879758
 30
0.0
 40
3.25
 50
180.0
 51
0.0
  0
LINE
  5
218
  8
DEFAULT
 10
184.2971169698569
 20
-2970.721668879758
 30
0.0
 11
227.7971169698569
 21
-2970.721668879758
 31
0.0
  0
LINE
  5
219
  8
DEFAULT
 10
227.7971169698569
 20
-2970.721668879758
 30
0.0
 11
227.7971169698569
 21
-2995.721668879758
 31
0.0
  0
LINE
  5
21A
  8
DEFAULT
 10
227.7971169698569
 20
-2995.721668879758
 30
0.0
 11
184.2971169698569
 21
-2995.721668879758
 31
0.0
  0
ARC
  5
21B
  8
DEFAULT
 10
181.0471169698569
 20
-2995.721668879758
 30
0.0
 40
3.25
 50
0.0
 51
180.0
  0
LINE
  5
21C
  8
DEFAULT
 10
177.7971169698569
 20
-2995.721668879758
 30
0.0
 11
177.7971169698569
 21
-3006.921668879758
 31
0.0
  0
ARC
  5
21D
  8
DEFAULT
 10
181.0471169698569
 20
-3006.921668879758
 30
0.0
 40
3.25
 50
180.0
 51
0.0
  0
LINE
  5
21E
  8
DEFAULT
 10
184.2971169698569
 20
-3006.921668879758
 30
0.0
 11
227.7971169698569
 21
-3006.921668879758
 31
0.0
  0
LINE
  5
21F
  8
DEFAULT
 10
227.7971169698569
 20
-3006.921668879758
 30
0.0
 11
227.7971169698569
 21
-3031.921668879758
 31
0.0
  0
LINE
  5
220
  8
DEFAULT
 10
227.7971169698569
 20
-3031.921668879758
 30
0.0
 11
184.2971169698571
 21
-3031.921668879758
 31
0.0
  0
ARC
  5
221
  8
DEFAULT
 10
181.0471169698569
 20
-3031.921668879758
 30
0.0
 40
3.25
 50
0.0
 51
180.0
  0
LINE
  5
222
  8
DEFAULT
 10
177.7971169698569
 20
-3031.921668879758
 30
0.0
 11
177.7971169698569
 21
-3043.121668879758
 31
0.0
  0
ARC
  5
223
  8
DEFAULT
 10
181.0471169698569
 20
-3043.121668879758
 30
0.0
 40
3.25
 50
180.0
 51
0.0
  0
LINE
  5
224
  8
DEFAULT
 10
184.2971169698569
 20
-3043.121668879758
 30
0.0
 11
227.7971169698569
 21
-3043.121668879759
 31
0.0
  0
LINE
  5
225
  8
DEFAULT
 10
227.7971169698569
 20
-3043.121668879759
 30
0.0
 11
227.7971169698569
 21
-3068.121668879759
 31
0.0
  0
LINE
  5
226
  8
DEFAULT
 10
227.7971169698569
 20
-3068.121668879759
 30
0.0
 11
184.2971169698569
 21
-3068.121668879758
 31
0.0
  0
ARC
  5
227
  8
DEFAULT
 10
181.0471169698569
 20
-3068.121668879758
 30
0.0
 40
3.25
 50
0.0
 51
180.0
  0
LINE
  5
228
  8
DEFAULT
 10
177.7971169698569
 20
-3068.121668879758
 30
0.0
 11
177.7971169698569
 21
-3079.321668879758
 31
0.0
  0
ARC
  5
229
  8
DEFAULT
 10
181.0471169698569
 20
-3079.321668879758
 30
0.0
 40
3.25
 50
180.0
 51
0.0
  0
LINE
  5
22A
  8
DEFAULT
 10
184.2971169698569
 20
-3079.321668879758
 30
0.0
 11
227.7971169698569
 21
-3079.321668879758
 31
0.0
  0
LINE
  5
22B
  8
DEFAULT
 10
227.7971169698569
 20
-3079.321668879758
 30
0.0
 11
227.7971169698569
 21
-3104.321668879758
 31
0.0
  0
LINE
  5
22C
  8
DEFAULT
 10
227.7971169698569
 20
-3104.321668879758
 30
0.0
 11
184.2971169698569
 21
-3104.321668879758
 31
0.0
  0
ARC
  5
22D
  8
DEFAULT
 10
181.0471169698569
 20
-3104.321668879758
 30
0.0
 40
3.25
 50
0.0
 51
180.0
  0
LINE
  5
22E
  8
DEFAULT
 10
177.7971169698569
 20
-3104.321668879758
 30
0.0
 11
177.7971169698569
 21
-3115.521668879758
 31
0.0
  0
ARC
  5
22F
  8
DEFAULT
 10
181.0471169698569
 20
-3115.521668879758
 30
0.0
 40
3.25
 50
180.0
 51
0.0
  0
LINE
  5
230
  8
DEFAULT
 10
184.2971169698569
 20
-3115.521668879758
 30
0.0
 11
227.7971169698569
 21
-3115.521668879758
 31
0.0
  0
LINE
  5
231
  8
DEFAULT
 10
227.7971169698569
 20
-3115.521668879758
 30
0.0
 11
227.7971169698569
 21
-3140.521668879758
 31
0.0
  0
LINE
  5
232
  8
DEFAULT
 10
227.7971169698569
 20
-3140.521668879758
 30
0.0
 11
184.2971169698569
 21
-3140.521668879758
 31
0.0
  0
ARC
  5
233
  8
DEFAULT
 10
181.0471169698569
 20
-3140.521668879758
 30
0.0
 40
3.25
 50
0.0
 51
180.0
  0
LINE
  5
234
  8
DEFAULT
 10
177.7971169698569
 20
-3140.521668879758
 30
0.0
 11
177.7971169698569
 21
-3151.721668879758
 31
0.0
  0
ARC
  5
235
  8
DEFAULT
 10
181.0471169698569
 20
-3151.721668879758
 30
0.0
 40
3.25
 50
180.0
 51
0.0
  0
LINE
  5
236
  8
DEFAULT
 10
184.2971169698569
 20
-3151.721668879758
 30
0.0
 11
227.7971169698569
 21
-3151.721668879758
 31
0.0
  0
LINE
  5
237
  8
DEFAULT
 10
227.7971169698569
 20
-3151.721668879758
 30
0.0
 11
227.7971169698568
 21
-3176.721668879758
 31
0.0
  0
LINE
  5
238
  8
DEFAULT
 10
227.7971169698568
 20
-3176.721668879758
 30
0.0
 11
184.2971169698567
 21
-3176.721668879758
 31
0.0
  0
ARC
  5
239
  8
DEFAULT
 10
181.0471169698567
 20
-3176.721668879758
 30
0.0
 40
3.25
 50
0.0
 51
180.0
  0
LINE
  5
23A
  8
DEFAULT
 10
177.7971169698567
 20
-3176.721668879758
 30
0.0
 11
177.7971169698567
 21
-3187.921668879758
 31
0.0
  0
ARC
  5
23B
  8
DEFAULT
 10
181.0471169698567
 20
-3187.921668879758
 30
0.0
 40
3.25
 50
180.0
 51
0.0
  0
LINE
  5
23C
  8
DEFAULT
 10
184.2971169698567
 20
-3187.921668879758
 30
0.0
 11
227.7971169698568
 21
-3187.921668879759
 31
0.0
  0
LINE
  5
23D
  8
DEFAULT
 10
227.7971169698568
 20
-3187.921668879759
 30
0.0
 11
227.7971169698568
 21
-3212.921668879759
 31
0.0
  0
LINE
  5
23E
  8
DEFAULT
 10
227.7971169698568
 20
-3212.921668879759
 30
0.0
 11
184.2971169698568
 21
-3212.921668879758
 31
0.0
  0
ARC
  5
23F
  8
DEFAULT
 10
181.0471169698568
 20
-3212.921668879758
 30
0.0
 40
3.25
 50
0.0
 51
180.0
  0
LINE
  5
240
  8
DEFAULT
 10
177.7971169698568
 20
-3212.921668879758
 30
0.0
 11
177.7971169698568
 21
-3224.121668879759
 31
0.0
  0
ARC
  5
241
  8
DEFAULT
 10
181.0471169698568
 20
-3224.121668879759
 30
0.0
 40
3.25
 50
180.0
 51
0.0
  0
LINE
  5
242
  8
DEFAULT
 10
184.2971169698568
 20
-3224.121668879759
 30
0.0
 11
227.7971169698568
 21
-3224.121668879759
 31
0.0
  0
LINE
  5
243
  8
DEFAULT
 10
227.7971169698568
 20
-3224.121668879759
 30
0.0
 11
227.7971169698568
 21
-3249.121668879759
 31
0.0
  0
LINE
  5
244
  8
DEFAULT
 10
227.7971169698568
 20
-3249.121668879759
 30
0.0
 11
184.2971169698567
 21
-3249.121668879759
 31
0.0
  0
ARC
  5
245
  8
DEFAULT
 10
181.0471169698567
 20
-3249.121668879759
 30
0.0
 40
3.25
 50
0.0
 51
180.0
  0
LINE
  5
246
  8
DEFAULT
 10
297.6165774446723
 20
-3249.121668879759
 30
0.0
 11
297.6165774446723
 21
-3260.321668879758
 31
0.0
  0
ARC
  5
247
  8
DEFAULT
 10
300.8665774446723
 20
-3260.321668879758
 30
0.0
 40
3.25
 50
180.0
 51
0.0
  0
LINE
  5
248
  8
DEFAULT
 10
304.1165774446723
 20
-3260.321668879758
 30
0.0
 11
347.6165774446723
 21
-3260.321668879758
 31
0.0
  0
LINE
  5
249
  8
DEFAULT
 10
347.6165774446723
 20
-3260.321668879758
 30
0.0
 11
347.6165774446723
 21
-3285.321668879758
 31
0.0
  0
LINE
  5
24A
  8
DEFAULT
 10
347.6165774446723
 20
-3285.321668879758
 30
0.0
 11
304.1165774446724
 21
-3285.321668879758
 31
0.0
  0
ARC
  5
24B
  8
DEFAULT
 10
300.8665774446724
 20
-3285.321668879758
 30
0.0
 40
3.25
 50
0.0
 51
180.0
  0
LINE
  5
24C
  8
DEFAULT
 10
297.6165774446724
 20
-3285.321668879758
 30
0.0
 11
297.6165774446724
 21
-3296.521668879759
 31
0.0
  0
ARC
  5
24D
  8
DEFAULT
 10
300.8665774446724
 20
-3296.521668879759
 30
0.0
 40
3.25
 50
180.0
 51
0.0
  0
LINE
  5
24E
  8
DEFAULT
 10
304.1165774446724
 20
-3296.521668879759
 30
0.0
 11
347.6165774446723
 21
-3296.521668879758
 31
0.0
  0
LINE
  5
24F
  8
DEFAULT
 10
347.6165774446723
 20
-3296.521668879758
 30
0.0
 11
347.6165774446723
 21
-3321.521668879758
 31
0.0
  0
LINE
  5
250
  8
DEFAULT
 10
347.6165774446723
 20
-3321.521668879758
 30
0.0
 11
304.1165774446723
 21
-3321.521668879759
 31
0.0
  0
ARC
  5
251
  8
DEFAULT
 10
300.8665774446723
 20
-3321.521668879759
 30
0.0
 40
3.25
 50
0.0
 51
180.0
  0
LINE
  5
252
  8
DEFAULT
 10
297.6165774446723
 20
-3321.521668879759
 30
0.0
 11
297.6165774446723
 21
-3332.721668879758
 31
0.0
  0
ARC
  5
253
  8
DEFAULT
 10
300.8665774446723
 20
-3332.721668879758
 30
0.0
 40
3.25
 50
180.0
 51
0.0
  0
LINE
  5
254
  8
DEFAULT
 10
304.1165774446723
 20
-3332.721668879758
 30
0.0
 11
347.6165774446723
 21
-3332.721668879759
 31
0.0
  0
LINE
  5
255
  8
DEFAULT
 10
347.6165774446723
 20
-3332.721668879759
 30
0.0
 11
347.6165774446722
 21
-3382.721668879759
 31
0.0
  0
LINE
  5
256
  8
DEFAULT
 10
347.6165774446722
 20
-3382.721668879759
 30
0.0
 11
247.6165774446722
 21
-3382.721668879759
 31
0.0
  0
LINE
  5
257
  8
DEFAULT
 10
247.6165774446722
 20
-3382.721668879759
 30
0.0
 11
247.6165774446723
 21
-3290.321668879758
 31
0.0
  0
ARC
  5
258
  8
DEFAULT
 10
247.6165774446723
 20
-3287.071668879758
 30
0.0
 40
3.25
 50
270.0
 51
90.0
  0
LINE
  5
259
  8
DEFAULT
 10
247.6165774446723
 20
-3283.821668879758
 30
0.0
 11
236.6165774446723
 21
-3283.821668879758
 31
0.0
  0
LINE
  5
25A
  8
DEFAULT
 10
236.6165774446723
 20
-3283.821668879758
 30
0.0
 11
236.6165774446723
 21
-3233.821668879758
 31
0.0
  0
LINE
  5
25B
  8
DEFAULT
 10
236.6165774446723
 20
-3233.821668879758
 30
0.0
 11
247.6165774446723
 21
-3233.821668879758
 31
0.0
  0
ARC
  5
25C
  8
DEFAULT
 10
247.6165774446723
 20
-3230.571668879758
 30
0.0
 40
3.25
 50
270.0
 51
90.0
  0
LINE
  5
25D
  8
DEFAULT
 10
247.6165774446723
 20
-3227.321668879758
 30
0.0
 11
247.6165774446724
 21
-3141.421668879758
 31
0.0
  0
ARC
  5
25E
  8
DEFAULT
 10
247.6165774446724
 20
-3138.171668879758
 30
0.0
 40
3.25
 50
270.0
 51
90.0
  0
LINE
  5
25F
  8
DEFAULT
 10
247.6165774446724
 20
-3134.921668879758
 30
0.0
 11
236.6165774446725
 21
-3134.921668879758
 31
0.0
  0
LINE
  5
260
  8
DEFAULT
 10
236.6165774446725
 20
-3134.921668879758
 30
0.0
 11
236.6165774446723
 21
-3084.921668879758
 31
0.0
  0
LINE
  5
261
  8
DEFAULT
 10
236.6165774446723
 20
-3084.921668879758
 30
0.0
 11
247.6165774446724
 21
-3084.921668879758
 31
0.0
  0
ARC
  5
262
  8
DEFAULT
 10
247.6165774446724
 20
-3081.671668879758
 30
0.0
 40
3.25
 50
270.0
 51
90.0
  0
LINE
  5
263
  8
DEFAULT
 10
247.6165774446724
 20
-3078.421668879758
 30
0.0
 11
247.6165774446724
 21
-2992.521668879758
 31
0.0
  0
ARC
  5
264
  8
DEFAULT
 10
247.6165774446724
 20
-2989.271668879758
 30
0.0
 40
3.25
 50
270.0
 51
90.0
  0
LINE
  5
265
  8
DEFAULT
 10
247.6165774446724
 20
-2986.021668879758
 30
0.0
 11
236.6165774446725
 21
-2986.021668879758
 31
0.0
  0
LINE
  5
266
  8
DEFAULT
 10
236.6165774446725
 20
-2986.021668879758
 30
0.0
 11
236.6165774446725
 21
-2936.021668879758
 31
0.0
  0
LINE
  5
267
  8
DEFAULT
 10
236.6165774446725
 20
-2936.021668879758
 30
0.0
 11
247.6165774446724
 21
-2936.021668879758
 31
0.0
  0
ARC
  5
268
  8
DEFAULT
 10
247.6165774446724
 20
-2932.771668879758
 30
0.0
 40
3.25
 50
270.0
 51
90.0
  0
LINE
  5
269
  8
DEFAULT
 10
247.6165774446724
 20
-2929.521668879758
 30
0.0
 11
247.6165774446724
 21
-2837.121668879758
 31
0.0
  0
LINE
  5
26A
  8
DEFAULT
 10
247.6165774446724
 20
-2837.121668879758
 30
0.0
 11
347.6165774446724
 21
-2837.121668879758
 31
0.0
  0
LINE
  5
26B
  8
DEFAULT
 10
347.6165774446724
 20
-2837.121668879758
 30
0.0
 11
347.6165774446724
 21
-2887.121668879758
 31
0.0
  0
LINE
  5
26C
  8
DEFAULT
 10
347.6165774446724
 20
-2887.121668879758
 30
0.0
 11
304.1165774446724
 21
-2887.121668879758
 31
0.0
  0
ARC
  5
26D
  8
DEFAULT
 10
300.8665774446724
 20
-2887.121668879758
 30
0.0
 40
3.25
 50
0.0
 51
180.0
  0
LINE
  5
26E
  8
DEFAULT
 10
297.6165774446724
 20
-2887.121668879758
 30
0.0
 11
297.6165774446724
 21
-2898.321668879758
 31
0.0
  0
ARC
  5
26F
  8
DEFAULT
 10
300.8665774446724
 20
-2898.321668879758
 30
0.0
 40
3.25
 50
180.0
 51
0.0
  0
LINE
  5
270
  8
DEFAULT
 10
304.1165774446724
 20
-2898.321668879758
 30
0.0
 11
347.6165774446724
 21
-2898.321668879758
 31
0.0
  0
LINE
  5
271
  8
DEFAULT
 10
347.6165774446724
 20
-2898.321668879758
 30
0.0
 11
347.6165774446724
 21
-2923.321668879758
 31
0.0
  0
LINE
  5
272
  8
DEFAULT
 10
347.6165774446724
 20
-2923.321668879758
 30
0.0
 11
304.1165774446724
 21
-2923.321668879758
 31
0.0
  0
ARC
  5
273
  8
DEFAULT
 10
300.8665774446724
 20
-2923.321668879758
 30
0.0
 40
3.25
 50
0.0
 51
180.0
  0
LINE
  5
274
  8
DEFAULT
 10
297.6165774446724
 20
-2923.321668879758
 30
0.0
 11
297.6165774446724
 21
-2934.521668879758
 31
0.0
  0
ARC
  5
275
  8
DEFAULT
 10
300.8665774446724
 20
-2934.521668879758
 30
0.0
 40
3.25
 50
180.0
 51
0.0
  0
LINE
  5
276
  8
DEFAULT
 10
304.1165774446724
 20
-2934.521668879758
 30
0.0
 11
347.6165774446724
 21
-2934.521668879758
 31
0.0
  0
LINE
  5
277
  8
DEFAULT
 10
347.6165774446724
 20
-2934.521668879758
 30
0.0
 11
347.6165774446724
 21
-2959.521668879758
 31
0.0
  0
LINE
  5
278
  8
DEFAULT
 10
347.6165774446724
 20
-2959.521668879758
 30
0.0
 11
304.1165774446724
 21
-2959.521668879758
 31
0.0
  0
ARC
  5
279
  8
DEFAULT
 10
300.8665774446724
 20
-2959.521668879758
 30
0.0
 40
3.25
 50
0.0
 51
180.0
  0
LINE
  5
27A
  8
DEFAULT
 10
297.6165774446724
 20
-2959.521668879758
 30
0.0
 11
297.6165774446724
 21
-2970.721668879758
 31
0.0
  0
ARC
  5
27B
  8
DEFAULT
 10
300.8665774446724
 20
-2970.721668879758
 30
0.0
 40
3.25
 50
180.0
 51
0.0
  0
LINE
  5
27C
  8
DEFAULT
 10
304.1165774446724
 20
-2970.721668879758
 30
0.0
 11
347.6165774446724
 21
-2970.721668879758
 31
0.0
  0
LINE
  5
27D
  8
DEFAULT
 10
347.6165774446724
 20
-2970.721668879758
 30
0.0
 11
347.6165774446724
 21
-2995.721668879758
 31
0.0
  0
LINE
  5
27E
  8
DEFAULT
 10
347.6165774446724
 20
-2995.721668879758
 30
0.0
 11
304.1165774446724
 21
-2995.721668879758
 31
0.0
  0
ARC
  5
27F
  8
DEFAULT
 10
300.8665774446724
 20
-2995.721668879758
 30
0.0
 40
3.25
 50
0.0
 51
180.0
  0
LINE
  5
280
  8
DEFAULT
 10
297.6165774446724
 20
-2995.721668879758
 30
0.0
 11
297.6165774446724
 21
-3006.921668879758
 31
0.0
  0
ARC
  5
281
  8
DEFAULT
 10
300.8665774446724
 20
-3006.921668879758
 30
0.0
 40
3.25
 50
180.0
 51
0.0
  0
LINE
  5
282
  8
DEFAULT
 10
304.1165774446724
 20
-3006.921668879758
 30
0.0
 11
347.6165774446724
 21
-3006.921668879758
 31
0.0
  0
LINE
  5
283
  8
DEFAULT
 10
347.6165774446724
 20
-3006.921668879758
 30
0.0
 11
347.6165774446724
 21
-3031.921668879758
 31
0.0
  0
LINE
  5
284
  8
DEFAULT
 10
347.6165774446724
 20
-3031.921668879758
 30
0.0
 11
304.1165774446727
 21
-3031.921668879758
 31
0.0
  0
ARC
  5
285
  8
DEFAULT
 10
300.8665774446724
 20
-3031.921668879758
 30
0.0
 40
3.25
 50
0.0
 51
180.0
  0
LINE
  5
286
  8
DEFAULT
 10
297.6165774446724
 20
-3031.921668879758
 30
0.0
 11
297.6165774446724
 21
-3043.121668879758
 31
0.0
  0
ARC
  5
287
  8
DEFAULT
 10
300.8665774446724
 20
-3043.121668879758
 30
0.0
 40
3.25
 50
180.0
 51
0.0
  0
LINE
  5
288
  8
DEFAULT
 10
304.1165774446724
 20
-3043.121668879758
 30
0.0
 11
347.6165774446724
 21
-3043.121668879759
 31
0.0
  0
LINE
  5
289
  8
DEFAULT
 10
347.6165774446724
 20
-3043.121668879759
 30
0.0
 11
347.6165774446724
 21
-3068.121668879759
 31
0.0
  0
LINE
  5
28A
  8
DEFAULT
 10
347.6165774446724
 20
-3068.121668879759
 30
0.0
 11
304.1165774446724
 21
-3068.121668879758
 31
0.0
  0
ARC
  5
28B
  8
DEFAULT
 10
300.8665774446724
 20
-3068.121668879758
 30
0.0
 40
3.25
 50
0.0
 51
180.0
  0
LINE
  5
28C
  8
DEFAULT
 10
297.6165774446724
 20
-3068.121668879758
 30
0.0
 11
297.6165774446724
 21
-3079.321668879758
 31
0.0
  0
ARC
  5
28D
  8
DEFAULT
 10
300.8665774446724
 20
-3079.321668879758
 30
0.0
 40
3.25
 50
180.0
 51
0.0
  0
LINE
  5
28E
  8
DEFAULT
 10
304.1165774446724
 20
-3079.321668879758
 30
0.0
 11
347.6165774446724
 21
-3079.321668879758
 31
0.0
  0
LINE
  5
28F
  8
DEFAULT
 10
347.6165774446724
 20
-3079.321668879758
 30
0.0
 11
347.6165774446724
 21
-3104.321668879758
 31
0.0
  0
LINE
  5
290
  8
DEFAULT
 10
347.6165774446724
 20
-3104.321668879758
 30
0.0
 11
304.1165774446724
 21
-3104.321668879758
 31
0.0
  0
ARC
  5
291
  8
DEFAULT
 10
300.8665774446724
 20
-3104.321668879758
 30
0.0
 40
3.25
 50
0.0
 51
180.0
  0
LINE
  5
292
  8
DEFAULT
 10
297.6165774446724
 20
-3104.321668879758
 30
0.0
 11
297.6165774446724
 21
-3115.521668879758
 31
0.0
  0
ARC
  5
293
  8
DEFAULT
 10
300.8665774446724
 20
-3115.521668879758
 30
0.0
 40
3.25
 50
180.0
 51
0.0
  0
LINE
  5
294
  8
DEFAULT
 10
304.1165774446724
 20
-3115.521668879758
 30
0.0
 11
347.6165774446724
 21
-3115.521668879758
 31
0.0
  0
LINE
  5
295
  8
DEFAULT
 10
347.6165774446724
 20
-3115.521668879758
 30
0.0
 11
347.6165774446724
 21
-3140.521668879758
 31
0.0
  0
LINE
  5
296
  8
DEFAULT
 10
347.6165774446724
 20
-3140.521668879758
 30
0.0
 11
304.1165774446724
 21
-3140.521668879758
 31
0.0
  0
ARC
  5
297
  8
DEFAULT
 10
300.8665774446724
 20
-3140.521668879758
 30
0.0
 40
3.25
 50
0.0
 51
180.0
  0
LINE
  5
298
  8
DEFAULT
 10
297.6165774446724
 20
-3140.521668879758
 30
0.0
 11
297.6165774446724
 21
-3151.721668879758
 31
0.0
  0
ARC
  5
299
  8
DEFAULT
 10
300.8665774446724
 20
-3151.721668879758
 30
0.0
 40
3.25
 50
180.0
 51
0.0
  0
LINE
  5
29A
  8
DEFAULT
 10
304.1165774446724
 20
-3151.721668879758
 30
0.0
 11
347.6165774446724
 21
-3151.721668879758
 31
0.0
  0
LINE
  5
29B
  8
DEFAULT
 10
347.6165774446724
 20
-3151.721668879758
 30
0.0
 11
347.6165774446723
 21
-3176.721668879758
 31
0.0
  0
LINE
  5
29C
  8
DEFAULT
 10
347.6165774446723
 20
-3176.721668879758
 30
0.0
 11
304.1165774446723
 21
-3176.721668879758
 31
0.0
  0
ARC
  5
29D
  8
DEFAULT
 10
300.8665774446723
 20
-3176.721668879758
 30
0.0
 40
3.25
 50
0.0
 51
180.0
  0
LINE
  5
29E
  8
DEFAULT
 10
297.6165774446723
 20
-3176.721668879758
 30
0.0
 11
297.6165774446723
 21
-3187.921668879758
 31
0.0
  0
ARC
  5
29F
  8
DEFAULT
 10
300.8665774446723
 20
-3187.921668879758
 30
0.0
 40
3.25
 50
180.0
 51
0.0
  0
LINE
  5
2A0
  8
DEFAULT
 10
304.1165774446723
 20
-3187.921668879758
 30
0.0
 11
347.6165774446723
 21
-3187.921668879759
 31
0.0
  0
LINE
  5
2A1
  8
DEFAULT
 10
347.6165774446723
 20
-3187.921668879759
 30
0.0
 11
347.6165774446723
 21
-3212.921668879759
 31
0.0
  0
LINE
  5
2A2
  8
DEFAULT
 10
347.6165774446723
 20
-3212.921668879759
 30
0.0
 11
304.1165774446723
 21
-3212.921668879758
 31
0.0
  0
ARC
  5
2A3
  8
DEFAULT
 10
300.8665774446723
 20
-3212.921668879758
 30
0.0
 40
3.25
 50
0.0
 51
180.0
  0
LINE
  5
2A4
  8
DEFAULT
 10
297.6165774446723
 20
-3212.921668879758
 30
0.0
 11
297.6165774446723
 21
-3224.121668879759
 31
0.0
  0
ARC
  5
2A5
  8
DEFAULT
 10
300.8665774446723
 20
-3224.121668879759
 30
0.0
 40
3.25
 50
180.0
 51
0.0
  0
LINE
  5
2A6
  8
DEFAULT
 10
304.1165774446723
 20
-3224.121668879759
 30
0.0
 11
347.6165774446723
 21
-3224.121668879759
 31
0.0
  0
LINE
  5
2A7
  8
DEFAULT
 10
347.6165774446723
 20
-3224.121668879759
 30
0.0
 11
347.6165774446723
 21
-3249.121668879759
 31
0.0
  0
LINE
  5
2A8
  8
DEFAULT
 10
347.6165774446723
 20
-3249.121668879759
 30
0.0
 11
304.1165774446723
 21
-3249.121668879759
 31
0.0
  0
ARC
  5
2A9
  8
DEFAULT
 10
300.8665774446723
 20
-3249.121668879759
 30
0.0
 40
3.25
 50
0.0
 51
180.0
  0
LINE
  5
2AA
  8
DEFAULT
 10
417.4360379194878
 20
-3249.121668879759
 30
0.0
 11
417.4360379194878
 21
-3260.321668879758
 31
0.0
  0
ARC
  5
2AB
  8
DEFAULT
 10
420.6860379194878
 20
-3260.321668879758
 30
0.0
 40
3.25
 50
180.0
 51
0.0
  0
LINE
  5
2AC
  8
DEFAULT
 10
423.9360379194878
 20
-3260.321668879758
 30
0.0
 11
467.4360379194878
 21
-3260.321668879758
 31
0.0
  0
LINE
  5
2AD
  8
DEFAULT
 10
467.4360379194878
 20
-3260.321668879758
 30
0.0
 11
467.4360379194878
 21
-3285.321668879758
 31
0.0
  0
LINE
  5
2AE
  8
DEFAULT
 10
467.4360379194878
 20
-3285.321668879758
 30
0.0
 11
423.9360379194879
 21
-3285.321668879758
 31
0.0
  0
ARC
  5
2AF
  8
DEFAULT
 10
420.6860379194879
 20
-3285.321668879758
 30
0.0
 40
3.25
 50
0.0
 51
180.0
  0
LINE
  5
2B0
  8
DEFAULT
 10
417.4360379194879
 20
-3285.321668879758
 30
0.0
 11
417.4360379194879
 21
-3296.521668879759
 31
0.0
  0
ARC
  5
2B1
  8
DEFAULT
 10
420.6860379194879
 20
-3296.521668879759
 30
0.0
 40
3.25
 50
180.0
 51
0.0
  0
LINE
  5
2B2
  8
DEFAULT
 10
423.9360379194879
 20
-3296.521668879759
 30
0.0
 11
467.4360379194878
 21
-3296.521668879758
 31
0.0
  0
LINE
  5
2B3
  8
DEFAULT
 10
467.4360379194878
 20
-3296.521668879758
 30
0.0
 11
467.4360379194878
 21
-3321.521668879758
 31
0.0
  0
LINE
  5
2B4
  8
DEFAULT
 10
467.4360379194878
 20
-3321.521668879758
 30
0.0
 11
423.9360379194878
 21
-3321.521668879759
 31
0.0
  0
ARC
  5
2B5
  8
DEFAULT
 10
420.6860379194878
 20
-3321.521668879759
 30
0.0
 40
3.25
 50
0.0
 51
180.0
  0
LINE
  5
2B6
  8
DEFAULT
 10
417.4360379194878
 20
-3321.521668879759
 30
0.0
 11
417.4360379194878
 21
-3332.721668879758
 31
0.0
  0
ARC
  5
2B7
  8
DEFAULT
 10
420.6860379194878
 20
-3332.721668879758
 30
0.0
 40
3.25
 50
180.0
 51
0.0
  0
LINE
  5
2B8
  8
DEFAULT
 10
423.9360379194878
 20
-3332.721668879758
 30
0.0
 11
467.4360379194878
 21
-3332.721668879759
 31
0.0
  0
LINE
  5
2B9
  8
DEFAULT
 10
467.4360379194878
 20
-3332.721668879759
 30
0.0
 11
467.4360379194877
 21
-3382.721668879759
 31
0.0
  0
LINE
  5
2BA
  8
DEFAULT
 10
467.4360379194877
 20
-3382.721668879759
 30
0.0
 11
367.4360379194877
 21
-3382.721668879759
 31
0.0
  0
LINE
  5
2BB
  8
DEFAULT
 10
367.4360379194877
 20
-3382.721668879759
 30
0.0
 11
367.4360379194878
 21
-3290.321668879758
 31
0.0
  0
ARC
  5
2BC
  8
DEFAULT
 10
367.4360379194878
 20
-3287.071668879758
 30
0.0
 40
3.25
 50
270.0
 51
90.0
  0
LINE
  5
2BD
  8
DEFAULT
 10
367.4360379194878
 20
-3283.821668879758
 30
0.0
 11
356.4360379194878
 21
-3283.821668879758
 31
0.0
  0
LINE
  5
2BE
  8
DEFAULT
 10
356.4360379194878
 20
-3283.821668879758
 30
0.0
 11
356.4360379194878
 21
-3233.821668879758
 31
0.0
  0
LINE
  5
2BF
  8
DEFAULT
 10
356.4360379194878
 20
-3233.821668879758
 30
0.0
 11
367.4360379194878
 21
-3233.821668879758
 31
0.0
  0
ARC
  5
2C0
  8
DEFAULT
 10
367.4360379194878
 20
-3230.571668879758
 30
0.0
 40
3.25
 50
270.0
 51
90.0
  0
LINE
  5
2C1
  8
DEFAULT
 10
367.4360379194878
 20
-3227.321668879758
 30
0.0
 11
367.4360379194879
 21
-3141.421668879758
 31
0.0
  0
ARC
  5
2C2
  8
DEFAULT
 10
367.4360379194879
 20
-3138.171668879758
 30
0.0
 40
3.25
 50
270.0
 51
90.0
  0
LINE
  5
2C3
  8
DEFAULT
 10
367.4360379194879
 20
-3134.921668879758
 30
0.0
 11
356.4360379194879
 21
-3134.921668879758
 31
0.0
  0
LINE
  5
2C4
  8
DEFAULT
 10
356.4360379194879
 20
-3134.921668879758
 30
0.0
 11
356.4360379194878
 21
-3084.921668879758
 31
0.0
  0
LINE
  5
2C5
  8
DEFAULT
 10
356.4360379194878
 20
-3084.921668879758
 30
0.0
 11
367.4360379194879
 21
-3084.921668879758
 31
0.0
  0
ARC
  5
2C6
  8
DEFAULT
 10
367.4360379194879
 20
-3081.671668879758
 30
0.0
 40
3.25
 50
270.0
 51
90.0
  0
LINE
  5
2C7
  8
DEFAULT
 10
367.4360379194879
 20
-3078.421668879758
 30
0.0
 11
367.4360379194879
 21
-2992.521668879758
 31
0.0
  0
ARC
  5
2C8
  8
DEFAULT
 10
367.4360379194879
 20
-2989.271668879758
 30
0.0
 40
3.25
 50
270.0
 51
90.0
  0
LINE
  5
2C9
  8
DEFAULT
 10
367.4360379194879
 20
-2986.021668879758
 30
0.0
 11
356.4360379194879
 21
-2986.021668879758
 31
0.0
  0
LINE
  5
2CA
  8
DEFAULT
 10
356.4360379194879
 20
-2986.021668879758
 30
0.0
 11
356.4360379194879
 21
-2936.021668879758
 31
0.0
  0
LINE
  5
2CB
  8
DEFAULT
 10
356.4360379194879
 20
-2936.021668879758
 30
0.0
 11
367.4360379194879
 21
-2936.021668879758
 31
0.0
  0
ARC
  5
2CC
  8
DEFAULT
 10
367.4360379194879
 20
-2932.771668879758
 30
0.0
 40
3.25
 50
270.0
 51
90.0
  0
LINE
  5
2CD
  8
DEFAULT
 10
367.4360379194879
 20
-2929.521668879758
 30
0.0
 11
367.4360379194879
 21
-2837.121668879758
 31
0.0
  0
LINE
  5
2CE
  8
DEFAULT
 10
367.4360379194879
 20
-2837.121668879758
 30
0.0
 11
467.4360379194879
 21
-2837.121668879758
 31
0.0
  0
LINE
  5
2CF
  8
DEFAULT
 10
467.4360379194879
 20
-2837.121668879758
 30
0.0
 11
467.4360379194879
 21
-2887.121668879758
 31
0.0
  0
LINE
  5
2D0
  8
DEFAULT
 10
467.4360379194879
 20
-2887.121668879758
 30
0.0
 11
423.9360379194879
 21
-2887.121668879758
 31
0.0
  0
ARC
  5
2D1
  8
DEFAULT
 10
420.6860379194879
 20
-2887.121668879758
 30
0.0
 40
3.25
 50
0.0
 51
180.0
  0
LINE
  5
2D2
  8
DEFAULT
 10
417.4360379194879
 20
-2887.121668879758
 30
0.0
 11
417.4360379194879
 21
-2898.321668879758
 31
0.0
  0
ARC
  5
2D3
  8
DEFAULT
 10
420.6860379194879
 20
-2898.321668879758
 30
0.0
 40
3.25
 50
180.0
 51
0.0
  0
LINE
  5
2D4
  8
DEFAULT
 10
423.9360379194879
 20
-2898.321668879758
 30
0.0
 11
467.4360379194879
 21
-2898.321668879758
 31
0.0
  0
LINE
  5
2D5
  8
DEFAULT
 10
467.4360379194879
 20
-2898.321668879758
 30
0.0
 11
467.4360379194879
 21
-2923.321668879758
 31
0.0
  0
LINE
  5
2D6
  8
DEFAULT
 10
467.4360379194879
 20
-2923.321668879758
 30
0.0
 11
423.9360379194879
 21
-2923.321668879758
 31
0.0
  0
ARC
  5
2D7
  8
DEFAULT
 10
420.6860379194879
 20
-2923.321668879758
 30
0.0
 40
3.25
 50
0.0
 51
180.0
  0
LINE
  5
2D8
  8
DEFAULT
 10
417.4360379194879
 20
-2923.321668879758
 30
0.0
 11
417.4360379194879
 21
-2934.521668879758
 31
0.0
  0
ARC
  5
2D9
  8
DEFAULT
 10
420.6860379194879
 20
-2934.521668879758
 30
0.0
 40
3.25
 50
180.0
 51
0.0
  0
LINE
  5
2DA
  8
DEFAULT
 10
423.9360379194879
 20
-2934.521668879758
 30
0.0
 11
467.4360379194879
 21
-2934.521668879758
 31
0.0
  0
LINE
  5
2DB
  8
DEFAULT
 10
467.4360379194879
 20
-2934.521668879758
 30
0.0
 11
467.4360379194879
 21
-2959.521668879758
 31
0.0
  0
LINE
  5
2DC
  8
DEFAULT
 10
467.4360379194879
 20
-2959.521668879758
 30
0.0
 11
423.9360379194879
 21
-2959.521668879758
 31
0.0
  0
ARC
  5
2DD
  8
DEFAULT
 10
420.6860379194879
 20
-2959.521668879758
 30
0.0
 40
3.25
 50
0.0
 51
180.0
  0
LINE
  5
2DE
  8
DEFAULT
 10
417.4360379194879
 20
-2959.521668879758
 30
0.0
 11
417.4360379194879
 21
-2970.721668879758
 31
0.0
  0
ARC
  5
2DF
  8
DEFAULT
 10
420.6860379194879
 20
-2970.721668879758
 30
0.0
 40
3.25
 50
180.0
 51
0.0
  0
LINE
  5
2E0
  8
DEFAULT
 10
423.9360379194879
 20
-2970.721668879758
 30
0.0
 11
467.4360379194879
 21
-2970.721668879758
 31
0.0
  0
LINE
  5
2E1
  8
DEFAULT
 10
467.4360379194879
 20
-2970.721668879758
 30
0.0
 11
467.4360379194879
 21
-2995.721668879758
 31
0.0
  0
LINE
  5
2E2
  8
DEFAULT
 10
467.4360379194879
 20
-2995.721668879758
 30
0.0
 11
423.9360379194879
 21
-2995.721668879758
 31
0.0
  0
ARC
  5
2E3
  8
DEFAULT
 10
420.6860379194879
 20
-2995.721668879758
 30
0.0
 40
3.25
 50
0.0
 51
180.0
  0
LINE
  5
2E4
  8
DEFAULT
 10
417.4360379194879
 20
-2995.721668879758
 30
0.0
 11
417.4360379194879
 21
-3006.921668879758
 31
0.0
  0
ARC
  5
2E5
  8
DEFAULT
 10
420.6860379194879
 20
-3006.921668879758
 30
0.0
 40
3.25
 50
180.0
 51
0.0
  0
LINE
  5
2E6
  8
DEFAULT
 10
423.9360379194879
 20
-3006.921668879758
 30
0.0
 11
467.4360379194879
 21
-3006.921668879758
 31
0.0
  0
LINE
  5
2E7
  8
DEFAULT
 10
467.4360379194879
 20
-3006.921668879758
 30
0.0
 11
467.4360379194879
 21
-3031.921668879758
 31
0.0
  0
LINE
  5
2E8
  8
DEFAULT
 10
467.4360379194879
 20
-3031.921668879758
 30
0.0
 11
423.9360379194882
 21
-3031.921668879758
 31
0.0
  0
ARC
  5
2E9
  8
DEFAULT
 10
420.6860379194879
 20
-3031.921668879758
 30
0.0
 40
3.25
 50
0.0
 51
180.0
  0
LINE
  5
2EA
  8
DEFAULT
 10
417.4360379194879
 20
-3031.921668879758
 30
0.0
 11
417.4360379194879
 21
-3043.121668879758
 31
0.0
  0
ARC
  5
2EB
  8
DEFAULT
 10
420.6860379194879
 20
-3043.121668879758
 30
0.0
 40
3.25
 50
180.0
 51
0.0
  0
LINE
  5
2EC
  8
DEFAULT
 10
423.9360379194879
 20
-3043.121668879758
 30
0.0
 11
467.4360379194879
 21
-3043.121668879759
 31
0.0
  0
LINE
  5
2ED
  8
DEFAULT
 10
467.4360379194879
 20
-3043.121668879759
 30
0.0
 11
467.4360379194879
 21
-3068.121668879759
 31
0.0
  0
LINE
  5
2EE
  8
DEFAULT
 10
467.4360379194879
 20
-3068.121668879759
 30
0.0
 11
423.9360379194879
 21
-3068.121668879758
 31
0.0
  0
ARC
  5
2EF
  8
DEFAULT
 10
420.6860379194879
 20
-3068.121668879758
 30
0.0
 40
3.25
 50
0.0
 51
180.0
  0
LINE
  5
2F0
  8
DEFAULT
 10
417.4360379194879
 20
-3068.121668879758
 30
0.0
 11
417.4360379194879
 21
-3079.321668879758
 31
0.0
  0
ARC
  5
2F1
  8
DEFAULT
 10
420.6860379194879
 20
-3079.321668879758
 30
0.0
 40
3.25
 50
180.0
 51
0.0
  0
LINE
  5
2F2
  8
DEFAULT
 10
423.9360379194879
 20
-3079.321668879758
 30
0.0
 11
467.4360379194879
 21
-3079.321668879758
 31
0.0
  0
LINE
  5
2F3
  8
DEFAULT
 10
467.4360379194879
 20
-3079.321668879758
 30
0.0
 11
467.4360379194879
 21
-3104.321668879758
 31
0.0
  0
LINE
  5
2F4
  8
DEFAULT
 10
467.4360379194879
 20
-3104.321668879758
 30
0.0
 11
423.9360379194879
 21
-3104.321668879758
 31
0.0
  0
ARC
  5
2F5
  8
DEFAULT
 10
420.6860379194879
 20
-3104.321668879758
 30
0.0
 40
3.25
 50
0.0
 51
180.0
  0
LINE
  5
2F6
  8
DEFAULT
 10
417.4360379194879
 20
-3104.321668879758
 30
0.0
 11
417.4360379194879
 21
-3115.521668879758
 31
0.0
  0
ARC
  5
2F7
  8
DEFAULT
 10
420.6860379194879
 20
-3115.521668879758
 30
0.0
 40
3.25
 50
180.0
 51
0.0
  0
LINE
  5
2F8
  8
DEFAULT
 10
423.9360379194879
 20
-3115.521668879758
 30
0.0
 11
467.4360379194879
 21
-3115.521668879758
 31
0.0
  0
LINE
  5
2F9
  8
DEFAULT
 10
467.4360379194879
 20
-3115.521668879758
 30
0.0
 11
467.4360379194879
 21
-3140.521668879758
 31
0.0
  0
LINE
  5
2FA
  8
DEFAULT
 10
467.4360379194879
 20
-3140.521668879758
 30
0.0
 11
423.9360379194879
 21
-3140.521668879758
 31
0.0
  0
ARC
  5
2FB
  8
DEFAULT
 10
420.6860379194879
 20
-3140.521668879758
 30
0.0
 40
3.25
 50
0.0
 51
180.0
  0
LINE
  5
2FC
  8
DEFAULT
 10
417.4360379194879
 20
-3140.521668879758
 30
0.0
 11
417.4360379194879
 21
-3151.721668879758
 31
0.0
  0
ARC
  5
2FD
  8
DEFAULT
 10
420.6860379194879
 20
-3151.721668879758
 30
0.0
 40
3.25
 50
180.0
 51
0.0
  0
LINE
  5
2FE
  8
DEFAULT
 10
423.9360379194879
 20
-3151.721668879758
 30
0.0
 11
467.4360379194879
 21
-3151.721668879758
 31
0.0
  0
LINE
  5
2FF
  8
DEFAULT
 10
467.4360379194879
 20
-3151.721668879758
 30
0.0
 11
467.4360379194878
 21
-3176.721668879758
 31
0.0
  0
LINE
  5
300
  8
DEFAULT
 10
467.4360379194878
 20
-3176.721668879758
 30
0.0
 11
423.9360379194878
 21
-3176.721668879758
 31
0.0
  0
ARC
  5
301
  8
DEFAULT
 10
420.6860379194878
 20
-3176.721668879758
 30
0.0
 40
3.25
 50
0.0
 51
180.0
  0
LINE
  5
302
  8
DEFAULT
 10
417.4360379194878
 20
-3176.721668879758
 30
0.0
 11
417.4360379194878
 21
-3187.921668879758
 31
0.0
  0
ARC
  5
303
  8
DEFAULT
 10
420.6860379194878
 20
-3187.921668879758
 30
0.0
 40
3.25
 50
180.0
 51
0.0
  0
LINE
  5
304
  8
DEFAULT
 10
423.9360379194878
 20
-3187.921668879758
 30
0.0
 11
467.4360379194878
 21
-3187.921668879759
 31
0.0
  0
LINE
  5
305
  8
DEFAULT
 10
467.4360379194878
 20
-3187.921668879759
 30
0.0
 11
467.4360379194878
 21
-3212.921668879759
 31
0.0
  0
LINE
  5
306
  8
DEFAULT
 10
467.4360379194878
 20
-3212.921668879759
 30
0.0
 11
423.9360379194878
 21
-3212.921668879758
 31
0.0
  0
ARC
  5
307
  8
DEFAULT
 10
420.6860379194878
 20
-3212.921668879758
 30
0.0
 40
3.25
 50
0.0
 51
180.0
  0
LINE
  5
308
  8
DEFAULT
 10
417.4360379194878
 20
-3212.921668879758
 30
0.0
 11
417.4360379194878
 21
-3224.121668879759
 31
0.0
  0
ARC
  5
309
  8
DEFAULT
 10
420.6860379194878
 20
-3224.121668879759
 30
0.0
 40
3.25
 50
180.0
 51
0.0
  0
LINE
  5
30A
  8
DEFAULT
 10
423.9360379194878
 20
-3224.121668879759
 30
0.0
 11
467.4360379194878
 21
-3224.121668879759
 31
0.0
  0
LINE
  5
30B
  8
DEFAULT
 10
467.4360379194878
 20
-3224.121668879759
 30
0.0
 11
467.4360379194878
 21
-3249.121668879759
 31
0.0
  0
LINE
  5
30C
  8
DEFAULT
 10
467.4360379194878
 20
-3249.121668879759
 30
0.0
 11
423.9360379194878
 21
-3249.121668879759
 31
0.0
  0
ARC
  5
30D
  8
DEFAULT
 10
420.6860379194878
 20
-3249.121668879759
 30
0.0
 40
3.25
 50
0.0
 51
180.0
  0
LINE
  5
30E
  8
DEFAULT
 10
537.2554983943033
 20
-3249.121668879759
 30
0.0
 11
537.2554983943033
 21
-3260.321668879758
 31
0.0
  0
ARC
  5
30F
  8
DEFAULT
 10
540.5054983943033
 20
-3260.321668879758
 30
0.0
 40
3.25
 50
180.0
 51
0.0
  0
LINE
  5
310
  8
DEFAULT
 10
543.7554983943033
 20
-3260.321668879758
 30
0.0
 11
587.2554983943033
 21
-3260.321668879758
 31
0.0
  0
LINE
  5
311
  8
DEFAULT
 10
587.2554983943033
 20
-3260.321668879758
 30
0.0
 11
587.2554983943033
 21
-3285.321668879758
 31
0.0
  0
LINE
  5
312
  8
DEFAULT
 10
587.2554983943033
 20
-3285.321668879758
 30
0.0
 11
543.7554983943035
 21
-3285.321668879758
 31
0.0
  0
ARC
  5
313
  8
DEFAULT
 10
540.5054983943035
 20
-3285.321668879758
 30
0.0
 40
3.25
 50
0.0
 51
180.0
  0
LINE
  5
314
  8
DEFAULT
 10
537.2554983943035
 20
-3285.321668879758
 30
0.0
 11
537.2554983943035
 21
-3296.521668879759
 31
0.0
  0
ARC
  5
315
  8
DEFAULT
 10
540.5054983943035
 20
-3296.521668879759
 30
0.0
 40
3.25
 50
180.0
 51
0.0
  0
LINE
  5
316
  8
DEFAULT
 10
543.7554983943035
 20
-3296.521668879759
 30
0.0
 11
587.2554983943033
 21
-3296.521668879758
 31
0.0
  0
LINE
  5
317
  8
DEFAULT
 10
587.2554983943033
 20
-3296.521668879758
 30
0.0
 11
587.2554983943033
 21
-3321.521668879758
 31
0.0
  0
LINE
  5
318
  8
DEFAULT
 10
587.2554983943033
 20
-3321.521668879758
 30
0.0
 11
543.7554983943033
 21
-3321.521668879759
 31
0.0
  0
ARC
  5
319
  8
DEFAULT
 10
540.5054983943033
 20
-3321.521668879759
 30
0.0
 40
3.25
 50
0.0
 51
180.0
  0
LINE
  5
31A
  8
DEFAULT
 10
537.2554983943033
 20
-3321.521668879759
 30
0.0
 11
537.2554983943033
 21
-3332.721668879758
 31
0.0
  0
ARC
  5
31B
  8
DEFAULT
 10
540.5054983943033
 20
-3332.721668879758
 30
0.0
 40
3.25
 50
180.0
 51
0.0
  0
LINE
  5
31C
  8
DEFAULT
 10
543.7554983943033
 20
-3332.721668879758
 30
0.0
 11
587.2554983943033
 21
-3332.721668879759
 31
0.0
  0
LINE
  5
31D
  8
DEFAULT
 10
587.2554983943033
 20
-3332.721668879759
 30
0.0
 11
587.2554983943032
 21
-3382.721668879759
 31
0.0
  0
LINE
  5
31E
  8
DEFAULT
 10
587.2554983943032
 20
-3382.721668879759
 30
0.0
 11
487.2554983943032
 21
-3382.721668879759
 31
0.0
  0
LINE
  5
31F
  8
DEFAULT
 10
487.2554983943032
 20
-3382.721668879759
 30
0.0
 11
487.2554983943033
 21
-3290.321668879758
 31
0.0
  0
ARC
  5
320
  8
DEFAULT
 10
487.2554983943033
 20
-3287.071668879758
 30
0.0
 40
3.25
 50
270.0
 51
90.0
  0
LINE
  5
321
  8
DEFAULT
 10
487.2554983943033
 20
-3283.821668879758
 30
0.0
 11
476.2554983943033
 21
-3283.821668879758
 31
0.0
  0
LINE
  5
322
  8
DEFAULT
 10
476.2554983943033
 20
-3283.821668879758
 30
0.0
 11
476.2554983943033
 21
-3233.821668879758
 31
0.0
  0
LINE
  5
323
  8
DEFAULT
 10
476.2554983943033
 20
-3233.821668879758
 30
0.0
 11
487.2554983943033
 21
-3233.821668879758
 31
0.0
  0
ARC
  5
324
  8
DEFAULT
 10
487.2554983943033
 20
-3230.571668879758
 30
0.0
 40
3.25
 50
270.0
 51
90.0
  0
LINE
  5
325
  8
DEFAULT
 10
487.2554983943033
 20
-3227.321668879758
 30
0.0
 11
487.2554983943035
 21
-3141.421668879758
 31
0.0
  0
ARC
  5
326
  8
DEFAULT
 10
487.2554983943035
 20
-3138.171668879758
 30
0.0
 40
3.25
 50
270.0
 51
90.0
  0
LINE
  5
327
  8
DEFAULT
 10
487.2554983943035
 20
-3134.921668879758
 30
0.0
 11
476.2554983943035
 21
-3134.921668879758
 31
0.0
  0
LINE
  5
328
  8
DEFAULT
 10
476.2554983943035
 20
-3134.921668879758
 30
0.0
 11
476.2554983943033
 21
-3084.921668879758
 31
0.0
  0
LINE
  5
329
  8
DEFAULT
 10
476.2554983943033
 20
-3084.921668879758
 30
0.0
 11
487.2554983943035
 21
-3084.921668879758
 31
0.0
  0
ARC
  5
32A
  8
DEFAULT
 10
487.2554983943035
 20
-3081.671668879758
 30
0.0
 40
3.25
 50
270.0
 51
90.0
  0
LINE
  5
32B
  8
DEFAULT
 10
487.2554983943035
 20
-3078.421668879758
 30
0.0
 11
487.2554983943035
 21
-2992.521668879758
 31
0.0
  0
ARC
  5
32C
  8
DEFAULT
 10
487.2554983943035
 20
-2989.271668879758
 30
0.0
 40
3.25
 50
270.0
 51
90.0
  0
LINE
  5
32D
  8
DEFAULT
 10
487.2554983943035
 20
-2986.021668879758
 30
0.0
 11
476.2554983943035
 21
-2986.021668879758
 31
0.0
  0
LINE
  5
32E
  8
DEFAULT
 10
476.2554983943035
 20
-2986.021668879758
 30
0.0
 11
476.2554983943035
 21
-2936.021668879758
 31
0.0
  0
LINE
  5
32F
  8
DEFAULT
 10
476.2554983943035
 20
-2936.021668879758
 30
0.0
 11
487.2554983943035
 21
-2936.021668879758
 31
0.0
  0
ARC
  5
330
  8
DEFAULT
 10
487.2554983943035
 20
-2932.771668879758
 30
0.0
 40
3.25
 50
270.0
 51
90.0
  0
LINE
  5
331
  8
DEFAULT
 10
487.2554983943035
 20
-2929.521668879758
 30
0.0
 11
487.2554983943035
 21
-2837.121668879758
 31
0.0
  0
LINE
  5
332
  8
DEFAULT
 10
487.2554983943035
 20
-2837.121668879758
 30
0.0
 11
587.2554983943035
 21
-2837.121668879758
 31
0.0
  0
LINE
  5
333
  8
DEFAULT
 10
587.2554983943035
 20
-2837.121668879758
 30
0.0
 11
587.2554983943035
 21
-2887.121668879758
 31
0.0
  0
LINE
  5
334
  8
DEFAULT
 10
587.2554983943035
 20
-2887.121668879758
 30
0.0
 11
543.7554983943035
 21
-2887.121668879758
 31
0.0
  0
ARC
  5
335
  8
DEFAULT
 10
540.5054983943035
 20
-2887.121668879758
 30
0.0
 40
3.25
 50
0.0
 51
180.0
  0
LINE
  5
336
  8
DEFAULT
 10
537.2554983943035
 20
-2887.121668879758
 30
0.0
 11
537.2554983943035
 21
-2898.321668879758
 31
0.0
  0
ARC
  5
337
  8
DEFAULT
 10
540.5054983943035
 20
-2898.321668879758
 30
0.0
 40
3.25
 50
180.0
 51
0.0
  0
LINE
  5
338
  8
DEFAULT
 10
543.7554983943035
 20
-2898.321668879758
 30
0.0
 11
587.2554983943035
 21
-2898.321668879758
 31
0.0
  0
LINE
  5
339
  8
DEFAULT
 10
587.2554983943035
 20
-2898.321668879758
 30
0.0
 11
587.2554983943035
 21
-2923.321668879758
 31
0.0
  0
LINE
  5
33A
  8
DEFAULT
 10
587.2554983943035
 20
-2923.321668879758
 30
0.0
 11
543.7554983943035
 21
-2923.321668879758
 31
0.0
  0
ARC
  5
33B
  8
DEFAULT
 10
540.5054983943035
 20
-2923.321668879758
 30
0.0
 40
3.25
 50
0.0
 51
180.0
  0
LINE
  5
33C
  8
DEFAULT
 10
537.2554983943035
 20
-2923.321668879758
 30
0.0
 11
537.2554983943035
 21
-2934.521668879758
 31
0.0
  0
ARC
  5
33D
  8
DEFAULT
 10
540.5054983943035
 20
-2934.521668879758
 30
0.0
 40
3.25
 50
180.0
 51
0.0
  0
LINE
  5
33E
  8
DEFAULT
 10
543.7554983943035
 20
-2934.521668879758
 30
0.0
 11
587.2554983943035
 21
-2934.521668879758
 31
0.0
  0
LINE
  5
33F
  8
DEFAULT
 10
587.2554983943035
 20
-2934.521668879758
 30
0.0
 11
587.2554983943035
 21
-2959.521668879758
 31
0.0
  0
LINE
  5
340
  8
DEFAULT
 10
587.2554983943035
 20
-2959.521668879758
 30
0.0
 11
543.7554983943035
 21
-2959.521668879758
 31
0.0
  0
ARC
  5
341
  8
DEFAULT
 10
540.5054983943035
 20
-2959.521668879758
 30
0.0
 40
3.25
 50
0.0
 51
180.0
  0
LINE
  5
342
  8
DEFAULT
 10
537.2554983943035
 20
-2959.521668879758
 30
0.0
 11
537.2554983943035
 21
-2970.721668879758
 31
0.0
  0
ARC
  5
343
  8
DEFAULT
 10
540.5054983943035
 20
-2970.721668879758
 30
0.0
 40
3.25
 50
180.0
 51
0.0
  0
LINE
  5
344
  8
DEFAULT
 10
543.7554983943035
 20
-2970.721668879758
 30
0.0
 11
587.2554983943035
 21
-2970.721668879758
 31
0.0
  0
LINE
  5
345
  8
DEFAULT
 10
587.2554983943035
 20
-2970.721668879758
 30
0.0
 11
587.2554983943035
 21
-2995.721668879758
 31
0.0
  0
LINE
  5
346
  8
DEFAULT
 10
587.2554983943035
 20
-2995.721668879758
 30
0.0
 11
543.7554983943035
 21
-2995.721668879758
 31
0.0
  0
ARC
  5
347
  8
DEFAULT
 10
540.5054983943035
 20
-2995.721668879758
 30
0.0
 40
3.25
 50
0.0
 51
180.0
  0
LINE
  5
348
  8
DEFAULT
 10
537.2554983943035
 20
-2995.721668879758
 30
0.0
 11
537.2554983943035
 21
-3006.921668879758
 31
0.0
  0
ARC
  5
349
  8
DEFAULT
 10
540.5054983943035
 20
-3006.921668879758
 30
0.0
 40
3.25
 50
180.0
 51
0.0
  0
LINE
  5
34A
  8
DEFAULT
 10
543.7554983943035
 20
-3006.921668879758
 30
0.0
 11
587.2554983943035
 21
-3006.921668879758
 31
0.0
  0
LINE
  5
34B
  8
DEFAULT
 10
587.2554983943035
 20
-3006.921668879758
 30
0.0
 11
587.2554983943035
 21
-3031.921668879758
 31
0.0
  0
LINE
  5
34C
  8
DEFAULT
 10
587.2554983943035
 20
-3031.921668879758
 30
0.0
 11
543.7554983943037
 21
-3031.921668879758
 31
0.0
  0
ARC
  5
34D
  8
DEFAULT
 10
540.5054983943035
 20
-3031.921668879758
 30
0.0
 40
3.25
 50
0.0
 51
180.0
  0
LINE
  5
34E
  8
DEFAULT
 10
537.2554983943035
 20
-3031.921668879758
 30
0.0
 11
537.2554983943035
 21
-3043.121668879758
 31
0.0
  0
ARC
  5
34F
  8
DEFAULT
 10
540.5054983943035
 20
-3043.121668879758
 30
0.0
 40
3.25
 50
180.0
 51
0.0
  0
LINE
  5
350
  8
DEFAULT
 10
543.7554983943035
 20
-3043.121668879758
 30
0.0
 11
587.2554983943035
 21
-3043.121668879759
 31
0.0
  0
LINE
  5
351
  8
DEFAULT
 10
587.2554983943035
 20
-3043.121668879759
 30
0.0
 11
587.2554983943035
 21
-3068.121668879759
 31
0.0
  0
LINE
  5
352
  8
DEFAULT
 10
587.2554983943035
 20
-3068.121668879759
 30
0.0
 11
543.7554983943035
 21
-3068.121668879758
 31
0.0
  0
ARC
  5
353
  8
DEFAULT
 10
540.5054983943035
 20
-3068.121668879758
 30
0.0
 40
3.25
 50
0.0
 51
180.0
  0
LINE
  5
354
  8
DEFAULT
 10
537.2554983943035
 20
-3068.121668879758
 30
0.0
 11
537.2554983943035
 21
-3079.321668879758
 31
0.0
  0
ARC
  5
355
  8
DEFAULT
 10
540.5054983943035
 20
-3079.321668879758
 30
0.0
 40
3.25
 50
180.0
 51
0.0
  0
LINE
  5
356
  8
DEFAULT
 10
543.7554983943035
 20
-3079.321668879758
 30
0.0
 11
587.2554983943035
 21
-3079.321668879758
 31
0.0
  0
LINE
  5
357
  8
DEFAULT
 10
587.2554983943035
 20
-3079.321668879758
 30
0.0
 11
587.2554983943035
 21
-3104.321668879758
 31
0.0
  0
LINE
  5
358
  8
DEFAULT
 10
587.2554983943035
 20
-3104.321668879758
 30
0.0
 11
543.7554983943035
 21
-3104.321668879758
 31
0.0
  0
ARC
  5
359
  8
DEFAULT
 10
540.5054983943035
 20
-3104.321668879758
 30
0.0
 40
3.25
 50
0.0
 51
180.0
  0
LINE
  5
35A
  8
DEFAULT
 10
537.2554983943035
 20
-3104.321668879758
 30
0.0
 11
537.2554983943035
 21
-3115.521668879758
 31
0.0
  0
ARC
  5
35B
  8
DEFAULT
 10
540.5054983943035
 20
-3115.521668879758
 30
0.0
 40
3.25
 50
180.0
 51
0.0
  0
LINE
  5
35C
  8
DEFAULT
 10
543.7554983943035
 20
-3115.521668879758
 30
0.0
 11
587.2554983943035
 21
-3115.521668879758
 31
0.0
  0
LINE
  5
35D
  8
DEFAULT
 10
587.2554983943035
 20
-3115.521668879758
 30
0.0
 11
587.2554983943035
 21
-3140.521668879758
 31
0.0
  0
LINE
  5
35E
  8
DEFAULT
 10
587.2554983943035
 20
-3140.521668879758
 30
0.0
 11
543.7554983943035
 21
-3140.521668879758
 31
0.0
  0
ARC
  5
35F
  8
DEFAULT
 10
540.5054983943035
 20
-3140.521668879758
 30
0.0
 40
3.25
 50
0.0
 51
180.0
  0
LINE
  5
360
  8
DEFAULT
 10
537.2554983943035
 20
-3140.521668879758
 30
0.0
 11
537.2554983943035
 21
-3151.721668879758
 31
0.0
  0
ARC
  5
361
  8
DEFAULT
 10
540.5054983943035
 20
-3151.721668879758
 30
0.0
 40
3.25
 50
180.0
 51
0.0
  0
LINE
  5
362
  8
DEFAULT
 10
543.7554983943035
 20
-3151.721668879758
 30
0.0
 11
587.2554983943035
 21
-3151.721668879758
 31
0.0
  0
LINE
  5
363
  8
DEFAULT
 10
587.2554983943035
 20
-3151.721668879758
 30
0.0
 11
587.2554983943033
 21
-3176.721668879758
 31
0.0
  0
LINE
  5
364
  8
DEFAULT
 10
587.2554983943033
 20
-3176.721668879758
 30
0.0
 11
543.7554983943033
 21
-3176.721668879758
 31
0.0
  0
ARC
  5
365
  8
DEFAULT
 10
540.5054983943033
 20
-3176.721668879758
 30
0.0
 40
3.25
 50
0.0
 51
180.0
  0
LINE
  5
366
  8
DEFAULT
 10
537.2554983943033
 20
-3176.721668879758
 30
0.0
 11
537.2554983943033
 21
-3187.921668879758
 31
0.0
  0
ARC
  5
367
  8
DEFAULT
 10
540.5054983943033
 20
-3187.921668879758
 30
0.0
 40
3.25
 50
180.0
 51
0.0
  0
LINE
  5
368
  8
DEFAULT
 10
543.7554983943033
 20
-3187.921668879758
 30
0.0
 11
587.2554983943033
 21
-3187.921668879759
 31
0.0
  0
LINE
  5
369
  8
DEFAULT
 10
587.2554983943033
 20
-3187.921668879759
 30
0.0
 11
587.2554983943033
 21
-3212.921668879759
 31
0.0
  0
LINE
  5
36A
  8
DEFAULT
 10
587.2554983943033
 20
-3212.921668879759
 30
0.0
 11
543.7554983943033
 21
-3212.921668879758
 31
0.0
  0
ARC
  5
36B
  8
DEFAULT
 10
540.5054983943033
 20
-3212.921668879758
 30
0.0
 40
3.25
 50
0.0
 51
180.0
  0
LINE
  5
36C
  8
DEFAULT
 10
537.2554983943033
 20
-3212.921668879758
 30
0.0
 11
537.2554983943033
 21
-3224.121668879759
 31
0.0
  0
ARC
  5
36D
  8
DEFAULT
 10
540.5054983943033
 20
-3224.121668879759
 30
0.0
 40
3.25
 50
180.0
 51
0.0
  0
LINE
  5
36E
  8
DEFAULT
 10
543.7554983943033
 20
-3224.121668879759
 30
0.0
 11
587.2554983943033
 21
-3224.121668879759
 31
0.0
  0
LINE
  5
36F
  8
DEFAULT
 10
587.2554983943033
 20
-3224.121668879759
 30
0.0
 11
587.2554983943033
 21
-3249.121668879759
 31
0.0
  0
LINE
  5
370
  8
DEFAULT
 10
587.2554983943033
 20
-3249.121668879759
 30
0.0
 11
543.7554983943033
 21
-3249.121668879759
 31
0.0
  0
ARC
  5
371
  8
DEFAULT
 10
540.5054983943033
 20
-3249.121668879759
 30
0.0
 40
3.25
 50
0.0
 51
180.0
  0
LINE
  5
373
  8
LAYER_04
 10
1235.53471639953
 20
-2782.271824950079
 30
0.0
 11
1207.416723255972
 21
-2782.271824950079
 31
0.0
  0
LINE
  5
374
  8
LAYER_04
 10
1207.416723255972
 20
-2782.271824950079
 30
0.0
 11
1206.284716399544
 21
-2761.836353469667
 31
0.0
  0
LINE
  5
375
  8
LAYER_04
 10
1206.284716399544
 20
-2761.836353469667
 30
0.0
 11
1206.28471639953
 21
-2730.181027409063
 31
0.0
  0
LINE
  5
376
  8
LAYER_04
 10
1206.28471639953
 20
-2730.181027409063
 30
0.0
 11
1271.28471639953
 21
-2730.181027409063
 31
0.0
  0
LINE
  5
377
  8
LAYER_04
 10
1271.28471639953
 20
-2730.181027409063
 30
0.0
 11
1271.284716399531
 21
-3370.15168494497
 31
0.0
  0
LINE
  5
378
  8
LAYER_04
 10
1271.284716399531
 20
-3370.15168494497
 30
0.0
 11
1206.284716399531
 21
-3370.151684944971
 31
0.0
  0
LINE
  5
379
  8
LAYER_04
 10
1206.284716399531
 20
-3370.151684944971
 30
0.0
 11
1206.284716399545
 21
-3338.496353469666
 31
0.0
  0
LINE
  5
37A
  8
LAYER_04
 10
1206.284716399545
 20
-3338.496353469666
 30
0.0
 11
1207.416722754448
 21
-3318.060881989247
 31
0.0
  0
LINE
  5
37B
  8
LAYER_04
 10
1207.416722754448
 20
-3318.060881989247
 30
0.0
 11
1235.534716399531
 21
-3318.060881989247
 31
0.0
  0
ARC
  5
37C
  8
LAYER_04
 10
1238.784716399531
 20
-3318.060881989246
 30
0.0
 40
3.25
 50
180.0
 51
90.0
  0
LINE
  5
37D
  8
LAYER_04
 10
1238.784716399531
 20
-3314.810881989246
 30
0.0
 11
1238.784716399531
 21
-3309.640881989246
 31
0.0
  0
ARC
  5
37E
  8
LAYER_04
 10
1238.784716399531
 20
-3306.390881989246
 30
0.0
 40
3.25
 50
270.0
 51
180.0
  0
LINE
  5
37F
  8
LAYER_04
 10
1235.534716399531
 20
-3306.390881989247
 30
0.0
 11
1208.025859621526
 21
-3306.390881989247
 31
0.0
  0
ARC
  5
380
  8
LAYER_04
 10
-3809.307604222938
 20
-3050.166346246016
 30
0.0
 40
5023.871624567085
 50
357.0765661526122
 51
2.923433682405993
  0
LINE
  5
381
  8
LAYER_04
 10
1208.025860359319
 20
-2793.94182495008
 30
0.0
 11
1235.534716399531
 21
-2793.94182495008
 31
0.0
  0
ARC
  5
382
  8
LAYER_04
 10
1238.78471639953
 20
-2793.94182495008
 30
0.0
 40
3.249999999999574
 50
180.000000000008
 51
90.00000000000801
  0
LINE
  5
383
  8
LAYER_04
 10
1238.78471639953
 20
-2790.69182495008
 30
0.0
 11
1238.78471639953
 21
-2785.521824950079
 31
0.0
  0
ARC
  5
384
  8
LAYER_04
 10
1238.78471639953
 20
-2782.271824950079
 30
0.0
 40
3.250000000000456
 50
269.999999999992
 51
180.000000000008
  0
ARC
  5
385
  8
LAYER_04
 10
1157.513975682517
 20
-2766.851027409063
 30
0.0
 40
3.25
 50
180.0
 51
90.0
  0
LINE
  5
386
  8
LAYER_04
 10
1157.513975682517
 20
-2763.601027409063
 30
0.0
 11
1157.513975682517
 21
-2758.431027409063
 31
0.0
  0
ARC
  5
387
  8
LAYER_04
 10
1157.513975682517
 20
-2755.181027409063
 30
0.0
 40
3.25
 50
270.0
 51
180.0
  0
LINE
  5
388
  8
LAYER_04
 10
1154.263975682517
 20
-2755.181027409063
 30
0.0
 11
1125.013975682517
 21
-2755.181027409064
 31
0.0
  0
LINE
  5
389
  8
LAYER_04
 10
1125.013975682517
 20
-2755.181027409064
 30
0.0
 11
1125.013975682517
 21
-2730.181027409064
 31
0.0
  0
LINE
  5
38A
  8
LAYER_04
 10
1125.013975682517
 20
-2730.181027409064
 30
0.0
 11
1190.013975682517
 21
-2730.181027409063
 31
0.0
  0
LINE
  5
38B
  8
LAYER_04
 10
1190.013975682517
 20
-2730.181027409063
 30
0.0
 11
1190.013975682518
 21
-2787.28649888948
 31
0.0
  0
LINE
  5
38C
  8
LAYER_04
 10
1190.013975682518
 20
-2787.28649888948
 30
0.0
 11
1160.763975682518
 21
-2787.28649888948
 31
0.0
  0
ARC
  5
38D
  8
LAYER_04
 10
1157.513975682519
 20
-2787.286498889481
 30
0.0
 40
3.249999999999546
 50
0.000000000008017
 51
269.999999999992
  0
LINE
  5
38E
  8
LAYER_04
 10
1157.513975682518
 20
-2790.53649888948
 30
0.0
 11
1157.513975682518
 21
-2795.706498889481
 31
0.0
  0
ARC
  5
38F
  8
LAYER_04
 10
1157.513975682519
 20
-2798.95649888948
 30
0.0
 40
3.249999999999252
 50
90.00000000001204
 51
0.000000000008017
  0
LINE
  5
390
  8
LAYER_04
 10
1160.763975682518
 20
-2798.95649888948
 30
0.0
 11
1190.013975682518
 21
-2798.95649888948
 31
0.0
  0
LINE
  5
391
  8
LAYER_04
 10
1190.013975682518
 20
-2798.95649888948
 30
0.0
 11
1190.013975682523
 21
-3311.405555928651
 31
0.0
  0
LINE
  5
392
  8
LAYER_04
 10
1190.013975682523
 20
-3311.405555928651
 30
0.0
 11
1160.763975682523
 21
-3311.405555928652
 31
0.0
  0
ARC
  5
393
  8
LAYER_04
 10
1157.513975682523
 20
-3311.405555928652
 30
0.0
 40
3.250000000000068
 50
0.0
 51
270.000000000004
  0
LINE
  5
394
  8
LAYER_04
 10
1157.513975682523
 20
-3314.655555928652
 30
0.0
 11
1157.513975682523
 21
-3319.825555928653
 31
0.0
  0
ARC
  5
395
  8
LAYER_04
 10
1157.513975682524
 20
-3323.075555928652
 30
0.0
 40
3.249999999999252
 50
90.00000000001204
 51
0.000000000008017
  0
LINE
  5
396
  8
LAYER_04
 10
1160.763975682523
 20
-3323.075555928652
 30
0.0
 11
1190.013975682523
 21
-3323.075555928651
 31
0.0
  0
LINE
  5
397
  8
LAYER_04
 10
1190.013975682523
 20
-3323.075555928651
 30
0.0
 11
1190.013975682524
 21
-3380.181027409063
 31
0.0
  0
LINE
  5
398
  8
LAYER_04
 10
1190.013975682524
 20
-3380.181027409063
 30
0.0
 11
1125.013975682524
 21
-3380.181027409065
 31
0.0
  0
LINE
  5
399
  8
LAYER_04
 10
1125.013975682524
 20
-3380.181027409065
 30
0.0
 11
1125.013975682523
 21
-3355.181027409065
 31
0.0
  0
LINE
  5
39A
  8
LAYER_04
 10
1125.013975682523
 20
-3355.181027409065
 30
0.0
 11
1154.263975682523
 21
-3355.181027409063
 31
0.0
  0
ARC
  5
39B
  8
LAYER_04
 10
1157.513975682523
 20
-3355.181027409063
 30
0.0
 40
3.249999999999546
 50
180.000000000008
 51
89.99999999999199
  0
LINE
  5
39C
  8
LAYER_04
 10
1157.513975682523
 20
-3351.931027409063
 30
0.0
 11
1157.513975682523
 21
-3346.761027409062
 31
0.0
  0
ARC
  5
39D
  8
LAYER_04
 10
1157.513975682522
 20
-3343.511027409063
 30
0.0
 40
3.249999999999025
 50
270.000000000016
 51
180.000000000008
  0
LINE
  5
39E
  8
LAYER_04
 10
1154.263975682523
 20
-3343.511027409064
 30
0.0
 11
1125.013975682522
 21
-3343.511027409064
 31
0.0
  0
ARC
  5
39F
  8
LAYER_04
 10
-3891.448916721987
 20
-3055.181027409109
 30
0.0
 40
5024.742196349122
 50
356.7104438654909
 51
3.289556134510129
  0
LINE
  5
3A0
  8
LAYER_04
 10
1125.013975682518
 20
-2766.851027409064
 30
0.0
 11
1154.263975682517
 21
-2766.851027409063
 31
0.0
  0
ARC
  5
3A1
  8
LAYER_04
 10
1083.526687814183
 20
-2766.876376086803
 30
0.0
 40
3.25
 50
180.0
 51
90.0
  0
LINE
  5
3A2
  8
LAYER_04
 10
1083.526687814183
 20
-2763.626376086803
 30
0.0
 11
1083.526687814183
 21
-2758.456376086805
 31
0.0
  0
ARC
  5
3A3
  8
LAYER_04
 10
1083.526687814183
 20
-2755.206376086805
 30
0.0
 40
3.250000000000039
 50
270.0
 51
179.999999999984
  0
LINE
  5
3A4
  8
LAYER_04
 10
1080.276687814183
 20
-2755.206376086804
 30
0.0
 11
1051.026687814183
 21
-2755.206376086804
 31
0.0
  0
LINE
  5
3A5
  8
LAYER_04
 10
1051.026687814183
 20
-2755.206376086804
 30
0.0
 11
1051.026687814182
 21
-2730.206376086804
 31
0.0
  0
LINE
  5
3A6
  8
LAYER_04
 10
1051.026687814182
 20
-2730.206376086804
 30
0.0
 11
1116.026687814182
 21
-2730.206376086803
 31
0.0
  0
LINE
  5
3A7
  8
LAYER_04
 10
1116.026687814182
 20
-2730.206376086803
 30
0.0
 11
1116.026687814183
 21
-2787.31184756722
 31
0.0
  0
LINE
  5
3A8
  8
LAYER_04
 10
1116.026687814183
 20
-2787.31184756722
 30
0.0
 11
1086.776687814183
 21
-2787.31184756722
 31
0.0
  0
ARC
  5
3A9
  8
LAYER_04
 10
1083.526687814182
 20
-2787.31184756722
 30
0.0
 40
3.250000000000456
 50
359.999999999992
 51
270.000000000008
  0
LINE
  5
3AA
  8
LAYER_04
 10
1083.526687814183
 20
-2790.56184756722
 30
0.0
 11
1083.526687814183
 21
-2795.73184756722
 31
0.0
  0
ARC
  5
3AB
  8
LAYER_04
 10
1083.526687814182
 20
-2798.98184756722
 30
0.0
 40
3.250000000000815
 50
89.99999999998798
 51
0.0
  0
LINE
  5
3AC
  8
LAYER_04
 10
1086.776687814183
 20
-2798.98184756722
 30
0.0
 11
1116.026687814183
 21
-2798.98184756722
 31
0.0
  0
LINE
  5
3AD
  8
LAYER_04
 10
1116.026687814183
 20
-2798.98184756722
 30
0.0
 11
1116.02668781419
 21
-3311.430904606391
 31
0.0
  0
LINE
  5
3AE
  8
LAYER_04
 10
1116.02668781419
 20
-3311.430904606391
 30
0.0
 11
1086.776687814189
 21
-3311.430904606391
 31
0.0
  0
ARC
  5
3AF
  8
LAYER_04
 10
1083.52668781419
 20
-3311.430904606393
 30
0.0
 40
3.249999999999252
 50
0.0000000000160339
 51
270.0
  0
LINE
  5
3B0
  8
LAYER_04
 10
1083.52668781419
 20
-3314.680904606392
 30
0.0
 11
1083.52668781419
 21
-3319.850904606392
 31
0.0
  0
ARC
  5
3B1
  8
LAYER_04
 10
1083.526687814189
 20
-3323.100904606392
 30
0.0
 40
3.250000000000456
 50
89.99999999999199
 51
0.000000000008017
  0
LINE
  5
3B2
  8
LAYER_04
 10
1086.77668781419
 20
-3323.100904606391
 30
0.0
 11
1116.02668781419
 21
-3323.100904606391
 31
0.0
  0
LINE
  5
3B3
  8
LAYER_04
 10
1116.02668781419
 20
-3323.100904606391
 30
0.0
 11
1116.026687814191
 21
-3380.206376086804
 31
0.0
  0
LINE
  5
3B4
  8
LAYER_04
 10
1116.026687814191
 20
-3380.206376086804
 30
0.0
 11
1051.026687814191
 21
-3380.206376086804
 31
0.0
  0
LINE
  5
3B5
  8
LAYER_04
 10
1051.026687814191
 20
-3380.206376086804
 30
0.0
 11
1051.02668781419
 21
-3355.206376086804
 31
0.0
  0
LINE
  5
3B6
  8
LAYER_04
 10
1051.02668781419
 20
-3355.206376086804
 30
0.0
 11
1080.276687814191
 21
-3355.206376086804
 31
0.0
  0
ARC
  5
3B7
  8
LAYER_04
 10
1083.526687814191
 20
-3355.206376086804
 30
0.0
 40
3.250000000000456
 50
179.999999999992
 51
90.00000000000801
  0
LINE
  5
3B8
  8
LAYER_04
 10
1083.526687814191
 20
-3351.956376086804
 30
0.0
 11
1083.52668781419
 21
-3346.786376086805
 31
0.0
  0
ARC
  5
3B9
  8
LAYER_04
 10
1083.52668781419
 20
-3343.536376086804
 30
0.0
 40
3.250000000000522
 50
269.999999999992
 51
179.999999999992
  0
LINE
  5
3BA
  8
LAYER_04
 10
1080.27668781419
 20
-3343.536376086804
 30
0.0
 11
1051.02668781419
 21
-3343.536376086804
 31
0.0
  0
ARC
  5
3BB
  8
LAYER_04
 10
-3965.436204590186
 20
-3055.206376086882
 30
0.0
 40
5024.742196348987
 50
356.7104438654912
 51
3.289556134510585
  0
LINE
  5
3BC
  8
LAYER_04
 10
1051.026687814181
 20
-2766.876376086805
 30
0.0
 11
1080.276687814183
 21
-2766.876376086803
 31
0.0
  0
LINE
  5
3BD
  8
DEFAULT
 10
818.7363319799749
 20
-2451.029281257585
 30
0.0
 11
818.7363319799749
 21
-2407.529281257585
 31
0.0
  0
LINE
  5
3BE
  8
DEFAULT
 10
818.7363319799749
 20
-2407.529281257585
 30
0.0
 11
719.7363319799747
 21
-2407.529281257585
 31
0.0
  0
LINE
  5
3BF
  8
DEFAULT
 10
719.7363319799747
 20
-2407.529281257585
 30
0.0
 11
719.7363319799747
 21
-2451.029281257585
 31
0.0
  0
ARC
  5
3C0
  8
DEFAULT
 10
719.7363319799747
 20
-2454.279281257585
 30
0.0
 40
3.25
 50
270.0
 51
90.0
  0
LINE
  5
3C1
  8
DEFAULT
 10
719.7363319799747
 20
-2457.529281257585
 30
0.0
 11
708.7363319799747
 21
-2457.529281257585
 31
0.0
  0
ARC
  5
3C2
  8
DEFAULT
 10
708.7363319799747
 20
-2454.279281257585
 30
0.0
 40
3.25
 50
90.0
 51
270.0
  0
LINE
  5
3C3
  8
DEFAULT
 10
708.7363319799747
 20
-2451.029281257585
 30
0.0
 11
708.7363319799747
 21
-2407.529281257585
 31
0.0
  0
LINE
  5
3C4
  8
DEFAULT
 10
708.7363319799747
 20
-2407.529281257585
 30
0.0
 11
664.2363319799747
 21
-2407.529281257585
 31
0.0
  0
LINE
  5
3C5
  8
DEFAULT
 10
664.2363319799747
 20
-2407.529281257585
 30
0.0
 11
664.2363319799747
 21
-2507.529281257585
 31
0.0
  0
LINE
  5
3C6
  8
DEFAULT
 10
664.2363319799747
 20
-2507.529281257585
 30
0.0
 11
714.2363319799747
 21
-2507.529281257585
 31
0.0
  0
LINE
  5
3C7
  8
DEFAULT
 10
714.2363319799747
 20
-2507.529281257585
 30
0.0
 11
861.1471060994538
 21
-2507.529281257585
 31
0.0
  0
LINE
  5
3C8
  8
DEFAULT
 10
861.1471060994538
 20
-2507.529281257585
 30
0.0
 11
861.1471060994538
 21
-2407.529281257585
 31
0.0
  0
LINE
  5
3C9
  8
DEFAULT
 10
861.1471060994538
 20
-2407.529281257585
 30
0.0
 11
829.7363319799749
 21
-2407.529281257585
 31
0.0
  0
LINE
  5
3CA
  8
DEFAULT
 10
829.7363319799749
 20
-2407.529281257585
 30
0.0
 11
829.7363319799749
 21
-2451.029281257585
 31
0.0
  0
ARC
  5
3CB
  8
DEFAULT
 10
829.7363319799749
 20
-2454.279281257585
 30
0.0
 40
3.25
 50
270.0
 51
90.0
  0
LINE
  5
3CC
  8
DEFAULT
 10
829.7363319799749
 20
-2457.529281257585
 30
0.0
 11
818.7363319799749
 21
-2457.529281257585
 31
0.0
  0
ARC
  5
3CD
  8
DEFAULT
 10
818.7363319799749
 20
-2454.279281257585
 30
0.0
 40
3.25
 50
90.0
 51
270.0
  0
LINE
  5
3CE
  8
DEFAULT
 10
761.8778460299926
 20
-2542.599073771651
 30
0.0
 11
761.8778460299926
 21
-2592.599073771651
 31
0.0
  0
LINE
  5
3CF
  8
DEFAULT
 10
761.8778460299926
 20
-2592.599073771651
 30
0.0
 11
772.8778460299926
 21
-2592.599073771651
 31
0.0
  0
ARC
  5
3D0
  8
DEFAULT
 10
772.8778460299926
 20
-2595.849073771651
 30
0.0
 40
3.25
 50
270.0
 51
90.0
  0
LINE
  5
3D1
  8
DEFAULT
 10
772.8778460299926
 20
-2599.099073771651
 30
0.0
 11
772.8778460299926
 21
-2604.50984789113
 31
0.0
  0
LINE
  5
3D2
  8
DEFAULT
 10
772.8778460299926
 20
-2604.50984789113
 30
0.0
 11
872.8778460299926
 21
-2604.50984789113
 31
0.0
  0
LINE
  5
3D3
  8
DEFAULT
 10
872.8778460299926
 20
-2604.50984789113
 30
0.0
 11
872.8778460299926
 21
-2573.099073771651
 31
0.0
  0
LINE
  5
3D4
  8
DEFAULT
 10
872.8778460299926
 20
-2573.099073771651
 30
0.0
 11
822.8778460299926
 21
-2573.099073771651
 31
0.0
  0
LINE
  5
3D5
  8
DEFAULT
 10
822.8778460299926
 20
-2573.099073771651
 30
0.0
 11
822.8778460299926
 21
-2562.099073771651
 31
0.0
  0
LINE
  5
3D6
  8
DEFAULT
 10
822.8778460299926
 20
-2562.099073771651
 30
0.0
 11
872.8778460299926
 21
-2562.099073771651
 31
0.0
  0
LINE
  5
3D7
  8
DEFAULT
 10
872.8778460299926
 20
-2562.099073771651
 30
0.0
 11
872.8778460299924
 21
-2530.688299652171
 31
0.0
  0
LINE
  5
3D8
  8
DEFAULT
 10
872.8778460299924
 20
-2530.688299652171
 30
0.0
 11
772.8778460299924
 21
-2530.688299652172
 31
0.0
  0
LINE
  5
3D9
  8
DEFAULT
 10
772.8778460299924
 20
-2530.688299652172
 30
0.0
 11
772.8778460299926
 21
-2536.099073771652
 31
0.0
  0
ARC
  5
3DA
  8
DEFAULT
 10
772.8778460299926
 20
-2539.349073771652
 30
0.0
 40
3.25
 50
270.0
 51
90.0
  0
LINE
  5
3DB
  8
DEFAULT
 10
772.8778460299926
 20
-2542.599073771651
 30
0.0
 11
761.8778460299926
 21
-2542.599073771651
 31
0.0
  0
LINE
  5
3DC
  8
DEFAULT
 10
761.8778460299926
 20
-2737.416306134671
 30
0.0
 11
761.8778460299926
 21
-2787.416306134671
 31
0.0
  0
LINE
  5
3DD
  8
DEFAULT
 10
761.8778460299926
 20
-2787.416306134671
 30
0.0
 11
772.8778460299926
 21
-2787.41630613467
 31
0.0
  0
ARC
  5
3DE
  8
DEFAULT
 10
772.8778460299926
 20
-2790.66630613467
 30
0.0
 40
3.25
 50
270.0
 51
90.0
  0
LINE
  5
3DF
  8
DEFAULT
 10
772.8778460299926
 20
-2793.91630613467
 30
0.0
 11
772.8778460299926
 21
-2799.32708025415
 31
0.0
  0
LINE
  5
3E0
  8
DEFAULT
 10
772.8778460299926
 20
-2799.32708025415
 30
0.0
 11
872.8778460299926
 21
-2799.327080254149
 31
0.0
  0
LINE
  5
3E1
  8
DEFAULT
 10
872.8778460299926
 20
-2799.327080254149
 30
0.0
 11
872.8778460299926
 21
-2767.91630613467
 31
0.0
  0
LINE
  5
3E2
  8
DEFAULT
 10
872.8778460299926
 20
-2767.91630613467
 30
0.0
 11
822.8778460299926
 21
-2767.91630613467
 31
0.0
  0
LINE
  5
3E3
  8
DEFAULT
 10
822.8778460299926
 20
-2767.91630613467
 30
0.0
 11
822.8778460299926
 21
-2756.91630613467
 31
0.0
  0
LINE
  5
3E4
  8
DEFAULT
 10
822.8778460299926
 20
-2756.91630613467
 30
0.0
 11
872.8778460299926
 21
-2756.91630613467
 31
0.0
  0
LINE
  5
3E5
  8
DEFAULT
 10
872.8778460299926
 20
-2756.91630613467
 30
0.0
 11
872.8778460299924
 21
-2725.505532015191
 31
0.0
  0
LINE
  5
3E6
  8
DEFAULT
 10
872.8778460299924
 20
-2725.505532015191
 30
0.0
 11
772.8778460299924
 21
-2725.505532015191
 31
0.0
  0
LINE
  5
3E7
  8
DEFAULT
 10
772.8778460299924
 20
-2725.505532015191
 30
0.0
 11
772.8778460299926
 21
-2730.916306134671
 31
0.0
  0
ARC
  5
3E8
  8
DEFAULT
 10
772.8778460299926
 20
-2734.166306134671
 30
0.0
 40
3.25
 50
270.0
 51
90.0
  0
LINE
  5
3E9
  8
DEFAULT
 10
772.8778460299926
 20
-2737.41630613467
 30
0.0
 11
761.8778460299926
 21
-2737.416306134671
 31
0.0
  0
LINE
  5
3EA
  8
DEFAULT
 10
761.8778460299926
 20
-2641.209222884955
 30
0.0
 11
761.8778460299926
 21
-2691.209222884955
 31
0.0
  0
LINE
  5
3EB
  8
DEFAULT
 10
761.8778460299926
 20
-2691.209222884955
 30
0.0
 11
772.8778460299926
 21
-2691.209222884954
 31
0.0
  0
ARC
  5
3EC
  8
DEFAULT
 10
772.8778460299926
 20
-2694.459222884954
 30
0.0
 40
3.25
 50
270.0
 51
90.0
  0
LINE
  5
3ED
  8
DEFAULT
 10
772.8778460299926
 20
-2697.709222884954
 30
0.0
 11
772.8778460299926
 21
-2703.119997004434
 31
0.0
  0
LINE
  5
3EE
  8
DEFAULT
 10
772.8778460299926
 20
-2703.119997004434
 30
0.0
 11
872.8778460299926
 21
-2703.119997004433
 31
0.0
  0
LINE
  5
3EF
  8
DEFAULT
 10
872.8778460299926
 20
-2703.119997004433
 30
0.0
 11
872.8778460299926
 21
-2671.709222884954
 31
0.0
  0
LINE
  5
3F0
  8
DEFAULT
 10
872.8778460299926
 20
-2671.709222884954
 30
0.0
 11
822.8778460299926
 21
-2671.709222884954
 31
0.0
  0
LINE
  5
3F1
  8
DEFAULT
 10
822.8778460299926
 20
-2671.709222884954
 30
0.0
 11
822.8778460299926
 21
-2660.709222884954
 31
0.0
  0
LINE
  5
3F2
  8
DEFAULT
 10
822.8778460299926
 20
-2660.709222884954
 30
0.0
 11
872.8778460299926
 21
-2660.709222884954
 31
0.0
  0
LINE
  5
3F3
  8
DEFAULT
 10
872.8778460299926
 20
-2660.709222884954
 30
0.0
 11
872.8778460299924
 21
-2629.298448765475
 31
0.0
  0
LINE
  5
3F4
  8
DEFAULT
 10
872.8778460299924
 20
-2629.298448765475
 30
0.0
 11
772.8778460299924
 21
-2629.298448765475
 31
0.0
  0
LINE
  5
3F5
  8
DEFAULT
 10
772.8778460299924
 20
-2629.298448765475
 30
0.0
 11
772.8778460299926
 21
-2634.709222884955
 31
0.0
  0
ARC
  5
3F6
  8
DEFAULT
 10
772.8778460299926
 20
-2637.959222884955
 30
0.0
 40
3.25
 50
270.0
 51
90.0
  0
LINE
  5
3F7
  8
DEFAULT
 10
772.8778460299926
 20
-2641.209222884954
 30
0.0
 11
761.8778460299926
 21
-2641.209222884955
 31
0.0
  0
LINE
  5
3F8
  8
DEFAULT
 10
685.5217541450178
 20
-2580.113879620861
 30
0.0
 11
722.5217541450178
 21
-2580.113879620862
 31
0.0
  0
ARC
  5
3F9
  8
DEFAULT
 10
725.7717541450178
 20
-2580.113879620862
 30
0.0
 40
3.25
 50
180.0
 51
0.0
  0
LINE
  5
3FA
  8
DEFAULT
 10
729.0217541450178
 20
-2580.113879620862
 30
0.0
 11
729.021754145018
 21
-2568.913879620861
 31
0.0
  0
ARC
  5
3FB
  8
DEFAULT
 10
725.771754145018
 20
-2568.913879620861
 30
0.0
 40
3.25
 50
0.0
 51
180.0
  0
LINE
  5
3FC
  8
DEFAULT
 10
722.521754145018
 20
-2568.913879620861
 30
0.0
 11
685.521754145018
 21
-2568.913879620861
 31
0.0
  0
ARC
  5
3FD
  8
DEFAULT
 10
682.271754145018
 20
-2568.913879620861
 30
0.0
 40
3.25
 50
0.0
 51
180.0
  0
LINE
  5
3FE
  8
DEFAULT
 10
679.021754145018
 20
-2568.913879620861
 30
0.0
 11
679.0217541450178
 21
-2580.113879620861
 31
0.0
  0
ARC
  5
3FF
  8
DEFAULT
 10
682.2717541450178
 20
-2580.113879620861
 30
0.0
 40
3.25
 50
180.0
 51
0.0
  0
LINE
  5
400
  8
DEFAULT
 10
685.521754145015
 20
-2761.113879620861
 30
0.0
 11
722.521754145015
 21
-2761.113879620862
 31
0.0
  0
ARC
  5
401
  8
DEFAULT
 10
725.771754145015
 20
-2761.113879620862
 30
0.0
 40
3.25
 50
180.0
 51
0.0
  0
LINE
  5
402
  8
DEFAULT
 10
729.021754145015
 20
-2761.113879620862
 30
0.0
 11
729.021754145015
 21
-2749.913879620861
 31
0.0
  0
ARC
  5
403
  8
DEFAULT
 10
725.771754145015
 20
-2749.913879620861
 30
0.0
 40
3.25
 50
0.0
 51
180.0
  0
LINE
  5
404
  8
DEFAULT
 10
722.521754145015
 20
-2749.913879620862
 30
0.0
 11
685.521754145015
 21
-2749.913879620861
 31
0.0
  0
ARC
  5
405
  8
DEFAULT
 10
682.271754145015
 20
-2749.913879620861
 30
0.0
 40
3.25
 50
0.0
 51
180.0
  0
LINE
  5
406
  8
DEFAULT
 10
679.021754145015
 20
-2749.913879620861
 30
0.0
 11
679.021754145015
 21
-2761.113879620861
 31
0.0
  0
ARC
  5
407
  8
DEFAULT
 10
682.271754145015
 20
-2761.113879620861
 30
0.0
 40
3.25
 50
180.0
 51
0.0
  0
LINE
  5
408
  8
DEFAULT
 10
740.9325282644937
 20
-2797.113879620862
 30
0.0
 11
740.9325282644974
 21
-2532.713879620861
 31
0.0
  0
LINE
  5
409
  8
DEFAULT
 10
740.9325282644974
 20
-2532.713879620861
 30
0.0
 11
667.1109800255391
 21
-2532.71387962086
 31
0.0
  0
LINE
  5
40A
  8
DEFAULT
 10
667.1109800255391
 20
-2532.71387962086
 30
0.0
 11
667.1109800255355
 21
-2797.113879620861
 31
0.0
  0
LINE
  5
40B
  8
DEFAULT
 10
667.1109800255355
 20
-2797.113879620861
 30
0.0
 11
740.9325282644937
 21
-2797.113879620862
 31
0.0
  0
LINE
  5
40C
  8
DEFAULT
 10
977.1437890226148
 20
-3243.544022564119
 30
0.0
 11
977.1437890226148
 21
-3280.544022564119
 31
0.0
  0
ARC
  5
40D
  8
DEFAULT
 10
977.1437890226148
 20
-3283.794022564119
 30
0.0
 40
3.25
 50
90.0
 51
270.0
  0
LINE
  5
40E
  8
DEFAULT
 10
977.1437890226148
 20
-3287.044022564119
 30
0.0
 11
988.1437890226148
 21
-3287.044022564119
 31
0.0
  0
ARC
  5
40F
  8
DEFAULT
 10
988.1437890226148
 20
-3283.794022564119
 30
0.0
 40
3.25
 50
270.0
 51
90.0
  0
LINE
  5
410
  8
DEFAULT
 10
988.1437890226148
 20
-3280.544022564119
 30
0.0
 11
988.1437890226152
 21
-3243.544022564119
 31
0.0
  0
ARC
  5
411
  8
DEFAULT
 10
988.1437890226152
 20
-3240.294022564119
 30
0.0
 40
3.25
 50
270.0
 51
90.0
  0
LINE
  5
412
  8
DEFAULT
 10
988.1437890226148
 20
-3237.044022564119
 30
0.0
 11
977.1437890226148
 21
-3237.044022564119
 31
0.0
  0
ARC
  5
413
  8
DEFAULT
 10
977.1437890226148
 20
-3240.294022564119
 30
0.0
 40
3.25
 50
90.0
 51
270.0
  0
LINE
  5
414
  8
DEFAULT
 10
977.1437890226093
 20
-3094.644022564119
 30
0.0
 11
977.1437890226093
 21
-3131.644022564119
 31
0.0
  0
ARC
  5
415
  8
DEFAULT
 10
977.1437890226093
 20
-3134.894022564119
 30
0.0
 40
3.25
 50
90.0
 51
270.0
  0
LINE
  5
416
  8
DEFAULT
 10
977.1437890226093
 20
-3138.144022564119
 30
0.0
 11
988.1437890226098
 21
-3138.144022564119
 31
0.0
  0
ARC
  5
417
  8
DEFAULT
 10
988.1437890226098
 20
-3134.894022564119
 30
0.0
 40
3.25
 50
270.0
 51
90.0
  0
LINE
  5
418
  8
DEFAULT
 10
988.1437890226098
 20
-3131.644022564119
 30
0.0
 11
988.1437890226098
 21
-3094.644022564119
 31
0.0
  0
ARC
  5
419
  8
DEFAULT
 10
988.1437890226098
 20
-3091.394022564119
 30
0.0
 40
3.25
 50
270.0
 51
90.0
  0
LINE
  5
41A
  8
DEFAULT
 10
988.1437890226098
 20
-3088.144022564118
 30
0.0
 11
977.1437890226093
 21
-3088.144022564119
 31
0.0
  0
ARC
  5
41B
  8
DEFAULT
 10
977.1437890226093
 20
-3091.394022564119
 30
0.0
 40
3.25
 50
90.0
 51
270.0
  0
LINE
  5
41C
  8
DEFAULT
 10
977.1437890226148
 20
-2945.744022564118
 30
0.0
 11
977.1437890226148
 21
-2982.744022564118
 31
0.0
  0
ARC
  5
41D
  8
DEFAULT
 10
977.1437890226148
 20
-2985.994022564118
 30
0.0
 40
3.25
 50
90.0
 51
270.0
  0
LINE
  5
41E
  8
DEFAULT
 10
977.1437890226148
 20
-2989.244022564118
 30
0.0
 11
988.1437890226152
 21
-2989.244022564118
 31
0.0
  0
ARC
  5
41F
  8
DEFAULT
 10
988.1437890226152
 20
-2985.994022564118
 30
0.0
 40
3.25
 50
270.0
 51
90.0
  0
LINE
  5
420
  8
DEFAULT
 10
988.1437890226152
 20
-2982.744022564118
 30
0.0
 11
988.1437890226152
 21
-2945.744022564118
 31
0.0
  0
ARC
  5
421
  8
DEFAULT
 10
988.1437890226152
 20
-2942.494022564118
 30
0.0
 40
3.25
 50
270.0
 51
90.0
  0
LINE
  5
422
  8
DEFAULT
 10
988.1437890226152
 20
-2939.244022564118
 30
0.0
 11
977.1437890226148
 21
-2939.244022564118
 31
0.0
  0
ARC
  5
423
  8
DEFAULT
 10
977.1437890226148
 20
-2942.494022564118
 30
0.0
 40
3.25
 50
90.0
 51
270.0
  0
LINE
  5
424
  8
DEFAULT
 10
867.1437890226148
 20
-3243.544022564119
 30
0.0
 11
867.1437890226148
 21
-3280.544022564119
 31
0.0
  0
ARC
  5
425
  8
DEFAULT
 10
867.1437890226148
 20
-3283.794022564119
 30
0.0
 40
3.25
 50
90.0
 51
270.0
  0
LINE
  5
426
  8
DEFAULT
 10
867.1437890226148
 20
-3287.044022564119
 30
0.0
 11
878.1437890226148
 21
-3287.044022564119
 31
0.0
  0
ARC
  5
427
  8
DEFAULT
 10
878.1437890226148
 20
-3283.794022564119
 30
0.0
 40
3.25
 50
270.0
 51
90.0
  0
LINE
  5
428
  8
DEFAULT
 10
878.1437890226148
 20
-3280.544022564119
 30
0.0
 11
878.1437890226152
 21
-3243.544022564119
 31
0.0
  0
ARC
  5
429
  8
DEFAULT
 10
878.1437890226152
 20
-3240.294022564119
 30
0.0
 40
3.25
 50
270.0
 51
90.0
  0
LINE
  5
42A
  8
DEFAULT
 10
878.1437890226148
 20
-3237.044022564119
 30
0.0
 11
867.1437890226148
 21
-3237.044022564119
 31
0.0
  0
ARC
  5
42B
  8
DEFAULT
 10
867.1437890226148
 20
-3240.294022564119
 30
0.0
 40
3.25
 50
90.0
 51
270.0
  0
LINE
  5
42C
  8
DEFAULT
 10
867.1437890226093
 20
-3094.644022564119
 30
0.0
 11
867.1437890226093
 21
-3131.644022564119
 31
0.0
  0
ARC
  5
42D
  8
DEFAULT
 10
867.1437890226093
 20
-3134.894022564119
 30
0.0
 40
3.25
 50
90.0
 51
270.0
  0
LINE
  5
42E
  8
DEFAULT
 10
867.1437890226093
 20
-3138.144022564119
 30
0.0
 11
878.1437890226098
 21
-3138.144022564119
 31
0.0
  0
ARC
  5
42F
  8
DEFAULT
 10
878.1437890226098
 20
-3134.894022564119
 30
0.0
 40
3.25
 50
270.0
 51
90.0
  0
LINE
  5
430
  8
DEFAULT
 10
878.1437890226098
 20
-3131.644022564119
 30
0.0
 11
878.1437890226098
 21
-3094.644022564119
 31
0.0
  0
ARC
  5
431
  8
DEFAULT
 10
878.1437890226098
 20
-3091.394022564119
 30
0.0
 40
3.25
 50
270.0
 51
90.0
  0
LINE
  5
432
  8
DEFAULT
 10
878.1437890226098
 20
-3088.144022564118
 30
0.0
 11
867.1437890226093
 21
-3088.144022564119
 31
0.0
  0
ARC
  5
433
  8
DEFAULT
 10
867.1437890226093
 20
-3091.394022564119
 30
0.0
 40
3.25
 50
90.0
 51
270.0
  0
LINE
  5
434
  8
DEFAULT
 10
867.1437890226148
 20
-2945.744022564118
 30
0.0
 11
867.1437890226148
 21
-2982.744022564118
 31
0.0
  0
ARC
  5
435
  8
DEFAULT
 10
867.1437890226148
 20
-2985.994022564118
 30
0.0
 40
3.25
 50
90.0
 51
270.0
  0
LINE
  5
436
  8
DEFAULT
 10
867.1437890226148
 20
-2989.244022564118
 30
0.0
 11
878.1437890226152
 21
-2989.244022564118
 31
0.0
  0
ARC
  5
437
  8
DEFAULT
 10
878.1437890226152
 20
-2985.994022564118
 30
0.0
 40
3.25
 50
270.0
 51
90.0
  0
LINE
  5
438
  8
DEFAULT
 10
878.1437890226152
 20
-2982.744022564118
 30
0.0
 11
878.1437890226152
 21
-2945.744022564118
 31
0.0
  0
ARC
  5
439
  8
DEFAULT
 10
878.1437890226152
 20
-2942.494022564118
 30
0.0
 40
3.25
 50
270.0
 51
90.0
  0
LINE
  5
43A
  8
DEFAULT
 10
878.1437890226152
 20
-2939.244022564118
 30
0.0
 11
867.1437890226148
 21
-2939.244022564118
 31
0.0
  0
ARC
  5
43B
  8
DEFAULT
 10
867.1437890226148
 20
-2942.494022564118
 30
0.0
 40
3.25
 50
90.0
 51
270.0
  0
LINE
  5
43C
  8
DEFAULT
 10
757.1437890226148
 20
-3243.544022564119
 30
0.0
 11
757.1437890226148
 21
-3280.544022564119
 31
0.0
  0
ARC
  5
43D
  8
DEFAULT
 10
757.1437890226148
 20
-3283.794022564119
 30
0.0
 40
3.25
 50
90.0
 51
270.0
  0
LINE
  5
43E
  8
DEFAULT
 10
757.1437890226148
 20
-3287.044022564119
 30
0.0
 11
768.1437890226148
 21
-3287.044022564119
 31
0.0
  0
ARC
  5
43F
  8
DEFAULT
 10
768.1437890226148
 20
-3283.794022564119
 30
0.0
 40
3.25
 50
270.0
 51
90.0
  0
LINE
  5
440
  8
DEFAULT
 10
768.1437890226148
 20
-3280.544022564119
 30
0.0
 11
768.1437890226152
 21
-3243.544022564119
 31
0.0
  0
ARC
  5
441
  8
DEFAULT
 10
768.1437890226152
 20
-3240.294022564119
 30
0.0
 40
3.25
 50
270.0
 51
90.0
  0
LINE
  5
442
  8
DEFAULT
 10
768.1437890226148
 20
-3237.044022564118
 30
0.0
 11
757.1437890226148
 21
-3237.044022564119
 31
0.0
  0
ARC
  5
443
  8
DEFAULT
 10
757.1437890226148
 20
-3240.294022564119
 30
0.0
 40
3.25
 50
90.0
 51
270.0
  0
LINE
  5
444
  8
DEFAULT
 10
757.1437890226093
 20
-3094.644022564118
 30
0.0
 11
757.1437890226093
 21
-3131.644022564118
 31
0.0
  0
ARC
  5
445
  8
DEFAULT
 10
757.1437890226093
 20
-3134.894022564118
 30
0.0
 40
3.25
 50
90.0
 51
270.0
  0
LINE
  5
446
  8
DEFAULT
 10
757.1437890226093
 20
-3138.144022564118
 30
0.0
 11
768.1437890226098
 21
-3138.144022564118
 31
0.0
  0
ARC
  5
447
  8
DEFAULT
 10
768.1437890226098
 20
-3134.894022564118
 30
0.0
 40
3.25
 50
270.0
 51
90.0
  0
LINE
  5
448
  8
DEFAULT
 10
768.1437890226098
 20
-3131.644022564118
 30
0.0
 11
768.1437890226098
 21
-3094.644022564118
 31
0.0
  0
ARC
  5
449
  8
DEFAULT
 10
768.1437890226098
 20
-3091.394022564118
 30
0.0
 40
3.25
 50
270.0
 51
90.0
  0
LINE
  5
44A
  8
DEFAULT
 10
768.1437890226098
 20
-3088.144022564118
 30
0.0
 11
757.1437890226093
 21
-3088.144022564118
 31
0.0
  0
ARC
  5
44B
  8
DEFAULT
 10
757.1437890226093
 20
-3091.394022564118
 30
0.0
 40
3.25
 50
90.0
 51
270.0
  0
LINE
  5
44C
  8
DEFAULT
 10
757.1437890226148
 20
-2945.744022564118
 30
0.0
 11
757.1437890226148
 21
-2982.744022564118
 31
0.0
  0
ARC
  5
44D
  8
DEFAULT
 10
757.1437890226148
 20
-2985.994022564118
 30
0.0
 40
3.25
 50
90.0
 51
270.0
  0
LINE
  5
44E
  8
DEFAULT
 10
757.1437890226148
 20
-2989.244022564118
 30
0.0
 11
768.1437890226152
 21
-2989.244022564118
 31
0.0
  0
ARC
  5
44F
  8
DEFAULT
 10
768.1437890226152
 20
-2985.994022564118
 30
0.0
 40
3.25
 50
270.0
 51
90.0
  0
LINE
  5
450
  8
DEFAULT
 10
768.1437890226152
 20
-2982.744022564118
 30
0.0
 11
768.1437890226152
 21
-2945.744022564118
 31
0.0
  0
ARC
  5
451
  8
DEFAULT
 10
768.1437890226152
 20
-2942.494022564118
 30
0.0
 40
3.25
 50
270.0
 51
90.0
  0
LINE
  5
452
  8
DEFAULT
 10
768.1437890226152
 20
-2939.244022564118
 30
0.0
 11
757.1437890226148
 21
-2939.244022564118
 31
0.0
  0
ARC
  5
453
  8
DEFAULT
 10
757.1437890226148
 20
-2942.494022564118
 30
0.0
 40
3.25
 50
90.0
 51
270.0
  0
LINE
  5
454
  8
DEFAULT
 10
647.1437890226148
 20
-2945.744022564118
 30
0.0
 11
647.1437890226148
 21
-2982.744022564118
 31
0.0
  0
ARC
  5
455
  8
DEFAULT
 10
647.1437890226148
 20
-2985.994022564118
 30
0.0
 40
3.25
 50
90.0
 51
270.0
  0
LINE
  5
456
  8
DEFAULT
 10
647.1437890226148
 20
-2989.244022564118
 30
0.0
 11
658.1437890226152
 21
-2989.244022564118
 31
0.0
  0
ARC
  5
457
  8
DEFAULT
 10
658.1437890226152
 20
-2985.994022564118
 30
0.0
 40
3.25
 50
270.0
 51
90.0
  0
LINE
  5
458
  8
DEFAULT
 10
658.1437890226152
 20
-2982.744022564118
 30
0.0
 11
658.1437890226152
 21
-2945.744022564118
 31
0.0
  0
ARC
  5
459
  8
DEFAULT
 10
658.1437890226152
 20
-2942.494022564118
 30
0.0
 40
3.25
 50
270.0
 51
90.0
  0
LINE
  5
45A
  8
DEFAULT
 10
658.143789022615
 20
-2939.244022564118
 30
0.0
 11
647.1437890226148
 21
-2939.244022564118
 31
0.0
  0
ARC
  5
45B
  8
DEFAULT
 10
647.1437890226148
 20
-2942.494022564118
 30
0.0
 40
3.25
 50
90.0
 51
270.0
  0
LINE
  5
45C
  8
DEFAULT
 10
647.1437890226093
 20
-3094.644022564119
 30
0.0
 11
647.1437890226093
 21
-3131.644022564119
 31
0.0
  0
ARC
  5
45D
  8
DEFAULT
 10
647.1437890226093
 20
-3134.894022564119
 30
0.0
 40
3.25
 50
90.0
 51
270.0
  0
LINE
  5
45E
  8
DEFAULT
 10
647.1437890226093
 20
-3138.144022564119
 30
0.0
 11
658.1437890226096
 21
-3138.144022564119
 31
0.0
  0
ARC
  5
45F
  8
DEFAULT
 10
658.1437890226096
 20
-3134.894022564119
 30
0.0
 40
3.25
 50
270.0
 51
90.0
  0
LINE
  5
460
  8
DEFAULT
 10
658.1437890226096
 20
-3131.644022564119
 30
0.0
 11
658.1437890226096
 21
-3094.644022564119
 31
0.0
  0
ARC
  5
461
  8
DEFAULT
 10
658.1437890226096
 20
-3091.394022564119
 30
0.0
 40
3.25
 50
270.0
 51
90.0
  0
LINE
  5
462
  8
DEFAULT
 10
658.1437890226096
 20
-3088.144022564118
 30
0.0
 11
647.1437890226093
 21
-3088.144022564119
 31
0.0
  0
ARC
  5
463
  8
DEFAULT
 10
647.1437890226093
 20
-3091.394022564119
 30
0.0
 40
3.25
 50
90.0
 51
270.0
  0
LINE
  5
464
  8
DEFAULT
 10
647.1437890226148
 20
-3243.544022564119
 30
0.0
 11
647.1437890226148
 21
-3280.544022564119
 31
0.0
  0
ARC
  5
465
  8
DEFAULT
 10
647.1437890226148
 20
-3283.794022564119
 30
0.0
 40
3.25
 50
90.0
 51
270.0
  0
LINE
  5
466
  8
DEFAULT
 10
647.1437890226148
 20
-3287.044022564119
 30
0.0
 11
658.1437890226148
 21
-3287.044022564119
 31
0.0
  0
ARC
  5
467
  8
DEFAULT
 10
658.1437890226148
 20
-3283.794022564119
 30
0.0
 40
3.25
 50
270.0
 51
90.0
  0
LINE
  5
468
  8
DEFAULT
 10
658.1437890226148
 20
-3280.544022564119
 30
0.0
 11
658.143789022615
 21
-3243.544022564119
 31
0.0
  0
ARC
  5
469
  8
DEFAULT
 10
658.143789022615
 20
-3240.294022564119
 30
0.0
 40
3.25
 50
270.0
 51
90.0
  0
LINE
  5
46A
  8
DEFAULT
 10
658.1437890226148
 20
-3237.044022564119
 30
0.0
 11
647.1437890226148
 21
-3237.044022564119
 31
0.0
  0
ARC
  5
46B
  8
DEFAULT
 10
647.1437890226148
 20
-3240.294022564119
 30
0.0
 40
3.25
 50
90.0
 51
270.0
  0
LINE
  5
46C
  8
DEFAULT
 10
1032.643789022615
 20
-3385.944022564119
 30
0.0
 11
1032.643789022615
 21
-2840.344022564118
 31
0.0
  0
LINE
  5
46D
  8
DEFAULT
 10
1032.643789022615
 20
-2840.344022564118
 30
0.0
 11
602.643789022615
 21
-2840.344022564118
 31
0.0
  0
LINE
  5
46E
  8
DEFAULT
 10
602.643789022615
 20
-2840.344022564118
 30
0.0
 11
602.6437890226148
 21
-3385.944022564119
 31
0.0
  0
LINE
  5
46F
  8
DEFAULT
 10
602.6437890226148
 20
-3385.944022564119
 30
0.0
 11
1032.643789022615
 21
-3385.944022564119
 31
0.0
  0
LINE
  5
470
  8
LAYER_04
 10
1286.691882827378
 20
-3094.291702539493
 30
0.0
 11
2036.691882827378
 21
-3094.291702539494
 31
0.0
  0
LINE
  5
471
  8
LAYER_04
 10
2036.691882827378
 20
-3094.291702539494
 30
0.0
 11
2036.691882827378
 21
-3069.291702539494
 31
0.0
  0
LINE
  5
472
  8
LAYER_04
 10
2036.691882827378
 20
-3069.291702539494
 30
0.0
 11
1664.941882828172
 21
-3069.291702539493
 31
0.0
  0
ARC
  5
473
  8
LAYER_04
 10
1661.691882828172
 20
-3069.291702539493
 30
0.0
 40
3.250000000000068
 50
89.99999999999599
 51
0.0
  0
LINE
  5
474
  8
LAYER_04
 10
1661.691882828172
 20
-3066.041702539493
 30
0.0
 11
1661.691882828172
 21
-3060.871702539493
 31
0.0
  0
ARC
  5
475
  8
LAYER_04
 10
1661.691882828173
 20
-3057.621702539493
 30
0.0
 40
3.249999999999707
 50
0.0
 51
269.999999999996
  0
LINE
  5
476
  8
LAYER_04
 10
1664.941882828172
 20
-3057.621702539493
 30
0.0
 11
2036.691882827378
 21
-3057.621702539494
 31
0.0
  0
LINE
  5
477
  8
LAYER_04
 10
2036.691882827378
 20
-3057.621702539494
 30
0.0
 11
2036.691882827378
 21
-2969.291702539494
 31
0.0
  0
LINE
  5
478
  8
LAYER_04
 10
2036.691882827378
 20
-2969.291702539494
 30
0.0
 11
1848.863391707797
 21
-2969.291702539493
 31
0.0
  0
ARC
  5
479
  8
LAYER_04
 10
1848.863391709088
 20
-3019.291707283911
 30
0.0
 40
50.00000474441834
 50
90.00000000147942
 51
99.37715943117044
  0
LINE
  5
47A
  8
LAYER_04
 10
1840.716757983024
 20
-2969.959843003558
 30
0.0
 11
1731.015769156196
 21
-2986.374354008782
 31
0.0
  0
LINE
  5
47B
  8
LAYER_04
 10
1731.015769156196
 20
-2986.374354008782
 30
0.0
 11
1688.386924293637
 21
-2991.420707054306
 31
0.0
  0
LINE
  5
47C
  8
LAYER_04
 10
1688.386924293637
 20
-2991.420707054306
 30
0.0
 11
1651.937754559797
 21
-2994.80342722768
 31
0.0
  0
LINE
  5
47D
  8
LAYER_04
 10
1651.937754559797
 20
-2994.80342722768
 30
0.0
 11
1620.192191525788
 21
-2996.855241103332
 31
0.0
  0
LINE
  5
47E
  8
LAYER_04
 10
1620.192191525788
 20
-2996.855241103332
 30
0.0
 11
1591.674166762724
 21
-2997.908875255694
 31
0.0
  0
LINE
  5
47F
  8
LAYER_04
 10
1591.674166762724
 20
-2997.908875255694
 30
0.0
 11
1286.691882827378
 21
-2998.352510688268
 31
0.0
  0
LINE
  5
480
  8
LAYER_04
 10
1286.691882827378
 20
-2998.352510688268
 30
0.0
 11
1286.691882827378
 21
-3017.621702539493
 31
0.0
  0
LINE
  5
481
  8
LAYER_04
 10
1286.691882827378
 20
-3017.621702539493
 30
0.0
 11
1315.941882827377
 21
-3017.621702539493
 31
0.0
  0
ARC
  5
482
  8
LAYER_04
 10
1319.191882827378
 20
-3017.621702539492
 30
0.0
 40
3.250000000000815
 50
270.000000000004
 51
180.000000000016
  0
LINE
  5
483
  8
LAYER_04
 10
1319.191882827378
 20
-3020.871702539493
 30
0.0
 11
1319.191882827378
 21
-3026.041702539493
 31
0.0
  0
ARC
  5
484
  8
LAYER_04
 10
1319.191882827378
 20
-3029.291702539493
 30
0.0
 40
3.250000000000028
 50
180.0
 51
90.0
  0
LINE
  5
485
  8
LAYER_04
 10
1315.941882827378
 20
-3029.291702539493
 30
0.0
 11
1286.691882827378
 21
-3029.291702539493
 31
0.0
  0
LINE
  5
486
  8
LAYER_04
 10
1286.691882827378
 20
-3029.291702539493
 30
0.0
 11
1286.691882827378
 21
-3094.291702539493
 31
0.0
  0
ARC
  5
487
  8
LAYER_04
 10
1661.691882827378
 20
-2929.291702539493
 30
0.0
 40
3.25
 50
180.0
 51
90.0
  0
LINE
  5
488
  8
LAYER_04
 10
1661.691882827378
 20
-2926.041702539493
 30
0.0
 11
1661.691882827378
 21
-2920.871702539493
 31
0.0
  0
ARC
  5
489
  8
LAYER_04
 10
1661.691882827378
 20
-2917.621702539493
 30
0.0
 40
3.25
 50
270.0
 51
180.0
  0
LINE
  5
48A
  8
LAYER_04
 10
1658.441882827378
 20
-2917.621702539493
 30
0.0
 11
1286.691882828776
 21
-2917.621702539493
 31
0.0
  0
LINE
  5
48B
  8
LAYER_04
 10
1286.691882828776
 20
-2917.621702539493
 30
0.0
 11
1286.691882831037
 21
-2858.352510688268
 31
0.0
  0
LINE
  5
48C
  8
LAYER_04
 10
1286.691882831037
 20
-2858.352510688268
 30
0.0
 11
1591.674177837061
 21
-2857.908875194073
 31
0.0
  0
LINE
  5
48D
  8
LAYER_04
 10
1591.674177837061
 20
-2857.908875194073
 30
0.0
 11
1620.192206301238
 21
-2856.855241041292
 31
0.0
  0
LINE
  5
48E
  8
LAYER_04
 10
1620.192206301238
 20
-2856.855241041292
 30
0.0
 11
1651.93777129287
 21
-2854.803427169813
 31
0.0
  0
LINE
  5
48F
  8
LAYER_04
 10
1651.93777129287
 20
-2854.803427169813
 30
0.0
 11
1688.386940849426
 21
-2851.420707006654
 31
0.0
  0
LINE
  5
490
  8
LAYER_04
 10
1688.386940849426
 20
-2851.420707006654
 30
0.0
 11
1731.015783008377
 21
-2846.37435397883
 31
0.0
  0
LINE
  5
491
  8
LAYER_04
 10
1731.015783008377
 20
-2846.37435397883
 30
0.0
 11
1840.716757283333
 21
-2829.959843037259
 31
0.0
  0
ARC
  5
492
  8
LAYER_04
 10
1848.863392400247
 20
-2879.29171918291
 30
0.0
 40
50.000016677777
 50
90.00000159822005
 51
99.37715878833428
  0
LINE
  5
493
  8
LAYER_04
 10
1848.863391005536
 20
-2829.291702505133
 30
0.0
 11
2036.691882827378
 21
-2829.291702539494
 31
0.0
  0
LINE
  5
494
  8
LAYER_04
 10
2036.691882827378
 20
-2829.291702539494
 30
0.0
 11
2036.691882827378
 21
-2954.291702539494
 31
0.0
  0
LINE
  5
495
  8
LAYER_04
 10
2036.691882827378
 20
-2954.291702539494
 30
0.0
 11
1286.691882827378
 21
-2954.291702539493
 31
0.0
  0
LINE
  5
496
  8
LAYER_04
 10
1286.691882827378
 20
-2954.291702539493
 30
0.0
 11
1286.691882828331
 21
-2929.291702539493
 31
0.0
  0
LINE
  5
497
  8
LAYER_04
 10
1286.691882828331
 20
-2929.291702539493
 30
0.0
 11
1658.441882827378
 21
-2929.291702539493
 31
0.0
  0
LINE
  5
498
  8
LAYER_04
 10
2036.691882827378
 20
-3109.291702539494
 30
0.0
 11
1286.691882827378
 21
-3109.291702539493
 31
0.0
  0
LINE
  5
499
  8
LAYER_04
 10
1286.691882827378
 20
-3109.291702539493
 30
0.0
 11
1286.691882827378
 21
-3134.291702539494
 31
0.0
  0
LINE
  5
49A
  8
LAYER_04
 10
1286.691882827378
 20
-3134.291702539494
 30
0.0
 11
1658.441882826585
 21
-3134.291702539494
 31
0.0
  0
ARC
  5
49B
  8
LAYER_04
 10
1661.691882826584
 20
-3134.291702539495
 30
0.0
 40
3.249999999999252
 50
270.0
 51
179.999999999984
  0
LINE
  5
49C
  8
LAYER_04
 10
1661.691882826584
 20
-3137.541702539494
 30
0.0
 11
1661.691882826584
 21
-3142.711702539494
 31
0.0
  0
ARC
  5
49D
  8
LAYER_04
 10
1661.691882826584
 20
-3145.961702539494
 30
0.0
 40
3.250000000000162
 50
179.999999999992
 51
90.00000000000402
  0
LINE
  5
49E
  8
LAYER_04
 10
1658.441882826584
 20
-3145.961702539494
 30
0.0
 11
1286.691882827378
 21
-3145.961702539494
 31
0.0
  0
LINE
  5
49F
  8
LAYER_04
 10
1286.691882827378
 20
-3145.961702539494
 30
0.0
 11
1286.691882827378
 21
-3234.291702539494
 31
0.0
  0
LINE
  5
4A0
  8
LAYER_04
 10
1286.691882827378
 20
-3234.291702539494
 30
0.0
 11
1474.520373946959
 21
-3234.291702539494
 31
0.0
  0
ARC
  5
4A1
  8
LAYER_04
 10
1474.520373945664
 20
-3184.29169779503
 30
0.0
 40
50.00000474446374
 50
270.0000000014836
 51
279.3771594311661
  0
LINE
  5
4A2
  8
LAYER_04
 10
1482.667007671732
 20
-3233.623562075429
 30
0.0
 11
1592.367996498559
 21
-3217.209051070205
 31
0.0
  0
LINE
  5
4A3
  8
LAYER_04
 10
1592.367996498559
 20
-3217.209051070205
 30
0.0
 11
1634.996841361119
 21
-3212.162698024681
 31
0.0
  0
LINE
  5
4A4
  8
LAYER_04
 10
1634.996841361119
 20
-3212.162698024681
 30
0.0
 11
1671.446011094959
 21
-3208.779977851308
 31
0.0
  0
LINE
  5
4A5
  8
LAYER_04
 10
1671.446011094959
 20
-3208.779977851308
 30
0.0
 11
1703.191574128967
 21
-3206.728163975655
 31
0.0
  0
LINE
  5
4A6
  8
LAYER_04
 10
1703.191574128967
 20
-3206.728163975655
 30
0.0
 11
1731.709598892032
 21
-3205.674529823293
 31
0.0
  0
LINE
  5
4A7
  8
LAYER_04
 10
1731.709598892032
 20
-3205.674529823293
 30
0.0
 11
2036.691882827378
 21
-3205.230894390719
 31
0.0
  0
LINE
  5
4A8
  8
LAYER_04
 10
2036.691882827378
 20
-3205.230894390719
 30
0.0
 11
2036.691882827378
 21
-3185.961702539495
 31
0.0
  0
LINE
  5
4A9
  8
LAYER_04
 10
2036.691882827378
 20
-3185.961702539495
 30
0.0
 11
2007.441882827378
 21
-3185.961702539495
 31
0.0
  0
ARC
  5
4AA
  8
LAYER_04
 10
2004.191882827378
 20
-3185.961702539494
 30
0.0
 40
3.249999999999707
 50
90.00000000000801
 51
359.999999999992
  0
LINE
  5
4AB
  8
LAYER_04
 10
2004.191882827378
 20
-3182.711702539495
 30
0.0
 11
2004.191882827378
 21
-3177.541702539494
 31
0.0
  0
ARC
  5
4AC
  8
LAYER_04
 10
2004.191882827379
 20
-3174.291702539495
 30
0.0
 40
3.249999999998797
 50
0.0
 51
269.9999999999799
  0
LINE
  5
4AD
  8
LAYER_04
 10
2007.441882827378
 20
-3174.291702539495
 30
0.0
 11
2036.691882827378
 21
-3174.291702539495
 31
0.0
  0
LINE
  5
4AE
  8
LAYER_04
 10
2036.691882827378
 20
-3174.291702539495
 30
0.0
 11
2036.691882827378
 21
-3109.291702539494
 31
0.0
  0
LINE
  5
4AF
  8
LAYER_04
 10
1286.691882831038
 20
-2563.352510688267
 30
0.0
 11
2036.691882831038
 21
-2563.352510688268
 31
0.0
  0
LINE
  5
4B0
  8
LAYER_04
 10
2036.691882831038
 20
-2563.352510688268
 30
0.0
 11
2036.691882831038
 21
-2538.352510688268
 31
0.0
  0
LINE
  5
4B1
  8
LAYER_04
 10
2036.691882831038
 20
-2538.352510688268
 30
0.0
 11
1664.941882831832
 21
-2538.352510688268
 31
0.0
  0
ARC
  5
4B2
  8
LAYER_04
 10
1661.691882831831
 20
-2538.352510688269
 30
0.0
 40
3.250000000000456
 50
89.99999999999199
 51
0.000000000008017
  0
LINE
  5
4B3
  8
LAYER_04
 10
1661.691882831832
 20
-2535.102510688268
 30
0.0
 11
1661.691882831832
 21
-2529.932510688268
 31
0.0
  0
ARC
  5
4B4
  8
LAYER_04
 10
1661.691882831831
 20
-2526.682510688268
 30
0.0
 40
3.250000000000456
 50
359.999999999992
 51
270.000000000008
  0
LINE
  5
4B5
  8
LAYER_04
 10
1664.941882831832
 20
-2526.682510688268
 30
0.0
 11
2036.691882831038
 21
-2526.682510688268
 31
0.0
  0
LINE
  5
4B6
  8
LAYER_04
 10
2036.691882831038
 20
-2526.682510688268
 30
0.0
 11
2036.691882831038
 21
-2438.352510688268
 31
0.0
  0
LINE
  5
4B7
  8
LAYER_04
 10
2036.691882831038
 20
-2438.352510688268
 30
0.0
 11
1848.863391711457
 21
-2438.352510688268
 31
0.0
  0
ARC
  5
4B8
  8
LAYER_04
 10
1848.863391712748
 20
-2488.352515432689
 30
0.0
 40
50.00000474442102
 50
90.00000000147968
 51
99.37715943117018
  0
LINE
  5
4B9
  8
LAYER_04
 10
1840.716757986684
 20
-2439.020651152333
 30
0.0
 11
1731.015769159856
 21
-2455.435162157556
 31
0.0
  0
LINE
  5
4BA
  8
LAYER_04
 10
1731.015769159856
 20
-2455.435162157556
 30
0.0
 11
1688.386924297297
 21
-2460.48151520308
 31
0.0
  0
LINE
  5
4BB
  8
LAYER_04
 10
1688.386924297297
 20
-2460.48151520308
 30
0.0
 11
1651.937754563456
 21
-2463.864235376454
 31
0.0
  0
LINE
  5
4BC
  8
LAYER_04
 10
1651.937754563456
 20
-2463.864235376454
 30
0.0
 11
1620.192191529448
 21
-2465.916049252108
 31
0.0
  0
LINE
  5
4BD
  8
LAYER_04
 10
1620.192191529448
 20
-2465.916049252108
 30
0.0
 11
1591.674166766384
 21
-2466.96968340447
 31
0.0
  0
LINE
  5
4BE
  8
LAYER_04
 10
1591.674166766384
 20
-2466.96968340447
 30
0.0
 11
1286.691882831038
 21
-2467.413318837042
 31
0.0
  0
LINE
  5
4BF
  8
LAYER_04
 10
1286.691882831038
 20
-2467.413318837042
 30
0.0
 11
1286.691882831038
 21
-2486.682510688267
 31
0.0
  0
LINE
  5
4C0
  8
LAYER_04
 10
1286.691882831038
 20
-2486.682510688267
 30
0.0
 11
1315.941882831038
 21
-2486.682510688267
 31
0.0
  0
ARC
  5
4C1
  8
LAYER_04
 10
1319.191882831038
 20
-2486.682510688267
 30
0.0
 40
3.250000000000456
 50
269.999999999992
 51
180.000000000008
  0
LINE
  5
4C2
  8
LAYER_04
 10
1319.191882831038
 20
-2489.932510688267
 30
0.0
 11
1319.191882831038
 21
-2495.102510688267
 31
0.0
  0
ARC
  5
4C3
  8
LAYER_04
 10
1319.191882831038
 20
-2498.352510688268
 30
0.0
 40
3.250000000000456
 50
179.999999999992
 51
90.00000000000801
  0
LINE
  5
4C4
  8
LAYER_04
 10
1315.941882831038
 20
-2498.352510688267
 30
0.0
 11
1286.691882831038
 21
-2498.352510688267
 31
0.0
  0
LINE
  5
4C5
  8
LAYER_04
 10
1286.691882831038
 20
-2498.352510688267
 30
0.0
 11
1286.691882831038
 21
-2563.352510688267
 31
0.0
  0
ARC
  5
4C6
  8
LAYER_04
 10
1661.691882831038
 20
-2398.352510688268
 30
0.0
 40
3.25
 50
180.0
 51
90.0
  0
LINE
  5
4C7
  8
LAYER_04
 10
1661.691882831038
 20
-2395.102510688268
 30
0.0
 11
1661.691882831038
 21
-2389.932510688267
 31
0.0
  0
ARC
  5
4C8
  8
LAYER_04
 10
1661.691882831038
 20
-2386.682510688267
 30
0.0
 40
3.250000000000029
 50
270.0
 51
180.000000000016
  0
LINE
  5
4C9
  8
LAYER_04
 10
1658.441882831038
 20
-2386.682510688268
 30
0.0
 11
1286.691882832436
 21
-2386.682510688267
 31
0.0
  0
LINE
  5
4CA
  8
LAYER_04
 10
1286.691882832436
 20
-2386.682510688267
 30
0.0
 11
1286.691882834697
 21
-2327.413318837042
 31
0.0
  0
LINE
  5
4CB
  8
LAYER_04
 10
1286.691882834697
 20
-2327.413318837042
 30
0.0
 11
1591.674177840721
 21
-2326.969683342847
 31
0.0
  0
LINE
  5
4CC
  8
LAYER_04
 10
1591.674177840721
 20
-2326.969683342847
 30
0.0
 11
1620.192206304898
 21
-2325.916049190066
 31
0.0
  0
LINE
  5
4CD
  8
LAYER_04
 10
1620.192206304898
 20
-2325.916049190066
 30
0.0
 11
1651.93777129653
 21
-2323.864235318588
 31
0.0
  0
LINE
  5
4CE
  8
LAYER_04
 10
1651.93777129653
 20
-2323.864235318588
 30
0.0
 11
1688.386940853086
 21
-2320.481515155428
 31
0.0
  0
LINE
  5
4CF
  8
LAYER_04
 10
1688.386940853086
 20
-2320.481515155428
 30
0.0
 11
1731.015783012036
 21
-2315.435162127604
 31
0.0
  0
LINE
  5
4D0
  8
LAYER_04
 10
1731.015783012036
 20
-2315.435162127604
 30
0.0
 11
1840.716757286993
 21
-2299.020651186033
 31
0.0
  0
ARC
  5
4D1
  8
LAYER_04
 10
1848.863392403904
 20
-2348.352527331722
 30
0.0
 40
50.00001667781356
 50
90.0000015982172
 51
99.37715878832441
  0
LINE
  5
4D2
  8
LAYER_04
 10
1848.863391009196
 20
-2298.352510653908
 30
0.0
 11
2036.691882831038
 21
-2298.352510688268
 31
0.0
  0
LINE
  5
4D3
  8
LAYER_04
 10
2036.691882831038
 20
-2298.352510688268
 30
0.0
 11
2036.691882831038
 21
-2423.352510688268
 31
0.0
  0
LINE
  5
4D4
  8
LAYER_04
 10
2036.691882831038
 20
-2423.352510688268
 30
0.0
 11
1286.691882831038
 21
-2423.352510688267
 31
0.0
  0
LINE
  5
4D5
  8
LAYER_04
 10
1286.691882831038
 20
-2423.352510688267
 30
0.0
 11
1286.691882831991
 21
-2398.352510688267
 31
0.0
  0
LINE
  5
4D6
  8
LAYER_04
 10
1286.691882831991
 20
-2398.352510688267
 30
0.0
 11
1658.441882831038
 21
-2398.352510688268
 31
0.0
  0
LINE
  5
4D7
  8
LAYER_04
 10
2036.691882831038
 20
-2578.352510688268
 30
0.0
 11
1286.691882831038
 21
-2578.352510688267
 31
0.0
  0
LINE
  5
4D8
  8
LAYER_04
 10
1286.691882831038
 20
-2578.352510688267
 30
0.0
 11
1286.691882831038
 21
-2603.352510688268
 31
0.0
  0
LINE
  5
4D9
  8
LAYER_04
 10
1286.691882831038
 20
-2603.352510688268
 30
0.0
 11
1658.441882830244
 21
-2603.352510688269
 31
0.0
  0
ARC
  5
4DA
  8
LAYER_04
 10
1661.691882830244
 20
-2603.352510688269
 30
0.0
 40
3.25
 50
270.0
 51
180.0
  0
LINE
  5
4DB
  8
LAYER_04
 10
1661.691882830243
 20
-2606.602510688269
 30
0.0
 11
1661.691882830243
 21
-2611.772510688269
 31
0.0
  0
ARC
  5
4DC
  8
LAYER_04
 10
1661.691882830243
 20
-2615.022510688269
 30
0.0
 40
3.25
 50
180.0
 51
90.0
  0
LINE
  5
4DD
  8
LAYER_04
 10
1658.441882830243
 20
-2615.022510688269
 30
0.0
 11
1286.691882831038
 21
-2615.022510688268
 31
0.0
  0
LINE
  5
4DE
  8
LAYER_04
 10
1286.691882831038
 20
-2615.022510688268
 30
0.0
 11
1286.691882831037
 21
-2703.352510688268
 31
0.0
  0
LINE
  5
4DF
  8
LAYER_04
 10
1286.691882831037
 20
-2703.352510688268
 30
0.0
 11
1474.520373950618
 21
-2703.352510688268
 31
0.0
  0
ARC
  5
4E0
  8
LAYER_04
 10
1474.520373949316
 20
-2653.352505943771
 30
0.0
 40
50.00000474449779
 50
270.0000000014932
 51
279.3771594311694
  0
LINE
  5
4E1
  8
LAYER_04
 10
1482.667007675391
 20
-2702.684370224202
 30
0.0
 11
1592.367996502219
 21
-2686.26985921898
 31
0.0
  0
LINE
  5
4E2
  8
LAYER_04
 10
1592.367996502219
 20
-2686.26985921898
 30
0.0
 11
1634.996841364779
 21
-2681.223506173455
 31
0.0
  0
LINE
  5
4E3
  8
LAYER_04
 10
1634.996841364779
 20
-2681.223506173455
 30
0.0
 11
1671.446011098619
 21
-2677.840786000083
 31
0.0
  0
LINE
  5
4E4
  8
LAYER_04
 10
1671.446011098619
 20
-2677.840786000083
 30
0.0
 11
1703.191574132627
 21
-2675.788972124429
 31
0.0
  0
LINE
  5
4E5
  8
LAYER_04
 10
1703.191574132627
 20
-2675.788972124429
 30
0.0
 11
1731.709598895691
 21
-2674.735337972067
 31
0.0
  0
LINE
  5
4E6
  8
LAYER_04
 10
1731.709598895691
 20
-2674.735337972067
 30
0.0
 11
2036.691882831037
 21
-2674.291702539494
 31
0.0
  0
LINE
  5
4E7
  8
LAYER_04
 10
2036.691882831037
 20
-2674.291702539494
 30
0.0
 11
2036.691882831038
 21
-2655.022510688269
 31
0.0
  0
LINE
  5
4E8
  8
LAYER_04
 10
2036.691882831038
 20
-2655.022510688269
 30
0.0
 11
2007.441882831038
 21
-2655.022510688269
 31
0.0
  0
ARC
  5
4E9
  8
LAYER_04
 10
2004.191882831038
 20
-2655.022510688269
 30
0.0
 40
3.25
 50
90.0
 51
0.0
  0
LINE
  5
4EA
  8
LAYER_04
 10
2004.191882831038
 20
-2651.772510688269
 30
0.0
 11
2004.191882831038
 21
-2646.602510688267
 31
0.0
  0
ARC
  5
4EB
  8
LAYER_04
 10
2004.191882831039
 20
-2643.352510688269
 30
0.0
 40
3.249999999998825
 50
359.999999999984
 51
269.9999999999799
  0
LINE
  5
4EC
  8
LAYER_04
 10
2007.441882831038
 20
-2643.352510688269
 30
0.0
 11
2036.691882831038
 21
-2643.352510688269
 31
0.0
  0
LINE
  5
4ED
  8
LAYER_04
 10
2036.691882831038
 20
-2643.352510688269
 30
0.0
 11
2036.691882831038
 21
-2578.352510688268
 31
0.0
  0
ARC
  5
4EE
  8
LAYER_04
 10
1661.691882831037
 20
-2743.352510688269
 30
0.0
 40
3.25
 50
0.0
 51
270.0
  0
LINE
  5
4EF
  8
LAYER_04
 10
1661.691882831037
 20
-2746.602510688269
 30
0.0
 11
1661.691882831037
 21
-2751.772510688269
 31
0.0
  0
ARC
  5
4F0
  8
LAYER_04
 10
1661.691882831037
 20
-2755.022510688269
 30
0.0
 40
3.25
 50
90.0
 51
0.0
  0
LINE
  5
4F1
  8
LAYER_04
 10
1664.941882831037
 20
-2755.022510688269
 30
0.0
 11
2036.691882829638
 21
-2755.022510688268
 31
0.0
  0
LINE
  5
4F2
  8
LAYER_04
 10
2036.691882829638
 20
-2755.022510688268
 30
0.0
 11
2036.691882827378
 21
-2814.291702539494
 31
0.0
  0
LINE
  5
4F3
  8
LAYER_04
 10
2036.691882827378
 20
-2814.291702539494
 30
0.0
 11
1731.709587821354
 21
-2814.735338033689
 31
0.0
  0
LINE
  5
4F4
  8
LAYER_04
 10
1731.709587821354
 20
-2814.735338033689
 30
0.0
 11
1703.191559357177
 21
-2815.78897218647
 31
0.0
  0
LINE
  5
4F5
  8
LAYER_04
 10
1703.191559357177
 20
-2815.78897218647
 30
0.0
 11
1671.445994365544
 21
-2817.840786057949
 31
0.0
  0
LINE
  5
4F6
  8
LAYER_04
 10
1671.445994365544
 20
-2817.840786057949
 30
0.0
 11
1634.996824808988
 21
-2821.223506221108
 31
0.0
  0
LINE
  5
4F7
  8
LAYER_04
 10
1634.996824808988
 20
-2821.223506221108
 30
0.0
 11
1592.367982650039
 21
-2826.269859248931
 31
0.0
  0
LINE
  5
4F8
  8
LAYER_04
 10
1592.367982650039
 20
-2826.269859248931
 30
0.0
 11
1482.667008375081
 21
-2842.684370190502
 31
0.0
  0
ARC
  5
4F9
  8
LAYER_04
 10
1474.520373258162
 20
-2793.352494044921
 30
0.0
 40
50.00001667770901
 50
270.000001598226
 51
279.3771587883534
  0
LINE
  5
4FA
  8
LAYER_04
 10
1474.520374652878
 20
-2843.35251072263
 30
0.0
 11
1286.691882831037
 21
-2843.352510688268
 31
0.0
  0
LINE
  5
4FB
  8
LAYER_04
 10
1286.691882831037
 20
-2843.352510688268
 30
0.0
 11
1286.691882831037
 21
-2718.352510688268
 31
0.0
  0
LINE
  5
4FC
  8
LAYER_04
 10
1286.691882831037
 20
-2718.352510688268
 30
0.0
 11
2036.691882831037
 21
-2718.352510688268
 31
0.0
  0
LINE
  5
4FD
  8
LAYER_04
 10
2036.691882831037
 20
-2718.352510688268
 30
0.0
 11
2036.691882830083
 21
-2743.352510688268
 31
0.0
  0
LINE
  5
4FE
  8
LAYER_04
 10
2036.691882830083
 20
-2743.352510688268
 30
0.0
 11
1664.941882831037
 21
-2743.352510688269
 31
0.0
  0
LINE
  5
4FF
  8
LAYER_04
 10
1039.141155640616
 20
-2288.660435083254
 30
0.0
 11
1039.141155640616
 21
-2316.778428226813
 31
0.0
  0
LINE
  5
500
  8
LAYER_04
 10
1039.141155640616
 20
-2316.778428226813
 30
0.0
 11
1018.705684160203
 21
-2317.91043508324
 31
0.0
  0
LINE
  5
501
  8
LAYER_04
 10
1018.705684160203
 20
-2317.91043508324
 30
0.0
 11
987.0503580995987
 21
-2317.910435083254
 31
0.0
  0
LINE
  5
502
  8
LAYER_04
 10
987.0503580995987
 20
-2317.910435083254
 30
0.0
 11
987.050358099599
 21
-2252.910435083254
 31
0.0
  0
LINE
  5
503
  8
LAYER_04
 10
987.050358099599
 20
-2252.910435083254
 30
0.0
 11
1627.021015635507
 21
-2252.910435083253
 31
0.0
  0
LINE
  5
504
  8
LAYER_04
 10
1627.021015635507
 20
-2252.910435083253
 30
0.0
 11
1627.021015635507
 21
-2317.910435083253
 31
0.0
  0
LINE
  5
505
  8
LAYER_04
 10
1627.021015635507
 20
-2317.910435083253
 30
0.0
 11
1595.365684160203
 21
-2317.91043508324
 31
0.0
  0
LINE
  5
506
  8
LAYER_04
 10
1595.365684160203
 20
-2317.91043508324
 30
0.0
 11
1574.930212679782
 21
-2316.778428728337
 31
0.0
  0
LINE
  5
507
  8
LAYER_04
 10
1574.930212679782
 20
-2316.778428728337
 30
0.0
 11
1574.930212679782
 21
-2288.660435083254
 31
0.0
  0
ARC
  5
508
  8
LAYER_04
 10
1574.930212679783
 20
-2285.410435083254
 30
0.0
 40
3.250000000000522
 50
269.999999999992
 51
179.999999999992
  0
LINE
  5
509
  8
LAYER_04
 10
1571.680212679782
 20
-2285.410435083253
 30
0.0
 11
1566.510212679783
 21
-2285.410435083253
 31
0.0
  0
ARC
  5
50A
  8
LAYER_04
 10
1563.260212679783
 20
-2285.410435083254
 30
0.0
 40
3.249999999999707
 50
0.000000000008017
 51
269.999999999992
  0
LINE
  5
50B
  8
LAYER_04
 10
1563.260212679783
 20
-2288.660435083253
 30
0.0
 11
1563.260212679783
 21
-2316.169291861259
 31
0.0
  0
ARC
  5
50C
  8
LAYER_04
 10
1307.035676936535
 20
-7333.502755705738
 30
0.0
 40
5023.871624567099
 50
87.07656615261196
 51
92.92343368240579
  0
LINE
  5
50D
  8
LAYER_04
 10
1050.811155640616
 20
-2316.169291123465
 30
0.0
 11
1050.811155640616
 21
-2288.660435083254
 31
0.0
  0
ARC
  5
50E
  8
LAYER_04
 10
1050.811155640615
 20
-2285.410435083254
 30
0.0
 40
3.249999999999707
 50
270.000000000004
 51
180.0
  0
LINE
  5
50F
  8
LAYER_04
 10
1047.561155640616
 20
-2285.410435083254
 30
0.0
 11
1042.391155640616
 21
-2285.410435083254
 31
0.0
  0
ARC
  5
510
  8
LAYER_04
 10
1039.141155640616
 20
-2285.410435083254
 30
0.0
 40
3.250000000000068
 50
0.0
 51
270.000000000004
  0
LINE
  5
511
  8
LAYER_04
 10
929.342644264718
 20
-2366.092304695674
 30
0.0
 11
929.342644264718
 21
-2336.842304695674
 31
0.0
  0
LINE
  5
512
  8
LAYER_04
 10
929.342644264718
 20
-2336.842304695674
 30
0.0
 11
-167.3173557352816
 21
-2336.842304695673
 31
0.0
  0
LINE
  5
513
  8
LAYER_04
 10
-167.3173557352816
 20
-2336.842304695673
 30
0.0
 11
-167.3173557352819
 21
-2366.092304695674
 31
0.0
  0
ARC
  5
514
  8
LAYER_04
 10
-167.3173557352828
 20
-2369.342304695673
 30
0.0
 40
3.249999999999025
 50
179.999999999992
 51
89.99999999998296
  0
LINE
  5
515
  8
LAYER_04
 10
-170.5673557352819
 20
-2369.342304695673
 30
0.0
 11
-175.7373557352833
 21
-2369.342304695673
 31
0.0
  0
ARC
  5
516
  8
LAYER_04
 10
-178.9873557352833
 20
-2369.342304695672
 30
0.0
 40
3.249999999999613
 50
89.9999999999905
 51
359.999999999992
  0
LINE
  5
517
  8
LAYER_04
 10
-178.9873557352824
 20
-2366.092304695673
 30
0.0
 11
-178.9873557352822
 21
-2336.842304695673
 31
0.0
  0
LINE
  5
518
  8
LAYER_04
 10
-178.9873557352822
 20
-2336.842304695673
 30
0.0
 11
-197.723864251876
 21
-2336.842304695673
 31
0.0
  0
LINE
  5
519
  8
LAYER_04
 10
-197.723864251876
 20
-2336.842304695673
 30
0.0
 11
-197.7238642518763
 21
-2401.842304695673
 31
0.0
  0
LINE
  5
51A
  8
LAYER_04
 10
-197.7238642518763
 20
-2401.842304695673
 30
0.0
 11
22.10073915476204
 21
-2401.842304695673
 31
0.0
  0
LINE
  5
51B
  8
LAYER_04
 10
22.10073915476204
 20
-2401.842304695673
 30
0.0
 11
22.10073915476204
 21
-2373.724311552106
 31
0.0
  0
ARC
  5
51C
  8
LAYER_04
 10
22.10073915476158
 20
-2370.474311552105
 30
0.0
 40
3.250000000000522
 50
0.000000000008017
 51
270.0000000000092
  0
LINE
  5
51D
  8
LAYER_04
 10
25.35073915476204
 20
-2370.474311552105
 30
0.0
 11
30.52073915476211
 21
-2370.474311552105
 31
0.0
  0
ARC
  5
51E
  8
LAYER_04
 10
33.77073915476166
 20
-2370.474311552105
 30
0.0
 40
3.249999999999707
 50
270.0000000000052
 51
179.999999999992
  0
LINE
  5
51F
  8
LAYER_04
 10
33.77073915476211
 20
-2373.724311552105
 30
0.0
 11
33.77073915476211
 21
-2401.842304695673
 31
0.0
  0
LINE
  5
520
  8
LAYER_04
 10
33.77073915476211
 20
-2401.842304695673
 30
0.0
 11
369.342644264718
 21
-2401.842304695673
 31
0.0
  0
LINE
  5
521
  8
LAYER_04
 10
369.342644264718
 20
-2401.842304695673
 30
0.0
 11
369.342644264718
 21
-2373.724311552106
 31
0.0
  0
ARC
  5
522
  8
LAYER_04
 10
369.3426442647175
 20
-2370.474311552106
 30
0.0
 40
3.250000000000522
 50
0.000000000008017
 51
270.000000000009
  0
LINE
  5
523
  8
LAYER_04
 10
372.592644264718
 20
-2370.474311552105
 30
0.0
 11
377.762644264719
 21
-2370.474311552105
 31
0.0
  0
ARC
  5
524
  8
LAYER_04
 10
381.0126442647185
 20
-2370.474311552106
 30
0.0
 40
3.249999999999707
 50
270.000000000005
 51
179.999999999992
  0
LINE
  5
525
  8
LAYER_04
 10
381.012644264719
 20
-2373.724311552105
 30
0.0
 11
381.012644264719
 21
-2401.842304695673
 31
0.0
  0
LINE
  5
526
  8
LAYER_04
 10
381.012644264719
 20
-2401.842304695673
 30
0.0
 11
716.5845493746749
 21
-2401.842304695674
 31
0.0
  0
LINE
  5
527
  8
LAYER_04
 10
716.5845493746749
 20
-2401.842304695674
 30
0.0
 11
716.5845493746749
 21
-2373.724311552106
 31
0.0
  0
ARC
  5
528
  8
LAYER_04
 10
716.5845493746745
 20
-2370.474311552106
 30
0.0
 40
3.250000000000428
 50
0.000000000008017
 51
270.000000000008
  0
LINE
  5
529
  8
LAYER_04
 10
719.8345493746749
 20
-2370.474311552106
 30
0.0
 11
725.0045493746759
 21
-2370.474311552106
 31
0.0
  0
ARC
  5
52A
  8
LAYER_04
 10
728.254549374675
 20
-2370.474311552106
 30
0.0
 40
3.249999999999252
 50
269.999999999996
 51
179.999999999984
  0
LINE
  5
52B
  8
LAYER_04
 10
728.254549374675
 20
-2373.724311552106
 30
0.0
 11
728.254549374675
 21
-2401.842304695674
 31
0.0
  0
LINE
  5
52C
  8
LAYER_04
 10
728.254549374675
 20
-2401.842304695674
 30
0.0
 11
959.7491527813129
 21
-2401.842304695675
 31
0.0
  0
LINE
  5
52D
  8
LAYER_04
 10
959.7491527813129
 20
-2401.842304695675
 30
0.0
 11
959.7491527813129
 21
-2336.842304695674
 31
0.0
  0
LINE
  5
52E
  8
LAYER_04
 10
959.7491527813129
 20
-2336.842304695674
 30
0.0
 11
941.012644264719
 21
-2336.842304695674
 31
0.0
  0
LINE
  5
52F
  8
LAYER_04
 10
941.012644264719
 20
-2336.842304695674
 30
0.0
 11
941.0126442647181
 21
-2366.092304695675
 31
0.0
  0
ARC
  5
530
  8
LAYER_04
 10
941.0126442647172
 20
-2369.342304695675
 30
0.0
 40
3.249999999999025
 50
179.999999999992
 51
89.99999999998197
  0
LINE
  5
531
  8
LAYER_04
 10
937.7626442647181
 20
-2369.342304695674
 30
0.0
 11
932.592644264718
 21
-2369.342304695674
 31
0.0
  0
ARC
  5
532
  8
LAYER_04
 10
929.342644264718
 20
-2369.342304695674
 30
0.0
 40
3.25
 50
90.0
 51
0.0
  0
LINE
  5
533
  8
LAYER_04
 10
929.3426442647183
 20
-2289.074202016242
 30
0.0
 11
929.3426442647183
 21
-2259.824202016242
 31
0.0
  0
LINE
  5
534
  8
LAYER_04
 10
929.3426442647183
 20
-2259.824202016242
 30
0.0
 11
-167.3173557352816
 21
-2259.824202016241
 31
0.0
  0
LINE
  5
535
  8
LAYER_04
 10
-167.3173557352816
 20
-2259.824202016241
 30
0.0
 11
-167.3173557352816
 21
-2289.074202016242
 31
0.0
  0
ARC
  5
536
  8
LAYER_04
 10
-167.3173557352825
 20
-2292.324202016241
 30
0.0
 40
3.249999999999025
 50
179.999999999992
 51
89.99999999998296
  0
LINE
  5
537
  8
LAYER_04
 10
-170.5673557352816
 20
-2292.324202016241
 30
0.0
 11
-175.7373557352831
 21
-2292.324202016241
 31
0.0
  0
ARC
  5
538
  8
LAYER_04
 10
-178.9873557352831
 20
-2292.32420201624
 30
0.0
 40
3.249999999999613
 50
89.9999999999905
 51
359.999999999992
  0
LINE
  5
539
  8
LAYER_04
 10
-178.9873557352822
 20
-2289.074202016241
 30
0.0
 11
-178.9873557352822
 21
-2259.824202016241
 31
0.0
  0
LINE
  5
53A
  8
LAYER_04
 10
-178.9873557352822
 20
-2259.824202016241
 30
0.0
 11
-197.723864251876
 21
-2259.824202016241
 31
0.0
  0
LINE
  5
53B
  8
LAYER_04
 10
-197.723864251876
 20
-2259.824202016241
 30
0.0
 11
-197.723864251876
 21
-2324.824202016241
 31
0.0
  0
LINE
  5
53C
  8
LAYER_04
 10
-197.723864251876
 20
-2324.824202016241
 30
0.0
 11
22.10073915476227
 21
-2324.824202016241
 31
0.0
  0
LINE
  5
53D
  8
LAYER_04
 10
22.10073915476227
 20
-2324.824202016241
 30
0.0
 11
22.10073915476227
 21
-2296.706208872673
 31
0.0
  0
ARC
  5
53E
  8
LAYER_04
 10
22.10073915476181
 20
-2293.456208872673
 30
0.0
 40
3.250000000000522
 50
0.000000000008017
 51
270.0000000000092
  0
LINE
  5
53F
  8
LAYER_04
 10
25.35073915476227
 20
-2293.456208872673
 30
0.0
 11
30.52073915476234
 21
-2293.456208872673
 31
0.0
  0
ARC
  5
540
  8
LAYER_04
 10
33.77073915476188
 20
-2293.456208872673
 30
0.0
 40
3.249999999999707
 50
270.0000000000052
 51
179.999999999992
  0
LINE
  5
541
  8
LAYER_04
 10
33.77073915476234
 20
-2296.706208872673
 30
0.0
 11
33.77073915476234
 21
-2324.824202016241
 31
0.0
  0
LINE
  5
542
  8
LAYER_04
 10
33.77073915476234
 20
-2324.824202016241
 30
0.0
 11
369.3426442647182
 21
-2324.824202016242
 31
0.0
  0
LINE
  5
543
  8
LAYER_04
 10
369.3426442647182
 20
-2324.824202016242
 30
0.0
 11
369.3426442647182
 21
-2296.706208872673
 31
0.0
  0
ARC
  5
544
  8
LAYER_04
 10
369.3426442647178
 20
-2293.456208872673
 30
0.0
 40
3.250000000000522
 50
0.000000000008017
 51
270.000000000009
  0
LINE
  5
545
  8
LAYER_04
 10
372.5926442647182
 20
-2293.456208872673
 30
0.0
 11
377.7626442647192
 21
-2293.456208872673
 31
0.0
  0
ARC
  5
546
  8
LAYER_04
 10
381.0126442647187
 20
-2293.456208872673
 30
0.0
 40
3.249999999999707
 50
270.000000000005
 51
179.999999999992
  0
LINE
  5
547
  8
LAYER_04
 10
381.0126442647192
 20
-2296.706208872673
 30
0.0
 11
381.0126442647192
 21
-2324.824202016242
 31
0.0
  0
LINE
  5
548
  8
LAYER_04
 10
381.0126442647192
 20
-2324.824202016242
 30
0.0
 11
716.5845493746749
 21
-2324.824202016242
 31
0.0
  0
LINE
  5
549
  8
LAYER_04
 10
716.5845493746749
 20
-2324.824202016242
 30
0.0
 11
716.5845493746751
 21
-2296.706208872674
 31
0.0
  0
ARC
  5
54A
  8
LAYER_04
 10
716.5845493746747
 20
-2293.456208872673
 30
0.0
 40
3.250000000000522
 50
0.000000000008017
 51
270.00000000001
  0
LINE
  5
54B
  8
LAYER_04
 10
719.8345493746751
 20
-2293.456208872673
 30
0.0
 11
725.0045493746761
 21
-2293.456208872673
 31
0.0
  0
ARC
  5
54C
  8
LAYER_04
 10
728.2545493746752
 20
-2293.456208872674
 30
0.0
 40
3.249999999999252
 50
269.999999999996
 51
179.999999999984
  0
LINE
  5
54D
  8
LAYER_04
 10
728.2545493746752
 20
-2296.706208872673
 30
0.0
 11
728.254549374675
 21
-2324.824202016242
 31
0.0
  0
LINE
  5
54E
  8
LAYER_04
 10
728.254549374675
 20
-2324.824202016242
 30
0.0
 11
959.7491527813129
 21
-2324.824202016243
 31
0.0
  0
LINE
  5
54F
  8
LAYER_04
 10
959.7491527813129
 20
-2324.824202016243
 30
0.0
 11
959.7491527813131
 21
-2259.824202016242
 31
0.0
  0
LINE
  5
550
  8
LAYER_04
 10
959.7491527813131
 20
-2259.824202016242
 30
0.0
 11
941.0126442647193
 21
-2259.824202016242
 31
0.0
  0
LINE
  5
551
  8
LAYER_04
 10
941.0126442647193
 20
-2259.824202016242
 30
0.0
 11
941.0126442647183
 21
-2289.074202016243
 31
0.0
  0
ARC
  5
552
  8
LAYER_04
 10
941.0126442647174
 20
-2292.324202016242
 30
0.0
 40
3.249999999999025
 50
179.999999999992
 51
89.99999999998197
  0
LINE
  5
553
  8
LAYER_04
 10
937.7626442647183
 20
-2292.324202016242
 30
0.0
 11
932.5926442647183
 21
-2292.324202016242
 31
0.0
  0
ARC
  5
554
  8
LAYER_04
 10
929.3426442647183
 20
-2292.324202016242
 30
0.0
 40
3.25
 50
90.0
 51
0.0
  0
LINE
  5
555
  8
LAYER_04
 10
2082.115572753629
 20
-2883.331373156323
 30
0.0
 11
2110.233565897188
 21
-2883.331373156323
 31
0.0
  0
LINE
  5
556
  8
LAYER_04
 10
2110.233565897188
 20
-2883.331373156323
 30
0.0
 11
2111.365572753615
 21
-2903.766844636736
 31
0.0
  0
LINE
  5
557
  8
LAYER_04
 10
2111.365572753615
 20
-2903.766844636736
 30
0.0
 11
2111.365572753629
 21
-2935.422170697339
 31
0.0
  0
LINE
  5
558
  8
LAYER_04
 10
2111.365572753629
 20
-2935.422170697339
 30
0.0
 11
2046.365572753629
 21
-2935.422170697339
 31
0.0
  0
LINE
  5
559
  8
LAYER_04
 10
2046.365572753629
 20
-2935.422170697339
 30
0.0
 11
2046.365572753632
 21
-2295.451513161431
 31
0.0
  0
LINE
  5
55A
  8
LAYER_04
 10
2046.365572753632
 20
-2295.451513161431
 30
0.0
 11
2111.365572753632
 21
-2295.451513161431
 31
0.0
  0
LINE
  5
55B
  8
LAYER_04
 10
2111.365572753632
 20
-2295.451513161431
 30
0.0
 11
2111.365572753617
 21
-2327.106844636736
 31
0.0
  0
LINE
  5
55C
  8
LAYER_04
 10
2111.365572753617
 20
-2327.106844636736
 30
0.0
 11
2110.233566398715
 21
-2347.542316117155
 31
0.0
  0
LINE
  5
55D
  8
LAYER_04
 10
2110.233566398715
 20
-2347.542316117155
 30
0.0
 11
2082.115572753632
 21
-2347.542316117155
 31
0.0
  0
ARC
  5
55E
  8
LAYER_04
 10
2078.865572753632
 20
-2347.542316117155
 30
0.0
 40
3.250000000000522
 50
359.999999999992
 51
269.999999999992
  0
LINE
  5
55F
  8
LAYER_04
 10
2078.865572753631
 20
-2350.792316117155
 30
0.0
 11
2078.865572753631
 21
-2355.962316117155
 31
0.0
  0
ARC
  5
560
  8
LAYER_04
 10
2078.865572753632
 20
-2359.212316117155
 30
0.0
 40
3.249999999999707
 50
90.00000000000801
 51
0.0
  0
LINE
  5
561
  8
LAYER_04
 10
2082.115572753631
 20
-2359.212316117155
 30
0.0
 11
2109.624429531636
 21
-2359.212316117155
 31
0.0
  0
ARC
  5
562
  8
LAYER_04
 10
7126.957893376109
 20
-2615.436851860411
 30
0.0
 40
5023.871624567094
 50
177.0765661526119
 51
182.9234336824057
  0
LINE
  5
563
  8
LAYER_04
 10
2109.624428793841
 20
-2871.661373156322
 30
0.0
 11
2082.115572753629
 21
-2871.661373156322
 31
0.0
  0
ARC
  5
564
  8
LAYER_04
 10
2078.865572753629
 20
-2871.661373156322
 30
0.0
 40
3.250000000000456
 50
359.999999999992
 51
270.000000000008
  0
LINE
  5
565
  8
LAYER_04
 10
2078.865572753629
 20
-2874.911373156322
 30
0.0
 11
2078.865572753629
 21
-2880.081373156323
 31
0.0
  0
ARC
  5
566
  8
LAYER_04
 10
2078.865572753629
 20
-2883.331373156323
 30
0.0
 40
3.250000000000456
 50
89.99999999999199
 51
0.000000000008017
  0
LINE
  5
567
  8
DEFAULT
 10
-220.1839548677258
 20
-2215.458684752555
 30
0.0
 11
2179.816045132274
 21
-2215.458684752555
 31
0.0
  0
LINE
  5
568
  8
DEFAULT
 10
2179.816045132274
 20
-2215.458684752555
 30
0.0
 11
2179.816045132274
 21
-3415.458684752555
 31
0.0
  0
LINE
  5
569
  8
DEFAULT
 10
2179.816045132274
 20
-3415.458684752555
 30
0.0
 11
-220.1839548677258
 21
-3415.458684752555
 31
0.0
  0
LINE
  5
56A
  8
DEFAULT
 10
-220.1839548677258
 20
-3415.458684752555
 30
0.0
 11
-220.1839548677258
 21
-2215.458684752555
 31
0.0
  0
ENDSEC
  0
EOF
