  0
SECTION
  2
HEADER
  9
$ACADVER
  1
AC1009
  9
$DWGCODEPAGE
  3
ansi_1252
  9
$INSBASE
 10
0.0
 20
0.0
 30
0.0
  9
$EXTMIN
 10
272.177980844587
 20
438.8578643762694
 30
1.991981491510837
  9
$EXTMAX
 10
1418.746523339514
 20
837.1421356237322
 30
1.991981491510838
  9
$LIMMIN
 10
0.0
 20
0.0
  9
$LIMMAX
 10
12.0
 20
9.0
  9
$ORTHOMODE
 70
     0
  9
$REGENMODE
 70
     1
  9
$FILLMODE
 70
     1
  9
$QTEXTMODE
 70
     0
  9
$MIRRTEXT
 70
     1
  9
$DRAGMODE
 70
     2
  9
$LTSCALE
 40
1.0
  9
$OSMODE
 70
    37
  9
$ATTMODE
 70
     1
  9
$TEXTSIZE
 40
0.2
  9
$TRACEWID
 40
0.05
  9
$TEXTSTYLE
  7
STANDARD
  9
$CLAYER
  8
0
  9
$CELTYPE
  6
BYLAYER
  9
$CECOLOR
 62
   256
  9
$DIMSCALE
 40
1.0
  9
$DIMASZ
 40
0.18
  9
$DIMEXO
 40
0.0625
  9
$DIMDLI
 40
0.38
  9
$DIMRND
 40
0.0
  9
$DIMDLE
 40
0.0
  9
$DIMEXE
 40
0.18
  9
$DIMTP
 40
0.0
  9
$DIMTM
 40
0.0
  9
$DIMTXT
 40
0.18
  9
$DIMCEN
 40
0.09
  9
$DIMTSZ
 40
0.0
  9
$DIMTOL
 70
     0
  9
$DIMLIM
 70
     0
  9
$DIMTIH
 70
     1
  9
$DIMTOH
 70
     1
  9
$DIMSE1
 70
     0
  9
$DIMSE2
 70
     0
  9
$DIMTAD
 70
     0
  9
$DIMZIN
 70
     0
  9
$DIMBLK
  1

  9
$DIMASO
 70
     1
  9
$DIMSHO
 70
     1
  9
$DIMPOST
  1

  9
$DIMAPOST
  1

  9
$DIMALT
 70
     0
  9
$DIMALTD
 70
     2
  9
$DIMALTF
 40
25.4
  9
$DIMLFAC
 40
1.0
  9
$DIMTOFL
 70
     0
  9
$DIMTVP
 40
0.0
  9
$DIMTIX
 70
     0
  9
$DIMSOXD
 70
     0
  9
$DIMSAH
 70
     0
  9
$DIMBLK1
  1

  9
$DIMBLK2
  1

  9
$DIMSTYLE
  2
STANDARD
  9
$DIMCLRD
 70
     0
  9
$DIMCLRE
 70
     0
  9
$DIMCLRT
 70
     0
  9
$DIMTFAC
 40
1.0
  9
$DIMGAP
 40
0.09
  9
$LUNITS
 70
     2
  9
$LUPREC
 70
     2
  9
$SKETCHINC
 40
0.1
  9
$FILLETRAD
 40
0.5
  9
$AUNITS
 70
     0
  9
$AUPREC
 70
     0
  9
$MENU
  1
.
  9
$ELEVATION
 40
0.0
  9
$PELEVATION
 40
0.0
  9
$THICKNESS
 40
0.0
  9
$LIMCHECK
 70
     0
  9
$CHAMFERA
 40
0.0
  9
$CHAMFERB
 40
0.0
  9
$SKPOLY
 70
     0
  9
$TDCREATE
 40
2457923.656557361
  9
$TDUPDATE
 40
2457923.656574282
  9
$TDINDWG
 40
0.0000000116
  9
$TDUSRTIMER
 40
0.0000000116
  9
$USRTIMER
 70
     1
  9
$ANGBASE
 50
0.0
  9
$ANGDIR
 70
     0
  9
$PDMODE
 70
     0
  9
$PDSIZE
 40
0.0
  9
$PLINEWID
 40
0.0
  9
$COORDS
 70
     1
  9
$SPLFRAME
 70
     0
  9
$SPLINETYPE
 70
     6
  9
$SPLINESEGS
 70
     8
  9
$ATTDIA
 70
     0
  9
$ATTREQ
 70
     1
  9
$HANDLING
 70
     1
  9
$HANDSEED
  5
E0
  9
$SURFTAB1
 70
     6
  9
$SURFTAB2
 70
     6
  9
$SURFTYPE
 70
     6
  9
$SURFU
 70
     6
  9
$SURFV
 70
     6
  9
$UCSNAME
  2

  9
$UCSORG
 10
0.0
 20
0.0
 30
0.0
  9
$UCSXDIR
 10
1.0
 20
0.0
 30
0.0
  9
$UCSYDIR
 10
0.0
 20
1.0
 30
0.0
  9
$PUCSNAME
  2

  9
$PUCSORG
 10
0.0
 20
0.0
 30
0.0
  9
$PUCSXDIR
 10
1.0
 20
0.0
 30
0.0
  9
$PUCSYDIR
 10
0.0
 20
1.0
 30
0.0
  9
$USERI1
 70
     0
  9
$USERI2
 70
     0
  9
$USERI3
 70
     0
  9
$USERI4
 70
     0
  9
$USERI5
 70
     0
  9
$USERR1
 40
0.0
  9
$USERR2
 40
0.0
  9
$USERR3
 40
0.0
  9
$USERR4
 40
0.0
  9
$USERR5
 40
0.0
  9
$WORLDVIEW
 70
     1
  9
$SHADEDGE
 70
     3
  9
$SHADEDIF
 70
    70
  9
$TILEMODE
 70
     1
  9
$MAXACTVP
 70
    64
  9
$PLIMCHECK
 70
     0
  9
$PEXTMIN
 10
1.000000000000000E+20
 20
1.000000000000000E+20
 30
1.000000000000000E+20
  9
$PEXTMAX
 10
-1.000000000000000E+20
 20
-1.000000000000000E+20
 30
-1.000000000000000E+20
  9
$PLIMMIN
 10
0.0
 20
0.0
  9
$PLIMMAX
 10
12.0
 20
9.0
  9
$UNITMODE
 70
     0
  9
$VISRETAIN
 70
     1
  9
$PLINEGEN
 70
     0
  9
$PSLTSCALE
 70
     1
  0
ENDSEC
  0
SECTION
  2
TABLES
  0
TABLE
  2
VPORT
 70
     1
  0
VPORT
  2
*ACTIVE
 70
     0
 10
0.0
 20
0.0
 11
1.0
 21
1.0
 12
845.4622520920503
 22
638.0000000000008
 13
0.0
 23
0.0
 14
0.5
 24
0.5
 15
0.5
 25
0.5
 16
0.0
 26
0.0
 36
1.0
 17
0.0
 27
0.0
 37
0.0
 40
406.2499566724121
 41
2.8787693244922
 42
50.0
 43
0.0
 44
0.0
 50
0.0
 51
0.0
 71
     0
 72
   100
 73
     1
 74
     3
 75
     0
 76
     0
 77
     0
 78
     0
  0
ENDTAB
  0
TABLE
  2
LTYPE
 70
     1
  0
LTYPE
  2
CONTINUOUS
 70
     0
  3
Solid line
 72
    65
 73
     0
 40
0.0
  0
ENDTAB
  0
TABLE
  2
LAYER
 70
     2
  0
LAYER
  2
0
 70
     0
 62
     7
  6
CONTINUOUS
  0
LAYER
  2
DEFAULT
 70
     0
 62
     7
  6
CONTINUOUS
  0
ENDTAB
  0
TABLE
  2
STYLE
 70
     1
  0
STYLE
  2
STANDARD
 70
     0
 40
0.0
 41
1.0
 50
0.0
 71
     0
 42
0.2
  3
txt
  4

  0
ENDTAB
  0
TABLE
  2
VIEW
 70
     0
  0
ENDTAB
  0
TABLE
  2
UCS
 70
     0
  0
ENDTAB
  0
TABLE
  2
APPID
 70
     1
  0
APPID
  2
ACAD
 70
     0
  0
ENDTAB
  0
TABLE
  2
DIMSTYLE
 70
     1
  0
DIMSTYLE
  2
STANDARD
 70
     0
  3

  4

  5

  6

  7

 40
1.0
 41
0.18
 42
0.0625
 43
0.38
 44
0.18
 45
0.0
 46
0.0
 47
0.0
 48
0.0
140
0.18
141
0.09
142
0.0
143
25.4
144
1.0
145
0.0
146
1.0
147
0.09
 71
     0
 72
     0
 73
     1
 74
     1
 75
     0
 76
     0
 77
     0
 78
     0
170
     0
171
     2
172
     0
173
     0
174
     0
175
     0
176
     0
177
     0
178
     0
  0
ENDTAB
  0
ENDSEC
  0
SECTION
  2
BLOCKS
  0
BLOCK
  8
0
  2
$MODEL_SPACE
 70
     0
 10
0.0
 20
0.0
 30
0.0
  3
$MODEL_SPACE
  1

  0
ENDBLK
  5
21
  8
0
  0
BLOCK
 67
     1
  8
0
  2
$PAPER_SPACE
 70
     0
 10
0.0
 20
0.0
 30
0.0
  3
$PAPER_SPACE
  1

  0
ENDBLK
  5
1D
 67
     1
  8
0
  0
ENDSEC
  0
SECTION
  2
ENTITIES
  0
LINE
  5
6B
  8
DEFAULT
 10
845.4622520920507
 20
438.8578643762694
 30
1.991981491510838
 11
1154.604387715782
 21
438.8578643762694
 31
1.991981491510838
  0
LINE
  5
6C
  8
DEFAULT
 10
1154.604387715782
 20
438.8578643762694
 30
1.991981491510838
 11
1154.604387715782
 21
837.1421356237322
 31
1.991981491510838
  0
LINE
  5
6D
  8
DEFAULT
 10
1154.604387715782
 20
837.1421356237322
 30
1.991981491510838
 11
845.4622520920507
 21
837.1421356237322
 31
1.991981491510838
  0
LINE
  5
6E
  8
DEFAULT
 10
845.4622520920507
 20
837.1421356237322
 30
1.991981491510838
 11
845.4622520920507
 21
438.8578643762694
 31
1.991981491510838
  0
LINE
  5
6F
  8
DEFAULT
 10
536.3201164683188
 20
438.8578643762694
 30
1.991981491510838
 11
845.4622520920504
 21
438.8578643762694
 31
1.991981491510838
  0
LINE
  5
70
  8
DEFAULT
 10
845.4622520920504
 20
438.8578643762694
 30
1.991981491510838
 11
845.4622520920504
 21
837.1421356237322
 31
1.991981491510838
  0
LINE
  5
71
  8
DEFAULT
 10
845.4622520920504
 20
837.1421356237322
 30
1.991981491510838
 11
536.3201164683188
 21
837.1421356237322
 31
1.991981491510838
  0
LINE
  5
72
  8
DEFAULT
 10
536.3201164683188
 20
837.1421356237322
 30
1.991981491510838
 11
536.3201164683188
 21
438.8578643762694
 31
1.991981491510838
  0
LINE
  5
73
  8
DEFAULT
 10
1154.604387715782
 20
438.8578643762694
 30
1.991981491510838
 11
1418.746523339514
 21
438.8578643762694
 31
1.991981491510838
  0
LINE
  5
74
  8
DEFAULT
 10
1418.746523339514
 20
438.8578643762694
 30
1.991981491510838
 11
1418.746523339514
 21
837.1421356237322
 31
1.991981491510838
  0
LINE
  5
75
  8
DEFAULT
 10
1418.746523339514
 20
837.1421356237322
 30
1.991981491510838
 11
1154.604387715782
 21
837.1421356237322
 31
1.991981491510838
  0
LINE
  5
76
  8
DEFAULT
 10
1154.604387715782
 20
837.1421356237322
 30
1.991981491510838
 11
1154.604387715782
 21
438.8578643762694
 31
1.991981491510838
  0
LINE
  5
77
  8
DEFAULT
 10
272.177980844587
 20
438.8578643762694
 30
1.991981491510838
 11
536.3201164683187
 21
438.8578643762694
 31
1.991981491510838
  0
LINE
  5
78
  8
DEFAULT
 10
536.3201164683187
 20
438.8578643762694
 30
1.991981491510838
 11
536.3201164683187
 21
837.1421356237322
 31
1.991981491510838
  0
LINE
  5
79
  8
DEFAULT
 10
536.3201164683187
 20
837.1421356237322
 30
1.991981491510838
 11
272.177980844587
 21
837.1421356237322
 31
1.991981491510838
  0
LINE
  5
7A
  8
DEFAULT
 10
272.177980844587
 20
837.1421356237322
 30
1.991981491510838
 11
272.177980844587
 21
438.8578643762694
 31
1.991981491510838
  0
CIRCLE
  5
7B
  8
DEFAULT
 10
506.3201164683189
 20
817.1421356237322
 30
1.991981491510838
 40
1.5
  0
CIRCLE
  5
7C
  8
DEFAULT
 10
506.3201164683189
 20
458.8578643762694
 30
1.991981491510838
 40
1.5
  0
CIRCLE
  5
7D
  8
DEFAULT
 10
302.1779808445867
 20
458.8578643762694
 30
1.991981491510838
 40
1.5
  0
CIRCLE
  5
7E
  8
DEFAULT
 10
302.1779808445867
 20
817.1421356237322
 30
1.991981491510838
 40
1.5
  0
CIRCLE
  5
7F
  8
DEFAULT
 10
566.3201164683186
 20
817.1421356237322
 30
1.991981491510838
 40
1.5
  0
CIRCLE
  5
80
  8
DEFAULT
 10
566.3201164683186
 20
458.8578643762694
 30
1.991981491510838
 40
1.5
  0
CIRCLE
  5
81
  8
DEFAULT
 10
770.4622520920508
 20
458.8578643762694
 30
1.991981491510838
 40
1.5
  0
CIRCLE
  5
82
  8
DEFAULT
 10
770.4622520920508
 20
817.1421356237322
 30
1.991981491510838
 40
1.5
  0
CIRCLE
  5
83
  8
DEFAULT
 10
920.4622520920501
 20
817.1421356237322
 30
1.991981491510838
 40
1.5
  0
CIRCLE
  5
84
  8
DEFAULT
 10
920.4622520920501
 20
458.8578643762694
 30
1.991981491510838
 40
1.5
  0
CIRCLE
  5
85
  8
DEFAULT
 10
1124.604387715782
 20
458.8578643762694
 30
1.991981491510838
 40
1.5
  0
CIRCLE
  5
86
  8
DEFAULT
 10
1124.604387715782
 20
817.1421356237322
 30
1.991981491510838
 40
1.5
  0
CIRCLE
  5
87
  8
DEFAULT
 10
1184.604387715782
 20
817.1421356237322
 30
1.991981491510838
 40
1.5
  0
CIRCLE
  5
88
  8
DEFAULT
 10
1184.604387715782
 20
458.8578643762694
 30
1.991981491510838
 40
1.5
  0
CIRCLE
  5
89
  8
DEFAULT
 10
1388.746523339514
 20
458.8578643762694
 30
1.991981491510838
 40
1.5
  0
CIRCLE
  5
8A
  8
DEFAULT
 10
1388.746523339514
 20
817.1421356237322
 30
1.991981491510838
 40
1.5
  0
CIRCLE
  5
8B
  8
DEFAULT
 10
488.6424469386552
 20
799.4644660940685
 30
1.991981491510838
 40
1.5
  0
CIRCLE
  5
8C
  8
DEFAULT
 10
319.8556503742504
 20
799.4644660940685
 30
1.991981491510838
 40
1.5
  0
CIRCLE
  5
8D
  8
DEFAULT
 10
319.8556503742504
 20
476.5355339059331
 30
1.991981491510838
 40
1.5
  0
CIRCLE
  5
8E
  8
DEFAULT
 10
488.6424469386552
 20
476.5355339059331
 30
1.991981491510838
 40
1.5
  0
CIRCLE
  5
8F
  8
DEFAULT
 10
752.7845825623871
 20
476.5355339059331
 30
1.991981491510838
 40
1.5
  0
CIRCLE
  5
90
  8
DEFAULT
 10
583.9977859979823
 20
476.5355339059331
 30
1.991981491510838
 40
1.5
  0
CIRCLE
  5
91
  8
DEFAULT
 10
583.9977859979823
 20
799.4644660940685
 30
1.991981491510838
 40
1.5
  0
CIRCLE
  5
92
  8
DEFAULT
 10
752.7845825623871
 20
799.4644660940685
 30
1.991981491510838
 40
1.5
  0
CIRCLE
  5
93
  8
DEFAULT
 10
1106.926718186118
 20
476.5355339059331
 30
1.991981491510838
 40
1.5
  0
CIRCLE
  5
94
  8
DEFAULT
 10
938.1399216217137
 20
476.5355339059331
 30
1.991981491510838
 40
1.5
  0
CIRCLE
  5
95
  8
DEFAULT
 10
938.1399216217137
 20
799.4644660940685
 30
1.991981491510838
 40
1.5
  0
CIRCLE
  5
96
  8
DEFAULT
 10
1106.926718186118
 20
799.4644660940685
 30
1.991981491510838
 40
1.5
  0
CIRCLE
  5
97
  8
DEFAULT
 10
1371.06885380985
 20
476.5355339059331
 30
1.991981491510838
 40
1.5
  0
CIRCLE
  5
98
  8
DEFAULT
 10
1202.282057245446
 20
476.5355339059331
 30
1.991981491510838
 40
1.5
  0
CIRCLE
  5
99
  8
DEFAULT
 10
1202.282057245446
 20
799.4644660940685
 30
1.991981491510838
 40
1.5
  0
CIRCLE
  5
9A
  8
DEFAULT
 10
1371.06885380985
 20
799.4644660940685
 30
1.991981491510838
 40
1.5
  0
CIRCLE
  5
9B
  8
DEFAULT
 10
858.4622520933696
 20
713.0000000000011
 30
1.991981491510838
 40
1.5
  0
CIRCLE
  5
9C
  8
DEFAULT
 10
832.46225209293
 20
713.0000000000011
 30
1.991981491510838
 40
1.5
  0
CIRCLE
  5
9D
  8
DEFAULT
 10
832.46225209293
 20
563.0000000000005
 30
1.991981491510838
 40
1.5
  0
CIRCLE
  5
9E
  8
DEFAULT
 10
858.4622520933696
 20
563.0000000000005
 30
1.991981491510838
 40
1.5
  0
CIRCLE
  5
9F
  8
DEFAULT
 10
481.3201164683189
 20
670.0710678118664
 30
1.991981491510837
 40
1.000000000000114
  0
CIRCLE
  5
A0
  8
DEFAULT
 10
481.3201164683189
 20
760.0710678118664
 30
1.991981491510837
 40
0.9999999999997726
  0
CIRCLE
  5
A1
  8
DEFAULT
 10
327.1779808445866
 20
760.0710678118667
 30
1.991981491510838
 40
0.9999999999997726
  0
CIRCLE
  5
A2
  8
DEFAULT
 10
327.1779808445866
 20
670.0710678118668
 30
1.991981491510837
 40
1.0
  0
CIRCLE
  5
A3
  8
DEFAULT
 10
327.1779808445866
 20
605.9289321881349
 30
1.991981491510837
 40
1.000000000000114
  0
CIRCLE
  5
A4
  8
DEFAULT
 10
327.1779808445867
 20
515.9289321881347
 30
1.991981491510838
 40
1.0
  0
CIRCLE
  5
A5
  8
DEFAULT
 10
481.3201164683189
 20
515.9289321881348
 30
1.991981491510837
 40
1.000000000000114
  0
CIRCLE
  5
A6
  8
DEFAULT
 10
481.3201164683189
 20
605.928932188135
 30
1.991981491510837
 40
1.0
  0
CIRCLE
  5
A7
  8
DEFAULT
 10
359.2490486564528
 20
792.1421356237322
 30
1.991981491510838
 40
1.0
  0
CIRCLE
  5
A8
  8
DEFAULT
 10
449.2490486564528
 20
792.1421356237322
 30
1.991981491510837
 40
1.0
  0
CIRCLE
  5
A9
  8
DEFAULT
 10
449.2490486564528
 20
638.0000000000013
 30
1.991981491510837
 40
1.0
  0
CIRCLE
  5
AA
  8
DEFAULT
 10
359.2490486564529
 20
638.0000000000014
 30
1.991981491510838
 40
0.9999999999999432
  0
CIRCLE
  5
AB
  8
DEFAULT
 10
449.2490486564528
 20
483.8578643762694
 30
1.991981491510837
 40
0.9999999999999432
  0
CIRCLE
  5
AC
  8
DEFAULT
 10
359.2490486564528
 20
483.8578643762694
 30
1.991981491510838
 40
1.0
  0
CIRCLE
  5
AD
  8
DEFAULT
 10
623.3911842801847
 20
483.8578643762694
 30
1.991981491510838
 40
1.0
  0
CIRCLE
  5
AE
  8
DEFAULT
 10
713.3911842801847
 20
483.8578643762694
 30
1.991981491510837
 40
1.0
  0
CIRCLE
  5
AF
  8
DEFAULT
 10
623.3911842801847
 20
638.0000000000011
 30
1.991981491510837
 40
1.0
  0
CIRCLE
  5
B0
  8
DEFAULT
 10
713.3911842801847
 20
638.0000000000014
 30
1.991981491510838
 40
1.0
  0
CIRCLE
  5
B1
  8
DEFAULT
 10
713.3911842801847
 20
792.1421356237322
 30
1.991981491510837
 40
1.0
  0
CIRCLE
  5
B2
  8
DEFAULT
 10
623.3911842801847
 20
792.1421356237322
 30
1.991981491510838
 40
1.0
  0
CIRCLE
  5
B3
  8
DEFAULT
 10
745.4622520920507
 20
605.9289321881349
 30
1.991981491510837
 40
0.9999999999998863
  0
CIRCLE
  5
B4
  8
DEFAULT
 10
745.4622520920509
 20
515.9289321881349
 30
1.991981491510838
 40
1.0
  0
CIRCLE
  5
B5
  8
DEFAULT
 10
591.3201164683187
 20
515.9289321881348
 30
1.991981491510837
 40
0.9999999999998863
  0
CIRCLE
  5
B6
  8
DEFAULT
 10
591.3201164683184
 20
605.9289321881349
 30
1.991981491510837
 40
1.000000000000114
  0
CIRCLE
  5
B7
  8
DEFAULT
 10
591.3201164683185
 20
670.0710678118668
 30
1.991981491510837
 40
1.0
  0
CIRCLE
  5
B8
  8
DEFAULT
 10
591.3201164683186
 20
760.0710678118668
 30
1.991981491510837
 40
0.9999999999998863
  0
CIRCLE
  5
B9
  8
DEFAULT
 10
745.4622520920509
 20
760.0710678118666
 30
1.991981491510838
 40
0.9999999999998863
  0
CIRCLE
  5
BA
  8
DEFAULT
 10
745.4622520920508
 20
670.0710678118666
 30
1.991981491510837
 40
1.0
  0
CIRCLE
  5
BB
  8
DEFAULT
 10
977.5333199039162
 20
483.8578643762694
 30
1.991981491510837
 40
0.9999999999998863
  0
CIRCLE
  5
BC
  8
DEFAULT
 10
1067.533319903916
 20
483.8578643762694
 30
1.991981491510838
 40
1.0
  0
CIRCLE
  5
BD
  8
DEFAULT
 10
977.533319903916
 20
638.0000000000014
 30
1.991981491510837
 40
1.000000000000114
  0
CIRCLE
  5
BE
  8
DEFAULT
 10
1067.533319903916
 20
638.0000000000011
 30
1.991981491510838
 40
1.0
  0
CIRCLE
  5
BF
  8
DEFAULT
 10
1067.533319903916
 20
792.1421356237324
 30
1.991981491510838
 40
1.000000000000227
  0
CIRCLE
  5
C0
  8
DEFAULT
 10
977.533319903916
 20
792.1421356237321
 30
1.991981491510837
 40
1.000000000000114
  0
CIRCLE
  5
C1
  8
DEFAULT
 10
1099.604387715782
 20
605.928932188135
 30
1.991981491510838
 40
1.0
  0
CIRCLE
  5
C2
  8
DEFAULT
 10
1099.604387715782
 20
515.9289321881349
 30
1.991981491510837
 40
1.0
  0
CIRCLE
  5
C3
  8
DEFAULT
 10
945.4622520920503
 20
515.928932188135
 30
1.991981491510837
 40
0.9999999999996589
  0
CIRCLE
  5
C4
  8
DEFAULT
 10
945.4622520920498
 20
605.9289321881348
 30
1.991981491510838
 40
1.0
  0
CIRCLE
  5
C5
  8
DEFAULT
 10
945.4622520920498
 20
670.0710678118667
 30
1.991981491510838
 40
1.000000000000114
  0
CIRCLE
  5
C6
  8
DEFAULT
 10
945.4622520920499
 20
760.0710678118667
 30
1.991981491510837
 40
0.9999999999997726
  0
CIRCLE
  5
C7
  8
DEFAULT
 10
1099.604387715782
 20
760.0710678118664
 30
1.991981491510837
 40
0.9999999999997726
  0
CIRCLE
  5
C8
  8
DEFAULT
 10
1099.604387715782
 20
670.0710678118667
 30
1.991981491510838
 40
0.9999999999998863
  0
CIRCLE
  5
C9
  8
DEFAULT
 10
1241.675455527648
 20
483.8578643762694
 30
1.991981491510837
 40
1.0
  0
CIRCLE
  5
CA
  8
DEFAULT
 10
1331.675455527648
 20
483.8578643762694
 30
1.991981491510838
 40
1.0
  0
CIRCLE
  5
CB
  8
DEFAULT
 10
1241.675455527648
 20
638.0000000000014
 30
1.991981491510838
 40
1.0
  0
CIRCLE
  5
CC
  8
DEFAULT
 10
1331.675455527648
 20
638.0000000000014
 30
1.991981491510837
 40
0.9999999999997726
  0
CIRCLE
  5
CD
  8
DEFAULT
 10
1331.675455527648
 20
792.1421356237321
 30
1.991981491510838
 40
0.9999999999997726
  0
CIRCLE
  5
CE
  8
DEFAULT
 10
1241.675455527648
 20
792.1421356237322
 30
1.991981491510837
 40
1.0
  0
CIRCLE
  5
CF
  8
DEFAULT
 10
1363.746523339514
 20
605.928932188135
 30
1.991981491510838
 40
1.0
  0
CIRCLE
  5
D0
  8
DEFAULT
 10
1363.746523339514
 20
515.9289321881349
 30
1.991981491510837
 40
1.0
  0
CIRCLE
  5
D1
  8
DEFAULT
 10
1209.604387715782
 20
515.9289321881348
 30
1.991981491510838
 40
0.9999999999998863
  0
CIRCLE
  5
D2
  8
DEFAULT
 10
1209.604387715782
 20
605.9289321881349
 30
1.991981491510838
 40
1.000000000000114
  0
CIRCLE
  5
D3
  8
DEFAULT
 10
1209.604387715782
 20
670.0710678118667
 30
1.991981491510838
 40
1.000000000000114
  0
CIRCLE
  5
D4
  8
DEFAULT
 10
1209.604387715782
 20
760.0710678118667
 30
1.991981491510838
 40
0.9999999999997726
  0
CIRCLE
  5
D5
  8
DEFAULT
 10
1363.746523339514
 20
760.0710678118664
 30
1.991981491510837
 40
0.9999999999997726
  0
CIRCLE
  5
D6
  8
DEFAULT
 10
1363.746523339514
 20
670.0710678118664
 30
1.991981491510838
 40
1.000000000000114
  0
ENDSEC
  0
EOF
