  0
SECTION
  2
HEADER
  9
$ACADVER
  1
AC1018
  9
$ACADMAINTVER
 70
     0
  9
$DWGCODEPAGE
  3
ANSI_1252
  9
$INSBASE
 10
0.0
 20
0.0
 30
0.0
  9
$EXTMIN
 10
-40.85048311147835
 20
52.87614248025947
 30
0.0
  9
$EXTMAX
 10
339.1495168885216
 20
452.8761424802595
 30
0.0
  9
$LIMMIN
 10
0.0
 20
0.0
  9
$LIMMAX
 10
12.0
 20
9.0
  9
$ORTHOMODE
 70
     0
  9
$REGENMODE
 70
     1
  9
$FILLMODE
 70
     1
  9
$QTEXTMODE
 70
     0
  9
$MIRRTEXT
 70
     1
  9
$LTSCALE
 40
1.0
  9
$ATTMODE
 70
     1
  9
$TEXTSIZE
 40
0.2
  9
$TRACEWID
 40
0.05
  9
$TEXTSTYLE
  7
Standard
  9
$CLAYER
  8
Default
  9
$CELTYPE
  6
ByLayer
  9
$CECOLOR
 62
   256
  9
$CELTSCALE
 40
1.0
  9
$DISPSILH
 70
     0
  9
$DIMSCALE
 40
1.0
  9
$DIMASZ
 40
0.18
  9
$DIMEXO
 40
0.0625
  9
$DIMDLI
 40
0.38
  9
$DIMRND
 40
0.0
  9
$DIMDLE
 40
0.0
  9
$DIMEXE
 40
0.18
  9
$DIMTP
 40
0.0
  9
$DIMTM
 40
0.0
  9
$DIMTXT
 40
0.18
  9
$DIMCEN
 40
0.09
  9
$DIMTSZ
 40
0.0
  9
$DIMTOL
 70
     0
  9
$DIMLIM
 70
     0
  9
$DIMTIH
 70
     1
  9
$DIMTOH
 70
     1
  9
$DIMSE1
 70
     0
  9
$DIMSE2
 70
     0
  9
$DIMTAD
 70
     0
  9
$DIMZIN
 70
     0
  9
$DIMBLK
  1

  9
$DIMASO
 70
     1
  9
$DIMSHO
 70
     1
  9
$DIMPOST
  1

  9
$DIMAPOST
  1

  9
$DIMALT
 70
     0
  9
$DIMALTD
 70
     2
  9
$DIMALTF
 40
25.4
  9
$DIMLFAC
 40
1.0
  9
$DIMTOFL
 70
     0
  9
$DIMTVP
 40
0.0
  9
$DIMTIX
 70
     0
  9
$DIMSOXD
 70
     0
  9
$DIMSAH
 70
     0
  9
$DIMBLK1
  1

  9
$DIMBLK2
  1

  9
$DIMSTYLE
  2
Standard
  9
$DIMCLRD
 70
     0
  9
$DIMCLRE
 70
     0
  9
$DIMCLRT
 70
     0
  9
$DIMTFAC
 40
1.0
  9
$DIMGAP
 40
0.09
  9
$DIMJUST
 70
     0
  9
$DIMSD1
 70
     0
  9
$DIMSD2
 70
     0
  9
$DIMTOLJ
 70
     1
  9
$DIMTZIN
 70
     0
  9
$DIMALTZ
 70
     0
  9
$DIMALTTZ
 70
     0
  9
$DIMUPT
 70
     0
  9
$DIMDEC
 70
     4
  9
$DIMTDEC
 70
     4
  9
$DIMALTU
 70
     2
  9
$DIMALTTD
 70
     2
  9
$DIMTXSTY
  7
Standard
  9
$DIMAUNIT
 70
     0
  9
$DIMADEC
 70
     0
  9
$DIMALTRND
 40
0.0
  9
$DIMAZIN
 70
     0
  9
$DIMDSEP
 70
    46
  9
$DIMATFIT
 70
     3
  9
$DIMFRAC
 70
     0
  9
$DIMLDRBLK
  1

  9
$DIMLUNIT
 70
     2
  9
$DIMLWD
 70
    -2
  9
$DIMLWE
 70
    -2
  9
$DIMTMOVE
 70
     2
  9
$LUNITS
 70
     2
  9
$LUPREC
 70
     3
  9
$SKETCHINC
 40
0.1
  9
$FILLETRAD
 40
0.5
  9
$AUNITS
 70
     0
  9
$AUPREC
 70
     0
  9
$MENU
  1
.
  9
$ELEVATION
 40
0.0
  9
$PELEVATION
 40
0.0
  9
$THICKNESS
 40
0.0
  9
$LIMCHECK
 70
     0
  9
$CHAMFERA
 40
0.0
  9
$CHAMFERB
 40
0.0
  9
$CHAMFERC
 40
0.0
  9
$CHAMFERD
 40
0.0
  9
$SKPOLY
 70
     0
  9
$TDCREATE
 40
2457916.914897488
  9
$TDUCREATE
 40
2457916.685730822
  9
$TDUPDATE
 40
2457916.91491206
  9
$TDUUPDATE
 40
2457916.685745393
  9
$TDINDWG
 40
0.0000000116
  9
$TDUSRTIMER
 40
0.0000000116
  9
$USRTIMER
 70
     1
  9
$ANGBASE
 50
0.0
  9
$ANGDIR
 70
     0
  9
$PDMODE
 70
     0
  9
$PDSIZE
 40
0.0
  9
$PLINEWID
 40
0.0
  9
$SPLFRAME
 70
     0
  9
$SPLINETYPE
 70
     6
  9
$SPLINESEGS
 70
     8
  9
$HANDSEED
  5
4C2
  9
$SURFTAB1
 70
     6
  9
$SURFTAB2
 70
     6
  9
$SURFTYPE
 70
     6
  9
$SURFU
 70
     6
  9
$SURFV
 70
     6
  9
$UCSBASE
  2

  9
$UCSNAME
  2

  9
$UCSORG
 10
0.0
 20
0.0
 30
0.0
  9
$UCSXDIR
 10
1.0
 20
0.0
 30
0.0
  9
$UCSYDIR
 10
0.0
 20
1.0
 30
0.0
  9
$UCSORTHOREF
  2

  9
$UCSORTHOVIEW
 70
     0
  9
$UCSORGTOP
 10
0.0
 20
0.0
 30
0.0
  9
$UCSORGBOTTOM
 10
0.0
 20
0.0
 30
0.0
  9
$UCSORGLEFT
 10
0.0
 20
0.0
 30
0.0
  9
$UCSORGRIGHT
 10
0.0
 20
0.0
 30
0.0
  9
$UCSORGFRONT
 10
0.0
 20
0.0
 30
0.0
  9
$UCSORGBACK
 10
0.0
 20
0.0
 30
0.0
  9
$PUCSBASE
  2

  9
$PUCSNAME
  2

  9
$PUCSORG
 10
0.0
 20
0.0
 30
0.0
  9
$PUCSXDIR
 10
1.0
 20
0.0
 30
0.0
  9
$PUCSYDIR
 10
0.0
 20
1.0
 30
0.0
  9
$PUCSORTHOREF
  2

  9
$PUCSORTHOVIEW
 70
     0
  9
$PUCSORGTOP
 10
0.0
 20
0.0
 30
0.0
  9
$PUCSORGBOTTOM
 10
0.0
 20
0.0
 30
0.0
  9
$PUCSORGLEFT
 10
0.0
 20
0.0
 30
0.0
  9
$PUCSORGRIGHT
 10
0.0
 20
0.0
 30
0.0
  9
$PUCSORGFRONT
 10
0.0
 20
0.0
 30
0.0
  9
$PUCSORGBACK
 10
0.0
 20
0.0
 30
0.0
  9
$USERI1
 70
     0
  9
$USERI2
 70
     0
  9
$USERI3
 70
     0
  9
$USERI4
 70
     0
  9
$USERI5
 70
     0
  9
$USERR1
 40
0.0
  9
$USERR2
 40
0.0
  9
$USERR3
 40
0.0
  9
$USERR4
 40
0.0
  9
$USERR5
 40
0.0
  9
$WORLDVIEW
 70
     1
  9
$SHADEDGE
 70
     3
  9
$SHADEDIF
 70
    70
  9
$TILEMODE
 70
     1
  9
$MAXACTVP
 70
    64
  9
$PINSBASE
 10
0.0
 20
0.0
 30
0.0
  9
$PLIMCHECK
 70
     0
  9
$PEXTMIN
 10
1.000000000000000E+20
 20
1.000000000000000E+20
 30
1.000000000000000E+20
  9
$PEXTMAX
 10
-1.000000000000000E+20
 20
-1.000000000000000E+20
 30
-1.000000000000000E+20
  9
$PLIMMIN
 10
0.0
 20
0.0
  9
$PLIMMAX
 10
12.0
 20
9.0
  9
$UNITMODE
 70
     0
  9
$VISRETAIN
 70
     1
  9
$PLINEGEN
 70
     0
  9
$PSLTSCALE
 70
     1
  9
$TREEDEPTH
 70
  3020
  9
$CMLSTYLE
  2
Standard
  9
$CMLJUST
 70
     0
  9
$CMLSCALE
 40
1.0
  9
$PROXYGRAPHICS
 70
     1
  9
$MEASUREMENT
 70
     0
  9
$CELWEIGHT
370
    -1
  9
$ENDCAPS
280
     0
  9
$JOINSTYLE
280
     0
  9
$LWDISPLAY
290
     0
  9
$INSUNITS
 70
     4
  9
$HYPERLINKBASE
  1

  9
$STYLESHEET
  1

  9
$XEDIT
290
     1
  9
$CEPSNTYPE
380
     0
  9
$PSTYLEMODE
290
     1
  9
$FINGERPRINTGUID
  2
{C9692932-A3D6-4846-9742-0D05E7B10A64}
  9
$VERSIONGUID
  2
{FAEB1C32-E019-11D5-929B-00C0DF256EC4}
  9
$EXTNAMES
290
     1
  9
$PSVPSCALE
 40
0.0
  9
$OLESTARTUP
290
     0
  9
$SORTENTS
280
   127
  9
$INDEXCTL
280
     0
  9
$HIDETEXT
280
     1
  9
$XCLIPFRAME
290
     0
  9
$HALOGAP
280
     0
  9
$OBSCOLOR
 70
   257
  9
$OBSLTYPE
280
     0
  9
$INTERSECTIONDISPLAY
280
     0
  9
$INTERSECTIONCOLOR
 70
   257
  9
$DIMASSOC
280
     2
  9
$PROJECTNAME
  1

  0
ENDSEC
  0
SECTION
  2
CLASSES
  0
CLASS
  1
ACDBDICTIONARYWDFLT
  2
AcDbDictionaryWithDefault
  3
ObjectDBX Classes
 90
        0
 91
        4
280
     0
281
     0
  0
CLASS
  1
VISUALSTYLE
  2
AcDbVisualStyle
  3
ObjectDBX Classes
 90
     4095
 91
        4
280
     0
281
     0
  0
CLASS
  1
MATERIAL
  2
AcDbMaterial
  3
ObjectDBX Classes
 90
     1153
 91
        4
280
     0
281
     0
  0
CLASS
  1
SCALE
  2
AcDbScale
  3
ObjectDBX Classes
 90
     1153
 91
        4
280
     0
281
     0
  0
CLASS
  1
TABLESTYLE
  2
AcDbTableStyle
  3
ObjectDBX Classes
 90
     4095
 91
        4
280
     0
281
     0
  0
CLASS
  1
MLEADERSTYLE
  2
AcDbMLeaderStyle
  3
ACDB_MLEADERSTYLE_CLASS
 90
     4095
 91
        4
280
     0
281
     0
  0
CLASS
  1
SUN
  2
AcDbSun
  3
SCENEOE
 90
     1153
 91
        4
280
     0
281
     0
  0
CLASS
  1
DICTIONARYVAR
  2
AcDbDictionaryVar
  3
ObjectDBX Classes
 90
        0
 91
        4
280
     0
281
     0
  0
CLASS
  1
CELLSTYLEMAP
  2
AcDbCellStyleMap
  3
ObjectDBX Classes
 90
     1152
 91
        4
280
     0
281
     0
  0
ENDSEC
  0
SECTION
  2
TABLES
  0
TABLE
  2
VPORT
  5
8
102
{ACAD_XDICTIONARY
360
47B
102
}
330
0
100
AcDbSymbolTable
 70
     1
  0
VPORT
  5
29
330
8
100
AcDbSymbolTableRecord
100
AcDbViewportTableRecord
  2
*Active
 70
     0
 10
0.0
 20
0.0
 11
1.0
 21
1.0
 12
149.1495168885216
 22
252.8761424802595
 13
0.0
 23
0.0
 14
0.5
 24
0.5
 15
0.5
 25
0.5
 16
0.0
 26
0.0
 36
1.0
 17
0.0
 27
0.0
 37
0.0
 40
408.0
 41
0.9500000000000001
 42
50.0
 43
0.0
 44
0.0
 50
0.0
 51
0.0
 71
     0
 72
   100
 73
     1
 74
     3
 75
     0
 76
     0
 77
     0
 78
     0
281
     0
 65
     1
110
0.0
120
0.0
130
0.0
111
1.0
121
0.0
131
0.0
112
0.0
122
1.0
132
0.0
 79
     0
146
0.0
  0
ENDTAB
  0
TABLE
  2
LTYPE
  5
5
330
0
100
AcDbSymbolTable
 70
     1
  0
LTYPE
  5
14
330
5
100
AcDbSymbolTableRecord
100
AcDbLinetypeTableRecord
  2
ByBlock
 70
     0
  3

 72
    65
 73
     0
 40
0.0
  0
LTYPE
  5
15
330
5
100
AcDbSymbolTableRecord
100
AcDbLinetypeTableRecord
  2
ByLayer
 70
     0
  3

 72
    65
 73
     0
 40
0.0
  0
LTYPE
  5
16
330
5
100
AcDbSymbolTableRecord
100
AcDbLinetypeTableRecord
  2
Continuous
 70
     0
  3
Solid line
 72
    65
 73
     0
 40
0.0
  0
ENDTAB
  0
TABLE
  2
LAYER
  5
2
330
0
100
AcDbSymbolTable
 70
     3
  0
LAYER
  5
10
330
2
100
AcDbSymbolTableRecord
100
AcDbLayerTableRecord
  2
0
 70
     0
 62
     7
  6
Continuous
370
    -3
390
F
  0
LAYER
  5
6E
330
2
100
AcDbSymbolTableRecord
100
AcDbLayerTableRecord
  2
Default
 70
     0
 62
    18
420
        0
  6
Continuous
370
    -3
390
F
  0
LAYER
  5
A2
330
2
100
AcDbSymbolTableRecord
100
AcDbLayerTableRecord
  2
Make2D$visible$lines
 70
     0
 62
    18
420
        0
  6
Continuous
370
    -3
390
F
  0
ENDTAB
  0
TABLE
  2
STYLE
  5
3
330
0
100
AcDbSymbolTable
 70
     1
  0
STYLE
  5
11
330
3
100
AcDbSymbolTableRecord
100
AcDbTextStyleTableRecord
  2
Standard
 70
     0
 40
0.0
 41
1.0
 50
0.0
 71
     0
 42
0.2
  3
txt
  4

  0
ENDTAB
  0
TABLE
  2
VIEW
  5
6
330
0
100
AcDbSymbolTable
 70
     0
  0
ENDTAB
  0
TABLE
  2
UCS
  5
7
330
0
100
AcDbSymbolTable
 70
     0
  0
ENDTAB
  0
TABLE
  2
APPID
  5
9
330
0
100
AcDbSymbolTable
 70
     2
  0
APPID
  5
12
330
9
100
AcDbSymbolTableRecord
100
AcDbRegAppTableRecord
  2
ACAD
 70
     0
  0
APPID
  5
4BA
330
9
100
AcDbSymbolTableRecord
100
AcDbRegAppTableRecord
  2
ACAD_MLEADERVER
 70
     0
  0
ENDTAB
  0
TABLE
  2
DIMSTYLE
  5
A
330
0
100
AcDbSymbolTable
 70
     1
100
AcDbDimStyleTable
  0
DIMSTYLE
105
27
330
A
100
AcDbSymbolTableRecord
100
AcDbDimStyleTableRecord
  2
Standard
 70
     0
178
     0
340
11
  0
ENDTAB
  0
TABLE
  2
BLOCK_RECORD
  5
1
330
0
100
AcDbSymbolTable
 70
     1
  0
BLOCK_RECORD
  5
1F
330
1
100
AcDbSymbolTableRecord
100
AcDbBlockTableRecord
  2
*Model_Space
340
22
  0
BLOCK_RECORD
  5
1B
330
1
100
AcDbSymbolTableRecord
100
AcDbBlockTableRecord
  2
*Paper_Space
340
1E
  0
BLOCK_RECORD
  5
23
330
1
100
AcDbSymbolTableRecord
100
AcDbBlockTableRecord
  2
*Paper_Space0
340
26
  0
ENDTAB
  0
ENDSEC
  0
SECTION
  2
BLOCKS
  0
BLOCK
  5
20
330
1F
100
AcDbEntity
  8
0
100
AcDbBlockBegin
  2
*Model_Space
 70
     0
 10
0.0
 20
0.0
 30
0.0
  3
*Model_Space
  1

  0
ENDBLK
  5
21
330
1F
100
AcDbEntity
  8
0
100
AcDbBlockEnd
  0
BLOCK
  5
1C
330
1B
100
AcDbEntity
 67
     1
  8
0
100
AcDbBlockBegin
  2
*Paper_Space
 70
     0
 10
0.0
 20
0.0
 30
0.0
  3
*Paper_Space
  1

  0
ENDBLK
  5
1D
330
1B
100
AcDbEntity
 67
     1
  8
0
100
AcDbBlockEnd
  0
BLOCK
  5
24
330
23
100
AcDbEntity
  8
0
100
AcDbBlockBegin
  2
*Paper_Space0
 70
     0
 10
0.0
 20
0.0
 30
0.0
  3
*Paper_Space0
  1

  0
ENDBLK
  5
25
330
23
100
AcDbEntity
  8
0
100
AcDbBlockEnd
  0
ENDSEC
  0
SECTION
  2
ENTITIES
  0
LINE
  5
6F
330
1F
100
AcDbEntity
  8
Default
100
AcDbLine
 10
149.6345871246785
 20
99.36029743501963
 30
0.0
 11
124.6345871246797
 21
124.3602974350213
 31
0.0
  0
LINE
  5
70
330
1F
100
AcDbEntity
  8
Default
100
AcDbLine
 10
124.6345871246797
 20
124.3602974350213
 30
0.0
 11
34.63458712467973
 21
124.360297435027
 31
0.0
  0
LINE
  5
71
330
1F
100
AcDbEntity
  8
Default
100
AcDbLine
 10
34.63458712467973
 20
124.360297435027
 30
0.0
 11
9.63458712467768
 21
99.36029743502847
 31
0.0
  0
LINE
  5
72
330
1F
100
AcDbEntity
  8
Default
100
AcDbLine
 10
9.63458712467768
 20
99.36029743502847
 30
0.0
 11
34.63458712467654
 21
74.36029743502695
 31
0.0
  0
LINE
  5
73
330
1F
100
AcDbEntity
  8
Default
100
AcDbLine
 10
34.63458712467654
 20
74.36029743502695
 30
0.0
 11
124.6345871246765
 21
74.36029743502124
 31
0.0
  0
LINE
  5
74
330
1F
100
AcDbEntity
  8
Default
100
AcDbLine
 10
124.6345871246765
 20
74.36029743502124
 30
0.0
 11
149.6345871246785
 21
99.36029743501963
 31
0.0
  0
SPLINE
  5
75
330
1F
100
AcDbEntity
  8
Default
100
AcDbSpline
210
0.0
220
0.0
230
1.0
 70
    15
 71
     2
 72
    12
 73
     9
 74
     0
 42
0.000000001
 43
0.0000000001
 40
0.0
 40
0.0
 40
0.0
 40
3.926990816987241
 40
3.926990816987241
 40
7.853981633974483
 40
7.853981633974483
 40
11.78097245096172
 40
11.78097245096172
 40
15.70796326794897
 40
15.70796326794897
 40
15.70796326794897
 10
174.9517954421536
 20
83.30690408863441
 30
0.0
 41
1.0
 10
171.1023480766688
 20
79.37857683898193
 30
0.0
 41
0.7071067811865476
 10
167.1740208270164
 20
83.2280242044666
 30
0.0
 41
1.0
 10
163.2456935773637
 20
87.07747156995141
 30
0.0
 41
0.7071067811865476
 10
167.0951409428484
 20
91.00579881960383
 30
0.0
 41
1.0
 10
170.9445883083331
 20
94.93412606925656
 30
0.0
 41
0.7071067811865476
 10
174.8729155579858
 20
91.08467870377163
 30
0.0
 41
1.0
 10
178.8012428076382
 20
87.23523133828708
 30
0.0
 41
0.7071067811865476
 10
174.9517954421536
 20
83.30690408863441
 30
0.0
 41
1.0
  0
SPLINE
  5
76
330
1F
100
AcDbEntity
  8
Default
100
AcDbSpline
210
0.0
220
0.0
230
1.0
 70
    12
 71
     2
 72
     6
 73
     3
 74
     0
 42
0.000000001
 43
0.0000000001
 40
491.8200833381188
 40
491.8200833381188
 40
491.8200833381188
 40
496.5324723185036
 40
496.5324723185036
 40
496.5324723185036
 10
182.8853902504454
 20
83.93313488132586
 30
0.0
 41
1.0
 10
184.9850888134371
 20
86.07585883568187
 30
0.0
 41
0.7071067811865471
 10
182.842364859081
 20
88.17555739867342
 30
0.0
 41
1.0
  0
LINE
  5
77
330
1F
100
AcDbEntity
  8
Default
100
AcDbLine
 10
182.842364859081
 20
88.17555739867342
 30
0.0
 11
164.8109934087727
 21
105.8448631652961
 31
0.0
  0
LINE
  5
78
330
1F
100
AcDbEntity
  8
Default
100
AcDbLine
 10
164.8109934087727
 20
105.8448631652961
 30
0.0
 11
165.5538068802911
 21
105.1169652129968
 31
0.0
  0
LINE
  5
79
330
1F
100
AcDbEntity
  8
Default
100
AcDbLine
 10
165.5538068802911
 20
105.1169652129968
 30
0.0
 11
164.3656561774255
 21
106.2812581301281
 31
0.0
  0
ARC
  5
7A
330
1F
100
AcDbEntity
  8
Default
100
AcDbCircle
 10
162.2659576144338
 20
104.1385341757722
 30
0.0
 40
3.000000000000043
100
AcDbArc
 50
45.58105688776624
 51
135.5810568877645
  0
SPLINE
  5
7B
330
1F
100
AcDbEntity
  8
Default
100
AcDbSpline
210
0.0
220
0.0
230
1.0
 70
    12
 71
     2
 72
    10
 73
     7
 74
     0
 42
0.000000001
 43
0.0000000001
 40
542.0716919151952
 40
542.0716919151952
 40
542.0716919151952
 40
552.3176916206288
 40
552.3176916206288
 40
572.3754990065291
 40
572.3754990065291
 40
575.6148097366913
 40
575.6148097366913
 40
575.6148097366913
 10
160.123233660078
 20
106.238232738764
 30
0.0
 41
1.0
 10
155.9246982562946
 20
101.9536642099937
 30
0.0
 41
1.0
 10
151.7261628525112
 20
97.66909568122347
 30
0.0
 41
1.0
 10
145.0944498303692
 20
90.86509558484127
 30
0.0
 41
1.0
 10
138.4627368082273
 20
84.06109548845907
 30
0.0
 41
1.0
 10
137.412887777035
 20
82.98973376671373
 30
0.0
 41
1.0
 10
136.3630382452356
 20
81.91837153410316
 30
0.0
 41
1.0
  0
LINE
  5
7C
330
1F
100
AcDbEntity
  8
Default
100
AcDbLine
 10
136.3630382452356
 20
81.91837153410316
 30
0.0
 11
142.0769687901848
 21
76.31917536612539
 31
0.0
  0
LINE
  5
7D
330
1F
100
AcDbEntity
  8
Default
100
AcDbLine
 10
142.0769687901848
 20
76.31917536612539
 30
0.0
 11
144.1766673531765
 21
78.46189932048142
 31
0.0
  0
LINE
  5
7E
330
1F
100
AcDbEntity
  8
Default
100
AcDbLine
 10
144.1766673531765
 20
78.46189932048142
 30
0.0
 11
155.5109628536456
 21
67.35519379899873
 31
0.0
  0
LINE
  5
7F
330
1F
100
AcDbEntity
  8
Default
100
AcDbLine
 10
155.5109628536456
 20
67.35519379899873
 30
0.0
 11
153.411264290654
 21
65.21246984464292
 31
0.0
  0
LINE
  5
80
330
1F
100
AcDbEntity
  8
Default
100
AcDbLine
 10
153.411264290654
 20
65.21246984464292
 30
0.0
 11
159.1251948356032
 21
59.61327367666505
 31
0.0
  0
LINE
  5
81
330
1F
100
AcDbEntity
  8
Default
100
AcDbLine
 10
159.1251948356032
 20
59.61327367666505
 30
0.0
 11
161.2248933985948
 21
61.75599763102107
 31
0.0
  0
LINE
  5
82
330
1F
100
AcDbEntity
  8
Default
100
AcDbLine
 10
161.2248933985948
 20
61.75599763102107
 30
0.0
 11
174.4883194428787
 21
75.36399782378547
 31
0.0
  0
LINE
  5
83
330
1F
100
AcDbEntity
  8
Default
100
AcDbLine
 10
174.4883194428787
 20
75.36399782378547
 30
0.0
 11
182.8853902504454
 21
83.93313488132586
 31
0.0
  0
LINE
  5
84
330
1F
100
AcDbEntity
  8
Default
100
AcDbLine
 10
16.34509035949505
 20
142.2730052814688
 30
0.0
 11
14.24162111348706
 21
140.1339828105492
 31
0.0
  0
LINE
  5
85
330
1F
100
AcDbEntity
  8
Default
100
AcDbLine
 10
14.24162111348706
 20
140.1339828105492
 30
0.0
 11
21.37169601655258
 21
133.1224186571897
 31
0.0
  0
LINE
  5
86
330
1F
100
AcDbEntity
  8
Default
100
AcDbLine
 10
21.37169601655258
 20
133.1224186571897
 30
0.0
 11
23.47516526256046
 21
135.2614411281092
 31
0.0
  0
LINE
  5
87
330
1F
100
AcDbEntity
  8
Default
100
AcDbLine
 10
23.47516526256046
 20
135.2614411281092
 30
0.0
 11
16.34509035949505
 21
142.2730052814688
 31
0.0
  0
POLYLINE
  5
88
330
1F
100
AcDbEntity
  8
Default
100
AcDb2dPolyline
 66
     1
 10
0.0
 20
0.0
 30
0.0
 70
     1
  0
VERTEX
  5
89
330
88
100
AcDbEntity
  8
Default
100
AcDbVertex
100
AcDb2dVertex
 10
114.6845859802689
 20
96.53114893755944
 30
0.0
  0
VERTEX
  5
8A
330
88
100
AcDbEntity
  8
Default
100
AcDbVertex
100
AcDb2dVertex
 10
114.6845859802684
 20
88.63114893755927
 30
0.0
  0
VERTEX
  5
8B
330
88
100
AcDbEntity
  8
Default
100
AcDbVertex
100
AcDb2dVertex
 10
111.8845859802683
 20
88.63114893755947
 30
0.0
  0
VERTEX
  5
8C
330
88
100
AcDbEntity
  8
Default
100
AcDbVertex
100
AcDb2dVertex
 10
111.8845859802688
 20
96.53114893755954
 30
0.0
  0
SEQEND
  5
8D
330
88
100
AcDbEntity
  8
Default
  0
POLYLINE
  5
8E
330
1F
100
AcDbEntity
  8
Default
100
AcDb2dPolyline
 66
     1
 10
0.0
 20
0.0
 30
0.0
 70
     1
  0
VERTEX
  5
8F
330
8E
100
AcDbEntity
  8
Default
100
AcDbVertex
100
AcDb2dVertex
 10
111.8845859802703
 20
120.4001489701037
 30
0.0
  0
VERTEX
  5
90
330
8E
100
AcDbEntity
  8
Default
100
AcDbVertex
100
AcDb2dVertex
 10
114.6845859802702
 20
120.4001489701035
 30
0.0
  0
VERTEX
  5
91
330
8E
100
AcDbEntity
  8
Default
100
AcDbVertex
100
AcDb2dVertex
 10
114.6845859802698
 20
112.5001489701035
 30
0.0
  0
VERTEX
  5
92
330
8E
100
AcDbEntity
  8
Default
100
AcDbVertex
100
AcDb2dVertex
 10
111.8845859802697
 20
112.5001489701037
 30
0.0
  0
SEQEND
  5
93
330
8E
100
AcDbEntity
  8
Default
  0
CIRCLE
  5
94
330
1F
100
AcDbEntity
  8
Default
100
AcDbCircle
 10
-22.26080198035318
 20
109.7280876246434
 30
0.0
 40
0.950012048754375
  0
CIRCLE
  5
95
330
1F
100
AcDbEntity
  8
Default
100
AcDbCircle
 10
4.901752031145335
 20
109.6873870001932
 30
0.0
 40
0.9500120487542364
  0
POLYLINE
  5
96
330
1F
100
AcDbEntity
  8
Default
100
AcDb2dPolyline
 66
     1
 10
0.0
 20
0.0
 30
0.0
 70
     1
  0
VERTEX
  5
97
330
96
100
AcDbEntity
  8
Default
100
AcDbVertex
100
AcDb2dVertex
 10
50.78458826908654
 20
88.63114893756341
 30
0.0
  0
VERTEX
  5
98
330
96
100
AcDbEntity
  8
Default
100
AcDbVertex
100
AcDb2dVertex
 10
47.98458826908659
 20
88.63114893756351
 30
0.0
  0
VERTEX
  5
99
330
96
100
AcDbEntity
  8
Default
100
AcDbVertex
100
AcDb2dVertex
 10
47.98458826908715
 20
96.53114893756356
 30
0.0
  0
VERTEX
  5
9A
330
96
100
AcDbEntity
  8
Default
100
AcDbVertex
100
AcDb2dVertex
 10
50.78458826908711
 20
96.53114893756334
 30
0.0
  0
SEQEND
  5
9B
330
96
100
AcDbEntity
  8
Default
  0
POLYLINE
  5
9C
330
1F
100
AcDbEntity
  8
Default
100
AcDb2dPolyline
 66
     1
 10
0.0
 20
0.0
 30
0.0
 70
     1
  0
VERTEX
  5
9D
330
9C
100
AcDbEntity
  8
Default
100
AcDbVertex
100
AcDb2dVertex
 10
47.98458826908795
 20
112.5001489701077
 30
0.0
  0
VERTEX
  5
9E
330
9C
100
AcDbEntity
  8
Default
100
AcDbVertex
100
AcDb2dVertex
 10
47.98458826908852
 20
120.4001489701077
 30
0.0
  0
VERTEX
  5
9F
330
9C
100
AcDbEntity
  8
Default
100
AcDbVertex
100
AcDb2dVertex
 10
50.78458826908859
 20
120.4001489701076
 30
0.0
  0
VERTEX
  5
A0
330
9C
100
AcDbEntity
  8
Default
100
AcDbVertex
100
AcDb2dVertex
 10
50.78458826908813
 20
112.5001489701075
 30
0.0
  0
SEQEND
  5
A1
330
9C
100
AcDbEntity
  8
Default
  0
SPLINE
  5
A3
330
1F
100
AcDbEntity
  8
Make2D$visible$lines
100
AcDbSpline
210
0.0
220
0.0
230
1.0
 70
    28
 71
     2
 72
     6
 73
     3
 74
     0
 42
0.000000001
 43
0.0000000001
 40
-31.96363088217647
 40
-31.96363088217647
 40
-31.96363088217647
 40
-26.46424844311697
 40
-26.46424844311697
 40
-26.46424844311697
 10
13.37284843393779
 20
82.60319910517609
 30
0.0
 41
1.0
 10
13.38233989527662
 20
79.8535242671416
 30
0.0
 41
1.0
 10
13.39183135661521
 20
77.10384942910697
 30
0.0
 41
1.0
  0
LINE
  5
A4
330
1F
100
AcDbEntity
  8
Make2D$visible$lines
100
AcDbLine
 10
13.39183135661521
 20
77.10384942910697
 30
0.0
 11
13.40218684082872
 21
74.10386730183565
 31
0.0
  0
LINE
  5
A5
330
1F
100
AcDbEntity
  8
Make2D$visible$lines
100
AcDbLine
 10
13.40218684082872
 20
74.10386730183565
 30
0.0
 11
5.402234501438713
 21
74.07625267726624
 31
0.0
  0
LINE
  5
A6
330
1F
100
AcDbEntity
  8
Make2D$visible$lines
100
AcDbLine
 10
5.402234501438713
 20
74.07625267726624
 30
0.0
 11
5.391879017225321
 21
77.07623480453756
 31
0.0
  0
LINE
  5
A7
330
1F
100
AcDbEntity
  8
Make2D$visible$lines
100
AcDbLine
 10
5.391879017225321
 20
77.07623480453756
 30
0.0
 11
-20.0669850177912
 21
76.98835465944839
 31
0.0
  0
LINE
  5
A8
330
1F
100
AcDbEntity
  8
Make2D$visible$lines
100
AcDbLine
 10
-20.0669850177912
 20
76.98835465944839
 30
0.0
 11
-20.05662953357781
 21
73.98837253217731
 31
0.0
  0
LINE
  5
A9
330
1F
100
AcDbEntity
  8
Make2D$visible$lines
100
AcDbLine
 10
-20.05662953357781
 20
73.98837253217731
 30
0.0
 11
-28.05658187296758
 21
73.9607579076079
 31
0.0
  0
LINE
  5
AA
330
1F
100
AcDbEntity
  8
Make2D$visible$lines
100
AcDbLine
 10
-28.05658187296758
 20
73.9607579076079
 30
0.0
 11
-28.06693735718109
 21
76.96074003487911
 31
0.0
  0
LINE
  5
AB
330
1F
100
AcDbEntity
  8
Make2D$visible$lines
100
AcDbLine
 10
-28.06693735718109
 20
76.96074003487911
 30
0.0
 11
-28.0859202798584
 21
82.46008971094821
 31
0.0
  0
LINE
  5
AC
330
1F
100
AcDbEntity
  8
Make2D$visible$lines
100
AcDbLine
 10
-28.0859202798584
 20
82.46008971094821
 30
0.0
 11
-13.32134558193077
 21
105.3157460349943
 31
0.0
  0
ARC
  5
AD
330
1F
100
AcDbEntity
  8
Make2D$visible$lines
100
AcDbCircle
 10
-7.423848702062244
 20
102.0321457925865
 30
0.0
 40
6.750000000000009
100
AcDbArc
 50
29.50367691592631
 51
150.8918742297497
  0
LINE
  5
AE
330
1F
100
AcDbEntity
  8
Make2D$visible$lines
100
AcDbLine
 10
-1.549161072856194
 20
105.3563818340328
 30
0.0
 11
13.37284843393779
 21
82.60319910517609
 31
0.0
  0
LINE
  5
AF
330
1F
100
AcDbEntity
  8
Default
100
AcDbLine
 10
-8.82066204941664
 20
103.6088839372417
 30
0.0
 11
-5.820662125832953
 21
103.6082068120168
 31
0.0
  0
LINE
  5
B0
330
1F
100
AcDbEntity
  8
Default
100
AcDbLine
 10
-5.820662125832953
 20
103.6082068120168
 30
0.0
 11
-5.821339251057751
 21
100.6082068884333
 31
0.0
  0
LINE
  5
B1
330
1F
100
AcDbEntity
  8
Default
100
AcDbLine
 10
-5.821339251057751
 20
100.6082068884333
 30
0.0
 11
-8.821339174641324
 21
100.6088840136581
 31
0.0
  0
LINE
  5
B2
330
1F
100
AcDbEntity
  8
Default
100
AcDbLine
 10
-8.821339174641324
 20
100.6088840136581
 30
0.0
 11
-8.82066204941664
 21
103.6088839372417
 31
0.0
  0
POLYLINE
  5
B3
330
1F
100
AcDbEntity
  8
Default
100
AcDb2dPolyline
 66
     1
 10
0.0
 20
0.0
 30
0.0
 70
     1
  0
VERTEX
  5
B4
330
B3
100
AcDbEntity
  8
Default
100
AcDbVertex
100
AcDb2dVertex
 10
15.11011207030496
 20
121.718003087552
 30
0.0
  0
VERTEX
  5
B5
330
B3
100
AcDbEntity
  8
Default
100
AcDbVertex
100
AcDb2dVertex
 10
12.86641154122997
 20
119.4363791185711
 30
0.0
  0
VERTEX
  5
B6
330
B3
100
AcDbEntity
  8
Default
100
AcDbVertex
100
AcDb2dVertex
 10
20.13908794235662
 20
112.2845836821443
 30
0.0
  0
VERTEX
  5
B7
330
B3
100
AcDbEntity
  8
Default
100
AcDbVertex
100
AcDb2dVertex
 10
22.38278847143174
 20
114.5662076511252
 30
0.0
  0
SEQEND
  5
B8
330
B3
100
AcDbEntity
  8
Default
  0
POLYLINE
  5
B9
330
1F
100
AcDbEntity
  8
Default
100
AcDb2dPolyline
 66
     1
 10
0.0
 20
0.0
 30
0.0
 70
     1
  0
VERTEX
  5
BA
330
B9
100
AcDbEntity
  8
Default
100
AcDbVertex
100
AcDb2dVertex
 10
16.10017232850036
 20
132.7324234599689
 30
0.0
  0
VERTEX
  5
BB
330
B9
100
AcDbEntity
  8
Default
100
AcDbVertex
100
AcDb2dVertex
 10
12.90017232850043
 20
132.7324234599692
 30
0.0
  0
VERTEX
  5
BC
330
B9
100
AcDbEntity
  8
Default
100
AcDbVertex
100
AcDb2dVertex
 10
12.90017232849986
 20
122.5324234599691
 30
0.0
  0
VERTEX
  5
BD
330
B9
100
AcDbEntity
  8
Default
100
AcDbVertex
100
AcDb2dVertex
 10
16.1001723284998
 20
122.5324234599689
 30
0.0
  0
SEQEND
  5
BE
330
B9
100
AcDbEntity
  8
Default
  0
POLYLINE
  5
BF
330
1F
100
AcDbEntity
  8
Default
100
AcDb2dPolyline
 66
     1
 10
0.0
 20
0.0
 30
0.0
 70
     1
  0
VERTEX
  5
C0
330
BF
100
AcDbEntity
  8
Default
100
AcDbVertex
100
AcDb2dVertex
 10
23.44462453617864
 20
127.3858808182574
 30
0.0
  0
VERTEX
  5
C1
330
BF
100
AcDbEntity
  8
Default
100
AcDbVertex
100
AcDb2dVertex
 10
21.2710396486372
 20
125.1755575983071
 30
0.0
  0
VERTEX
  5
C2
330
BF
100
AcDbEntity
  8
Default
100
AcDbVertex
100
AcDb2dVertex
 10
23.48136286858748
 20
123.0019727107656
 30
0.0
  0
VERTEX
  5
C3
330
BF
100
AcDbEntity
  8
Default
100
AcDbVertex
100
AcDb2dVertex
 10
25.65494775612892
 20
125.212295930716
 30
0.0
  0
SEQEND
  5
C4
330
BF
100
AcDbEntity
  8
Default
  0
CIRCLE
  5
C5
330
1F
100
AcDbEntity
  8
Default
100
AcDbCircle
 10
23.46299370238312
 20
125.1939267645115
 30
0.0
 40
5.449999999999978
  0
LINE
  5
C6
330
1F
100
AcDbEntity
  8
Default
100
AcDbLine
 10
7.360084600648449
 20
134.6975865251639
 30
0.0
 11
7.364579823602227
 21
137.6975831573237
 31
0.0
  0
LINE
  5
C7
330
1F
100
AcDbEntity
  8
Default
100
AcDbLine
 10
7.364579823602227
 20
137.6975831573237
 30
0.0
 11
-0.6354111954909314
 21
137.7095704185341
 31
0.0
  0
LINE
  5
C8
330
1F
100
AcDbEntity
  8
Default
100
AcDbLine
 10
-0.6354111954909314
 20
137.7095704185341
 30
0.0
 11
-0.6399064184447099
 21
134.7095737863741
 31
0.0
  0
LINE
  5
C9
330
1F
100
AcDbEntity
  8
Default
100
AcDbLine
 10
-0.6399064184447099
 20
134.7095737863741
 30
0.0
 11
-16.50888863623705
 21
134.7333520174411
 31
0.0
  0
LINE
  5
CA
330
1F
100
AcDbEntity
  8
Default
100
AcDbLine
 10
-16.50888863623705
 20
134.7333520174411
 30
0.0
 11
-16.50439341328327
 21
137.733348649601
 31
0.0
  0
LINE
  5
CB
330
1F
100
AcDbEntity
  8
Default
100
AcDbLine
 10
-16.50439341328327
 20
137.733348649601
 30
0.0
 11
-24.50438443237631
 21
137.7453359108113
 31
0.0
  0
LINE
  5
CC
330
1F
100
AcDbEntity
  8
Default
100
AcDbLine
 10
-24.50438443237631
 20
137.7453359108113
 30
0.0
 11
-24.51117917492157
 21
134.6760582788523
 31
0.0
  0
LINE
  5
CD
330
1F
100
AcDbEntity
  8
Default
100
AcDbLine
 10
-24.51117917492157
 20
134.6760582788523
 30
0.0
 11
-28.45562239673048
 21
134.676061568915
 31
0.0
  0
LINE
  5
CE
330
1F
100
AcDbEntity
  8
Default
100
AcDbLine
 10
-28.45562239673048
 20
134.676061568915
 30
0.0
 11
-28.45562239673252
 21
103.6975458755016
 31
0.0
  0
LINE
  5
CF
330
1F
100
AcDbEntity
  8
Default
100
AcDbLine
 10
-28.45562239673252
 20
103.6975458755016
 30
0.0
 11
-19.84087528856055
 21
103.7383107833592
 31
0.0
  0
LINE
  5
D0
330
1F
100
AcDbEntity
  8
Default
100
AcDbLine
 10
-19.84087528856055
 20
103.7383107833592
 30
0.0
 11
-19.82289808644948
 21
115.7358348978758
 31
0.0
  0
LINE
  5
D1
330
1F
100
AcDbEntity
  8
Default
100
AcDbLine
 10
-19.82289808644948
 20
115.7358348978758
 30
0.0
 11
2.71904788189822
 21
115.7020578356433
 31
0.0
  0
LINE
  5
D2
330
1F
100
AcDbEntity
  8
Default
100
AcDbLine
 10
2.71904788189822
 20
115.7020578356433
 30
0.0
 11
2.701070679787151
 21
103.7045337211269
 31
0.0
  0
LINE
  5
D3
330
1F
100
AcDbEntity
  8
Default
100
AcDbLine
 10
2.701070679787151
 20
103.7045337211269
 30
0.0
 11
7.364579823602455
 21
103.6975458754993
 31
0.0
  0
LINE
  5
D4
330
1F
100
AcDbEntity
  8
Default
100
AcDbLine
 10
7.364579823602455
 20
103.6975458754993
 30
0.0
 11
11.30682734204667
 21
103.6975458754991
 31
0.0
  0
LINE
  5
D5
330
1F
100
AcDbEntity
  8
Default
100
AcDbLine
 10
11.30682734204667
 20
103.6975458754991
 30
0.0
 11
11.30682734204861
 21
134.6760615689125
 31
0.0
  0
LINE
  5
D6
330
1F
100
AcDbEntity
  8
Default
100
AcDbLine
 10
11.30682734204861
 20
134.6760615689125
 30
0.0
 11
7.364579823604387
 21
134.6760615689127
 31
0.0
  0
SPLINE
  5
D7
330
1F
100
AcDbEntity
  8
Make2D$visible$lines
100
AcDbSpline
210
0.0
220
0.0
230
1.0
 70
    28
 71
     2
 72
     6
 73
     3
 74
     0
 42
0.000000001
 43
0.0000000001
 40
-31.96363088217647
 40
-31.96363088217647
 40
-31.96363088217647
 40
-26.46424844311697
 40
-26.46424844311697
 40
-26.46424844311697
 10
334.922649336659
 20
410.3183307673983
 30
0.0
 41
1.0
 10
334.9274923165602
 20
407.5686438127969
 30
0.0
 41
1.0
 10
334.9323352964616
 20
404.8189568581956
 30
0.0
 41
1.0
  0
LINE
  5
D8
330
1F
100
AcDbEntity
  8
Make2D$visible$lines
100
AcDbLine
 10
334.9323352964616
 20
404.8189568581956
 30
0.0
 11
334.9376191405531
 21
401.8189615113673
 31
0.0
  0
LINE
  5
D9
330
1F
100
AcDbEntity
  8
Make2D$visible$lines
100
AcDbLine
 10
334.9376191405531
 20
401.8189615113673
 30
0.0
 11
326.9376315490109
 21
401.8048712604566
 31
0.0
  0
LINE
  5
DA
330
1F
100
AcDbEntity
  8
Make2D$visible$lines
100
AcDbLine
 10
326.9376315490109
 20
401.8048712604566
 30
0.0
 11
326.9323477049193
 21
404.8048666072849
 31
0.0
  0
LINE
  5
DB
330
1F
100
AcDbEntity
  8
Make2D$visible$lines
100
AcDbLine
 10
326.9323477049193
 20
404.8048666072849
 30
0.0
 11
301.4733714842655
 21
404.7600261173747
 31
0.0
  0
LINE
  5
DC
330
1F
100
AcDbEntity
  8
Make2D$visible$lines
100
AcDbLine
 10
301.4733714842655
 20
404.7600261173747
 30
0.0
 11
301.4786553283569
 21
401.7600307705463
 31
0.0
  0
LINE
  5
DD
330
1F
100
AcDbEntity
  8
Make2D$visible$lines
100
AcDbLine
 10
301.4786553283569
 20
401.7600307705463
 30
0.0
 11
293.4786677368147
 21
401.7459405196356
 31
0.0
  0
LINE
  5
DE
330
1F
100
AcDbEntity
  8
Make2D$visible$lines
100
AcDbLine
 10
293.4786677368147
 20
401.7459405196356
 30
0.0
 11
293.4733838927232
 21
404.7459358664638
 31
0.0
  0
LINE
  5
DF
330
1F
100
AcDbEntity
  8
Make2D$visible$lines
100
AcDbLine
 10
293.4733838927232
 20
404.7459358664638
 30
0.0
 11
293.4636979329206
 21
410.2453097756664
 31
0.0
  0
LINE
  5
E0
330
1F
100
AcDbEntity
  8
Make2D$visible$lines
100
AcDbLine
 10
293.4636979329206
 20
410.2453097756664
 30
0.0
 11
308.2668902045076
 21
433.0759731603345
 31
0.0
  0
ARC
  5
E1
330
1F
100
AcDbEntity
  8
Make2D$visible$lines
100
AcDbCircle
 10
314.1588275604962
 20
429.7824075858993
 30
0.0
 40
6.749999999999973
100
AcDbArc
 50
29.40681538394636
 51
150.7950126977698
  0
LINE
  5
E2
330
1F
100
AcDbEntity
  8
Make2D$visible$lines
100
AcDbLine
 10
320.0391265882465
 20
433.096707413048
 30
0.0
 11
334.922649336659
 21
410.3183307673983
 31
0.0
  0
SPLINE
  5
E3
330
1F
100
AcDbEntity
  8
Make2D$visible$lines
100
AcDbSpline
210
0.0
220
0.0
230
1.0
 70
    15
 71
     2
 72
    12
 73
     9
 74
     0
 42
0.000000001
 43
0.0000000001
 40
0.0
 40
0.0
 40
0.0
 40
5.497787143782138
 40
5.497787143782138
 40
10.99557428756428
 40
10.99557428756428
 40
16.49336143134641
 40
16.49336143134641
 40
21.99114857512855
 40
21.99114857512855
 40
21.99114857512855
 10
310.6588329891965
 20
429.7762431011257
 30
0.0
 41
1.0
 10
310.6649974739698
 20
426.276248529826
 30
0.0
 41
0.7071067811865476
 10
314.1649920452697
 20
426.2824130145995
 30
0.0
 41
1.0
 10
317.6649866165692
 20
426.288577499373
 30
0.0
 41
0.7071067811865476
 10
317.658822131796
 20
429.7885720706726
 30
0.0
 41
1.0
 10
317.6526576470223
 20
433.2885666419726
 30
0.0
 41
0.7071067811865476
 10
314.1526630757227
 20
433.2824021571988
 30
0.0
 41
1.0
 10
310.6526685044228
 20
433.2762376724255
 30
0.0
 41
0.7071067811865476
 10
310.6588329891965
 20
429.7762431011257
 30
0.0
 41
1.0
  0
CIRCLE
  5
E4
330
1F
100
AcDbEntity
  8
Default
100
AcDbCircle
 10
314.1901162906107
 20
412.0176811622229
 30
0.0
 40
1.9
  0
POLYLINE
  5
E5
330
1F
100
AcDbEntity
  8
Default
100
AcDb2dPolyline
 66
     1
 10
0.0
 20
0.0
 30
0.0
 70
     1
  0
VERTEX
  5
E6
330
E5
100
AcDbEntity
  8
Default
100
AcDbVertex
100
AcDb2dVertex
 10
198.1818432401474
 20
437.306246053213
 30
0.0
  0
VERTEX
  5
E7
330
E5
100
AcDbEntity
  8
Default
100
AcDbVertex
100
AcDb2dVertex
 10
195.3818475831076
 20
437.3013144653942
 30
0.0
  0
VERTEX
  5
E8
330
E5
100
AcDbEntity
  8
Default
100
AcDbVertex
100
AcDb2dVertex
 10
195.3681095884696
 20
445.101302367148
 30
0.0
  0
VERTEX
  5
E9
330
E5
100
AcDbEntity
  8
Default
100
AcDbVertex
100
AcDb2dVertex
 10
198.1681052455093
 20
445.1062339549666
 30
0.0
  0
SEQEND
  5
EA
330
E5
100
AcDbEntity
  8
Default
  0
POLYLINE
  5
EB
330
1F
100
AcDbEntity
  8
Default
100
AcDb2dPolyline
 66
     1
 10
0.0
 20
0.0
 30
0.0
 70
     1
  0
VERTEX
  5
EC
330
EB
100
AcDbEntity
  8
Default
100
AcDbVertex
100
AcDb2dVertex
 10
198.2407739809685
 20
403.847282241017
 30
0.0
  0
VERTEX
  5
ED
330
EB
100
AcDbEntity
  8
Default
100
AcDbVertex
100
AcDb2dVertex
 10
195.4407783239287
 20
403.8423506531983
 30
0.0
  0
VERTEX
  5
EE
330
EB
100
AcDbEntity
  8
Default
100
AcDbVertex
100
AcDb2dVertex
 10
195.4270403292907
 20
411.6423385549519
 30
0.0
  0
VERTEX
  5
EF
330
EB
100
AcDbEntity
  8
Default
100
AcDbVertex
100
AcDb2dVertex
 10
198.2270359863305
 20
411.6472701427705
 30
0.0
  0
SEQEND
  5
F0
330
EB
100
AcDbEntity
  8
Default
  0
POLYLINE
  5
F1
330
1F
100
AcDbEntity
  8
Default
100
AcDb2dPolyline
 66
     1
 10
0.0
 20
0.0
 30
0.0
 70
     1
  0
VERTEX
  5
F2
330
F1
100
AcDbEntity
  8
Default
100
AcDbVertex
100
AcDb2dVertex
 10
272.440657748115
 20
403.9779693161991
 30
0.0
  0
VERTEX
  5
F3
330
F1
100
AcDbEntity
  8
Default
100
AcDbVertex
100
AcDb2dVertex
 10
269.6406620910752
 20
403.9730377283803
 30
0.0
  0
VERTEX
  5
F4
330
F1
100
AcDbEntity
  8
Default
100
AcDbVertex
100
AcDb2dVertex
 10
269.6269240964372
 20
411.773025630134
 30
0.0
  0
VERTEX
  5
F5
330
F1
100
AcDbEntity
  8
Default
100
AcDbVertex
100
AcDb2dVertex
 10
272.4269197534769
 20
411.7779572179526
 30
0.0
  0
SEQEND
  5
F6
330
F1
100
AcDbEntity
  8
Default
  0
POLYLINE
  5
F7
330
1F
100
AcDbEntity
  8
Default
100
AcDb2dPolyline
 66
     1
 10
0.0
 20
0.0
 30
0.0
 70
     1
  0
VERTEX
  5
F8
330
F7
100
AcDbEntity
  8
Default
100
AcDbVertex
100
AcDb2dVertex
 10
272.3817270072939
 20
437.4369331283951
 30
0.0
  0
VERTEX
  5
F9
330
F7
100
AcDbEntity
  8
Default
100
AcDbVertex
100
AcDb2dVertex
 10
269.581731350254
 20
437.4320015405763
 30
0.0
  0
VERTEX
  5
FA
330
F7
100
AcDbEntity
  8
Default
100
AcDbVertex
100
AcDb2dVertex
 10
269.5679933556161
 20
445.2319894423301
 30
0.0
  0
VERTEX
  5
FB
330
F7
100
AcDbEntity
  8
Default
100
AcDbVertex
100
AcDb2dVertex
 10
272.3679890126559
 20
445.2369210301487
 30
0.0
  0
SEQEND
  5
FC
330
F7
100
AcDbEntity
  8
Default
  0
LINE
  5
FD
330
1F
100
AcDbEntity
  8
Default
100
AcDbLine
 10
182.5484948545262
 20
399.4491447549944
 30
0.0
 11
272.548355259376
 21
399.6076600777409
 31
0.0
  0
LINE
  5
FE
330
1F
100
AcDbEntity
  8
Default
100
AcDbLine
 10
272.548355259376
 20
399.6076600777409
 30
0.0
 11
297.5042844488495
 21
424.6516533354066
 31
0.0
  0
LINE
  5
FF
330
1F
100
AcDbEntity
  8
Default
100
AcDbLine
 10
297.5042844488495
 20
424.6516533354066
 30
0.0
 11
272.4602911911834
 21
449.6075825248797
 31
0.0
  0
LINE
  5
100
330
1F
100
AcDbEntity
  8
Default
100
AcDbLine
 10
272.4602911911834
 20
449.6075825248797
 30
0.0
 11
182.4604307863336
 21
449.4490672021331
 31
0.0
  0
LINE
  5
101
330
1F
100
AcDbEntity
  8
Default
100
AcDbLine
 10
182.4604307863336
 20
449.4490672021331
 30
0.0
 11
157.5045015968602
 21
424.4050739444676
 31
0.0
  0
LINE
  5
102
330
1F
100
AcDbEntity
  8
Default
100
AcDbLine
 10
157.5045015968602
 20
424.4050739444676
 30
0.0
 11
182.5484948545262
 21
399.4491447549944
 31
0.0
  0
CIRCLE
  5
103
330
1F
100
AcDbEntity
  8
Default
100
AcDbCircle
 10
315.5388344941339
 20
309.6941954595812
 30
0.0
 40
1.9
  0
CIRCLE
  5
104
330
1F
100
AcDbEntity
  8
Default
100
AcDbCircle
 10
328.8992844974687
 20
362.7269326532025
 30
0.0
 40
0.950012048754375
  0
CIRCLE
  5
105
330
1F
100
AcDbEntity
  8
Default
100
AcDbCircle
 10
301.7367009313945
 20
362.719792314347
 30
0.0
 40
0.9500120487542364
  0
SPLINE
  5
106
330
1F
100
AcDbEntity
  8
Make2D$visible$lines
100
AcDbSpline
210
0.0
220
0.0
230
1.0
 70
    28
 71
     2
 72
     6
 73
     3
 74
     0
 42
0.000000001
 43
0.0000000001
 40
-31.96363088217647
 40
-31.96363088217647
 40
-31.96363088217647
 40
-26.46424844311697
 40
-26.46424844311697
 40
-26.46424844311697
 10
293.217914792361
 20
389.7890182160127
 30
0.0
 41
1.0
 10
293.2035803946951
 20
392.5386720720102
 30
0.0
 41
1.0
 10
293.1892459970291
 20
395.2883259280078
 30
0.0
 41
1.0
  0
LINE
  5
107
330
1F
100
AcDbEntity
  8
Make2D$visible$lines
100
AcDbLine
 10
293.1892459970291
 20
395.2883259280078
 30
0.0
 11
293.1736067162647
 21
398.2882851632138
 31
0.0
  0
LINE
  5
108
330
1F
100
AcDbEntity
  8
Make2D$visible$lines
100
AcDbLine
 10
293.1736067162647
 20
398.2882851632138
 30
0.0
 11
301.1734980101472
 21
398.3299899119189
 31
0.0
  0
LINE
  5
109
330
1F
100
AcDbEntity
  8
Make2D$visible$lines
100
AcDbLine
 10
301.1734980101472
 20
398.3299899119189
 30
0.0
 11
301.1891372909116
 21
395.3300306767129
 31
0.0
  0
LINE
  5
10A
330
1F
100
AcDbEntity
  8
Make2D$visible$lines
100
AcDbLine
 10
301.1891372909116
 20
395.3300306767129
 30
0.0
 11
326.6478070561113
 21
395.4627509082662
 31
0.0
  0
LINE
  5
10B
330
1F
100
AcDbEntity
  8
Make2D$visible$lines
100
AcDbLine
 10
326.6478070561113
 20
395.4627509082662
 30
0.0
 11
326.6321677753469
 21
398.462710143472
 31
0.0
  0
LINE
  5
10C
330
1F
100
AcDbEntity
  8
Make2D$visible$lines
100
AcDbLine
 10
326.6321677753469
 20
398.462710143472
 30
0.0
 11
334.6320590692292
 21
398.5044148921771
 31
0.0
  0
LINE
  5
10D
330
1F
100
AcDbEntity
  8
Make2D$visible$lines
100
AcDbLine
 10
334.6320590692292
 20
398.5044148921771
 30
0.0
 11
334.6476983499937
 21
395.5044556569712
 31
0.0
  0
LINE
  5
10E
330
1F
100
AcDbEntity
  8
Make2D$visible$lines
100
AcDbLine
 10
334.6476983499937
 20
395.5044556569712
 30
0.0
 11
334.6763671453255
 21
390.0051479449761
 31
0.0
  0
LINE
  5
10F
330
1F
100
AcDbEntity
  8
Make2D$visible$lines
100
AcDbLine
 10
334.6763671453255
 20
390.0051479449761
 30
0.0
 11
319.9520705896417
 21
367.1235225010993
 31
0.0
  0
ARC
  5
110
330
1F
100
AcDbEntity
  8
Make2D$visible$lines
100
AcDbCircle
 10
314.0487995132149
 20
370.396730499107
 30
0.0
 40
6.750000000000009
100
AcDbArc
 50
209.6045909567882
 51
330.9927882706116
  0
LINE
  5
111
330
1F
100
AcDbEntity
  8
Make2D$visible$lines
100
AcDbLine
 10
308.1799759109744
 20
367.0621526359008
 30
0.0
 11
293.217914792361
 21
389.7890182160127
 31
0.0
  0
LINE
  5
112
330
1F
100
AcDbEntity
  8
Default
100
AcDbLine
 10
315.4483877735417
 20
368.8224549813805
 30
0.0
 11
312.4483913105216
 21
368.8178482615979
 31
0.0
  0
LINE
  5
113
330
1F
100
AcDbEntity
  8
Default
100
AcDbLine
 10
312.4483913105216
 20
368.8178482615979
 30
0.0
 11
312.443784590739
 21
371.8178447246179
 31
0.0
  0
LINE
  5
114
330
1F
100
AcDbEntity
  8
Default
100
AcDbLine
 10
312.443784590739
 20
371.8178447246179
 30
0.0
 11
315.443781053759
 21
371.8224514444005
 31
0.0
  0
LINE
  5
115
330
1F
100
AcDbEntity
  8
Default
100
AcDbLine
 10
315.443781053759
 20
371.8224514444005
 30
0.0
 11
315.4483877735417
 21
368.8224549813805
 31
0.0
  0
POLYLINE
  5
116
330
1F
100
AcDbEntity
  8
Default
100
AcDb2dPolyline
 66
     1
 10
0.0
 20
0.0
 30
0.0
 70
     1
  0
VERTEX
  5
117
330
116
100
AcDbEntity
  8
Default
100
AcDbVertex
100
AcDb2dVertex
 10
255.8168499006641
 20
383.6951851331572
 30
0.0
  0
VERTEX
  5
118
330
116
100
AcDbEntity
  8
Default
100
AcDbVertex
100
AcDb2dVertex
 10
258.6168455577038
 20
383.7001167209761
 30
0.0
  0
VERTEX
  5
119
330
116
100
AcDbEntity
  8
Default
100
AcDbVertex
100
AcDb2dVertex
 10
258.6307596804782
 20
375.8001289743281
 30
0.0
  0
VERTEX
  5
11A
330
116
100
AcDbEntity
  8
Default
100
AcDbVertex
100
AcDb2dVertex
 10
255.8307640234385
 20
375.7951973865094
 30
0.0
  0
SEQEND
  5
11B
330
116
100
AcDbEntity
  8
Default
  0
POLYLINE
  5
11C
330
1F
100
AcDbEntity
  8
Default
100
AcDb2dPolyline
 66
     1
 10
0.0
 20
0.0
 30
0.0
 70
     1
  0
VERTEX
  5
11D
330
11C
100
AcDbEntity
  8
Default
100
AcDbVertex
100
AcDb2dVertex
 10
191.9308654248098
 20
375.6826515113904
 30
0.0
  0
VERTEX
  5
11E
330
11C
100
AcDbEntity
  8
Default
100
AcDbVertex
100
AcDb2dVertex
 10
191.9169513020354
 20
383.5826392580385
 30
0.0
  0
VERTEX
  5
11F
330
11C
100
AcDbEntity
  8
Default
100
AcDbVertex
100
AcDb2dVertex
 10
194.7169469590752
 20
383.5875708458573
 30
0.0
  0
VERTEX
  5
120
330
11C
100
AcDbEntity
  8
Default
100
AcDbVertex
100
AcDb2dVertex
 10
194.7308610818496
 20
375.6875830992093
 30
0.0
  0
SEQEND
  5
121
330
11C
100
AcDbEntity
  8
Default
  0
POLYLINE
  5
122
330
1F
100
AcDbEntity
  8
Default
100
AcDb2dPolyline
 66
     1
 10
0.0
 20
0.0
 30
0.0
 70
     1
  0
VERTEX
  5
123
330
122
100
AcDbEntity
  8
Default
100
AcDbVertex
100
AcDb2dVertex
 10
194.7729011067807
 20
351.81862008885
 30
0.0
  0
VERTEX
  5
124
330
122
100
AcDbEntity
  8
Default
100
AcDbVertex
100
AcDb2dVertex
 10
191.9729054497409
 20
351.8136885010313
 30
0.0
  0
VERTEX
  5
125
330
122
100
AcDbEntity
  8
Default
100
AcDbVertex
100
AcDb2dVertex
 10
191.9589913269665
 20
359.7136762476792
 30
0.0
  0
VERTEX
  5
126
330
122
100
AcDbEntity
  8
Default
100
AcDbVertex
100
AcDb2dVertex
 10
194.7589869840063
 20
359.718607835498
 30
0.0
  0
SEQEND
  5
127
330
122
100
AcDbEntity
  8
Default
  0
POLYLINE
  5
128
330
1F
100
AcDbEntity
  8
Default
100
AcDb2dPolyline
 66
     1
 10
0.0
 20
0.0
 30
0.0
 70
     1
  0
VERTEX
  5
129
330
128
100
AcDbEntity
  8
Default
100
AcDbVertex
100
AcDb2dVertex
 10
197.751307127856
 20
335.6932002780237
 30
0.0
  0
VERTEX
  5
12A
330
128
100
AcDbEntity
  8
Default
100
AcDbVertex
100
AcDb2dVertex
 10
194.9513114708163
 20
335.6882686902049
 30
0.0
  0
VERTEX
  5
12B
330
128
100
AcDbEntity
  8
Default
100
AcDbVertex
100
AcDb2dVertex
 10
194.9375734761782
 20
343.4882565919587
 30
0.0
  0
VERTEX
  5
12C
330
128
100
AcDbEntity
  8
Default
100
AcDbVertex
100
AcDb2dVertex
 10
197.7375691332179
 20
343.4931881797773
 30
0.0
  0
SEQEND
  5
12D
330
128
100
AcDbEntity
  8
Default
  0
POLYLINE
  5
12E
330
1F
100
AcDbEntity
  8
Default
100
AcDb2dPolyline
 66
     1
 10
0.0
 20
0.0
 30
0.0
 70
     1
  0
VERTEX
  5
12F
330
12E
100
AcDbEntity
  8
Default
100
AcDbVertex
100
AcDb2dVertex
 10
197.8102378686771
 20
302.2342364658277
 30
0.0
  0
VERTEX
  5
130
330
12E
100
AcDbEntity
  8
Default
100
AcDbVertex
100
AcDb2dVertex
 10
195.0102422116373
 20
302.229304878009
 30
0.0
  0
VERTEX
  5
131
330
12E
100
AcDbEntity
  8
Default
100
AcDbVertex
100
AcDb2dVertex
 10
194.9965042169993
 20
310.0292927797626
 30
0.0
  0
VERTEX
  5
132
330
12E
100
AcDbEntity
  8
Default
100
AcDbVertex
100
AcDb2dVertex
 10
197.7964998740391
 20
310.0342243675813
 30
0.0
  0
SEQEND
  5
133
330
12E
100
AcDbEntity
  8
Default
  0
POLYLINE
  5
134
330
1F
100
AcDbEntity
  8
Default
100
AcDb2dPolyline
 66
     1
 10
0.0
 20
0.0
 30
0.0
 70
     1
  0
VERTEX
  5
135
330
134
100
AcDbEntity
  8
Default
100
AcDbVertex
100
AcDb2dVertex
 10
258.6588855826349
 20
359.8311537106168
 30
0.0
  0
VERTEX
  5
136
330
134
100
AcDbEntity
  8
Default
100
AcDbVertex
100
AcDb2dVertex
 10
258.6727997054093
 20
351.9311659639689
 30
0.0
  0
VERTEX
  5
137
330
134
100
AcDbEntity
  8
Default
100
AcDbVertex
100
AcDb2dVertex
 10
255.8728040483695
 20
351.9262343761501
 30
0.0
  0
VERTEX
  5
138
330
134
100
AcDbEntity
  8
Default
100
AcDbVertex
100
AcDb2dVertex
 10
255.8588899255951
 20
359.8262221227981
 30
0.0
  0
SEQEND
  5
139
330
134
100
AcDbEntity
  8
Default
  0
POLYLINE
  5
13A
330
1F
100
AcDbEntity
  8
Default
100
AcDb2dPolyline
 66
     1
 10
0.0
 20
0.0
 30
0.0
 70
     1
  0
VERTEX
  5
13B
330
13A
100
AcDbEntity
  8
Default
100
AcDbVertex
100
AcDb2dVertex
 10
272.0101216358236
 20
302.3649235410098
 30
0.0
  0
VERTEX
  5
13C
330
13A
100
AcDbEntity
  8
Default
100
AcDbVertex
100
AcDb2dVertex
 10
269.2101259787839
 20
302.3599919531911
 30
0.0
  0
VERTEX
  5
13D
330
13A
100
AcDbEntity
  8
Default
100
AcDbVertex
100
AcDb2dVertex
 10
269.1963879841458
 20
310.1599798549447
 30
0.0
  0
VERTEX
  5
13E
330
13A
100
AcDbEntity
  8
Default
100
AcDbVertex
100
AcDb2dVertex
 10
271.9963836411856
 20
310.1649114427634
 30
0.0
  0
SEQEND
  5
13F
330
13A
100
AcDbEntity
  8
Default
  0
POLYLINE
  5
140
330
1F
100
AcDbEntity
  8
Default
100
AcDb2dPolyline
 66
     1
 10
0.0
 20
0.0
 30
0.0
 70
     1
  0
VERTEX
  5
141
330
140
100
AcDbEntity
  8
Default
100
AcDbVertex
100
AcDb2dVertex
 10
291.5495460258965
 20
350.6712150928691
 30
0.0
  0
VERTEX
  5
142
330
140
100
AcDbEntity
  8
Default
100
AcDbVertex
100
AcDb2dVertex
 10
293.7892244930876
 20
352.9567873108488
 30
0.0
  0
VERTEX
  5
143
330
140
100
AcDbEntity
  8
Default
100
AcDbVertex
100
AcDb2dVertex
 10
286.5039630482775
 20
360.0957624250204
 30
0.0
  0
VERTEX
  5
144
330
140
100
AcDbEntity
  8
Default
100
AcDbVertex
100
AcDb2dVertex
 10
284.2642845810863
 20
357.8101902070408
 30
0.0
  0
SEQEND
  5
145
330
140
100
AcDbEntity
  8
Default
  0
POLYLINE
  5
146
330
1F
100
AcDbEntity
  8
Default
100
AcDb2dPolyline
 66
     1
 10
0.0
 20
0.0
 30
0.0
 70
     1
  0
VERTEX
  5
147
330
146
100
AcDbEntity
  8
Default
100
AcDbVertex
100
AcDb2dVertex
 10
290.5788867966774
 20
339.6550680297665
 30
0.0
  0
VERTEX
  5
148
330
146
100
AcDbEntity
  8
Default
100
AcDbVertex
100
AcDb2dVertex
 10
293.7788818332943
 20
339.6607041301309
 30
0.0
  0
VERTEX
  5
149
330
146
100
AcDbEntity
  8
Default
100
AcDbVertex
100
AcDb2dVertex
 10
293.7609167633829
 20
349.8606883093472
 30
0.0
  0
VERTEX
  5
14A
330
146
100
AcDbEntity
  8
Default
100
AcDbVertex
100
AcDb2dVertex
 10
290.5609217267661
 20
349.8550522089829
 30
0.0
  0
SEQEND
  5
14B
330
146
100
AcDbEntity
  8
Default
  0
POLYLINE
  5
14C
330
1F
100
AcDbEntity
  8
Default
100
AcDb2dPolyline
 66
     1
 10
0.0
 20
0.0
 30
0.0
 70
     1
  0
VERTEX
  5
14D
330
14C
100
AcDbEntity
  8
Default
100
AcDbVertex
100
AcDb2dVertex
 10
283.2250292147486
 20
344.988666731883
 30
0.0
  0
VERTEX
  5
14E
330
14C
100
AcDbEntity
  8
Default
100
AcDbVertex
100
AcDb2dVertex
 10
285.39471772984
 20
347.2028148180508
 30
0.0
  0
VERTEX
  5
14F
330
14C
100
AcDbEntity
  8
Default
100
AcDbVertex
100
AcDb2dVertex
 10
283.1805696436722
 20
349.3725033331422
 30
0.0
  0
VERTEX
  5
150
330
14C
100
AcDbEntity
  8
Default
100
AcDbVertex
100
AcDb2dVertex
 10
281.0108811285808
 20
347.1583552469743
 30
0.0
  0
SEQEND
  5
151
330
14C
100
AcDbEntity
  8
Default
  0
SPLINE
  5
152
330
1F
100
AcDbEntity
  8
Default
100
AcDbSpline
210
0.0
220
0.0
230
1.0
 70
    15
 71
     2
 72
    12
 73
     9
 74
     0
 42
0.000000001
 43
0.0000000001
 40
0.0
 40
0.0
 40
0.0
 40
3.926990816987241
 40
3.926990816987241
 40
7.853981633974483
 40
7.853981633974483
 40
11.78097245096172
 40
11.78097245096172
 40
15.70796326794897
 40
15.70796326794897
 40
15.70796326794897
 10
169.8506741160858
 20
345.2159176787643
 30
0.0
 41
1.0
 10
166.001226750601
 20
341.2875904291118
 30
0.0
 41
0.7071067811865476
 10
162.0728995009486
 20
345.1370377945965
 30
0.0
 41
1.0
 10
158.1445722512959
 20
348.9864851600813
 30
0.0
 41
0.7071067811865476
 10
161.9940196167807
 20
352.9148124097337
 30
0.0
 41
1.0
 10
165.8434669822653
 20
356.8431396593864
 30
0.0
 41
0.7071067811865476
 10
169.7717942319181
 20
352.9936922939015
 30
0.0
 41
1.0
 10
173.7001214815704
 20
349.1442449284169
 30
0.0
 41
0.7071067811865476
 10
169.8506741160858
 20
345.2159176787643
 30
0.0
 41
1.0
  0
LINE
  5
153
330
1F
100
AcDbEntity
  8
Default
100
AcDbLine
 10
295.186933477746
 20
329.5181985914594
 30
0.0
 11
297.2866320407377
 21
331.6609225458153
 31
0.0
  0
LINE
  5
154
330
1F
100
AcDbEntity
  8
Default
100
AcDbLine
 10
297.2866320407377
 20
331.6609225458153
 30
0.0
 11
290.1442188595512
 21
338.6599177557875
 31
0.0
  0
LINE
  5
155
330
1F
100
AcDbEntity
  8
Default
100
AcDbLine
 10
290.1442188595512
 20
338.6599177557875
 30
0.0
 11
288.0445202965596
 21
336.5171938014317
 31
0.0
  0
LINE
  5
156
330
1F
100
AcDbEntity
  8
Default
100
AcDbLine
 10
288.0445202965596
 20
336.5171938014317
 30
0.0
 11
295.186933477746
 21
329.5181985914594
 31
0.0
  0
SPLINE
  5
157
330
1F
100
AcDbEntity
  8
Default
100
AcDbSpline
210
0.0
220
0.0
230
1.0
 70
    12
 71
     2
 72
     6
 73
     3
 74
     0
 42
0.000000001
 43
0.0000000001
 40
491.8200833381188
 40
491.8200833381188
 40
491.8200833381188
 40
496.5324723185036
 40
496.5324723185036
 40
496.5324723185036
 10
177.7842689243776
 20
345.8421484714557
 30
0.0
 41
1.0
 10
179.8839674873693
 20
347.9848724258117
 30
0.0
 41
0.7071067811865471
 10
177.7412435330133
 20
350.0845709888033
 30
0.0
 41
1.0
  0
LINE
  5
158
330
1F
100
AcDbEntity
  8
Default
100
AcDbLine
 10
177.7412435330133
 20
350.0845709888033
 30
0.0
 11
159.7098720827049
 21
367.7538767554259
 31
0.0
  0
LINE
  5
159
330
1F
100
AcDbEntity
  8
Default
100
AcDbLine
 10
159.7098720827049
 20
367.7538767554259
 30
0.0
 11
160.4526855542233
 21
367.0259788031267
 31
0.0
  0
LINE
  5
15A
330
1F
100
AcDbEntity
  8
Default
100
AcDbLine
 10
160.4526855542233
 20
367.0259788031267
 30
0.0
 11
159.2645348513578
 21
368.190271720258
 31
0.0
  0
ARC
  5
15B
330
1F
100
AcDbEntity
  8
Default
100
AcDbCircle
 10
157.164836288366
 20
366.0475477659021
 30
0.0
 40
3.000000000000043
100
AcDbArc
 50
45.58105688776604
 51
135.5810568877649
  0
SPLINE
  5
15C
330
1F
100
AcDbEntity
  8
Default
100
AcDbSpline
210
0.0
220
0.0
230
1.0
 70
    12
 71
     2
 72
    10
 73
     7
 74
     0
 42
0.000000001
 43
0.0000000001
 40
542.0716919151952
 40
542.0716919151952
 40
542.0716919151952
 40
552.3176916206288
 40
552.3176916206288
 40
572.3754990065291
 40
572.3754990065291
 40
575.6148097366913
 40
575.6148097366913
 40
575.6148097366913
 10
155.0221123340102
 20
368.1472463288939
 30
0.0
 41
1.0
 10
150.8235769302268
 20
363.8626778001236
 30
0.0
 41
1.0
 10
146.6250415264434
 20
359.5781092713534
 30
0.0
 41
1.0
 10
139.9933285043014
 20
352.7741091749712
 30
0.0
 41
1.0
 10
133.3616154821595
 20
345.970109078589
 30
0.0
 41
1.0
 10
132.3117664509672
 20
344.8987473568436
 30
0.0
 41
1.0
 10
131.2619169191678
 20
343.827385124233
 30
0.0
 41
1.0
  0
LINE
  5
15D
330
1F
100
AcDbEntity
  8
Default
100
AcDbLine
 10
131.2619169191678
 20
343.827385124233
 30
0.0
 11
136.975847464117
 21
338.2281889562553
 31
0.0
  0
LINE
  5
15E
330
1F
100
AcDbEntity
  8
Default
100
AcDbLine
 10
136.975847464117
 20
338.2281889562553
 30
0.0
 11
139.0755460271087
 21
340.3709129106113
 31
0.0
  0
LINE
  5
15F
330
1F
100
AcDbEntity
  8
Default
100
AcDbLine
 10
139.0755460271087
 20
340.3709129106113
 30
0.0
 11
150.4098415275778
 21
329.2642073891286
 31
0.0
  0
LINE
  5
160
330
1F
100
AcDbEntity
  8
Default
100
AcDbLine
 10
150.4098415275778
 20
329.2642073891286
 30
0.0
 11
148.3101429645862
 21
327.1214834347728
 31
0.0
  0
LINE
  5
161
330
1F
100
AcDbEntity
  8
Default
100
AcDbLine
 10
148.3101429645862
 20
327.1214834347728
 30
0.0
 11
154.0240735095354
 21
321.5222872667949
 31
0.0
  0
LINE
  5
162
330
1F
100
AcDbEntity
  8
Default
100
AcDbLine
 10
154.0240735095354
 20
321.5222872667949
 30
0.0
 11
156.123772072527
 21
323.665011221151
 31
0.0
  0
LINE
  5
163
330
1F
100
AcDbEntity
  8
Default
100
AcDbLine
 10
156.123772072527
 20
323.665011221151
 30
0.0
 11
169.3871981168109
 21
337.2730114139154
 31
0.0
  0
LINE
  5
164
330
1F
100
AcDbEntity
  8
Default
100
AcDbLine
 10
169.3871981168109
 20
337.2730114139154
 30
0.0
 11
177.7842689243776
 21
345.8421484714557
 31
0.0
  0
LINE
  5
165
330
1F
100
AcDbEntity
  8
Default
100
AcDbLine
 10
156.9859014163762
 20
372.791950616417
 30
0.0
 11
182.0298946740422
 21
347.8360214269438
 31
0.0
  0
LINE
  5
166
330
1F
100
AcDbEntity
  8
Default
100
AcDbLine
 10
182.0298946740422
 20
347.8360214269438
 30
0.0
 11
272.029755078892
 21
347.9945367496904
 31
0.0
  0
LINE
  5
167
330
1F
100
AcDbEntity
  8
Default
100
AcDbLine
 10
272.029755078892
 20
347.9945367496904
 30
0.0
 11
296.9856842683656
 21
373.0385300073561
 31
0.0
  0
LINE
  5
168
330
1F
100
AcDbEntity
  8
Default
100
AcDbLine
 10
296.9856842683656
 20
373.0385300073561
 30
0.0
 11
271.9416910106995
 21
397.9944591968292
 31
0.0
  0
LINE
  5
169
330
1F
100
AcDbEntity
  8
Default
100
AcDbLine
 10
271.9416910106995
 20
397.9944591968292
 30
0.0
 11
181.9418306058497
 21
397.8359438740827
 31
0.0
  0
LINE
  5
16A
330
1F
100
AcDbEntity
  8
Default
100
AcDbLine
 10
181.9418306058497
 20
397.8359438740827
 30
0.0
 11
156.9859014163762
 21
372.791950616417
 31
0.0
  0
LINE
  5
16B
330
1F
100
AcDbEntity
  8
Default
100
AcDbLine
 10
182.1179587422348
 20
297.8360989798051
 30
0.0
 11
272.1178191470846
 21
297.9946143025517
 31
0.0
  0
LINE
  5
16C
330
1F
100
AcDbEntity
  8
Default
100
AcDbLine
 10
272.1178191470846
 20
297.9946143025517
 30
0.0
 11
297.0737483365581
 21
323.0386075602173
 31
0.0
  0
LINE
  5
16D
330
1F
100
AcDbEntity
  8
Default
100
AcDbLine
 10
297.0737483365581
 20
323.0386075602173
 30
0.0
 11
272.029755078892
 21
347.9945367496904
 31
0.0
  0
LINE
  5
16E
330
1F
100
AcDbEntity
  8
Default
100
AcDbLine
 10
272.029755078892
 20
347.9945367496904
 30
0.0
 11
182.0298946740423
 21
347.8360214269438
 31
0.0
  0
LINE
  5
16F
330
1F
100
AcDbEntity
  8
Default
100
AcDbLine
 10
182.0298946740423
 20
347.8360214269438
 30
0.0
 11
157.0739654845688
 21
322.7920281692783
 31
0.0
  0
LINE
  5
170
330
1F
100
AcDbEntity
  8
Default
100
AcDbLine
 10
157.0739654845688
 20
322.7920281692783
 30
0.0
 11
182.1179587422348
 21
297.8360989798051
 31
0.0
  0
CIRCLE
  5
171
330
1F
100
AcDbEntity
  8
Default
100
AcDbCircle
 10
283.2027994292103
 20
347.1805850325126
 30
0.0
 40
5.449999999999978
  0
SPLINE
  5
172
330
1F
100
AcDbEntity
  8
Make2D$visible$lines
100
AcDbSpline
210
0.0
220
0.0
230
1.0
 70
    15
 71
     2
 72
    12
 73
     9
 74
     0
 42
0.000000001
 43
0.0000000001
 40
0.0
 40
0.0
 40
0.0
 40
5.497787143782138
 40
5.497787143782138
 40
10.99557428756428
 40
10.99557428756428
 40
16.49336143134641
 40
16.49336143134641
 40
21.99114857512855
 40
21.99114857512855
 40
21.99114857512855
 10
312.0075511927197
 20
327.4527573984841
 30
0.0
 41
1.0
 10
312.013715677493
 20
323.9527628271844
 30
0.0
 41
0.7071067811865476
 10
315.513710248793
 20
323.9589273119578
 30
0.0
 41
1.0
 10
319.0137048200924
 20
323.9650917967313
 30
0.0
 41
0.7071067811865476
 10
319.0075403353192
 20
327.4650863680309
 30
0.0
 41
1.0
 10
319.0013758505455
 20
330.9650809393308
 30
0.0
 41
0.7071067811865476
 10
315.5013812792459
 20
330.9589164545572
 30
0.0
 41
1.0
 10
312.001386707946
 20
330.9527519697838
 30
0.0
 41
0.7071067811865476
 10
312.0075511927197
 20
327.4527573984841
 30
0.0
 41
1.0
  0
SPLINE
  5
173
330
1F
100
AcDbEntity
  8
Make2D$visible$lines
100
AcDbSpline
210
0.0
220
0.0
230
1.0
 70
    28
 71
     2
 72
     6
 73
     3
 74
     0
 42
0.000000001
 43
0.0000000001
 40
-31.96363088217647
 40
-31.96363088217647
 40
-31.96363088217647
 40
-26.46424844311697
 40
-26.46424844311697
 40
-26.46424844311697
 10
336.2713675401822
 20
307.9948450647566
 30
0.0
 41
1.0
 10
336.2762105200835
 20
305.2451581101553
 30
0.0
 41
1.0
 10
336.2810534999848
 20
302.495471155554
 30
0.0
 41
1.0
  0
LINE
  5
174
330
1F
100
AcDbEntity
  8
Make2D$visible$lines
100
AcDbLine
 10
336.2810534999848
 20
302.495471155554
 30
0.0
 11
336.2863373440763
 21
299.4954758087257
 31
0.0
  0
LINE
  5
175
330
1F
100
AcDbEntity
  8
Make2D$visible$lines
100
AcDbLine
 10
336.2863373440763
 20
299.4954758087257
 30
0.0
 11
328.2863497525341
 21
299.481385557815
 31
0.0
  0
LINE
  5
176
330
1F
100
AcDbEntity
  8
Make2D$visible$lines
100
AcDbLine
 10
328.2863497525341
 20
299.481385557815
 30
0.0
 11
328.2810659084425
 21
302.4813809046433
 31
0.0
  0
LINE
  5
177
330
1F
100
AcDbEntity
  8
Make2D$visible$lines
100
AcDbLine
 10
328.2810659084425
 20
302.4813809046433
 30
0.0
 11
302.8220896877887
 21
302.436540414733
 31
0.0
  0
LINE
  5
178
330
1F
100
AcDbEntity
  8
Make2D$visible$lines
100
AcDbLine
 10
302.8220896877887
 20
302.436540414733
 30
0.0
 11
302.8273735318801
 21
299.4365450679047
 31
0.0
  0
LINE
  5
179
330
1F
100
AcDbEntity
  8
Make2D$visible$lines
100
AcDbLine
 10
302.8273735318801
 20
299.4365450679047
 30
0.0
 11
294.8273859403379
 21
299.422454816994
 31
0.0
  0
LINE
  5
17A
330
1F
100
AcDbEntity
  8
Make2D$visible$lines
100
AcDbLine
 10
294.8273859403379
 20
299.422454816994
 30
0.0
 11
294.8221020962464
 21
302.4224501638222
 31
0.0
  0
LINE
  5
17B
330
1F
100
AcDbEntity
  8
Make2D$visible$lines
100
AcDbLine
 10
294.8221020962464
 20
302.4224501638222
 30
0.0
 11
294.8124161364438
 21
307.9218240730248
 31
0.0
  0
LINE
  5
17C
330
1F
100
AcDbEntity
  8
Make2D$visible$lines
100
AcDbLine
 10
294.8124161364438
 20
307.9218240730248
 30
0.0
 11
309.6156084080308
 21
330.7524874576928
 31
0.0
  0
ARC
  5
17D
330
1F
100
AcDbEntity
  8
Make2D$visible$lines
100
AcDbCircle
 10
315.5075457640194
 20
327.4589218832576
 30
0.0
 40
6.749999999999973
100
AcDbArc
 50
29.40681538394636
 51
150.7950126977698
  0
LINE
  5
17E
330
1F
100
AcDbEntity
  8
Make2D$visible$lines
100
AcDbLine
 10
321.3878447917697
 20
330.7732217104063
 30
0.0
 11
336.2713675401822
 21
307.9948450647566
 31
0.0
  0
LINE
  5
17F
330
1F
100
AcDbEntity
  8
Default
100
AcDbLine
 10
299.322422173237
 20
337.705301766286
 30
0.0
 11
299.3232107954156
 21
334.7053018699402
 31
0.0
  0
LINE
  5
180
330
1F
100
AcDbEntity
  8
Default
100
AcDbLine
 10
299.3232107954156
 20
334.7053018699402
 30
0.0
 11
307.3232105190046
 21
334.7074048624162
 31
0.0
  0
LINE
  5
181
330
1F
100
AcDbEntity
  8
Default
100
AcDbLine
 10
307.3232105190046
 20
334.7074048624162
 30
0.0
 11
307.322421896826
 21
337.7074047587621
 31
0.0
  0
LINE
  5
182
330
1F
100
AcDbEntity
  8
Default
100
AcDbLine
 10
307.322421896826
 20
337.7074047587621
 30
0.0
 11
323.1914213810741
 21
337.711576307221
 31
0.0
  0
LINE
  5
183
330
1F
100
AcDbEntity
  8
Default
100
AcDbLine
 10
323.1914213810741
 20
337.711576307221
 30
0.0
 11
323.1922100032527
 21
334.7115764108752
 31
0.0
  0
LINE
  5
184
330
1F
100
AcDbEntity
  8
Default
100
AcDbLine
 10
323.1922100032527
 20
334.7115764108752
 30
0.0
 11
331.1922097268417
 21
334.7136794033512
 31
0.0
  0
LINE
  5
185
330
1F
100
AcDbEntity
  8
Default
100
AcDbLine
 10
331.1922097268417
 20
334.7136794033512
 30
0.0
 11
331.193598597354
 21
337.7829642421384
 31
0.0
  0
LINE
  5
186
330
1F
100
AcDbEntity
  8
Default
100
AcDbLine
 10
331.193598597354
 20
337.7829642421384
 30
0.0
 11
335.1380357069006
 21
337.7899082264183
 31
0.0
  0
LINE
  5
187
330
1F
100
AcDbEntity
  8
Default
100
AcDbLine
 10
335.1380357069006
 20
337.7899082264183
 30
0.0
 11
335.08347382453
 21
368.7683758703812
 31
0.0
  0
LINE
  5
188
330
1F
100
AcDbEntity
  8
Default
100
AcDbLine
 10
335.08347382453
 20
368.7683758703812
 30
0.0
 11
326.4688118767963
 21
368.7124380322158
 31
0.0
  0
LINE
  5
189
330
1F
100
AcDbEntity
  8
Default
100
AcDbLine
 10
326.4688118767963
 20
368.7124380322158
 30
0.0
 11
326.4719657182049
 21
356.7149008636346
 31
0.0
  0
LINE
  5
18A
330
1F
100
AcDbEntity
  8
Default
100
AcDbLine
 10
326.4719657182049
 20
356.7149008636346
 30
0.0
 11
303.9299952227951
 21
356.7089751641365
 31
0.0
  0
LINE
  5
18B
330
1F
100
AcDbEntity
  8
Default
100
AcDbLine
 10
303.9299952227951
 20
356.7089751641365
 30
0.0
 11
303.9268413813865
 21
368.7065123327176
 31
0.0
  0
LINE
  5
18C
330
1F
100
AcDbEntity
  8
Default
100
AcDbLine
 10
303.9268413813865
 20
368.7065123327176
 30
0.0
 11
299.2633271633785
 21
368.7052864157612
 31
0.0
  0
LINE
  5
18D
330
1F
100
AcDbEntity
  8
Default
100
AcDbLine
 10
299.2633271633785
 20
368.7052864157612
 30
0.0
 11
295.3210857595857
 21
368.6983430086752
 31
0.0
  0
LINE
  5
18E
330
1F
100
AcDbEntity
  8
Default
100
AcDbLine
 10
295.3210857595857
 20
368.6983430086752
 30
0.0
 11
295.3756476419563
 21
337.7198753647124
 31
0.0
  0
LINE
  5
18F
330
1F
100
AcDbEntity
  8
Default
100
AcDbLine
 10
295.3756476419563
 20
337.7198753647124
 30
0.0
 11
299.317889045749
 21
337.7268187717983
 31
0.0
  0
POLYLINE
  5
190
330
1F
100
AcDbEntity
  8
Default
100
AcDb2dPolyline
 66
     1
 10
0.0
 20
0.0
 30
0.0
 70
     1
  0
VERTEX
  5
191
330
190
100
AcDbEntity
  8
Default
100
AcDbVertex
100
AcDb2dVertex
 10
271.9511908950025
 20
335.8238873532058
 30
0.0
  0
VERTEX
  5
192
330
190
100
AcDbEntity
  8
Default
100
AcDbVertex
100
AcDb2dVertex
 10
269.1511952379627
 20
335.818955765387
 30
0.0
  0
VERTEX
  5
193
330
190
100
AcDbEntity
  8
Default
100
AcDbVertex
100
AcDb2dVertex
 10
269.1374572433247
 20
343.6189436671408
 30
0.0
  0
VERTEX
  5
194
330
190
100
AcDbEntity
  8
Default
100
AcDbVertex
100
AcDb2dVertex
 10
271.9374529003645
 20
343.6238752549594
 30
0.0
  0
SEQEND
  5
195
330
190
100
AcDbEntity
  8
Default
  0
POLYLINE
  5
196
330
1F
100
AcDbEntity
  8
Default
100
AcDb2dPolyline
 66
     1
 10
0.0
 20
0.0
 30
0.0
 70
     1
  0
VERTEX
  5
197
330
196
100
AcDbEntity
  8
Default
100
AcDbVertex
100
AcDb2dVertex
 10
272.1273190313876
 20
235.8240424589283
 30
0.0
  0
VERTEX
  5
198
330
196
100
AcDbEntity
  8
Default
100
AcDbVertex
100
AcDb2dVertex
 10
269.3273233743478
 20
235.8191108711095
 30
0.0
  0
VERTEX
  5
199
330
196
100
AcDbEntity
  8
Default
100
AcDbVertex
100
AcDb2dVertex
 10
269.3135853797098
 20
243.6190987728633
 30
0.0
  0
VERTEX
  5
19A
330
196
100
AcDbEntity
  8
Default
100
AcDbVertex
100
AcDb2dVertex
 10
272.1135810367496
 20
243.624030360682
 30
0.0
  0
SEQEND
  5
19B
330
196
100
AcDbEntity
  8
Default
  0
LINE
  5
19C
330
1F
100
AcDbEntity
  8
Default
100
AcDbLine
 10
299.4985503096223
 20
237.7054568720084
 30
0.0
 11
299.4993389318007
 21
234.7054569756626
 31
0.0
  0
LINE
  5
19D
330
1F
100
AcDbEntity
  8
Default
100
AcDbLine
 10
299.4993389318007
 20
234.7054569756626
 30
0.0
 11
307.4993386553897
 21
234.7075599681386
 31
0.0
  0
LINE
  5
19E
330
1F
100
AcDbEntity
  8
Default
100
AcDbLine
 10
307.4993386553897
 20
234.7075599681386
 30
0.0
 11
307.4985500332111
 21
237.7075598644846
 31
0.0
  0
LINE
  5
19F
330
1F
100
AcDbEntity
  8
Default
100
AcDbLine
 10
307.4985500332111
 20
237.7075598644846
 30
0.0
 11
323.3675495174593
 21
237.7117314129434
 31
0.0
  0
LINE
  5
1A0
330
1F
100
AcDbEntity
  8
Default
100
AcDbLine
 10
323.3675495174593
 20
237.7117314129434
 30
0.0
 11
323.3683381396378
 21
234.7117315165976
 31
0.0
  0
LINE
  5
1A1
330
1F
100
AcDbEntity
  8
Default
100
AcDbLine
 10
323.3683381396378
 20
234.7117315165976
 30
0.0
 11
331.3683378632268
 21
234.7138345090736
 31
0.0
  0
LINE
  5
1A2
330
1F
100
AcDbEntity
  8
Default
100
AcDbLine
 10
331.3683378632268
 20
234.7138345090736
 30
0.0
 11
331.3697267337391
 21
237.7831193478609
 31
0.0
  0
LINE
  5
1A3
330
1F
100
AcDbEntity
  8
Default
100
AcDbLine
 10
331.3697267337391
 20
237.7831193478609
 30
0.0
 11
335.3141638432857
 21
237.7900633321408
 31
0.0
  0
LINE
  5
1A4
330
1F
100
AcDbEntity
  8
Default
100
AcDbLine
 10
335.3141638432857
 20
237.7900633321408
 30
0.0
 11
335.2596019609151
 21
268.7685309761036
 31
0.0
  0
LINE
  5
1A5
330
1F
100
AcDbEntity
  8
Default
100
AcDbLine
 10
335.2596019609151
 20
268.7685309761036
 30
0.0
 11
326.6449400131814
 21
268.7125931379383
 31
0.0
  0
LINE
  5
1A6
330
1F
100
AcDbEntity
  8
Default
100
AcDbLine
 10
326.6449400131814
 20
268.7125931379383
 30
0.0
 11
326.64809385459
 21
256.7150559693571
 31
0.0
  0
LINE
  5
1A7
330
1F
100
AcDbEntity
  8
Default
100
AcDbLine
 10
326.64809385459
 20
256.7150559693571
 30
0.0
 11
304.1061233591802
 21
256.709130269859
 31
0.0
  0
LINE
  5
1A8
330
1F
100
AcDbEntity
  8
Default
100
AcDbLine
 10
304.1061233591802
 20
256.709130269859
 30
0.0
 11
304.1029695177716
 21
268.70666743844
 31
0.0
  0
LINE
  5
1A9
330
1F
100
AcDbEntity
  8
Default
100
AcDbLine
 10
304.1029695177716
 20
268.70666743844
 30
0.0
 11
299.4394552997636
 21
268.7054415214836
 31
0.0
  0
LINE
  5
1AA
330
1F
100
AcDbEntity
  8
Default
100
AcDbLine
 10
299.4394552997636
 20
268.7054415214836
 30
0.0
 11
295.4972138959708
 21
268.6984981143977
 31
0.0
  0
LINE
  5
1AB
330
1F
100
AcDbEntity
  8
Default
100
AcDbLine
 10
295.4972138959708
 20
268.6984981143977
 30
0.0
 11
295.5517757783414
 21
237.7200304704349
 31
0.0
  0
LINE
  5
1AC
330
1F
100
AcDbEntity
  8
Default
100
AcDbLine
 10
295.5517757783414
 20
237.7200304704349
 30
0.0
 11
299.4940171821341
 21
237.7269738775208
 31
0.0
  0
SPLINE
  5
1AD
330
1F
100
AcDbEntity
  8
Make2D$visible$lines
100
AcDbSpline
210
0.0
220
0.0
230
1.0
 70
    28
 71
     2
 72
     6
 73
     3
 74
     0
 42
0.000000001
 43
0.0000000001
 40
-31.96363088217647
 40
-31.96363088217647
 40
-31.96363088217647
 40
-26.46424844311697
 40
-26.46424844311697
 40
-26.46424844311697
 10
336.4474956765673
 20
207.995000170479
 30
0.0
 41
1.0
 10
336.4523386564686
 20
205.2453132158778
 30
0.0
 41
1.0
 10
336.4571816363699
 20
202.4956262612765
 30
0.0
 41
1.0
  0
LINE
  5
1AE
330
1F
100
AcDbEntity
  8
Make2D$visible$lines
100
AcDbLine
 10
336.4571816363699
 20
202.4956262612765
 30
0.0
 11
336.4624654804614
 21
199.4956309144482
 31
0.0
  0
LINE
  5
1AF
330
1F
100
AcDbEntity
  8
Make2D$visible$lines
100
AcDbLine
 10
336.4624654804614
 20
199.4956309144482
 30
0.0
 11
328.4624778889192
 21
199.4815406635374
 31
0.0
  0
LINE
  5
1B0
330
1F
100
AcDbEntity
  8
Make2D$visible$lines
100
AcDbLine
 10
328.4624778889192
 20
199.4815406635374
 30
0.0
 11
328.4571940448276
 21
202.4815360103657
 31
0.0
  0
LINE
  5
1B1
330
1F
100
AcDbEntity
  8
Make2D$visible$lines
100
AcDbLine
 10
328.4571940448276
 20
202.4815360103657
 30
0.0
 11
302.9982178241738
 21
202.4366955204555
 31
0.0
  0
LINE
  5
1B2
330
1F
100
AcDbEntity
  8
Make2D$visible$lines
100
AcDbLine
 10
302.9982178241738
 20
202.4366955204555
 30
0.0
 11
303.0035016682654
 21
199.4367001736273
 31
0.0
  0
LINE
  5
1B3
330
1F
100
AcDbEntity
  8
Make2D$visible$lines
100
AcDbLine
 10
303.0035016682654
 20
199.4367001736273
 30
0.0
 11
295.0035140767231
 21
199.4226099227164
 31
0.0
  0
LINE
  5
1B4
330
1F
100
AcDbEntity
  8
Make2D$visible$lines
100
AcDbLine
 10
295.0035140767231
 20
199.4226099227164
 30
0.0
 11
294.9982302326315
 21
202.4226052695446
 31
0.0
  0
LINE
  5
1B5
330
1F
100
AcDbEntity
  8
Make2D$visible$lines
100
AcDbLine
 10
294.9982302326315
 20
202.4226052695446
 30
0.0
 11
294.9885442728289
 21
207.9219791787473
 31
0.0
  0
LINE
  5
1B6
330
1F
100
AcDbEntity
  8
Make2D$visible$lines
100
AcDbLine
 10
294.9885442728289
 20
207.9219791787473
 30
0.0
 11
309.7917365444159
 21
230.7526425634153
 31
0.0
  0
ARC
  5
1B7
330
1F
100
AcDbEntity
  8
Make2D$visible$lines
100
AcDbCircle
 10
315.6836739004045
 20
227.4590769889801
 30
0.0
 40
6.749999999999973
100
AcDbArc
 50
29.40681538394657
 51
150.7950126977698
  0
LINE
  5
1B8
330
1F
100
AcDbEntity
  8
Make2D$visible$lines
100
AcDbLine
 10
321.5639729281548
 20
230.7733768161288
 30
0.0
 11
336.4474956765673
 21
207.995000170479
 31
0.0
  0
SPLINE
  5
1B9
330
1F
100
AcDbEntity
  8
Make2D$visible$lines
100
AcDbSpline
210
0.0
220
0.0
230
1.0
 70
    15
 71
     2
 72
    12
 73
     9
 74
     0
 42
0.000000001
 43
0.0000000001
 40
0.0
 40
0.0
 40
0.0
 40
5.497787143782138
 40
5.497787143782138
 40
10.99557428756428
 40
10.99557428756428
 40
16.49336143134641
 40
16.49336143134641
 40
21.99114857512855
 40
21.99114857512855
 40
21.99114857512855
 10
312.1836793291048
 20
227.4529125042066
 30
0.0
 41
1.0
 10
312.1898438138782
 20
223.9529179329067
 30
0.0
 41
0.7071067811865476
 10
315.6898383851781
 20
223.9590824176803
 30
0.0
 41
1.0
 10
319.1898329564776
 20
223.9652469024537
 30
0.0
 41
0.7071067811865476
 10
319.1836684717043
 20
227.4652414737534
 30
0.0
 41
1.0
 10
319.1775039869306
 20
230.9652360450531
 30
0.0
 41
0.7071067811865476
 10
315.6775094156311
 20
230.9590715602797
 30
0.0
 41
1.0
 10
312.1775148443312
 20
230.9529070755062
 30
0.0
 41
0.7071067811865476
 10
312.1836793291048
 20
227.4529125042066
 30
0.0
 41
1.0
  0
CIRCLE
  5
1BA
330
1F
100
AcDbEntity
  8
Default
100
AcDbCircle
 10
283.3789275655955
 20
247.180740138235
 30
0.0
 40
5.449999999999978
  0
LINE
  5
1BB
330
1F
100
AcDbEntity
  8
Default
100
AcDbLine
 10
182.2940868786199
 20
197.8362540855276
 30
0.0
 11
272.2939472834697
 21
197.9947694082741
 31
0.0
  0
LINE
  5
1BC
330
1F
100
AcDbEntity
  8
Default
100
AcDbLine
 10
272.2939472834697
 20
197.9947694082741
 30
0.0
 11
297.2498764729432
 21
223.0387626659398
 31
0.0
  0
LINE
  5
1BD
330
1F
100
AcDbEntity
  8
Default
100
AcDbLine
 10
297.2498764729432
 20
223.0387626659398
 30
0.0
 11
272.2058832152772
 21
247.9946918554128
 31
0.0
  0
LINE
  5
1BE
330
1F
100
AcDbEntity
  8
Default
100
AcDbLine
 10
272.2058832152772
 20
247.9946918554128
 30
0.0
 11
182.2060228104274
 21
247.8361765326663
 31
0.0
  0
LINE
  5
1BF
330
1F
100
AcDbEntity
  8
Default
100
AcDbLine
 10
182.2060228104274
 20
247.8361765326663
 30
0.0
 11
157.2500936209539
 21
222.7921832750008
 31
0.0
  0
LINE
  5
1C0
330
1F
100
AcDbEntity
  8
Default
100
AcDbLine
 10
157.2500936209539
 20
222.7921832750008
 30
0.0
 11
182.2940868786199
 21
197.8362540855276
 31
0.0
  0
LINE
  5
1C1
330
1F
100
AcDbEntity
  8
Default
100
AcDbLine
 10
157.1620295527613
 20
272.7921057221395
 30
0.0
 11
182.2060228104274
 21
247.8361765326663
 31
0.0
  0
LINE
  5
1C2
330
1F
100
AcDbEntity
  8
Default
100
AcDbLine
 10
182.2060228104274
 20
247.8361765326663
 30
0.0
 11
272.2058832152772
 21
247.9946918554128
 31
0.0
  0
LINE
  5
1C3
330
1F
100
AcDbEntity
  8
Default
100
AcDbLine
 10
272.2058832152772
 20
247.9946918554128
 30
0.0
 11
297.1618124047507
 21
273.0386851130786
 31
0.0
  0
LINE
  5
1C4
330
1F
100
AcDbEntity
  8
Default
100
AcDbLine
 10
297.1618124047507
 20
273.0386851130786
 30
0.0
 11
272.1178191470847
 21
297.9946143025517
 31
0.0
  0
LINE
  5
1C5
330
1F
100
AcDbEntity
  8
Default
100
AcDbLine
 10
272.1178191470847
 20
297.9946143025517
 30
0.0
 11
182.1179587422348
 21
297.8360989798051
 31
0.0
  0
LINE
  5
1C6
330
1F
100
AcDbEntity
  8
Default
100
AcDbLine
 10
182.1179587422348
 20
297.8360989798051
 30
0.0
 11
157.1620295527613
 21
272.7921057221395
 31
0.0
  0
SPLINE
  5
1C7
330
1F
100
AcDbEntity
  8
Default
100
AcDbSpline
210
0.0
220
0.0
230
1.0
 70
    12
 71
     2
 72
     6
 73
     3
 74
     0
 42
0.000000001
 43
0.0000000001
 40
491.8200833381188
 40
491.8200833381188
 40
491.8200833381188
 40
496.5324723185036
 40
496.5324723185036
 40
496.5324723185036
 10
177.9603970607627
 20
245.8423035771782
 30
0.0
 41
1.0
 10
180.0600956237544
 20
247.9850275315342
 30
0.0
 41
0.7071067811865471
 10
177.9173716693984
 20
250.0847260945256
 30
0.0
 41
1.0
  0
LINE
  5
1C8
330
1F
100
AcDbEntity
  8
Default
100
AcDbLine
 10
177.9173716693984
 20
250.0847260945256
 30
0.0
 11
159.8860002190901
 21
267.7540318611484
 31
0.0
  0
LINE
  5
1C9
330
1F
100
AcDbEntity
  8
Default
100
AcDbLine
 10
159.8860002190901
 20
267.7540318611484
 30
0.0
 11
160.6288136906084
 21
267.0261339088491
 31
0.0
  0
LINE
  5
1CA
330
1F
100
AcDbEntity
  8
Default
100
AcDbLine
 10
160.6288136906084
 20
267.0261339088491
 30
0.0
 11
159.4406629877429
 21
268.1904268259805
 31
0.0
  0
ARC
  5
1CB
330
1F
100
AcDbEntity
  8
Default
100
AcDbCircle
 10
157.3409644247512
 20
266.0477028716246
 30
0.0
 40
3.000000000000043
100
AcDbArc
 50
45.58105688776604
 51
135.5810568877649
  0
SPLINE
  5
1CC
330
1F
100
AcDbEntity
  8
Default
100
AcDbSpline
210
0.0
220
0.0
230
1.0
 70
    12
 71
     2
 72
    10
 73
     7
 74
     0
 42
0.000000001
 43
0.0000000001
 40
542.0716919151952
 40
542.0716919151952
 40
542.0716919151952
 40
552.3176916206288
 40
552.3176916206288
 40
572.3754990065291
 40
572.3754990065291
 40
575.6148097366913
 40
575.6148097366913
 40
575.6148097366913
 10
155.1982404703953
 20
268.1474014346163
 30
0.0
 41
1.0
 10
150.9997050666119
 20
263.8628329058461
 30
0.0
 41
1.0
 10
146.8011696628285
 20
259.5782643770758
 30
0.0
 41
1.0
 10
140.1694566406866
 20
252.7742642806936
 30
0.0
 41
1.0
 10
133.5377436185446
 20
245.9702641843114
 30
0.0
 41
1.0
 10
132.4878945873524
 20
244.8989024625661
 30
0.0
 41
1.0
 10
131.438045055553
 20
243.8275402299555
 30
0.0
 41
1.0
  0
LINE
  5
1CD
330
1F
100
AcDbEntity
  8
Default
100
AcDbLine
 10
131.438045055553
 20
243.8275402299555
 30
0.0
 11
137.1519756005021
 21
238.2283440619776
 31
0.0
  0
LINE
  5
1CE
330
1F
100
AcDbEntity
  8
Default
100
AcDbLine
 10
137.1519756005021
 20
238.2283440619776
 30
0.0
 11
139.2516741634938
 21
240.3710680163338
 31
0.0
  0
LINE
  5
1CF
330
1F
100
AcDbEntity
  8
Default
100
AcDbLine
 10
139.2516741634938
 20
240.3710680163338
 30
0.0
 11
150.585969663963
 21
229.2643624948511
 31
0.0
  0
LINE
  5
1D0
330
1F
100
AcDbEntity
  8
Default
100
AcDbLine
 10
150.585969663963
 20
229.2643624948511
 30
0.0
 11
148.4862711009713
 21
227.1216385404953
 31
0.0
  0
LINE
  5
1D1
330
1F
100
AcDbEntity
  8
Default
100
AcDbLine
 10
148.4862711009713
 20
227.1216385404953
 30
0.0
 11
154.2002016459205
 21
221.5224423725174
 31
0.0
  0
LINE
  5
1D2
330
1F
100
AcDbEntity
  8
Default
100
AcDbLine
 10
154.2002016459205
 20
221.5224423725174
 30
0.0
 11
156.2999002089121
 21
223.6651663268734
 31
0.0
  0
LINE
  5
1D3
330
1F
100
AcDbEntity
  8
Default
100
AcDbLine
 10
156.2999002089121
 20
223.6651663268734
 30
0.0
 11
169.563326253196
 21
237.2731665196378
 31
0.0
  0
LINE
  5
1D4
330
1F
100
AcDbEntity
  8
Default
100
AcDbLine
 10
169.563326253196
 20
237.2731665196378
 30
0.0
 11
177.9603970607627
 21
245.8423035771782
 31
0.0
  0
LINE
  5
1D5
330
1F
100
AcDbEntity
  8
Default
100
AcDbLine
 10
295.3630616141311
 20
229.5183536971819
 30
0.0
 11
297.4627601771228
 21
231.6610776515378
 31
0.0
  0
LINE
  5
1D6
330
1F
100
AcDbEntity
  8
Default
100
AcDbLine
 10
297.4627601771228
 20
231.6610776515378
 30
0.0
 11
290.3203469959363
 21
238.6600728615101
 31
0.0
  0
LINE
  5
1D7
330
1F
100
AcDbEntity
  8
Default
100
AcDbLine
 10
290.3203469959363
 20
238.6600728615101
 30
0.0
 11
288.2206484329447
 21
236.5173489071542
 31
0.0
  0
LINE
  5
1D8
330
1F
100
AcDbEntity
  8
Default
100
AcDbLine
 10
288.2206484329447
 20
236.5173489071542
 30
0.0
 11
295.3630616141311
 21
229.5183536971819
 31
0.0
  0
SPLINE
  5
1D9
330
1F
100
AcDbEntity
  8
Default
100
AcDbSpline
210
0.0
220
0.0
230
1.0
 70
    15
 71
     2
 72
    12
 73
     9
 74
     0
 42
0.000000001
 43
0.0000000001
 40
0.0
 40
0.0
 40
0.0
 40
3.926990816987241
 40
3.926990816987241
 40
7.853981633974483
 40
7.853981633974483
 40
11.78097245096172
 40
11.78097245096172
 40
15.70796326794897
 40
15.70796326794897
 40
15.70796326794897
 10
170.026802252471
 20
245.2160727844869
 30
0.0
 41
1.0
 10
166.1773548869861
 20
241.2877455348342
 30
0.0
 41
0.7071067811865476
 10
162.2490276373337
 20
245.137192900319
 30
0.0
 41
1.0
 10
158.320700387681
 20
248.9866402658035
 30
0.0
 41
0.7071067811865476
 10
162.1701477531658
 20
252.9149675154563
 30
0.0
 41
1.0
 10
166.0195951186504
 20
256.8432947651088
 30
0.0
 41
0.7071067811865476
 10
169.9479223683031
 20
252.993847399624
 30
0.0
 41
1.0
 10
173.8762496179556
 20
249.1444000341394
 30
0.0
 41
0.7071067811865476
 10
170.026802252471
 20
245.2160727844869
 30
0.0
 41
1.0
  0
POLYLINE
  5
1DA
330
1F
100
AcDbEntity
  8
Default
100
AcDb2dPolyline
 66
     1
 10
0.0
 20
0.0
 30
0.0
 70
     1
  0
VERTEX
  5
1DB
330
1DA
100
AcDbEntity
  8
Default
100
AcDbVertex
100
AcDb2dVertex
 10
283.4011573511337
 20
244.9888218376054
 30
0.0
  0
VERTEX
  5
1DC
330
1DA
100
AcDbEntity
  8
Default
100
AcDbVertex
100
AcDb2dVertex
 10
285.5708458662251
 20
247.2029699237733
 30
0.0
  0
VERTEX
  5
1DD
330
1DA
100
AcDbEntity
  8
Default
100
AcDbVertex
100
AcDb2dVertex
 10
283.3566977800573
 20
249.3726584388646
 30
0.0
  0
VERTEX
  5
1DE
330
1DA
100
AcDbEntity
  8
Default
100
AcDbVertex
100
AcDb2dVertex
 10
281.1870092649659
 20
247.1585103526968
 30
0.0
  0
SEQEND
  5
1DF
330
1DA
100
AcDbEntity
  8
Default
  0
POLYLINE
  5
1E0
330
1F
100
AcDbEntity
  8
Default
100
AcDb2dPolyline
 66
     1
 10
0.0
 20
0.0
 30
0.0
 70
     1
  0
VERTEX
  5
1E1
330
1E0
100
AcDbEntity
  8
Default
100
AcDbVertex
100
AcDb2dVertex
 10
290.7550149330625
 20
239.655223135489
 30
0.0
  0
VERTEX
  5
1E2
330
1E0
100
AcDbEntity
  8
Default
100
AcDbVertex
100
AcDb2dVertex
 10
293.9550099696794
 20
239.6608592358533
 30
0.0
  0
VERTEX
  5
1E3
330
1E0
100
AcDbEntity
  8
Default
100
AcDbVertex
100
AcDb2dVertex
 10
293.9370448997681
 20
249.8608434150697
 30
0.0
  0
VERTEX
  5
1E4
330
1E0
100
AcDbEntity
  8
Default
100
AcDbVertex
100
AcDb2dVertex
 10
290.7370498631512
 20
249.8552073147054
 30
0.0
  0
SEQEND
  5
1E5
330
1E0
100
AcDbEntity
  8
Default
  0
POLYLINE
  5
1E6
330
1F
100
AcDbEntity
  8
Default
100
AcDb2dPolyline
 66
     1
 10
0.0
 20
0.0
 30
0.0
 70
     1
  0
VERTEX
  5
1E7
330
1E6
100
AcDbEntity
  8
Default
100
AcDbVertex
100
AcDb2dVertex
 10
291.7256741622816
 20
250.6713701985915
 30
0.0
  0
VERTEX
  5
1E8
330
1E6
100
AcDbEntity
  8
Default
100
AcDbVertex
100
AcDb2dVertex
 10
293.9653526294728
 20
252.9569424165712
 30
0.0
  0
VERTEX
  5
1E9
330
1E6
100
AcDbEntity
  8
Default
100
AcDbVertex
100
AcDb2dVertex
 10
286.6800911846626
 20
260.0959175307429
 30
0.0
  0
VERTEX
  5
1EA
330
1E6
100
AcDbEntity
  8
Default
100
AcDbVertex
100
AcDb2dVertex
 10
284.4404127174714
 20
257.8103453127633
 30
0.0
  0
SEQEND
  5
1EB
330
1E6
100
AcDbEntity
  8
Default
  0
POLYLINE
  5
1EC
330
1F
100
AcDbEntity
  8
Default
100
AcDb2dPolyline
 66
     1
 10
0.0
 20
0.0
 30
0.0
 70
     1
  0
VERTEX
  5
1ED
330
1EC
100
AcDbEntity
  8
Default
100
AcDbVertex
100
AcDb2dVertex
 10
272.1862497722087
 20
202.3650786467323
 30
0.0
  0
VERTEX
  5
1EE
330
1EC
100
AcDbEntity
  8
Default
100
AcDbVertex
100
AcDb2dVertex
 10
269.386254115169
 20
202.3601470589135
 30
0.0
  0
VERTEX
  5
1EF
330
1EC
100
AcDbEntity
  8
Default
100
AcDbVertex
100
AcDb2dVertex
 10
269.372516120531
 20
210.1601349606671
 30
0.0
  0
VERTEX
  5
1F0
330
1EC
100
AcDbEntity
  8
Default
100
AcDbVertex
100
AcDb2dVertex
 10
272.1725117775707
 20
210.1650665484858
 30
0.0
  0
SEQEND
  5
1F1
330
1EC
100
AcDbEntity
  8
Default
  0
POLYLINE
  5
1F2
330
1F
100
AcDbEntity
  8
Default
100
AcDb2dPolyline
 66
     1
 10
0.0
 20
0.0
 30
0.0
 70
     1
  0
VERTEX
  5
1F3
330
1F2
100
AcDbEntity
  8
Default
100
AcDbVertex
100
AcDb2dVertex
 10
258.83501371902
 20
259.8313088163393
 30
0.0
  0
VERTEX
  5
1F4
330
1F2
100
AcDbEntity
  8
Default
100
AcDbVertex
100
AcDb2dVertex
 10
258.8489278417944
 20
251.9313210696914
 30
0.0
  0
VERTEX
  5
1F5
330
1F2
100
AcDbEntity
  8
Default
100
AcDbVertex
100
AcDb2dVertex
 10
256.0489321847546
 20
251.9263894818725
 30
0.0
  0
VERTEX
  5
1F6
330
1F2
100
AcDbEntity
  8
Default
100
AcDbVertex
100
AcDb2dVertex
 10
256.0350180619802
 20
259.8263772285204
 30
0.0
  0
SEQEND
  5
1F7
330
1F2
100
AcDbEntity
  8
Default
  0
POLYLINE
  5
1F8
330
1F
100
AcDbEntity
  8
Default
100
AcDb2dPolyline
 66
     1
 10
0.0
 20
0.0
 30
0.0
 70
     1
  0
VERTEX
  5
1F9
330
1F8
100
AcDbEntity
  8
Default
100
AcDbVertex
100
AcDb2dVertex
 10
197.9863660050623
 20
202.2343915715502
 30
0.0
  0
VERTEX
  5
1FA
330
1F8
100
AcDbEntity
  8
Default
100
AcDbVertex
100
AcDb2dVertex
 10
195.1863703480225
 20
202.2294599837314
 30
0.0
  0
VERTEX
  5
1FB
330
1F8
100
AcDbEntity
  8
Default
100
AcDbVertex
100
AcDb2dVertex
 10
195.1726323533844
 20
210.029447885485
 30
0.0
  0
VERTEX
  5
1FC
330
1F8
100
AcDbEntity
  8
Default
100
AcDbVertex
100
AcDb2dVertex
 10
197.9726280104242
 20
210.0343794733037
 30
0.0
  0
SEQEND
  5
1FD
330
1F8
100
AcDbEntity
  8
Default
  0
POLYLINE
  5
1FE
330
1F
100
AcDbEntity
  8
Default
100
AcDb2dPolyline
 66
     1
 10
0.0
 20
0.0
 30
0.0
 70
     1
  0
VERTEX
  5
1FF
330
1FE
100
AcDbEntity
  8
Default
100
AcDbVertex
100
AcDb2dVertex
 10
197.9274352642411
 20
235.6933553837462
 30
0.0
  0
VERTEX
  5
200
330
1FE
100
AcDbEntity
  8
Default
100
AcDbVertex
100
AcDb2dVertex
 10
195.1274396072013
 20
235.6884237959274
 30
0.0
  0
VERTEX
  5
201
330
1FE
100
AcDbEntity
  8
Default
100
AcDbVertex
100
AcDb2dVertex
 10
195.1137016125633
 20
243.4884116976812
 30
0.0
  0
VERTEX
  5
202
330
1FE
100
AcDbEntity
  8
Default
100
AcDbVertex
100
AcDb2dVertex
 10
197.9136972696031
 20
243.4933432854999
 30
0.0
  0
SEQEND
  5
203
330
1FE
100
AcDbEntity
  8
Default
  0
POLYLINE
  5
204
330
1F
100
AcDbEntity
  8
Default
100
AcDb2dPolyline
 66
     1
 10
0.0
 20
0.0
 30
0.0
 70
     1
  0
VERTEX
  5
205
330
204
100
AcDbEntity
  8
Default
100
AcDbVertex
100
AcDb2dVertex
 10
194.9490292431658
 20
251.8187751945725
 30
0.0
  0
VERTEX
  5
206
330
204
100
AcDbEntity
  8
Default
100
AcDbVertex
100
AcDb2dVertex
 10
192.149033586126
 20
251.8138436067537
 30
0.0
  0
VERTEX
  5
207
330
204
100
AcDbEntity
  8
Default
100
AcDbVertex
100
AcDb2dVertex
 10
192.1351194633516
 20
259.7138313534017
 30
0.0
  0
VERTEX
  5
208
330
204
100
AcDbEntity
  8
Default
100
AcDbVertex
100
AcDb2dVertex
 10
194.9351151203914
 20
259.7187629412205
 30
0.0
  0
SEQEND
  5
209
330
204
100
AcDbEntity
  8
Default
  0
POLYLINE
  5
20A
330
1F
100
AcDbEntity
  8
Default
100
AcDb2dPolyline
 66
     1
 10
0.0
 20
0.0
 30
0.0
 70
     1
  0
VERTEX
  5
20B
330
20A
100
AcDbEntity
  8
Default
100
AcDbVertex
100
AcDb2dVertex
 10
192.106993561195
 20
275.6828066171129
 30
0.0
  0
VERTEX
  5
20C
330
20A
100
AcDbEntity
  8
Default
100
AcDbVertex
100
AcDb2dVertex
 10
192.0930794384205
 20
283.5827943637609
 30
0.0
  0
VERTEX
  5
20D
330
20A
100
AcDbEntity
  8
Default
100
AcDbVertex
100
AcDb2dVertex
 10
194.8930750954603
 20
283.5877259515796
 30
0.0
  0
VERTEX
  5
20E
330
20A
100
AcDbEntity
  8
Default
100
AcDbVertex
100
AcDb2dVertex
 10
194.9069892182348
 20
275.6877382049317
 30
0.0
  0
SEQEND
  5
20F
330
20A
100
AcDbEntity
  8
Default
  0
POLYLINE
  5
210
330
1F
100
AcDbEntity
  8
Default
100
AcDb2dPolyline
 66
     1
 10
0.0
 20
0.0
 30
0.0
 70
     1
  0
VERTEX
  5
211
330
210
100
AcDbEntity
  8
Default
100
AcDbVertex
100
AcDb2dVertex
 10
255.9929780370492
 20
283.6953402388797
 30
0.0
  0
VERTEX
  5
212
330
210
100
AcDbEntity
  8
Default
100
AcDbVertex
100
AcDb2dVertex
 10
258.7929736940888
 20
283.7002718266984
 30
0.0
  0
VERTEX
  5
213
330
210
100
AcDbEntity
  8
Default
100
AcDbVertex
100
AcDb2dVertex
 10
258.8068878168633
 20
275.8002840800506
 30
0.0
  0
VERTEX
  5
214
330
210
100
AcDbEntity
  8
Default
100
AcDbVertex
100
AcDb2dVertex
 10
256.0068921598236
 20
275.7953524922318
 30
0.0
  0
SEQEND
  5
215
330
210
100
AcDbEntity
  8
Default
  0
LINE
  5
216
330
1F
100
AcDbEntity
  8
Default
100
AcDbLine
 10
315.6245159099268
 20
268.8226100871029
 30
0.0
 11
312.6245194469068
 21
268.8180033673203
 31
0.0
  0
LINE
  5
217
330
1F
100
AcDbEntity
  8
Default
100
AcDbLine
 10
312.6245194469068
 20
268.8180033673203
 30
0.0
 11
312.6199127271242
 21
271.8179998303403
 31
0.0
  0
LINE
  5
218
330
1F
100
AcDbEntity
  8
Default
100
AcDbLine
 10
312.6199127271242
 20
271.8179998303403
 30
0.0
 11
315.6199091901442
 21
271.8226065501231
 31
0.0
  0
LINE
  5
219
330
1F
100
AcDbEntity
  8
Default
100
AcDbLine
 10
315.6199091901442
 20
271.8226065501231
 30
0.0
 11
315.6245159099268
 21
268.8226100871029
 31
0.0
  0
SPLINE
  5
21A
330
1F
100
AcDbEntity
  8
Make2D$visible$lines
100
AcDbSpline
210
0.0
220
0.0
230
1.0
 70
    28
 71
     2
 72
     6
 73
     3
 74
     0
 42
0.000000001
 43
0.0000000001
 40
-31.96363088217647
 40
-31.96363088217647
 40
-31.96363088217647
 40
-26.46424844311697
 40
-26.46424844311697
 40
-26.46424844311697
 10
293.3940429287461
 20
289.7891733217351
 30
0.0
 41
1.0
 10
293.3797085310802
 20
292.5388271777326
 30
0.0
 41
1.0
 10
293.3653741334143
 20
295.2884810337302
 30
0.0
 41
1.0
  0
LINE
  5
21B
330
1F
100
AcDbEntity
  8
Make2D$visible$lines
100
AcDbLine
 10
293.3653741334143
 20
295.2884810337302
 30
0.0
 11
293.3497348526498
 21
298.2884402689363
 31
0.0
  0
LINE
  5
21C
330
1F
100
AcDbEntity
  8
Make2D$visible$lines
100
AcDbLine
 10
293.3497348526498
 20
298.2884402689363
 30
0.0
 11
301.3496261465323
 21
298.3301450176414
 31
0.0
  0
LINE
  5
21D
330
1F
100
AcDbEntity
  8
Make2D$visible$lines
100
AcDbLine
 10
301.3496261465323
 20
298.3301450176414
 30
0.0
 11
301.3652654272967
 21
295.3301857824354
 31
0.0
  0
LINE
  5
21E
330
1F
100
AcDbEntity
  8
Make2D$visible$lines
100
AcDbLine
 10
301.3652654272967
 20
295.3301857824354
 30
0.0
 11
326.8239351924964
 21
295.4629060139887
 31
0.0
  0
LINE
  5
21F
330
1F
100
AcDbEntity
  8
Make2D$visible$lines
100
AcDbLine
 10
326.8239351924964
 20
295.4629060139887
 30
0.0
 11
326.808295911732
 21
298.4628652491945
 31
0.0
  0
LINE
  5
220
330
1F
100
AcDbEntity
  8
Make2D$visible$lines
100
AcDbLine
 10
326.808295911732
 20
298.4628652491945
 30
0.0
 11
334.8081872056143
 21
298.5045699978996
 31
0.0
  0
LINE
  5
221
330
1F
100
AcDbEntity
  8
Make2D$visible$lines
100
AcDbLine
 10
334.8081872056143
 20
298.5045699978996
 30
0.0
 11
334.8238264863788
 21
295.5046107626937
 31
0.0
  0
LINE
  5
222
330
1F
100
AcDbEntity
  8
Make2D$visible$lines
100
AcDbLine
 10
334.8238264863788
 20
295.5046107626937
 30
0.0
 11
334.8524952817106
 21
290.0053030506986
 31
0.0
  0
LINE
  5
223
330
1F
100
AcDbEntity
  8
Make2D$visible$lines
100
AcDbLine
 10
334.8524952817106
 20
290.0053030506986
 30
0.0
 11
320.1281987260269
 21
267.1236776068217
 31
0.0
  0
ARC
  5
224
330
1F
100
AcDbEntity
  8
Make2D$visible$lines
100
AcDbCircle
 10
314.2249276496
 20
270.3968856048294
 30
0.0
 40
6.750000000000009
100
AcDbArc
 50
209.6045909567882
 51
330.9927882706116
  0
LINE
  5
225
330
1F
100
AcDbEntity
  8
Make2D$visible$lines
100
AcDbLine
 10
308.3561040473595
 20
267.0623077416233
 30
0.0
 11
293.3940429287461
 21
289.7891733217351
 31
0.0
  0
CIRCLE
  5
226
330
1F
100
AcDbEntity
  8
Default
100
AcDbCircle
 10
301.9128290677796
 20
262.7199474200695
 30
0.0
 40
0.9500120487542364
  0
CIRCLE
  5
227
330
1F
100
AcDbEntity
  8
Default
100
AcDbCircle
 10
329.0754126338538
 20
262.7270877589249
 30
0.0
 40
0.950012048754375
  0
CIRCLE
  5
228
330
1F
100
AcDbEntity
  8
Default
100
AcDbCircle
 10
315.714962630519
 20
209.6943505653037
 30
0.0
 40
1.9
  0
CIRCLE
  5
229
330
1F
100
AcDbEntity
  8
Default
100
AcDbCircle
 10
315.3627063577385
 20
109.6935750359698
 30
0.0
 40
1.9
  0
CIRCLE
  5
22A
330
1F
100
AcDbEntity
  8
Default
100
AcDbCircle
 10
328.7231563610733
 20
162.726312229591
 30
0.0
 40
0.950012048754375
  0
CIRCLE
  5
22B
330
1F
100
AcDbEntity
  8
Default
100
AcDbCircle
 10
301.5605727949991
 20
162.7191718907357
 30
0.0
 40
0.9500120487542364
  0
SPLINE
  5
22C
330
1F
100
AcDbEntity
  8
Make2D$visible$lines
100
AcDbSpline
210
0.0
220
0.0
230
1.0
 70
    28
 71
     2
 72
     6
 73
     3
 74
     0
 42
0.000000001
 43
0.0000000001
 40
-31.96363088217647
 40
-31.96363088217647
 40
-31.96363088217647
 40
-26.46424844311697
 40
-26.46424844311697
 40
-26.46424844311697
 10
293.0417866559656
 20
189.7883977924013
 30
0.0
 41
1.0
 10
293.0274522582997
 20
192.5380516483989
 30
0.0
 41
1.0
 10
293.0131178606338
 20
195.2877055043965
 30
0.0
 41
1.0
  0
LINE
  5
22D
330
1F
100
AcDbEntity
  8
Make2D$visible$lines
100
AcDbLine
 10
293.0131178606338
 20
195.2877055043965
 30
0.0
 11
292.9974785798693
 21
198.2876647396023
 31
0.0
  0
LINE
  5
22E
330
1F
100
AcDbEntity
  8
Make2D$visible$lines
100
AcDbLine
 10
292.9974785798693
 20
198.2876647396023
 30
0.0
 11
300.9973698737518
 21
198.3293694883074
 31
0.0
  0
LINE
  5
22F
330
1F
100
AcDbEntity
  8
Make2D$visible$lines
100
AcDbLine
 10
300.9973698737518
 20
198.3293694883074
 30
0.0
 11
301.0130091545162
 21
195.3294102531015
 31
0.0
  0
LINE
  5
230
330
1F
100
AcDbEntity
  8
Make2D$visible$lines
100
AcDbLine
 10
301.0130091545162
 20
195.3294102531015
 30
0.0
 11
326.4716789197159
 21
195.4621304846547
 31
0.0
  0
LINE
  5
231
330
1F
100
AcDbEntity
  8
Make2D$visible$lines
100
AcDbLine
 10
326.4716789197159
 20
195.4621304846547
 30
0.0
 11
326.4560396389515
 21
198.4620897198607
 31
0.0
  0
LINE
  5
232
330
1F
100
AcDbEntity
  8
Make2D$visible$lines
100
AcDbLine
 10
326.4560396389515
 20
198.4620897198607
 30
0.0
 11
334.4559309328338
 21
198.5037944685657
 31
0.0
  0
LINE
  5
233
330
1F
100
AcDbEntity
  8
Make2D$visible$lines
100
AcDbLine
 10
334.4559309328338
 20
198.5037944685657
 30
0.0
 11
334.4715702135983
 21
195.5038352333598
 31
0.0
  0
LINE
  5
234
330
1F
100
AcDbEntity
  8
Make2D$visible$lines
100
AcDbLine
 10
334.4715702135983
 20
195.5038352333598
 30
0.0
 11
334.5002390089301
 21
190.0045275213646
 31
0.0
  0
LINE
  5
235
330
1F
100
AcDbEntity
  8
Make2D$visible$lines
100
AcDbLine
 10
334.5002390089301
 20
190.0045275213646
 30
0.0
 11
319.7759424532464
 21
167.1229020774878
 31
0.0
  0
ARC
  5
236
330
1F
100
AcDbEntity
  8
Make2D$visible$lines
100
AcDbCircle
 10
313.8726713768195
 20
170.3961100754956
 30
0.0
 40
6.750000000000009
100
AcDbArc
 50
209.604590956788
 51
330.9927882706116
  0
LINE
  5
237
330
1F
100
AcDbEntity
  8
Make2D$visible$lines
100
AcDbLine
 10
308.003847774579
 20
167.0615322122894
 30
0.0
 11
293.0417866559656
 21
189.7883977924013
 31
0.0
  0
LINE
  5
238
330
1F
100
AcDbEntity
  8
Default
100
AcDbLine
 10
315.2722596371463
 20
168.8218345577691
 30
0.0
 11
312.2722631741263
 21
168.8172278379864
 31
0.0
  0
LINE
  5
239
330
1F
100
AcDbEntity
  8
Default
100
AcDbLine
 10
312.2722631741263
 20
168.8172278379864
 30
0.0
 11
312.2676564543437
 21
171.8172243010064
 31
0.0
  0
LINE
  5
23A
330
1F
100
AcDbEntity
  8
Default
100
AcDbLine
 10
312.2676564543437
 20
171.8172243010064
 30
0.0
 11
315.2676529173637
 21
171.8218310207891
 31
0.0
  0
LINE
  5
23B
330
1F
100
AcDbEntity
  8
Default
100
AcDbLine
 10
315.2676529173637
 20
171.8218310207891
 30
0.0
 11
315.2722596371463
 21
168.8218345577691
 31
0.0
  0
POLYLINE
  5
23C
330
1F
100
AcDbEntity
  8
Default
100
AcDb2dPolyline
 66
     1
 10
0.0
 20
0.0
 30
0.0
 70
     1
  0
VERTEX
  5
23D
330
23C
100
AcDbEntity
  8
Default
100
AcDbVertex
100
AcDb2dVertex
 10
255.6407217642687
 20
183.6945647095458
 30
0.0
  0
VERTEX
  5
23E
330
23C
100
AcDbEntity
  8
Default
100
AcDbVertex
100
AcDb2dVertex
 10
258.4407174213084
 20
183.6994962973646
 30
0.0
  0
VERTEX
  5
23F
330
23C
100
AcDbEntity
  8
Default
100
AcDbVertex
100
AcDb2dVertex
 10
258.4546315440828
 20
175.7995085507167
 30
0.0
  0
VERTEX
  5
240
330
23C
100
AcDbEntity
  8
Default
100
AcDbVertex
100
AcDb2dVertex
 10
255.6546358870431
 20
175.7945769628979
 30
0.0
  0
SEQEND
  5
241
330
23C
100
AcDbEntity
  8
Default
  0
POLYLINE
  5
242
330
1F
100
AcDbEntity
  8
Default
100
AcDb2dPolyline
 66
     1
 10
0.0
 20
0.0
 30
0.0
 70
     1
  0
VERTEX
  5
243
330
242
100
AcDbEntity
  8
Default
100
AcDbVertex
100
AcDb2dVertex
 10
191.7547372884145
 20
175.682031087779
 30
0.0
  0
VERTEX
  5
244
330
242
100
AcDbEntity
  8
Default
100
AcDbVertex
100
AcDb2dVertex
 10
191.7408231656401
 20
183.582018834427
 30
0.0
  0
VERTEX
  5
245
330
242
100
AcDbEntity
  8
Default
100
AcDbVertex
100
AcDb2dVertex
 10
194.5408188226799
 20
183.5869504222459
 30
0.0
  0
VERTEX
  5
246
330
242
100
AcDbEntity
  8
Default
100
AcDbVertex
100
AcDb2dVertex
 10
194.5547329454543
 20
175.6869626755979
 30
0.0
  0
SEQEND
  5
247
330
242
100
AcDbEntity
  8
Default
  0
POLYLINE
  5
248
330
1F
100
AcDbEntity
  8
Default
100
AcDb2dPolyline
 66
     1
 10
0.0
 20
0.0
 30
0.0
 70
     1
  0
VERTEX
  5
249
330
248
100
AcDbEntity
  8
Default
100
AcDbVertex
100
AcDb2dVertex
 10
194.5967729703853
 20
151.8179996652386
 30
0.0
  0
VERTEX
  5
24A
330
248
100
AcDbEntity
  8
Default
100
AcDbVertex
100
AcDb2dVertex
 10
191.7967773133456
 20
151.8130680774198
 30
0.0
  0
VERTEX
  5
24B
330
248
100
AcDbEntity
  8
Default
100
AcDbVertex
100
AcDb2dVertex
 10
191.7828631905711
 20
159.7130558240678
 30
0.0
  0
VERTEX
  5
24C
330
248
100
AcDbEntity
  8
Default
100
AcDbVertex
100
AcDb2dVertex
 10
194.5828588476109
 20
159.7179874118866
 30
0.0
  0
SEQEND
  5
24D
330
248
100
AcDbEntity
  8
Default
  0
POLYLINE
  5
24E
330
1F
100
AcDbEntity
  8
Default
100
AcDb2dPolyline
 66
     1
 10
0.0
 20
0.0
 30
0.0
 70
     1
  0
VERTEX
  5
24F
330
24E
100
AcDbEntity
  8
Default
100
AcDbVertex
100
AcDb2dVertex
 10
197.5751789914607
 20
135.6925798544124
 30
0.0
  0
VERTEX
  5
250
330
24E
100
AcDbEntity
  8
Default
100
AcDbVertex
100
AcDb2dVertex
 10
194.7751833344209
 20
135.6876482665936
 30
0.0
  0
VERTEX
  5
251
330
24E
100
AcDbEntity
  8
Default
100
AcDbVertex
100
AcDb2dVertex
 10
194.7614453397828
 20
143.4876361683472
 30
0.0
  0
VERTEX
  5
252
330
24E
100
AcDbEntity
  8
Default
100
AcDbVertex
100
AcDb2dVertex
 10
197.5614409968226
 20
143.492567756166
 30
0.0
  0
SEQEND
  5
253
330
24E
100
AcDbEntity
  8
Default
  0
POLYLINE
  5
254
330
1F
100
AcDbEntity
  8
Default
100
AcDb2dPolyline
 66
     1
 10
0.0
 20
0.0
 30
0.0
 70
     1
  0
VERTEX
  5
255
330
254
100
AcDbEntity
  8
Default
100
AcDbVertex
100
AcDb2dVertex
 10
197.6341097322818
 20
102.2336160422163
 30
0.0
  0
VERTEX
  5
256
330
254
100
AcDbEntity
  8
Default
100
AcDbVertex
100
AcDb2dVertex
 10
194.834114075242
 20
102.2286844543975
 30
0.0
  0
VERTEX
  5
257
330
254
100
AcDbEntity
  8
Default
100
AcDbVertex
100
AcDb2dVertex
 10
194.8203760806039
 20
110.0286723561511
 30
0.0
  0
VERTEX
  5
258
330
254
100
AcDbEntity
  8
Default
100
AcDbVertex
100
AcDb2dVertex
 10
197.6203717376438
 20
110.0336039439699
 30
0.0
  0
SEQEND
  5
259
330
254
100
AcDbEntity
  8
Default
  0
POLYLINE
  5
25A
330
1F
100
AcDbEntity
  8
Default
100
AcDb2dPolyline
 66
     1
 10
0.0
 20
0.0
 30
0.0
 70
     1
  0
VERTEX
  5
25B
330
25A
100
AcDbEntity
  8
Default
100
AcDbVertex
100
AcDb2dVertex
 10
258.4827574462395
 20
159.8305332870054
 30
0.0
  0
VERTEX
  5
25C
330
25A
100
AcDbEntity
  8
Default
100
AcDbVertex
100
AcDb2dVertex
 10
258.4966715690139
 20
151.9305455403575
 30
0.0
  0
VERTEX
  5
25D
330
25A
100
AcDbEntity
  8
Default
100
AcDbVertex
100
AcDb2dVertex
 10
255.6966759119742
 20
151.9256139525386
 30
0.0
  0
VERTEX
  5
25E
330
25A
100
AcDbEntity
  8
Default
100
AcDbVertex
100
AcDb2dVertex
 10
255.6827617891997
 20
159.8256016991866
 30
0.0
  0
SEQEND
  5
25F
330
25A
100
AcDbEntity
  8
Default
  0
POLYLINE
  5
260
330
1F
100
AcDbEntity
  8
Default
100
AcDb2dPolyline
 66
     1
 10
0.0
 20
0.0
 30
0.0
 70
     1
  0
VERTEX
  5
261
330
260
100
AcDbEntity
  8
Default
100
AcDbVertex
100
AcDb2dVertex
 10
271.8339934994282
 20
102.3643031173984
 30
0.0
  0
VERTEX
  5
262
330
260
100
AcDbEntity
  8
Default
100
AcDbVertex
100
AcDb2dVertex
 10
269.0339978423885
 20
102.3593715295796
 30
0.0
  0
VERTEX
  5
263
330
260
100
AcDbEntity
  8
Default
100
AcDbVertex
100
AcDb2dVertex
 10
269.0202598477505
 20
110.1593594313332
 30
0.0
  0
VERTEX
  5
264
330
260
100
AcDbEntity
  8
Default
100
AcDbVertex
100
AcDb2dVertex
 10
271.8202555047902
 20
110.164291019152
 30
0.0
  0
SEQEND
  5
265
330
260
100
AcDbEntity
  8
Default
  0
POLYLINE
  5
266
330
1F
100
AcDbEntity
  8
Default
100
AcDb2dPolyline
 66
     1
 10
0.0
 20
0.0
 30
0.0
 70
     1
  0
VERTEX
  5
267
330
266
100
AcDbEntity
  8
Default
100
AcDbVertex
100
AcDb2dVertex
 10
291.3734178895011
 20
150.6705946692576
 30
0.0
  0
VERTEX
  5
268
330
266
100
AcDbEntity
  8
Default
100
AcDbVertex
100
AcDb2dVertex
 10
293.6130963566923
 20
152.9561668872373
 30
0.0
  0
VERTEX
  5
269
330
266
100
AcDbEntity
  8
Default
100
AcDbVertex
100
AcDb2dVertex
 10
286.3278349118821
 20
160.095142001409
 30
0.0
  0
VERTEX
  5
26A
330
266
100
AcDbEntity
  8
Default
100
AcDbVertex
100
AcDb2dVertex
 10
284.088156444691
 20
157.8095697834294
 30
0.0
  0
SEQEND
  5
26B
330
266
100
AcDbEntity
  8
Default
  0
POLYLINE
  5
26C
330
1F
100
AcDbEntity
  8
Default
100
AcDb2dPolyline
 66
     1
 10
0.0
 20
0.0
 30
0.0
 70
     1
  0
VERTEX
  5
26D
330
26C
100
AcDbEntity
  8
Default
100
AcDbVertex
100
AcDb2dVertex
 10
290.402758660282
 20
139.6544476061551
 30
0.0
  0
VERTEX
  5
26E
330
26C
100
AcDbEntity
  8
Default
100
AcDbVertex
100
AcDb2dVertex
 10
293.602753696899
 20
139.6600837065195
 30
0.0
  0
VERTEX
  5
26F
330
26C
100
AcDbEntity
  8
Default
100
AcDbVertex
100
AcDb2dVertex
 10
293.5847886269876
 20
149.8600678857358
 30
0.0
  0
VERTEX
  5
270
330
26C
100
AcDbEntity
  8
Default
100
AcDbVertex
100
AcDb2dVertex
 10
290.3847935903707
 20
149.8544317853715
 30
0.0
  0
SEQEND
  5
271
330
26C
100
AcDbEntity
  8
Default
  0
POLYLINE
  5
272
330
1F
100
AcDbEntity
  8
Default
100
AcDb2dPolyline
 66
     1
 10
0.0
 20
0.0
 30
0.0
 70
     1
  0
VERTEX
  5
273
330
272
100
AcDbEntity
  8
Default
100
AcDbVertex
100
AcDb2dVertex
 10
283.0489010783533
 20
144.9880463082715
 30
0.0
  0
VERTEX
  5
274
330
272
100
AcDbEntity
  8
Default
100
AcDbVertex
100
AcDb2dVertex
 10
285.2185895934446
 20
147.2021943944393
 30
0.0
  0
VERTEX
  5
275
330
272
100
AcDbEntity
  8
Default
100
AcDbVertex
100
AcDb2dVertex
 10
283.0044415072768
 20
149.3718829095307
 30
0.0
  0
VERTEX
  5
276
330
272
100
AcDbEntity
  8
Default
100
AcDbVertex
100
AcDb2dVertex
 10
280.8347529921854
 20
147.1577348233629
 30
0.0
  0
SEQEND
  5
277
330
272
100
AcDbEntity
  8
Default
  0
SPLINE
  5
278
330
1F
100
AcDbEntity
  8
Default
100
AcDbSpline
210
0.0
220
0.0
230
1.0
 70
    15
 71
     2
 72
    12
 73
     9
 74
     0
 42
0.000000001
 43
0.0000000001
 40
0.0
 40
0.0
 40
0.0
 40
3.926990816987241
 40
3.926990816987241
 40
7.853981633974483
 40
7.853981633974483
 40
11.78097245096172
 40
11.78097245096172
 40
15.70796326794897
 40
15.70796326794897
 40
15.70796326794897
 10
169.6745459796905
 20
145.2152972551529
 30
0.0
 41
1.0
 10
165.8250986142056
 20
141.2869700055003
 30
0.0
 41
0.7071067811865476
 10
161.8967713645532
 20
145.136417370985
 30
0.0
 41
1.0
 10
157.9684441149005
 20
148.9858647364698
 30
0.0
 41
0.7071067811865476
 10
161.8178914803853
 20
152.9141919861223
 30
0.0
 41
1.0
 10
165.6673388458699
 20
156.8425192357749
 30
0.0
 41
0.7071067811865476
 10
169.5956660955226
 20
152.9930718702901
 30
0.0
 41
1.0
 10
173.5239933451751
 20
149.1436245048056
 30
0.0
 41
0.7071067811865476
 10
169.6745459796905
 20
145.2152972551529
 30
0.0
 41
1.0
  0
LINE
  5
279
330
1F
100
AcDbEntity
  8
Default
100
AcDbLine
 10
295.0108053413506
 20
129.5175781678479
 30
0.0
 11
297.1105039043424
 21
131.6603021222039
 31
0.0
  0
LINE
  5
27A
330
1F
100
AcDbEntity
  8
Default
100
AcDbLine
 10
297.1105039043424
 20
131.6603021222039
 30
0.0
 11
289.9680907231559
 21
138.6592973321762
 31
0.0
  0
LINE
  5
27B
330
1F
100
AcDbEntity
  8
Default
100
AcDbLine
 10
289.9680907231559
 20
138.6592973321762
 30
0.0
 11
287.8683921601643
 21
136.5165733778203
 31
0.0
  0
LINE
  5
27C
330
1F
100
AcDbEntity
  8
Default
100
AcDbLine
 10
287.8683921601643
 20
136.5165733778203
 30
0.0
 11
295.0108053413506
 21
129.5175781678479
 31
0.0
  0
SPLINE
  5
27D
330
1F
100
AcDbEntity
  8
Default
100
AcDbSpline
210
0.0
220
0.0
230
1.0
 70
    12
 71
     2
 72
     6
 73
     3
 74
     0
 42
0.000000001
 43
0.0000000001
 40
491.8200833381188
 40
491.8200833381188
 40
491.8200833381188
 40
496.5324723185036
 40
496.5324723185036
 40
496.5324723185036
 10
177.6081407879823
 20
145.8415280478443
 30
0.0
 41
1.0
 10
179.707839350974
 20
147.9842520022004
 30
0.0
 41
0.7071067811865471
 10
177.5651153966179
 20
150.0839505651919
 30
0.0
 41
1.0
  0
LINE
  5
27E
330
1F
100
AcDbEntity
  8
Default
100
AcDbLine
 10
177.5651153966179
 20
150.0839505651919
 30
0.0
 11
159.5337439463096
 21
167.7532563318144
 31
0.0
  0
LINE
  5
27F
330
1F
100
AcDbEntity
  8
Default
100
AcDbLine
 10
159.5337439463096
 20
167.7532563318144
 30
0.0
 11
160.2765574178279
 21
167.0253583795153
 31
0.0
  0
LINE
  5
280
330
1F
100
AcDbEntity
  8
Default
100
AcDbLine
 10
160.2765574178279
 20
167.0253583795153
 30
0.0
 11
159.0884067149624
 21
168.1896512966466
 31
0.0
  0
ARC
  5
281
330
1F
100
AcDbEntity
  8
Default
100
AcDbCircle
 10
156.9887081519707
 20
166.0469273422907
 30
0.0
 40
3.000000000000043
100
AcDbArc
 50
45.58105688776604
 51
135.5810568877645
  0
SPLINE
  5
282
330
1F
100
AcDbEntity
  8
Default
100
AcDbSpline
210
0.0
220
0.0
230
1.0
 70
    12
 71
     2
 72
    10
 73
     7
 74
     0
 42
0.000000001
 43
0.0000000001
 40
542.0716919151952
 40
542.0716919151952
 40
542.0716919151952
 40
552.3176916206288
 40
552.3176916206288
 40
572.3754990065291
 40
572.3754990065291
 40
575.6148097366913
 40
575.6148097366913
 40
575.6148097366913
 10
154.8459841976149
 20
168.1466259052824
 30
0.0
 41
1.0
 10
150.6474487938314
 20
163.8620573765122
 30
0.0
 41
1.0
 10
146.4489133900481
 20
159.5774888477419
 30
0.0
 41
1.0
 10
139.8172003679061
 20
152.7734887513598
 30
0.0
 41
1.0
 10
133.1854873457641
 20
145.9694886549776
 30
0.0
 41
1.0
 10
132.1356383145719
 20
144.8981269332322
 30
0.0
 41
1.0
 10
131.0857887827725
 20
143.8267647006216
 30
0.0
 41
1.0
  0
LINE
  5
283
330
1F
100
AcDbEntity
  8
Default
100
AcDbLine
 10
131.0857887827725
 20
143.8267647006216
 30
0.0
 11
136.7997193277216
 21
138.2275685326438
 31
0.0
  0
LINE
  5
284
330
1F
100
AcDbEntity
  8
Default
100
AcDbLine
 10
136.7997193277216
 20
138.2275685326438
 30
0.0
 11
138.8994178907133
 21
140.3702924869998
 31
0.0
  0
LINE
  5
285
330
1F
100
AcDbEntity
  8
Default
100
AcDbLine
 10
138.8994178907133
 20
140.3702924869998
 30
0.0
 11
150.2337133911825
 21
129.2635869655172
 31
0.0
  0
LINE
  5
286
330
1F
100
AcDbEntity
  8
Default
100
AcDbLine
 10
150.2337133911825
 20
129.2635869655172
 30
0.0
 11
148.1340148281909
 21
127.1208630111613
 31
0.0
  0
LINE
  5
287
330
1F
100
AcDbEntity
  8
Default
100
AcDbLine
 10
148.1340148281909
 20
127.1208630111613
 30
0.0
 11
153.84794537314
 21
121.5216668431835
 31
0.0
  0
LINE
  5
288
330
1F
100
AcDbEntity
  8
Default
100
AcDbLine
 10
153.84794537314
 20
121.5216668431835
 30
0.0
 11
155.9476439361317
 21
123.6643907975396
 31
0.0
  0
LINE
  5
289
330
1F
100
AcDbEntity
  8
Default
100
AcDbLine
 10
155.9476439361317
 20
123.6643907975396
 30
0.0
 11
169.2110699804156
 21
137.2723909903039
 31
0.0
  0
LINE
  5
28A
330
1F
100
AcDbEntity
  8
Default
100
AcDbLine
 10
169.2110699804156
 20
137.2723909903039
 30
0.0
 11
177.6081407879823
 21
145.8415280478443
 31
0.0
  0
LINE
  5
28B
330
1F
100
AcDbEntity
  8
Default
100
AcDbLine
 10
156.8097732799809
 20
172.7913301928056
 30
0.0
 11
181.8537665376469
 21
147.8354010033324
 31
0.0
  0
LINE
  5
28C
330
1F
100
AcDbEntity
  8
Default
100
AcDbLine
 10
181.8537665376469
 20
147.8354010033324
 30
0.0
 11
271.8536269424968
 21
147.993916326079
 31
0.0
  0
LINE
  5
28D
330
1F
100
AcDbEntity
  8
Default
100
AcDbLine
 10
271.8536269424968
 20
147.993916326079
 30
0.0
 11
296.8095561319702
 21
173.0379095837446
 31
0.0
  0
LINE
  5
28E
330
1F
100
AcDbEntity
  8
Default
100
AcDbLine
 10
296.8095561319702
 20
173.0379095837446
 30
0.0
 11
271.7655628743042
 21
197.9938387732178
 31
0.0
  0
LINE
  5
28F
330
1F
100
AcDbEntity
  8
Default
100
AcDbLine
 10
271.7655628743042
 20
197.9938387732178
 30
0.0
 11
181.7657024694543
 21
197.8353234504713
 31
0.0
  0
LINE
  5
290
330
1F
100
AcDbEntity
  8
Default
100
AcDbLine
 10
181.7657024694543
 20
197.8353234504713
 30
0.0
 11
156.8097732799809
 21
172.7913301928056
 31
0.0
  0
LINE
  5
291
330
1F
100
AcDbEntity
  8
Default
100
AcDbLine
 10
181.9418306058394
 20
97.8354785561936
 30
0.0
 11
271.9416910106892
 21
97.99399387894022
 31
0.0
  0
LINE
  5
292
330
1F
100
AcDbEntity
  8
Default
100
AcDbLine
 10
271.9416910106892
 20
97.99399387894022
 30
0.0
 11
296.8976202001627
 21
123.0379871366059
 31
0.0
  0
LINE
  5
293
330
1F
100
AcDbEntity
  8
Default
100
AcDbLine
 10
296.8976202001627
 20
123.0379871366059
 30
0.0
 11
271.8536269424968
 21
147.993916326079
 31
0.0
  0
LINE
  5
294
330
1F
100
AcDbEntity
  8
Default
100
AcDbLine
 10
271.8536269424968
 20
147.993916326079
 30
0.0
 11
181.8537665376469
 21
147.8354010033324
 31
0.0
  0
LINE
  5
295
330
1F
100
AcDbEntity
  8
Default
100
AcDbLine
 10
181.8537665376469
 20
147.8354010033324
 30
0.0
 11
156.8978373481735
 21
122.7914077456668
 31
0.0
  0
LINE
  5
296
330
1F
100
AcDbEntity
  8
Default
100
AcDbLine
 10
156.8978373481735
 20
122.7914077456668
 30
0.0
 11
181.9418306058394
 21
97.8354785561936
 31
0.0
  0
CIRCLE
  5
297
330
1F
100
AcDbEntity
  8
Default
100
AcDbCircle
 10
283.026671292815
 20
147.1799646089012
 30
0.0
 40
5.449999999999978
  0
SPLINE
  5
298
330
1F
100
AcDbEntity
  8
Make2D$visible$lines
100
AcDbSpline
210
0.0
220
0.0
230
1.0
 70
    15
 71
     2
 72
    12
 73
     9
 74
     0
 42
0.000000001
 43
0.0000000001
 40
0.0
 40
0.0
 40
0.0
 40
5.497787143782138
 40
5.497787143782138
 40
10.99557428756428
 40
10.99557428756428
 40
16.49336143134641
 40
16.49336143134641
 40
21.99114857512855
 40
21.99114857512855
 40
21.99114857512855
 10
311.8314230563245
 20
127.4521369748726
 30
0.0
 41
1.0
 10
311.8375875410977
 20
123.9521424035729
 30
0.0
 41
0.7071067811865476
 10
315.3375821123976
 20
123.9583068883463
 30
0.0
 41
1.0
 10
318.8375766836971
 20
123.9644713731198
 30
0.0
 41
0.7071067811865476
 10
318.8314121989238
 20
127.4644659444195
 30
0.0
 41
1.0
 10
318.8252477141501
 20
130.9644605157193
 30
0.0
 41
0.7071067811865476
 10
315.3252531428506
 20
130.9582960309458
 30
0.0
 41
1.0
 10
311.8252585715507
 20
130.9521315461724
 30
0.0
 41
0.7071067811865476
 10
311.8314230563245
 20
127.4521369748726
 30
0.0
 41
1.0
  0
SPLINE
  5
299
330
1F
100
AcDbEntity
  8
Make2D$visible$lines
100
AcDbSpline
210
0.0
220
0.0
230
1.0
 70
    28
 71
     2
 72
     6
 73
     3
 74
     0
 42
0.000000001
 43
0.0000000001
 40
-31.96363088217647
 40
-31.96363088217647
 40
-31.96363088217647
 40
-26.46424844311697
 40
-26.46424844311697
 40
-26.46424844311697
 10
336.0952394037868
 20
107.9942246411451
 30
0.0
 41
1.0
 10
336.1000823836882
 20
105.2445376865439
 30
0.0
 41
1.0
 10
336.1049253635894
 20
102.4948507319426
 30
0.0
 41
1.0
  0
LINE
  5
29A
330
1F
100
AcDbEntity
  8
Make2D$visible$lines
100
AcDbLine
 10
336.1049253635894
 20
102.4948507319426
 30
0.0
 11
336.110209207681
 21
99.49485538511425
 31
0.0
  0
LINE
  5
29B
330
1F
100
AcDbEntity
  8
Make2D$visible$lines
100
AcDbLine
 10
336.110209207681
 20
99.49485538511425
 30
0.0
 11
328.1102216161387
 21
99.48076513420352
 31
0.0
  0
LINE
  5
29C
330
1F
100
AcDbEntity
  8
Make2D$visible$lines
100
AcDbLine
 10
328.1102216161387
 20
99.48076513420352
 30
0.0
 11
328.1049377720472
 21
102.4807604810318
 31
0.0
  0
LINE
  5
29D
330
1F
100
AcDbEntity
  8
Make2D$visible$lines
100
AcDbLine
 10
328.1049377720472
 20
102.4807604810318
 30
0.0
 11
302.6459615513933
 21
102.4359199911216
 31
0.0
  0
LINE
  5
29E
330
1F
100
AcDbEntity
  8
Make2D$visible$lines
100
AcDbLine
 10
302.6459615513933
 20
102.4359199911216
 30
0.0
 11
302.6512453954849
 21
99.43592464429332
 31
0.0
  0
LINE
  5
29F
330
1F
100
AcDbEntity
  8
Make2D$visible$lines
100
AcDbLine
 10
302.6512453954849
 20
99.43592464429332
 30
0.0
 11
294.6512578039427
 21
99.42183439338248
 31
0.0
  0
LINE
  5
2A0
330
1F
100
AcDbEntity
  8
Make2D$visible$lines
100
AcDbLine
 10
294.6512578039427
 20
99.42183439338248
 30
0.0
 11
294.6459739598511
 21
102.4218297402107
 31
0.0
  0
LINE
  5
2A1
330
1F
100
AcDbEntity
  8
Make2D$visible$lines
100
AcDbLine
 10
294.6459739598511
 20
102.4218297402107
 30
0.0
 11
294.6362880000485
 21
107.9212036494134
 31
0.0
  0
LINE
  5
2A2
330
1F
100
AcDbEntity
  8
Make2D$visible$lines
100
AcDbLine
 10
294.6362880000485
 20
107.9212036494134
 30
0.0
 11
309.4394802716354
 21
130.7518670340814
 31
0.0
  0
ARC
  5
2A3
330
1F
100
AcDbEntity
  8
Make2D$visible$lines
100
AcDbCircle
 10
315.331417627624
 20
127.4583014596461
 30
0.0
 40
6.749999999999973
100
AcDbArc
 50
29.40681538394657
 51
150.7950126977698
  0
LINE
  5
2A4
330
1F
100
AcDbEntity
  8
Make2D$visible$lines
100
AcDbLine
 10
321.2117166553743
 20
130.772601286795
 30
0.0
 11
336.0952394037868
 21
107.9942246411451
 31
0.0
  0
LINE
  5
2A5
330
1F
100
AcDbEntity
  8
Default
100
AcDbLine
 10
299.1462940368418
 20
137.7046813426746
 30
0.0
 11
299.1470826590202
 21
134.7046814463288
 31
0.0
  0
LINE
  5
2A6
330
1F
100
AcDbEntity
  8
Default
100
AcDbLine
 10
299.1470826590202
 20
134.7046814463288
 30
0.0
 11
307.1470823826092
 21
134.7067844388048
 31
0.0
  0
LINE
  5
2A7
330
1F
100
AcDbEntity
  8
Default
100
AcDbLine
 10
307.1470823826092
 20
134.7067844388048
 30
0.0
 11
307.1462937604308
 21
137.7067843351506
 31
0.0
  0
LINE
  5
2A8
330
1F
100
AcDbEntity
  8
Default
100
AcDbLine
 10
307.1462937604308
 20
137.7067843351506
 30
0.0
 11
323.0152932446788
 21
137.7109558836095
 31
0.0
  0
LINE
  5
2A9
330
1F
100
AcDbEntity
  8
Default
100
AcDbLine
 10
323.0152932446788
 20
137.7109558836095
 30
0.0
 11
323.0160818668573
 21
134.7109559872637
 31
0.0
  0
LINE
  5
2AA
330
1F
100
AcDbEntity
  8
Default
100
AcDbLine
 10
323.0160818668573
 20
134.7109559872637
 30
0.0
 11
331.0160815904463
 21
134.7130589797397
 31
0.0
  0
LINE
  5
2AB
330
1F
100
AcDbEntity
  8
Default
100
AcDbLine
 10
331.0160815904463
 20
134.7130589797397
 30
0.0
 11
331.0174704609586
 21
137.782343818527
 31
0.0
  0
LINE
  5
2AC
330
1F
100
AcDbEntity
  8
Default
100
AcDbLine
 10
331.0174704609586
 20
137.782343818527
 30
0.0
 11
334.9619075705053
 21
137.7892878028069
 31
0.0
  0
LINE
  5
2AD
330
1F
100
AcDbEntity
  8
Default
100
AcDbLine
 10
334.9619075705053
 20
137.7892878028069
 30
0.0
 11
334.9073456881346
 21
168.7677554467698
 31
0.0
  0
LINE
  5
2AE
330
1F
100
AcDbEntity
  8
Default
100
AcDbLine
 10
334.9073456881346
 20
168.7677554467698
 30
0.0
 11
326.2926837404009
 21
168.7118176086043
 31
0.0
  0
LINE
  5
2AF
330
1F
100
AcDbEntity
  8
Default
100
AcDbLine
 10
326.2926837404009
 20
168.7118176086043
 30
0.0
 11
326.2958375818096
 21
156.7142804400232
 31
0.0
  0
LINE
  5
2B0
330
1F
100
AcDbEntity
  8
Default
100
AcDbLine
 10
326.2958375818096
 20
156.7142804400232
 30
0.0
 11
303.7538670863997
 21
156.7083547405251
 31
0.0
  0
LINE
  5
2B1
330
1F
100
AcDbEntity
  8
Default
100
AcDbLine
 10
303.7538670863997
 20
156.7083547405251
 30
0.0
 11
303.7507132449912
 21
168.7058919091062
 31
0.0
  0
LINE
  5
2B2
330
1F
100
AcDbEntity
  8
Default
100
AcDbLine
 10
303.7507132449912
 20
168.7058919091062
 30
0.0
 11
299.0871990269831
 21
168.7046659921497
 31
0.0
  0
LINE
  5
2B3
330
1F
100
AcDbEntity
  8
Default
100
AcDbLine
 10
299.0871990269831
 20
168.7046659921497
 30
0.0
 11
295.1449576231904
 21
168.6977225850638
 31
0.0
  0
LINE
  5
2B4
330
1F
100
AcDbEntity
  8
Default
100
AcDbLine
 10
295.1449576231904
 20
168.6977225850638
 30
0.0
 11
295.199519505561
 21
137.719254941101
 31
0.0
  0
LINE
  5
2B5
330
1F
100
AcDbEntity
  8
Default
100
AcDbLine
 10
295.199519505561
 20
137.719254941101
 30
0.0
 11
299.1417609093536
 21
137.7261983481869
 31
0.0
  0
POLYLINE
  5
2B6
330
1F
100
AcDbEntity
  8
Default
100
AcDb2dPolyline
 66
     1
 10
0.0
 20
0.0
 30
0.0
 70
     1
  0
VERTEX
  5
2B7
330
2B6
100
AcDbEntity
  8
Default
100
AcDbVertex
100
AcDb2dVertex
 10
271.7750627586072
 20
135.8232669295945
 30
0.0
  0
VERTEX
  5
2B8
330
2B6
100
AcDbEntity
  8
Default
100
AcDbVertex
100
AcDb2dVertex
 10
268.9750671015674
 20
135.8183353417757
 30
0.0
  0
VERTEX
  5
2B9
330
2B6
100
AcDbEntity
  8
Default
100
AcDbVertex
100
AcDb2dVertex
 10
268.9613291069293
 20
143.6183232435293
 30
0.0
  0
VERTEX
  5
2BA
330
2B6
100
AcDbEntity
  8
Default
100
AcDbVertex
100
AcDb2dVertex
 10
271.7613247639692
 20
143.6232548313481
 30
0.0
  0
SEQEND
  5
2BB
330
2B6
100
AcDbEntity
  8
Default
  0
POLYLINE
  5
2BC
330
1F
100
AcDbEntity
  8
Default
100
AcDb2dPolyline
 66
     1
 10
0.0
 20
0.0
 30
0.0
 70
     1
  0
VERTEX
  5
2BD
330
2BC
100
AcDbEntity
  8
Default
100
AcDbVertex
100
AcDb2dVertex
 10
33.14349331783734
 20
204.0039844413625
 30
0.0
  0
VERTEX
  5
2BE
330
2BC
100
AcDbEntity
  8
Default
100
AcDbVertex
100
AcDb2dVertex
 10
35.94349331783741
 20
204.0039844413625
 30
0.0
  0
VERTEX
  5
2BF
330
2BC
100
AcDbEntity
  8
Default
100
AcDbVertex
100
AcDb2dVertex
 10
35.94349331783741
 20
196.2039844413625
 30
0.0
  0
VERTEX
  5
2C0
330
2BC
100
AcDbEntity
  8
Default
100
AcDbVertex
100
AcDb2dVertex
 10
33.14349331783734
 20
196.2039844413625
 30
0.0
  0
SEQEND
  5
2C1
330
2BC
100
AcDbEntity
  8
Default
  0
LINE
  5
2C2
330
1F
100
AcDbEntity
  8
Default
100
AcDbLine
 10
5.768990793805358
 20
202.1707813860198
 30
0.0
 11
5.773486016759023
 21
205.1707780181796
 31
0.0
  0
LINE
  5
2C3
330
1F
100
AcDbEntity
  8
Default
100
AcDbLine
 10
5.773486016759023
 20
205.1707780181796
 30
0.0
 11
-2.226505002334022
 21
205.1827652793894
 31
0.0
  0
LINE
  5
2C4
330
1F
100
AcDbEntity
  8
Default
100
AcDbLine
 10
-2.226505002334022
 20
205.1827652793894
 30
0.0
 11
-2.231000225287687
 21
202.1827686472295
 31
0.0
  0
LINE
  5
2C5
330
1F
100
AcDbEntity
  8
Default
100
AcDbLine
 10
-2.231000225287687
 20
202.1827686472295
 30
0.0
 11
-18.09998244308008
 21
202.2065468782955
 31
0.0
  0
LINE
  5
2C6
330
1F
100
AcDbEntity
  8
Default
100
AcDbLine
 10
-18.09998244308008
 20
202.2065468782955
 30
0.0
 11
-18.09548722012642
 21
205.2065435104554
 31
0.0
  0
LINE
  5
2C7
330
1F
100
AcDbEntity
  8
Default
100
AcDbLine
 10
-18.09548722012642
 20
205.2065435104554
 30
0.0
 11
-26.09547823921946
 21
205.2185307716651
 31
0.0
  0
LINE
  5
2C8
330
1F
100
AcDbEntity
  8
Default
100
AcDbLine
 10
-26.09547823921946
 20
205.2185307716651
 30
0.0
 11
-26.10227298176449
 21
202.1492531397061
 31
0.0
  0
LINE
  5
2C9
330
1F
100
AcDbEntity
  8
Default
100
AcDbLine
 10
-26.10227298176449
 20
202.1492531397061
 30
0.0
 11
-30.04671620357351
 21
202.1492564297686
 31
0.0
  0
LINE
  5
2CA
330
1F
100
AcDbEntity
  8
Default
100
AcDbLine
 10
-30.04671620357351
 20
202.1492564297686
 30
0.0
 11
-30.04671620357351
 21
171.1707407363552
 31
0.0
  0
LINE
  5
2CB
330
1F
100
AcDbEntity
  8
Default
100
AcDbLine
 10
-30.04671620357351
 20
171.1707407363552
 30
0.0
 11
-21.4319690954016
 21
171.2115056442134
 31
0.0
  0
LINE
  5
2CC
330
1F
100
AcDbEntity
  8
Default
100
AcDbLine
 10
-21.4319690954016
 20
171.2115056442134
 30
0.0
 11
-21.41399189329127
 21
183.2090297587299
 31
0.0
  0
LINE
  5
2CD
330
1F
100
AcDbEntity
  8
Default
100
AcDbLine
 10
-21.41399189329127
 20
183.2090297587299
 30
0.0
 11
1.12795407505655
 21
183.1752526964989
 31
0.0
  0
LINE
  5
2CE
330
1F
100
AcDbEntity
  8
Default
100
AcDbLine
 10
1.12795407505655
 20
183.1752526964989
 30
0.0
 11
1.109976872946106
 21
171.1777285819824
 31
0.0
  0
LINE
  5
2CF
330
1F
100
AcDbEntity
  8
Default
100
AcDbLine
 10
1.109976872946106
 20
171.1777285819824
 30
0.0
 11
5.773486016761467
 21
171.1707407363552
 31
0.0
  0
LINE
  5
2D0
330
1F
100
AcDbEntity
  8
Default
100
AcDbLine
 10
5.773486016761467
 20
171.1707407363552
 30
0.0
 11
9.715733535205686
 21
171.1707407363552
 31
0.0
  0
LINE
  5
2D1
330
1F
100
AcDbEntity
  8
Default
100
AcDbLine
 10
9.715733535205686
 20
171.1707407363552
 30
0.0
 11
9.715733535205686
 21
202.1492564297686
 31
0.0
  0
LINE
  5
2D2
330
1F
100
AcDbEntity
  8
Default
100
AcDbLine
 10
9.715733535205686
 20
202.1492564297686
 30
0.0
 11
5.773486016761467
 21
202.1492564297686
 31
0.0
  0
SPLINE
  5
2D3
330
1F
100
AcDbEntity
  8
Make2D$visible$lines
100
AcDbSpline
210
0.0
220
0.0
230
1.0
 70
    28
 71
     2
 72
     6
 73
     3
 74
     0
 42
0.000000001
 43
0.0000000001
 40
-31.96363088217647
 40
-31.96363088217647
 40
-31.96363088217647
 40
-26.46424844311697
 40
-26.46424844311697
 40
-26.46424844311697
 10
-31.1275687895112
 20
231.9462694938194
 30
0.0
 41
1.0
 10
-31.1275687895112
 20
234.6959607133491
 30
0.0
 41
1.0
 10
-31.1275687895112
 20
237.4456519328788
 30
0.0
 41
1.0
  0
LINE
  5
2D4
330
1F
100
AcDbEntity
  8
Make2D$visible$lines
100
AcDbLine
 10
-31.1275687895112
 20
237.4456519328788
 30
0.0
 11
-31.12756878951114
 21
240.4456519328788
 31
0.0
  0
LINE
  5
2D5
330
1F
100
AcDbEntity
  8
Make2D$visible$lines
100
AcDbLine
 10
-31.12756878951114
 20
240.4456519328788
 30
0.0
 11
-23.12756878951114
 21
240.4456519328788
 31
0.0
  0
LINE
  5
2D6
330
1F
100
AcDbEntity
  8
Make2D$visible$lines
100
AcDbLine
 10
-23.12756878951114
 20
240.4456519328788
 30
0.0
 11
-23.12756878951114
 21
237.4456519328788
 31
0.0
  0
LINE
  5
2D7
330
1F
100
AcDbEntity
  8
Make2D$visible$lines
100
AcDbLine
 10
-23.12756878951114
 20
237.4456519328788
 30
0.0
 11
2.331446919532937
 21
237.4456519328787
 31
0.0
  0
LINE
  5
2D8
330
1F
100
AcDbEntity
  8
Make2D$visible$lines
100
AcDbLine
 10
2.331446919532937
 20
237.4456519328787
 30
0.0
 11
2.331446919532993
 21
240.4456519328787
 31
0.0
  0
LINE
  5
2D9
330
1F
100
AcDbEntity
  8
Make2D$visible$lines
100
AcDbLine
 10
2.331446919532993
 20
240.4456519328787
 30
0.0
 11
10.33144691953299
 21
240.4456519328787
 31
0.0
  0
LINE
  5
2DA
330
1F
100
AcDbEntity
  8
Make2D$visible$lines
100
AcDbLine
 10
10.33144691953299
 20
240.4456519328787
 30
0.0
 11
10.33144691953299
 21
237.4456519328787
 31
0.0
  0
LINE
  5
2DB
330
1F
100
AcDbEntity
  8
Make2D$visible$lines
100
AcDbLine
 10
10.33144691953299
 20
237.4456519328787
 30
0.0
 11
10.33144691953299
 21
231.9462694938192
 31
0.0
  0
LINE
  5
2DC
330
1F
100
AcDbEntity
  8
Make2D$visible$lines
100
AcDbLine
 10
10.33144691953299
 20
231.9462694938192
 30
0.0
 11
-4.511933613399435
 21
209.14171410749
 31
0.0
  0
ARC
  5
2DD
330
1F
100
AcDbEntity
  8
Make2D$visible$lines
100
AcDbCircle
 10
-10.39806093498919
 20
212.4456519328787
 30
0.0
 40
6.749999999999973
100
AcDbArc
 50
209.3059013430883
 51
330.6940986569116
  0
LINE
  5
2DE
330
1F
100
AcDbEntity
  8
Make2D$visible$lines
100
AcDbLine
 10
-16.28418825657894
 20
209.14171410749
 30
0.0
 11
-31.1275687895112
 21
231.9462694938194
 31
0.0
  0
SPLINE
  5
2DF
330
1F
100
AcDbEntity
  8
Make2D$visible$lines
100
AcDbSpline
210
0.0
220
0.0
230
1.0
 70
    15
 71
     2
 72
    12
 73
     9
 74
     0
 42
0.000000001
 43
0.0000000001
 40
0.0
 40
0.0
 40
0.0
 40
5.497787143782138
 40
5.497787143782138
 40
10.99557428756428
 40
10.99557428756428
 40
16.49336143134641
 40
16.49336143134641
 40
21.99114857512855
 40
21.99114857512855
 40
21.99114857512855
 10
-6.898060934989246
 20
212.4456519328788
 30
0.0
 41
1.0
 10
-6.89806093498906
 20
215.9456519328788
 30
0.0
 41
0.7071067811865476
 10
-10.39806093498925
 20
215.9456519328788
 30
0.0
 41
1.0
 10
-13.89806093498908
 20
215.9456519328788
 30
0.0
 41
0.7071067811865476
 10
-13.89806093498925
 20
212.4456519328788
 30
0.0
 41
1.0
 10
-13.89806093498908
 20
208.9456519328787
 30
0.0
 41
0.7071067811865476
 10
-10.39806093498919
 20
208.9456519328788
 30
0.0
 41
1.0
 10
-6.8980609349891
 20
208.9456519328787
 30
0.0
 41
0.7071067811865476
 10
-6.898060934989246
 20
212.4456519328788
 30
0.0
 41
1.0
  0
CIRCLE
  5
2E0
330
1F
100
AcDbEntity
  8
Default
100
AcDbCircle
 10
21.87189989554076
 20
192.6671216253684
 30
0.0
 40
5.449999999999978
  0
LINE
  5
2E1
330
1F
100
AcDbEntity
  8
Default
100
AcDbLine
 10
123.0434933178373
 20
241.8334922958845
 30
0.0
 11
33.04349331783737
 21
241.8334922958845
 31
0.0
  0
LINE
  5
2E2
330
1F
100
AcDbEntity
  8
Default
100
AcDbLine
 10
33.04349331783737
 20
241.8334922958845
 30
0.0
 11
8.043493317836976
 21
216.8334922958845
 31
0.0
  0
LINE
  5
2E3
330
1F
100
AcDbEntity
  8
Default
100
AcDbLine
 10
8.043493317836976
 20
216.8334922958845
 30
0.0
 11
33.04349331783737
 21
191.8334922958845
 31
0.0
  0
LINE
  5
2E4
330
1F
100
AcDbEntity
  8
Default
100
AcDbLine
 10
33.04349331783737
 20
191.8334922958845
 30
0.0
 11
123.0434933178373
 21
191.8334922958845
 31
0.0
  0
LINE
  5
2E5
330
1F
100
AcDbEntity
  8
Default
100
AcDbLine
 10
123.0434933178373
 20
191.8334922958845
 30
0.0
 11
148.0434933178377
 21
216.8334922958845
 31
0.0
  0
LINE
  5
2E6
330
1F
100
AcDbEntity
  8
Default
100
AcDbLine
 10
148.0434933178377
 20
216.8334922958845
 30
0.0
 11
123.0434933178373
 21
241.8334922958845
 31
0.0
  0
LINE
  5
2E7
330
1F
100
AcDbEntity
  8
Default
100
AcDbLine
 10
148.0434933178378
 20
166.8334922958845
 30
0.0
 11
123.0434933178374
 21
191.8334922958845
 31
0.0
  0
LINE
  5
2E8
330
1F
100
AcDbEntity
  8
Default
100
AcDbLine
 10
123.0434933178374
 20
191.8334922958845
 30
0.0
 11
33.04349331783737
 21
191.8334922958845
 31
0.0
  0
LINE
  5
2E9
330
1F
100
AcDbEntity
  8
Default
100
AcDbLine
 10
33.04349331783737
 20
191.8334922958845
 30
0.0
 11
8.043493317837033
 21
166.8334922958845
 31
0.0
  0
LINE
  5
2EA
330
1F
100
AcDbEntity
  8
Default
100
AcDbLine
 10
8.043493317837033
 20
166.8334922958845
 30
0.0
 11
33.04349331783737
 21
141.8334922958845
 31
0.0
  0
LINE
  5
2EB
330
1F
100
AcDbEntity
  8
Default
100
AcDbLine
 10
33.04349331783737
 20
141.8334922958845
 30
0.0
 11
123.0434933178374
 21
141.8334922958845
 31
0.0
  0
LINE
  5
2EC
330
1F
100
AcDbEntity
  8
Default
100
AcDbLine
 10
123.0434933178374
 20
141.8334922958845
 30
0.0
 11
148.0434933178378
 21
166.8334922958845
 31
0.0
  0
SPLINE
  5
2ED
330
1F
100
AcDbEntity
  8
Default
100
AcDbSpline
210
0.0
220
0.0
230
1.0
 70
    12
 71
     2
 72
     6
 73
     3
 74
     0
 42
0.000000001
 43
0.0000000001
 40
491.8200833381188
 40
491.8200833381188
 40
491.8200833381188
 40
496.5324723185036
 40
496.5324723185036
 40
496.5324723185036
 10
127.2926242535719
 20
193.8198844172508
 30
0.0
 41
1.0
 10
125.1891550075642
 20
191.680861946331
 30
0.0
 41
0.7071067811865471
 10
127.328177478484
 20
189.5773927003234
 30
0.0
 41
1.0
  0
LINE
  5
2EE
330
1F
100
AcDbEntity
  8
Default
100
AcDbLine
 10
127.328177478484
 20
189.5773927003234
 30
0.0
 11
145.3284003421444
 21
171.8763560213051
 31
0.0
  0
LINE
  5
2EF
330
1F
100
AcDbEntity
  8
Default
100
AcDbLine
 10
145.3284003421444
 20
171.8763560213051
 30
0.0
 11
144.5868700558705
 21
172.6055611481171
 31
0.0
  0
LINE
  5
2F0
330
1F
100
AcDbEntity
  8
Default
100
AcDbLine
 10
144.5868700558705
 20
172.6055611481171
 30
0.0
 11
145.7729682684293
 21
171.4391773691802
 31
0.0
  0
ARC
  5
2F1
330
1F
100
AcDbEntity
  8
Default
100
AcDbCircle
 10
147.876437514437
 20
173.5781998401
 30
0.0
 40
3.000000000000043
100
AcDbArc
 50
225.4801428469082
 51
315.4801428469067
  0
SPLINE
  5
2F2
330
1F
100
AcDbEntity
  8
Default
100
AcDbSpline
210
0.0
220
0.0
230
1.0
 70
    12
 71
     2
 72
    10
 73
     7
 74
     0
 42
0.000000001
 43
0.0000000001
 40
542.0716919151952
 40
542.0716919151952
 40
542.0716919151952
 40
552.3176916206288
 40
552.3176916206288
 40
572.3754990065291
 40
572.3754990065291
 40
575.6148097366913
 40
575.6148097366913
 40
575.6148097366913
 10
150.0154599853568
 20
171.4747305940923
 30
0.0
 41
1.0
 10
154.2215352076734
 20
175.7518976750894
 30
0.0
 41
1.0
 10
158.4276104299899
 20
180.0290647560865
 30
0.0
 41
1.0
 10
165.0712969245349
 20
186.8213739865188
 30
0.0
 41
1.0
 10
171.7149834190798
 20
193.6136832169512
 30
0.0
 41
1.0
 10
172.7667177913306
 20
194.6831941974198
 30
0.0
 41
1.0
 10
173.8184526650875
 20
195.752705687871
 30
0.0
 41
1.0
  0
LINE
  5
2F3
330
1F
100
AcDbEntity
  8
Default
100
AcDbLine
 10
173.8184526650875
 20
195.752705687871
 30
0.0
 11
168.1143927426348
 21
201.3619570105583
 31
0.0
  0
LINE
  5
2F4
330
1F
100
AcDbEntity
  8
Default
100
AcDbLine
 10
168.1143927426348
 20
201.3619570105583
 30
0.0
 11
166.0109234966271
 21
199.2229345396385
 31
0.0
  0
LINE
  5
2F5
330
1F
100
AcDbEntity
  8
Default
100
AcDbLine
 10
166.0109234966271
 20
199.2229345396385
 30
0.0
 11
154.6962076097476
 21
210.3495857174226
 31
0.0
  0
LINE
  5
2F6
330
1F
100
AcDbEntity
  8
Default
100
AcDbLine
 10
154.6962076097476
 20
210.3495857174226
 30
0.0
 11
156.7996768557553
 21
212.4886081883423
 31
0.0
  0
LINE
  5
2F7
330
1F
100
AcDbEntity
  8
Default
100
AcDbLine
 10
156.7996768557553
 20
212.4886081883423
 30
0.0
 11
151.0956169333026
 21
218.0978595110296
 31
0.0
  0
LINE
  5
2F8
330
1F
100
AcDbEntity
  8
Default
100
AcDbLine
 10
151.0956169333026
 20
218.0978595110296
 30
0.0
 11
148.9921476872949
 21
215.9588370401098
 31
0.0
  0
LINE
  5
2F9
330
1F
100
AcDbEntity
  8
Default
100
AcDbLine
 10
148.9921476872949
 20
215.9588370401098
 30
0.0
 11
135.704774698205
 21
202.374218579245
 31
0.0
  0
LINE
  5
2FA
330
1F
100
AcDbEntity
  8
Default
100
AcDbLine
 10
135.704774698205
 20
202.374218579245
 30
0.0
 11
127.2926242535719
 21
193.8198844172508
 31
0.0
  0
LINE
  5
2FB
330
1F
100
AcDbEntity
  8
Default
100
AcDbLine
 10
9.918892867162583
 20
210.350588103011
 30
0.0
 11
7.815423621154821
 21
208.2115656320913
 31
0.0
  0
LINE
  5
2FC
330
1F
100
AcDbEntity
  8
Default
100
AcDbLine
 10
7.815423621154821
 20
208.2115656320913
 30
0.0
 11
14.94549852422068
 21
201.2000014787322
 31
0.0
  0
LINE
  5
2FD
330
1F
100
AcDbEntity
  8
Default
100
AcDbLine
 10
14.94549852422068
 20
201.2000014787322
 30
0.0
 11
17.04896777022839
 21
203.3390239496519
 31
0.0
  0
LINE
  5
2FE
330
1F
100
AcDbEntity
  8
Default
100
AcDbLine
 10
17.04896777022839
 20
203.3390239496519
 30
0.0
 11
9.918892867162583
 21
210.350588103011
 31
0.0
  0
SPLINE
  5
2FF
330
1F
100
AcDbEntity
  8
Default
100
AcDbSpline
210
0.0
220
0.0
230
1.0
 70
    15
 71
     2
 72
    12
 73
     9
 74
     0
 42
0.000000001
 43
0.0000000001
 40
0.0
 40
0.0
 40
0.0
 40
3.926990816987241
 40
3.926990816987241
 40
7.853981633974483
 40
7.853981633974483
 40
11.78097245096172
 40
11.78097245096172
 40
15.70796326794897
 40
15.70796326794897
 40
15.70796326794897
 10
135.2273097250288
 20
194.4321409459383
 30
0.0
 41
1.0
 10
139.0836700093763
 20
198.3536821426245
 30
0.0
 41
0.7071067811865476
 10
143.0052112060625
 20
194.497321858277
 30
0.0
 41
1.0
 10
146.9267524027488
 20
190.6409615739296
 30
0.0
 41
0.7071067811865476
 10
143.0703921184013
 20
186.7194203772433
 30
0.0
 41
1.0
 10
139.2140318340539
 20
182.797879180557
 30
0.0
 41
0.7071067811865476
 10
135.2924906373675
 20
186.6542394649045
 30
0.0
 41
1.0
 10
131.3709494406813
 20
190.510599749252
 30
0.0
 41
0.7071067811865476
 10
135.2273097250288
 20
194.4321409459383
 30
0.0
 41
1.0
  0
POLYLINE
  5
300
330
1F
100
AcDbEntity
  8
Default
100
AcDb2dPolyline
 66
     1
 10
0.0
 20
0.0
 30
0.0
 70
     1
  0
VERTEX
  5
301
330
300
100
AcDbEntity
  8
Default
100
AcDbVertex
100
AcDb2dVertex
 10
21.85353072933617
 20
194.8590756791143
 30
0.0
  0
VERTEX
  5
302
330
300
100
AcDbEntity
  8
Default
100
AcDbVertex
100
AcDb2dVertex
 10
19.67994584179485
 20
192.6487524591639
 30
0.0
  0
VERTEX
  5
303
330
300
100
AcDbEntity
  8
Default
100
AcDbVertex
100
AcDb2dVertex
 10
21.8902690617453
 20
190.4751675716225
 30
0.0
  0
VERTEX
  5
304
330
300
100
AcDbEntity
  8
Default
100
AcDbVertex
100
AcDb2dVertex
 10
24.06385394928657
 20
192.6854907915729
 30
0.0
  0
SEQEND
  5
305
330
300
100
AcDbEntity
  8
Default
  0
POLYLINE
  5
306
330
1F
100
AcDbEntity
  8
Default
100
AcDb2dPolyline
 66
     1
 10
0.0
 20
0.0
 30
0.0
 70
     1
  0
VERTEX
  5
307
330
306
100
AcDbEntity
  8
Default
100
AcDbVertex
100
AcDb2dVertex
 10
14.50907852165761
 20
200.2056183208254
 30
0.0
  0
VERTEX
  5
308
330
306
100
AcDbEntity
  8
Default
100
AcDbVertex
100
AcDb2dVertex
 10
11.30907852165757
 20
200.2056183208254
 30
0.0
  0
VERTEX
  5
309
330
306
100
AcDbEntity
  8
Default
100
AcDbVertex
100
AcDb2dVertex
 10
11.30907852165763
 20
190.0056183208254
 30
0.0
  0
VERTEX
  5
30A
330
306
100
AcDbEntity
  8
Default
100
AcDbVertex
100
AcDb2dVertex
 10
14.50907852165761
 20
190.0056183208253
 30
0.0
  0
SEQEND
  5
30B
330
306
100
AcDbEntity
  8
Default
  0
POLYLINE
  5
30C
330
1F
100
AcDbEntity
  8
Default
100
AcDb2dPolyline
 66
     1
 10
0.0
 20
0.0
 30
0.0
 70
     1
  0
VERTEX
  5
30D
330
30C
100
AcDbEntity
  8
Default
100
AcDbVertex
100
AcDb2dVertex
 10
13.51901826346284
 20
189.1911979484084
 30
0.0
  0
VERTEX
  5
30E
330
30C
100
AcDbEntity
  8
Default
100
AcDbVertex
100
AcDb2dVertex
 10
11.2753177343879
 20
186.9095739794273
 30
0.0
  0
VERTEX
  5
30F
330
30C
100
AcDbEntity
  8
Default
100
AcDbVertex
100
AcDb2dVertex
 10
18.54799413551507
 20
179.757778543001
 30
0.0
  0
VERTEX
  5
310
330
30C
100
AcDbEntity
  8
Default
100
AcDbVertex
100
AcDb2dVertex
 10
20.79169466459001
 20
182.0394025119821
 30
0.0
  0
SEQEND
  5
311
330
30C
100
AcDbEntity
  8
Default
  0
POLYLINE
  5
312
330
1F
100
AcDbEntity
  8
Default
100
AcDb2dPolyline
 66
     1
 10
0.0
 20
0.0
 30
0.0
 70
     1
  0
VERTEX
  5
313
330
312
100
AcDbEntity
  8
Default
100
AcDbVertex
100
AcDb2dVertex
 10
33.1434933178374
 20
237.4630001504066
 30
0.0
  0
VERTEX
  5
314
330
312
100
AcDbEntity
  8
Default
100
AcDbVertex
100
AcDb2dVertex
 10
35.94349331783735
 20
237.4630001504066
 30
0.0
  0
VERTEX
  5
315
330
312
100
AcDbEntity
  8
Default
100
AcDbVertex
100
AcDb2dVertex
 10
35.94349331783735
 20
229.6630001504066
 30
0.0
  0
VERTEX
  5
316
330
312
100
AcDbEntity
  8
Default
100
AcDbVertex
100
AcDb2dVertex
 10
33.1434933178374
 20
229.6630001504066
 30
0.0
  0
SEQEND
  5
317
330
312
100
AcDbEntity
  8
Default
  0
POLYLINE
  5
318
330
1F
100
AcDbEntity
  8
Default
100
AcDb2dPolyline
 66
     1
 10
0.0
 20
0.0
 30
0.0
 70
     1
  0
VERTEX
  5
319
330
318
100
AcDbEntity
  8
Default
100
AcDbVertex
100
AcDb2dVertex
 10
46.39349446224651
 20
179.9733438309661
 30
0.0
  0
VERTEX
  5
31A
330
318
100
AcDbEntity
  8
Default
100
AcDbVertex
100
AcDb2dVertex
 10
46.39349446224651
 20
187.8733438309662
 30
0.0
  0
VERTEX
  5
31B
330
318
100
AcDbEntity
  8
Default
100
AcDbVertex
100
AcDb2dVertex
 10
49.19349446224658
 20
187.8733438309662
 30
0.0
  0
VERTEX
  5
31C
330
318
100
AcDbEntity
  8
Default
100
AcDbVertex
100
AcDb2dVertex
 10
49.19349446224658
 20
179.9733438309661
 30
0.0
  0
SEQEND
  5
31D
330
318
100
AcDbEntity
  8
Default
  0
POLYLINE
  5
31E
330
1F
100
AcDbEntity
  8
Default
100
AcDb2dPolyline
 66
     1
 10
0.0
 20
0.0
 30
0.0
 70
     1
  0
VERTEX
  5
31F
330
31E
100
AcDbEntity
  8
Default
100
AcDbVertex
100
AcDb2dVertex
 10
107.3434921734282
 20
237.4630001504066
 30
0.0
  0
VERTEX
  5
320
330
31E
100
AcDbEntity
  8
Default
100
AcDbVertex
100
AcDb2dVertex
 10
110.1434921734282
 20
237.4630001504066
 30
0.0
  0
VERTEX
  5
321
330
31E
100
AcDbEntity
  8
Default
100
AcDbVertex
100
AcDb2dVertex
 10
110.1434921734282
 20
229.6630001504066
 30
0.0
  0
VERTEX
  5
322
330
31E
100
AcDbEntity
  8
Default
100
AcDbVertex
100
AcDb2dVertex
 10
107.3434921734282
 20
229.6630001504066
 30
0.0
  0
SEQEND
  5
323
330
31E
100
AcDbEntity
  8
Default
  0
POLYLINE
  5
324
330
1F
100
AcDbEntity
  8
Default
100
AcDb2dPolyline
 66
     1
 10
0.0
 20
0.0
 30
0.0
 70
     1
  0
VERTEX
  5
325
330
324
100
AcDbEntity
  8
Default
100
AcDbVertex
100
AcDb2dVertex
 10
107.3434921734282
 20
204.0039844413625
 30
0.0
  0
VERTEX
  5
326
330
324
100
AcDbEntity
  8
Default
100
AcDbVertex
100
AcDb2dVertex
 10
110.1434921734282
 20
204.0039844413625
 30
0.0
  0
VERTEX
  5
327
330
324
100
AcDbEntity
  8
Default
100
AcDbVertex
100
AcDb2dVertex
 10
110.1434921734282
 20
196.2039844413625
 30
0.0
  0
VERTEX
  5
328
330
324
100
AcDbEntity
  8
Default
100
AcDbVertex
100
AcDb2dVertex
 10
107.3434921734282
 20
196.2039844413625
 30
0.0
  0
SEQEND
  5
329
330
324
100
AcDbEntity
  8
Default
  0
POLYLINE
  5
32A
330
1F
100
AcDbEntity
  8
Default
100
AcDb2dPolyline
 66
     1
 10
0.0
 20
0.0
 30
0.0
 70
     1
  0
VERTEX
  5
32B
330
32A
100
AcDbEntity
  8
Default
100
AcDbVertex
100
AcDb2dVertex
 10
110.2934921734282
 20
187.8733438309662
 30
0.0
  0
VERTEX
  5
32C
330
32A
100
AcDbEntity
  8
Default
100
AcDbVertex
100
AcDb2dVertex
 10
113.0934921734282
 20
187.8733438309662
 30
0.0
  0
VERTEX
  5
32D
330
32A
100
AcDbEntity
  8
Default
100
AcDbVertex
100
AcDb2dVertex
 10
113.0934921734282
 20
179.9733438309661
 30
0.0
  0
VERTEX
  5
32E
330
32A
100
AcDbEntity
  8
Default
100
AcDbVertex
100
AcDb2dVertex
 10
110.2934921734282
 20
179.9733438309661
 30
0.0
  0
SEQEND
  5
32F
330
32A
100
AcDbEntity
  8
Default
  0
POLYLINE
  5
330
330
1F
100
AcDbEntity
  8
Default
100
AcDb2dPolyline
 66
     1
 10
0.0
 20
0.0
 30
0.0
 70
     1
  0
VERTEX
  5
331
330
330
100
AcDbEntity
  8
Default
100
AcDbVertex
100
AcDb2dVertex
 10
113.0934921734282
 20
164.004343798422
 30
0.0
  0
VERTEX
  5
332
330
330
100
AcDbEntity
  8
Default
100
AcDbVertex
100
AcDb2dVertex
 10
113.0934921734282
 20
156.104343798422
 30
0.0
  0
VERTEX
  5
333
330
330
100
AcDbEntity
  8
Default
100
AcDbVertex
100
AcDb2dVertex
 10
110.2934921734282
 20
156.104343798422
 30
0.0
  0
VERTEX
  5
334
330
330
100
AcDbEntity
  8
Default
100
AcDbVertex
100
AcDb2dVertex
 10
110.2934921734282
 20
164.004343798422
 30
0.0
  0
SEQEND
  5
335
330
330
100
AcDbEntity
  8
Default
  0
POLYLINE
  5
336
330
1F
100
AcDbEntity
  8
Default
100
AcDb2dPolyline
 66
     1
 10
0.0
 20
0.0
 30
0.0
 70
     1
  0
VERTEX
  5
337
330
336
100
AcDbEntity
  8
Default
100
AcDbVertex
100
AcDb2dVertex
 10
49.19349446224652
 20
156.104343798422
 30
0.0
  0
VERTEX
  5
338
330
336
100
AcDbEntity
  8
Default
100
AcDbVertex
100
AcDb2dVertex
 10
46.39349446224657
 20
156.104343798422
 30
0.0
  0
VERTEX
  5
339
330
336
100
AcDbEntity
  8
Default
100
AcDbVertex
100
AcDb2dVertex
 10
46.39349446224657
 20
164.004343798422
 30
0.0
  0
VERTEX
  5
33A
330
336
100
AcDbEntity
  8
Default
100
AcDbVertex
100
AcDb2dVertex
 10
49.19349446224652
 20
164.004343798422
 30
0.0
  0
SEQEND
  5
33B
330
336
100
AcDbEntity
  8
Default
  0
LINE
  5
33C
330
1F
100
AcDbEntity
  8
Default
100
AcDbLine
 10
-10.41175585625763
 20
171.0820787980965
 30
0.0
 11
-7.411755932674055
 21
171.0814016728719
 31
0.0
  0
LINE
  5
33D
330
1F
100
AcDbEntity
  8
Default
100
AcDbLine
 10
-7.411755932674055
 20
171.0814016728719
 30
0.0
 11
-7.412433057898681
 21
168.0814017492884
 31
0.0
  0
LINE
  5
33E
330
1F
100
AcDbEntity
  8
Default
100
AcDbLine
 10
-7.412433057898681
 20
168.0814017492884
 30
0.0
 11
-10.4124329814822
 21
168.0820788745129
 31
0.0
  0
LINE
  5
33F
330
1F
100
AcDbEntity
  8
Default
100
AcDbLine
 10
-10.4124329814822
 20
168.0820788745129
 30
0.0
 11
-10.41175585625763
 21
171.0820787980965
 31
0.0
  0
SPLINE
  5
340
330
1F
100
AcDbEntity
  8
Make2D$visible$lines
100
AcDbSpline
210
0.0
220
0.0
230
1.0
 70
    28
 71
     2
 72
     6
 73
     3
 74
     0
 42
0.000000001
 43
0.0000000001
 40
-31.96363088217647
 40
-31.96363088217647
 40
-31.96363088217647
 40
-26.46424844311697
 40
-26.46424844311697
 40
-26.46424844311697
 10
11.78175462709822
 20
150.0763939660324
 30
0.0
 41
1.0
 10
11.79124608843705
 20
147.3267191279978
 30
0.0
 41
1.0
 10
11.80073754977587
 20
144.5770442899632
 30
0.0
 41
1.0
  0
LINE
  5
341
330
1F
100
AcDbEntity
  8
Make2D$visible$lines
100
AcDbLine
 10
11.80073754977587
 20
144.5770442899632
 30
0.0
 11
11.81109303398961
 21
141.577062162692
 31
0.0
  0
LINE
  5
342
330
1F
100
AcDbEntity
  8
Make2D$visible$lines
100
AcDbLine
 10
11.81109303398961
 20
141.577062162692
 30
0.0
 11
3.811140694599715
 21
141.549447538122
 31
0.0
  0
LINE
  5
343
330
1F
100
AcDbEntity
  8
Make2D$visible$lines
100
AcDbLine
 10
3.811140694599715
 20
141.549447538122
 30
0.0
 11
3.800785210385982
 21
144.5494296653932
 31
0.0
  0
LINE
  5
344
330
1F
100
AcDbEntity
  8
Make2D$visible$lines
100
AcDbLine
 10
3.800785210385982
 20
144.5494296653932
 30
0.0
 11
-21.65807882463048
 21
144.4615495203026
 31
0.0
  0
LINE
  5
345
330
1F
100
AcDbEntity
  8
Make2D$visible$lines
100
AcDbLine
 10
-21.65807882463048
 20
144.4615495203026
 30
0.0
 11
-21.6477233404168
 21
141.4615673930314
 31
0.0
  0
LINE
  5
346
330
1F
100
AcDbEntity
  8
Make2D$visible$lines
100
AcDbLine
 10
-21.6477233404168
 20
141.4615673930314
 30
0.0
 11
-29.6476756798067
 21
141.4339527684615
 31
0.0
  0
LINE
  5
347
330
1F
100
AcDbEntity
  8
Make2D$visible$lines
100
AcDbLine
 10
-29.6476756798067
 20
141.4339527684615
 30
0.0
 11
-29.65803116402043
 21
144.4339348957327
 31
0.0
  0
LINE
  5
348
330
1F
100
AcDbEntity
  8
Make2D$visible$lines
100
AcDbLine
 10
-29.65803116402043
 20
144.4339348957327
 30
0.0
 11
-29.67701408669808
 21
149.9332845718019
 31
0.0
  0
LINE
  5
349
330
1F
100
AcDbEntity
  8
Make2D$visible$lines
100
AcDbLine
 10
-29.67701408669808
 20
149.9332845718019
 30
0.0
 11
-14.91243938877193
 21
172.788940895849
 31
0.0
  0
ARC
  5
34A
330
1F
100
AcDbEntity
  8
Make2D$visible$lines
100
AcDbCircle
 10
-9.014942508903232
 20
169.5053406534414
 30
0.0
 40
6.750000000000009
100
AcDbArc
 50
29.50367691593003
 51
150.8918742297535
  0
LINE
  5
34B
330
1F
100
AcDbEntity
  8
Make2D$visible$lines
100
AcDbLine
 10
-3.140254879697238
 20
172.8295766948881
 30
0.0
 11
11.78175462709822
 21
150.0763939660324
 31
0.0
  0
CIRCLE
  5
34C
330
1F
100
AcDbEntity
  8
Default
100
AcDbCircle
 10
3.310658224303893
 20
177.1605818610489
 30
0.0
 40
0.9500120487542364
  0
CIRCLE
  5
34D
330
1F
100
AcDbEntity
  8
Default
100
AcDbCircle
 10
-23.85189578719456
 20
177.2012824854975
 30
0.0
 40
0.950012048754375
  0
CIRCLE
  5
34E
330
1F
100
AcDbEntity
  8
Default
100
AcDbCircle
 10
-10.39806093498913
 20
230.210405910705
 30
0.0
 40
1.9
  0
CIRCLE
  5
34F
330
1F
100
AcDbEntity
  8
Default
100
AcDbCircle
 10
-10.39806093498913
 20
330.210405910705
 30
0.0
 40
1.9
  0
CIRCLE
  5
350
330
1F
100
AcDbEntity
  8
Default
100
AcDbCircle
 10
-23.85189578719456
 20
277.2012824854975
 30
0.0
 40
0.950012048754375
  0
CIRCLE
  5
351
330
1F
100
AcDbEntity
  8
Default
100
AcDbCircle
 10
3.310658224303893
 20
277.1605818610489
 30
0.0
 40
0.9500120487542364
  0
SPLINE
  5
352
330
1F
100
AcDbEntity
  8
Make2D$visible$lines
100
AcDbSpline
210
0.0
220
0.0
230
1.0
 70
    28
 71
     2
 72
     6
 73
     3
 74
     0
 42
0.000000001
 43
0.0000000001
 40
-31.96363088217647
 40
-31.96363088217647
 40
-31.96363088217647
 40
-26.46424844311697
 40
-26.46424844311697
 40
-26.46424844311697
 10
11.78175462709822
 20
250.0763939660324
 30
0.0
 41
1.0
 10
11.79124608843705
 20
247.3267191279978
 30
0.0
 41
1.0
 10
11.80073754977587
 20
244.5770442899632
 30
0.0
 41
1.0
  0
LINE
  5
353
330
1F
100
AcDbEntity
  8
Make2D$visible$lines
100
AcDbLine
 10
11.80073754977587
 20
244.5770442899632
 30
0.0
 11
11.81109303398961
 21
241.577062162692
 31
0.0
  0
LINE
  5
354
330
1F
100
AcDbEntity
  8
Make2D$visible$lines
100
AcDbLine
 10
11.81109303398961
 20
241.577062162692
 30
0.0
 11
3.811140694599715
 21
241.549447538122
 31
0.0
  0
LINE
  5
355
330
1F
100
AcDbEntity
  8
Make2D$visible$lines
100
AcDbLine
 10
3.811140694599715
 20
241.549447538122
 30
0.0
 11
3.800785210385982
 21
244.5494296653932
 31
0.0
  0
LINE
  5
356
330
1F
100
AcDbEntity
  8
Make2D$visible$lines
100
AcDbLine
 10
3.800785210385982
 20
244.5494296653932
 30
0.0
 11
-21.65807882463048
 21
244.4615495203026
 31
0.0
  0
LINE
  5
357
330
1F
100
AcDbEntity
  8
Make2D$visible$lines
100
AcDbLine
 10
-21.65807882463048
 20
244.4615495203026
 30
0.0
 11
-21.6477233404168
 21
241.4615673930314
 31
0.0
  0
LINE
  5
358
330
1F
100
AcDbEntity
  8
Make2D$visible$lines
100
AcDbLine
 10
-21.6477233404168
 20
241.4615673930314
 30
0.0
 11
-29.6476756798067
 21
241.4339527684615
 31
0.0
  0
LINE
  5
359
330
1F
100
AcDbEntity
  8
Make2D$visible$lines
100
AcDbLine
 10
-29.6476756798067
 20
241.4339527684615
 30
0.0
 11
-29.65803116402043
 21
244.4339348957327
 31
0.0
  0
LINE
  5
35A
330
1F
100
AcDbEntity
  8
Make2D$visible$lines
100
AcDbLine
 10
-29.65803116402043
 20
244.4339348957327
 30
0.0
 11
-29.67701408669808
 21
249.9332845718019
 31
0.0
  0
LINE
  5
35B
330
1F
100
AcDbEntity
  8
Make2D$visible$lines
100
AcDbLine
 10
-29.67701408669808
 20
249.9332845718019
 30
0.0
 11
-14.91243938877193
 21
272.788940895849
 31
0.0
  0
ARC
  5
35C
330
1F
100
AcDbEntity
  8
Make2D$visible$lines
100
AcDbCircle
 10
-9.014942508903232
 20
269.5053406534414
 30
0.0
 40
6.750000000000009
100
AcDbArc
 50
29.50367691592982
 51
150.8918742297532
  0
LINE
  5
35D
330
1F
100
AcDbEntity
  8
Make2D$visible$lines
100
AcDbLine
 10
-3.140254879697238
 20
272.8295766948881
 30
0.0
 11
11.78175462709822
 21
250.0763939660324
 31
0.0
  0
LINE
  5
35E
330
1F
100
AcDbEntity
  8
Default
100
AcDbLine
 10
-10.41175585625763
 20
271.0820787980965
 30
0.0
 11
-7.411755932674055
 21
271.0814016728719
 31
0.0
  0
LINE
  5
35F
330
1F
100
AcDbEntity
  8
Default
100
AcDbLine
 10
-7.411755932674055
 20
271.0814016728719
 30
0.0
 11
-7.412433057898681
 21
268.0814017492884
 31
0.0
  0
LINE
  5
360
330
1F
100
AcDbEntity
  8
Default
100
AcDbLine
 10
-7.412433057898681
 20
268.0814017492884
 30
0.0
 11
-10.4124329814822
 21
268.0820788745129
 31
0.0
  0
LINE
  5
361
330
1F
100
AcDbEntity
  8
Default
100
AcDbLine
 10
-10.4124329814822
 20
268.0820788745129
 30
0.0
 11
-10.41175585625763
 21
271.0820787980965
 31
0.0
  0
POLYLINE
  5
362
330
1F
100
AcDbEntity
  8
Default
100
AcDb2dPolyline
 66
     1
 10
0.0
 20
0.0
 30
0.0
 70
     1
  0
VERTEX
  5
363
330
362
100
AcDbEntity
  8
Default
100
AcDbVertex
100
AcDb2dVertex
 10
49.19349446224652
 20
256.104343798422
 30
0.0
  0
VERTEX
  5
364
330
362
100
AcDbEntity
  8
Default
100
AcDbVertex
100
AcDb2dVertex
 10
46.39349446224657
 20
256.104343798422
 30
0.0
  0
VERTEX
  5
365
330
362
100
AcDbEntity
  8
Default
100
AcDbVertex
100
AcDb2dVertex
 10
46.39349446224657
 20
264.004343798422
 30
0.0
  0
VERTEX
  5
366
330
362
100
AcDbEntity
  8
Default
100
AcDbVertex
100
AcDb2dVertex
 10
49.19349446224652
 20
264.004343798422
 30
0.0
  0
SEQEND
  5
367
330
362
100
AcDbEntity
  8
Default
  0
POLYLINE
  5
368
330
1F
100
AcDbEntity
  8
Default
100
AcDb2dPolyline
 66
     1
 10
0.0
 20
0.0
 30
0.0
 70
     1
  0
VERTEX
  5
369
330
368
100
AcDbEntity
  8
Default
100
AcDbVertex
100
AcDb2dVertex
 10
113.0934921734282
 20
264.004343798422
 30
0.0
  0
VERTEX
  5
36A
330
368
100
AcDbEntity
  8
Default
100
AcDbVertex
100
AcDb2dVertex
 10
113.0934921734282
 20
256.104343798422
 30
0.0
  0
VERTEX
  5
36B
330
368
100
AcDbEntity
  8
Default
100
AcDbVertex
100
AcDb2dVertex
 10
110.2934921734282
 20
256.104343798422
 30
0.0
  0
VERTEX
  5
36C
330
368
100
AcDbEntity
  8
Default
100
AcDbVertex
100
AcDb2dVertex
 10
110.2934921734282
 20
264.004343798422
 30
0.0
  0
SEQEND
  5
36D
330
368
100
AcDbEntity
  8
Default
  0
POLYLINE
  5
36E
330
1F
100
AcDbEntity
  8
Default
100
AcDb2dPolyline
 66
     1
 10
0.0
 20
0.0
 30
0.0
 70
     1
  0
VERTEX
  5
36F
330
36E
100
AcDbEntity
  8
Default
100
AcDbVertex
100
AcDb2dVertex
 10
110.2934921734282
 20
287.8733438309662
 30
0.0
  0
VERTEX
  5
370
330
36E
100
AcDbEntity
  8
Default
100
AcDbVertex
100
AcDb2dVertex
 10
113.0934921734282
 20
287.8733438309662
 30
0.0
  0
VERTEX
  5
371
330
36E
100
AcDbEntity
  8
Default
100
AcDbVertex
100
AcDb2dVertex
 10
113.0934921734282
 20
279.9733438309661
 30
0.0
  0
VERTEX
  5
372
330
36E
100
AcDbEntity
  8
Default
100
AcDbVertex
100
AcDb2dVertex
 10
110.2934921734282
 20
279.9733438309661
 30
0.0
  0
SEQEND
  5
373
330
36E
100
AcDbEntity
  8
Default
  0
POLYLINE
  5
374
330
1F
100
AcDbEntity
  8
Default
100
AcDb2dPolyline
 66
     1
 10
0.0
 20
0.0
 30
0.0
 70
     1
  0
VERTEX
  5
375
330
374
100
AcDbEntity
  8
Default
100
AcDbVertex
100
AcDb2dVertex
 10
107.3434921734282
 20
304.0039844413625
 30
0.0
  0
VERTEX
  5
376
330
374
100
AcDbEntity
  8
Default
100
AcDbVertex
100
AcDb2dVertex
 10
110.1434921734282
 20
304.0039844413625
 30
0.0
  0
VERTEX
  5
377
330
374
100
AcDbEntity
  8
Default
100
AcDbVertex
100
AcDb2dVertex
 10
110.1434921734282
 20
296.2039844413625
 30
0.0
  0
VERTEX
  5
378
330
374
100
AcDbEntity
  8
Default
100
AcDbVertex
100
AcDb2dVertex
 10
107.3434921734282
 20
296.2039844413625
 30
0.0
  0
SEQEND
  5
379
330
374
100
AcDbEntity
  8
Default
  0
POLYLINE
  5
37A
330
1F
100
AcDbEntity
  8
Default
100
AcDb2dPolyline
 66
     1
 10
0.0
 20
0.0
 30
0.0
 70
     1
  0
VERTEX
  5
37B
330
37A
100
AcDbEntity
  8
Default
100
AcDbVertex
100
AcDb2dVertex
 10
107.3434921734282
 20
337.4630001504066
 30
0.0
  0
VERTEX
  5
37C
330
37A
100
AcDbEntity
  8
Default
100
AcDbVertex
100
AcDb2dVertex
 10
110.1434921734282
 20
337.4630001504066
 30
0.0
  0
VERTEX
  5
37D
330
37A
100
AcDbEntity
  8
Default
100
AcDbVertex
100
AcDb2dVertex
 10
110.1434921734282
 20
329.6630001504066
 30
0.0
  0
VERTEX
  5
37E
330
37A
100
AcDbEntity
  8
Default
100
AcDbVertex
100
AcDb2dVertex
 10
107.3434921734282
 20
329.6630001504066
 30
0.0
  0
SEQEND
  5
37F
330
37A
100
AcDbEntity
  8
Default
  0
POLYLINE
  5
380
330
1F
100
AcDbEntity
  8
Default
100
AcDb2dPolyline
 66
     1
 10
0.0
 20
0.0
 30
0.0
 70
     1
  0
VERTEX
  5
381
330
380
100
AcDbEntity
  8
Default
100
AcDbVertex
100
AcDb2dVertex
 10
46.39349446224651
 20
279.9733438309661
 30
0.0
  0
VERTEX
  5
382
330
380
100
AcDbEntity
  8
Default
100
AcDbVertex
100
AcDb2dVertex
 10
46.39349446224651
 20
287.8733438309662
 30
0.0
  0
VERTEX
  5
383
330
380
100
AcDbEntity
  8
Default
100
AcDbVertex
100
AcDb2dVertex
 10
49.19349446224658
 20
287.8733438309662
 30
0.0
  0
VERTEX
  5
384
330
380
100
AcDbEntity
  8
Default
100
AcDbVertex
100
AcDb2dVertex
 10
49.19349446224658
 20
279.9733438309661
 30
0.0
  0
SEQEND
  5
385
330
380
100
AcDbEntity
  8
Default
  0
POLYLINE
  5
386
330
1F
100
AcDbEntity
  8
Default
100
AcDb2dPolyline
 66
     1
 10
0.0
 20
0.0
 30
0.0
 70
     1
  0
VERTEX
  5
387
330
386
100
AcDbEntity
  8
Default
100
AcDbVertex
100
AcDb2dVertex
 10
33.1434933178374
 20
337.4630001504066
 30
0.0
  0
VERTEX
  5
388
330
386
100
AcDbEntity
  8
Default
100
AcDbVertex
100
AcDb2dVertex
 10
35.94349331783735
 20
337.4630001504066
 30
0.0
  0
VERTEX
  5
389
330
386
100
AcDbEntity
  8
Default
100
AcDbVertex
100
AcDb2dVertex
 10
35.94349331783735
 20
329.6630001504066
 30
0.0
  0
VERTEX
  5
38A
330
386
100
AcDbEntity
  8
Default
100
AcDbVertex
100
AcDb2dVertex
 10
33.1434933178374
 20
329.6630001504066
 30
0.0
  0
SEQEND
  5
38B
330
386
100
AcDbEntity
  8
Default
  0
POLYLINE
  5
38C
330
1F
100
AcDbEntity
  8
Default
100
AcDb2dPolyline
 66
     1
 10
0.0
 20
0.0
 30
0.0
 70
     1
  0
VERTEX
  5
38D
330
38C
100
AcDbEntity
  8
Default
100
AcDbVertex
100
AcDb2dVertex
 10
13.51901826346284
 20
289.1911979484084
 30
0.0
  0
VERTEX
  5
38E
330
38C
100
AcDbEntity
  8
Default
100
AcDbVertex
100
AcDb2dVertex
 10
11.2753177343879
 20
286.9095739794273
 30
0.0
  0
VERTEX
  5
38F
330
38C
100
AcDbEntity
  8
Default
100
AcDbVertex
100
AcDb2dVertex
 10
18.54799413551507
 20
279.757778543001
 30
0.0
  0
VERTEX
  5
390
330
38C
100
AcDbEntity
  8
Default
100
AcDbVertex
100
AcDb2dVertex
 10
20.79169466459001
 20
282.0394025119821
 30
0.0
  0
SEQEND
  5
391
330
38C
100
AcDbEntity
  8
Default
  0
POLYLINE
  5
392
330
1F
100
AcDbEntity
  8
Default
100
AcDb2dPolyline
 66
     1
 10
0.0
 20
0.0
 30
0.0
 70
     1
  0
VERTEX
  5
393
330
392
100
AcDbEntity
  8
Default
100
AcDbVertex
100
AcDb2dVertex
 10
14.50907852165761
 20
300.2056183208254
 30
0.0
  0
VERTEX
  5
394
330
392
100
AcDbEntity
  8
Default
100
AcDbVertex
100
AcDb2dVertex
 10
11.30907852165757
 20
300.2056183208254
 30
0.0
  0
VERTEX
  5
395
330
392
100
AcDbEntity
  8
Default
100
AcDbVertex
100
AcDb2dVertex
 10
11.30907852165763
 20
290.0056183208254
 30
0.0
  0
VERTEX
  5
396
330
392
100
AcDbEntity
  8
Default
100
AcDbVertex
100
AcDb2dVertex
 10
14.50907852165761
 20
290.0056183208253
 30
0.0
  0
SEQEND
  5
397
330
392
100
AcDbEntity
  8
Default
  0
POLYLINE
  5
398
330
1F
100
AcDbEntity
  8
Default
100
AcDb2dPolyline
 66
     1
 10
0.0
 20
0.0
 30
0.0
 70
     1
  0
VERTEX
  5
399
330
398
100
AcDbEntity
  8
Default
100
AcDbVertex
100
AcDb2dVertex
 10
21.85353072933617
 20
294.8590756791143
 30
0.0
  0
VERTEX
  5
39A
330
398
100
AcDbEntity
  8
Default
100
AcDbVertex
100
AcDb2dVertex
 10
19.67994584179485
 20
292.6487524591639
 30
0.0
  0
VERTEX
  5
39B
330
398
100
AcDbEntity
  8
Default
100
AcDbVertex
100
AcDb2dVertex
 10
21.8902690617453
 20
290.4751675716225
 30
0.0
  0
VERTEX
  5
39C
330
398
100
AcDbEntity
  8
Default
100
AcDbVertex
100
AcDb2dVertex
 10
24.06385394928657
 20
292.6854907915729
 30
0.0
  0
SEQEND
  5
39D
330
398
100
AcDbEntity
  8
Default
  0
SPLINE
  5
39E
330
1F
100
AcDbEntity
  8
Default
100
AcDbSpline
210
0.0
220
0.0
230
1.0
 70
    15
 71
     2
 72
    12
 73
     9
 74
     0
 42
0.000000001
 43
0.0000000001
 40
0.0
 40
0.0
 40
0.0
 40
3.926990816987241
 40
3.926990816987241
 40
7.853981633974483
 40
7.853981633974483
 40
11.78097245096172
 40
11.78097245096172
 40
15.70796326794897
 40
15.70796326794897
 40
15.70796326794897
 10
135.2273097250288
 20
294.4321409459383
 30
0.0
 41
1.0
 10
139.0836700093763
 20
298.3536821426245
 30
0.0
 41
0.7071067811865476
 10
143.0052112060625
 20
294.497321858277
 30
0.0
 41
1.0
 10
146.9267524027488
 20
290.6409615739296
 30
0.0
 41
0.7071067811865476
 10
143.0703921184013
 20
286.7194203772433
 30
0.0
 41
1.0
 10
139.2140318340539
 20
282.797879180557
 30
0.0
 41
0.7071067811865476
 10
135.2924906373675
 20
286.6542394649045
 30
0.0
 41
1.0
 10
131.3709494406813
 20
290.510599749252
 30
0.0
 41
0.7071067811865476
 10
135.2273097250288
 20
294.4321409459383
 30
0.0
 41
1.0
  0
LINE
  5
39F
330
1F
100
AcDbEntity
  8
Default
100
AcDbLine
 10
9.918892867162583
 20
310.350588103011
 30
0.0
 11
7.815423621154821
 21
308.2115656320913
 31
0.0
  0
LINE
  5
3A0
330
1F
100
AcDbEntity
  8
Default
100
AcDbLine
 10
7.815423621154821
 20
308.2115656320913
 30
0.0
 11
14.94549852422068
 21
301.2000014787322
 31
0.0
  0
LINE
  5
3A1
330
1F
100
AcDbEntity
  8
Default
100
AcDbLine
 10
14.94549852422068
 20
301.2000014787322
 30
0.0
 11
17.04896777022839
 21
303.3390239496519
 31
0.0
  0
LINE
  5
3A2
330
1F
100
AcDbEntity
  8
Default
100
AcDbLine
 10
17.04896777022839
 20
303.3390239496519
 30
0.0
 11
9.918892867162583
 21
310.350588103011
 31
0.0
  0
SPLINE
  5
3A3
330
1F
100
AcDbEntity
  8
Default
100
AcDbSpline
210
0.0
220
0.0
230
1.0
 70
    12
 71
     2
 72
     6
 73
     3
 74
     0
 42
0.000000001
 43
0.0000000001
 40
491.8200833381188
 40
491.8200833381188
 40
491.8200833381188
 40
496.5324723185036
 40
496.5324723185036
 40
496.5324723185036
 10
127.2926242535719
 20
293.8198844172508
 30
0.0
 41
1.0
 10
125.1891550075642
 20
291.680861946331
 30
0.0
 41
0.7071067811865471
 10
127.328177478484
 20
289.5773927003234
 30
0.0
 41
1.0
  0
LINE
  5
3A4
330
1F
100
AcDbEntity
  8
Default
100
AcDbLine
 10
127.328177478484
 20
289.5773927003234
 30
0.0
 11
145.3284003421444
 21
271.8763560213051
 31
0.0
  0
LINE
  5
3A5
330
1F
100
AcDbEntity
  8
Default
100
AcDbLine
 10
145.3284003421444
 20
271.8763560213051
 30
0.0
 11
144.5868700558705
 21
272.6055611481171
 31
0.0
  0
LINE
  5
3A6
330
1F
100
AcDbEntity
  8
Default
100
AcDbLine
 10
144.5868700558705
 20
272.6055611481171
 30
0.0
 11
145.7729682684293
 21
271.4391773691802
 31
0.0
  0
ARC
  5
3A7
330
1F
100
AcDbEntity
  8
Default
100
AcDbCircle
 10
147.876437514437
 20
273.5781998401
 30
0.0
 40
3.000000000000043
100
AcDbArc
 50
225.4801428469082
 51
315.4801428469062
  0
SPLINE
  5
3A8
330
1F
100
AcDbEntity
  8
Default
100
AcDbSpline
210
0.0
220
0.0
230
1.0
 70
    12
 71
     2
 72
    10
 73
     7
 74
     0
 42
0.000000001
 43
0.0000000001
 40
542.0716919151952
 40
542.0716919151952
 40
542.0716919151952
 40
552.3176916206288
 40
552.3176916206288
 40
572.3754990065291
 40
572.3754990065291
 40
575.6148097366913
 40
575.6148097366913
 40
575.6148097366913
 10
150.0154599853568
 20
271.4747305940923
 30
0.0
 41
1.0
 10
154.2215352076734
 20
275.7518976750894
 30
0.0
 41
1.0
 10
158.4276104299899
 20
280.0290647560865
 30
0.0
 41
1.0
 10
165.0712969245349
 20
286.8213739865188
 30
0.0
 41
1.0
 10
171.7149834190798
 20
293.6136832169512
 30
0.0
 41
1.0
 10
172.7667177913306
 20
294.6831941974198
 30
0.0
 41
1.0
 10
173.8184526650875
 20
295.752705687871
 30
0.0
 41
1.0
  0
LINE
  5
3A9
330
1F
100
AcDbEntity
  8
Default
100
AcDbLine
 10
173.8184526650875
 20
295.752705687871
 30
0.0
 11
168.1143927426348
 21
301.3619570105583
 31
0.0
  0
LINE
  5
3AA
330
1F
100
AcDbEntity
  8
Default
100
AcDbLine
 10
168.1143927426348
 20
301.3619570105583
 30
0.0
 11
166.0109234966271
 21
299.2229345396385
 31
0.0
  0
LINE
  5
3AB
330
1F
100
AcDbEntity
  8
Default
100
AcDbLine
 10
166.0109234966271
 20
299.2229345396385
 30
0.0
 11
154.6962076097476
 21
310.3495857174226
 31
0.0
  0
LINE
  5
3AC
330
1F
100
AcDbEntity
  8
Default
100
AcDbLine
 10
154.6962076097476
 20
310.3495857174226
 30
0.0
 11
156.7996768557553
 21
312.4886081883423
 31
0.0
  0
LINE
  5
3AD
330
1F
100
AcDbEntity
  8
Default
100
AcDbLine
 10
156.7996768557553
 20
312.4886081883423
 30
0.0
 11
151.0956169333026
 21
318.0978595110296
 31
0.0
  0
LINE
  5
3AE
330
1F
100
AcDbEntity
  8
Default
100
AcDbLine
 10
151.0956169333026
 20
318.0978595110296
 30
0.0
 11
148.9921476872949
 21
315.9588370401098
 31
0.0
  0
LINE
  5
3AF
330
1F
100
AcDbEntity
  8
Default
100
AcDbLine
 10
148.9921476872949
 20
315.9588370401098
 30
0.0
 11
135.704774698205
 21
302.374218579245
 31
0.0
  0
LINE
  5
3B0
330
1F
100
AcDbEntity
  8
Default
100
AcDbLine
 10
135.704774698205
 20
302.374218579245
 30
0.0
 11
127.2926242535719
 21
293.8198844172508
 31
0.0
  0
LINE
  5
3B1
330
1F
100
AcDbEntity
  8
Default
100
AcDbLine
 10
148.0434933178378
 20
266.8334922958845
 30
0.0
 11
123.0434933178374
 21
291.8334922958845
 31
0.0
  0
LINE
  5
3B2
330
1F
100
AcDbEntity
  8
Default
100
AcDbLine
 10
123.0434933178374
 20
291.8334922958845
 30
0.0
 11
33.04349331783737
 21
291.8334922958845
 31
0.0
  0
LINE
  5
3B3
330
1F
100
AcDbEntity
  8
Default
100
AcDbLine
 10
33.04349331783737
 20
291.8334922958845
 30
0.0
 11
8.043493317837033
 21
266.8334922958845
 31
0.0
  0
LINE
  5
3B4
330
1F
100
AcDbEntity
  8
Default
100
AcDbLine
 10
8.043493317837033
 20
266.8334922958845
 30
0.0
 11
33.04349331783737
 21
241.8334922958845
 31
0.0
  0
LINE
  5
3B5
330
1F
100
AcDbEntity
  8
Default
100
AcDbLine
 10
33.04349331783737
 20
241.8334922958845
 30
0.0
 11
123.0434933178374
 21
241.8334922958845
 31
0.0
  0
LINE
  5
3B6
330
1F
100
AcDbEntity
  8
Default
100
AcDbLine
 10
123.0434933178374
 20
241.8334922958845
 30
0.0
 11
148.0434933178378
 21
266.8334922958845
 31
0.0
  0
LINE
  5
3B7
330
1F
100
AcDbEntity
  8
Default
100
AcDbLine
 10
123.0434933178373
 20
341.8334922958845
 30
0.0
 11
33.04349331783737
 21
341.8334922958845
 31
0.0
  0
LINE
  5
3B8
330
1F
100
AcDbEntity
  8
Default
100
AcDbLine
 10
33.04349331783737
 20
341.8334922958845
 30
0.0
 11
8.043493317836976
 21
316.8334922958845
 31
0.0
  0
LINE
  5
3B9
330
1F
100
AcDbEntity
  8
Default
100
AcDbLine
 10
8.043493317836976
 20
316.8334922958845
 30
0.0
 11
33.04349331783737
 21
291.8334922958845
 31
0.0
  0
LINE
  5
3BA
330
1F
100
AcDbEntity
  8
Default
100
AcDbLine
 10
33.04349331783737
 20
291.8334922958845
 30
0.0
 11
123.0434933178373
 21
291.8334922958845
 31
0.0
  0
LINE
  5
3BB
330
1F
100
AcDbEntity
  8
Default
100
AcDbLine
 10
123.0434933178373
 20
291.8334922958845
 30
0.0
 11
148.0434933178377
 21
316.8334922958845
 31
0.0
  0
LINE
  5
3BC
330
1F
100
AcDbEntity
  8
Default
100
AcDbLine
 10
148.0434933178377
 20
316.8334922958845
 30
0.0
 11
123.0434933178373
 21
341.8334922958845
 31
0.0
  0
CIRCLE
  5
3BD
330
1F
100
AcDbEntity
  8
Default
100
AcDbCircle
 10
21.87189989554076
 20
292.6671216253684
 30
0.0
 40
5.449999999999978
  0
SPLINE
  5
3BE
330
1F
100
AcDbEntity
  8
Make2D$visible$lines
100
AcDbSpline
210
0.0
220
0.0
230
1.0
 70
    15
 71
     2
 72
    12
 73
     9
 74
     0
 42
0.000000001
 43
0.0000000001
 40
0.0
 40
0.0
 40
0.0
 40
5.497787143782138
 40
5.497787143782138
 40
10.99557428756428
 40
10.99557428756428
 40
16.49336143134641
 40
16.49336143134641
 40
21.99114857512855
 40
21.99114857512855
 40
21.99114857512855
 10
-6.898060934989246
 20
312.4456519328788
 30
0.0
 41
1.0
 10
-6.89806093498906
 20
315.9456519328788
 30
0.0
 41
0.7071067811865476
 10
-10.39806093498925
 20
315.9456519328788
 30
0.0
 41
1.0
 10
-13.89806093498908
 20
315.9456519328788
 30
0.0
 41
0.7071067811865476
 10
-13.89806093498925
 20
312.4456519328788
 30
0.0
 41
1.0
 10
-13.89806093498908
 20
308.9456519328788
 30
0.0
 41
0.7071067811865476
 10
-10.39806093498919
 20
308.9456519328788
 30
0.0
 41
1.0
 10
-6.8980609349891
 20
308.9456519328788
 30
0.0
 41
0.7071067811865476
 10
-6.898060934989246
 20
312.4456519328788
 30
0.0
 41
1.0
  0
SPLINE
  5
3BF
330
1F
100
AcDbEntity
  8
Make2D$visible$lines
100
AcDbSpline
210
0.0
220
0.0
230
1.0
 70
    28
 71
     2
 72
     6
 73
     3
 74
     0
 42
0.000000001
 43
0.0000000001
 40
-31.96363088217647
 40
-31.96363088217647
 40
-31.96363088217647
 40
-26.46424844311697
 40
-26.46424844311697
 40
-26.46424844311697
 10
-31.1275687895112
 20
331.9462694938194
 30
0.0
 41
1.0
 10
-31.1275687895112
 20
334.6959607133491
 30
0.0
 41
1.0
 10
-31.1275687895112
 20
337.4456519328788
 30
0.0
 41
1.0
  0
LINE
  5
3C0
330
1F
100
AcDbEntity
  8
Make2D$visible$lines
100
AcDbLine
 10
-31.1275687895112
 20
337.4456519328788
 30
0.0
 11
-31.12756878951114
 21
340.4456519328788
 31
0.0
  0
LINE
  5
3C1
330
1F
100
AcDbEntity
  8
Make2D$visible$lines
100
AcDbLine
 10
-31.12756878951114
 20
340.4456519328788
 30
0.0
 11
-23.12756878951114
 21
340.4456519328788
 31
0.0
  0
LINE
  5
3C2
330
1F
100
AcDbEntity
  8
Make2D$visible$lines
100
AcDbLine
 10
-23.12756878951114
 20
340.4456519328788
 30
0.0
 11
-23.12756878951114
 21
337.4456519328788
 31
0.0
  0
LINE
  5
3C3
330
1F
100
AcDbEntity
  8
Make2D$visible$lines
100
AcDbLine
 10
-23.12756878951114
 20
337.4456519328788
 30
0.0
 11
2.331446919532937
 21
337.4456519328787
 31
0.0
  0
LINE
  5
3C4
330
1F
100
AcDbEntity
  8
Make2D$visible$lines
100
AcDbLine
 10
2.331446919532937
 20
337.4456519328787
 30
0.0
 11
2.331446919532993
 21
340.4456519328787
 31
0.0
  0
LINE
  5
3C5
330
1F
100
AcDbEntity
  8
Make2D$visible$lines
100
AcDbLine
 10
2.331446919532993
 20
340.4456519328787
 30
0.0
 11
10.33144691953299
 21
340.4456519328787
 31
0.0
  0
LINE
  5
3C6
330
1F
100
AcDbEntity
  8
Make2D$visible$lines
100
AcDbLine
 10
10.33144691953299
 20
340.4456519328787
 30
0.0
 11
10.33144691953299
 21
337.4456519328787
 31
0.0
  0
LINE
  5
3C7
330
1F
100
AcDbEntity
  8
Make2D$visible$lines
100
AcDbLine
 10
10.33144691953299
 20
337.4456519328787
 30
0.0
 11
10.33144691953299
 21
331.9462694938192
 31
0.0
  0
LINE
  5
3C8
330
1F
100
AcDbEntity
  8
Make2D$visible$lines
100
AcDbLine
 10
10.33144691953299
 20
331.9462694938192
 30
0.0
 11
-4.511933613399435
 21
309.14171410749
 31
0.0
  0
ARC
  5
3C9
330
1F
100
AcDbEntity
  8
Make2D$visible$lines
100
AcDbCircle
 10
-10.39806093498919
 20
312.4456519328787
 30
0.0
 40
6.749999999999973
100
AcDbArc
 50
209.3059013430885
 51
330.6940986569115
  0
LINE
  5
3CA
330
1F
100
AcDbEntity
  8
Make2D$visible$lines
100
AcDbLine
 10
-16.28418825657894
 20
309.14171410749
 30
0.0
 11
-31.1275687895112
 21
331.9462694938194
 31
0.0
  0
LINE
  5
3CB
330
1F
100
AcDbEntity
  8
Default
100
AcDbLine
 10
5.768990793805358
 20
302.1707813860198
 30
0.0
 11
5.773486016759023
 21
305.1707780181796
 31
0.0
  0
LINE
  5
3CC
330
1F
100
AcDbEntity
  8
Default
100
AcDbLine
 10
5.773486016759023
 20
305.1707780181796
 30
0.0
 11
-2.226505002334022
 21
305.1827652793894
 31
0.0
  0
LINE
  5
3CD
330
1F
100
AcDbEntity
  8
Default
100
AcDbLine
 10
-2.226505002334022
 20
305.1827652793894
 30
0.0
 11
-2.231000225287687
 21
302.1827686472295
 31
0.0
  0
LINE
  5
3CE
330
1F
100
AcDbEntity
  8
Default
100
AcDbLine
 10
-2.231000225287687
 20
302.1827686472295
 30
0.0
 11
-18.09998244308008
 21
302.2065468782955
 31
0.0
  0
LINE
  5
3CF
330
1F
100
AcDbEntity
  8
Default
100
AcDbLine
 10
-18.09998244308008
 20
302.2065468782955
 30
0.0
 11
-18.09548722012642
 21
305.2065435104554
 31
0.0
  0
LINE
  5
3D0
330
1F
100
AcDbEntity
  8
Default
100
AcDbLine
 10
-18.09548722012642
 20
305.2065435104554
 30
0.0
 11
-26.09547823921946
 21
305.2185307716651
 31
0.0
  0
LINE
  5
3D1
330
1F
100
AcDbEntity
  8
Default
100
AcDbLine
 10
-26.09547823921946
 20
305.2185307716651
 30
0.0
 11
-26.10227298176449
 21
302.1492531397061
 31
0.0
  0
LINE
  5
3D2
330
1F
100
AcDbEntity
  8
Default
100
AcDbLine
 10
-26.10227298176449
 20
302.1492531397061
 30
0.0
 11
-30.04671620357351
 21
302.1492564297686
 31
0.0
  0
LINE
  5
3D3
330
1F
100
AcDbEntity
  8
Default
100
AcDbLine
 10
-30.04671620357351
 20
302.1492564297686
 30
0.0
 11
-30.04671620357351
 21
271.1707407363552
 31
0.0
  0
LINE
  5
3D4
330
1F
100
AcDbEntity
  8
Default
100
AcDbLine
 10
-30.04671620357351
 20
271.1707407363552
 30
0.0
 11
-21.4319690954016
 21
271.2115056442134
 31
0.0
  0
LINE
  5
3D5
330
1F
100
AcDbEntity
  8
Default
100
AcDbLine
 10
-21.4319690954016
 20
271.2115056442134
 30
0.0
 11
-21.41399189329127
 21
283.2090297587299
 31
0.0
  0
LINE
  5
3D6
330
1F
100
AcDbEntity
  8
Default
100
AcDbLine
 10
-21.41399189329127
 20
283.2090297587299
 30
0.0
 11
1.12795407505655
 21
283.1752526964989
 31
0.0
  0
LINE
  5
3D7
330
1F
100
AcDbEntity
  8
Default
100
AcDbLine
 10
1.12795407505655
 20
283.1752526964989
 30
0.0
 11
1.109976872946106
 21
271.1777285819824
 31
0.0
  0
LINE
  5
3D8
330
1F
100
AcDbEntity
  8
Default
100
AcDbLine
 10
1.109976872946106
 20
271.1777285819824
 30
0.0
 11
5.773486016761467
 21
271.1707407363552
 31
0.0
  0
LINE
  5
3D9
330
1F
100
AcDbEntity
  8
Default
100
AcDbLine
 10
5.773486016761467
 20
271.1707407363552
 30
0.0
 11
9.715733535205686
 21
271.1707407363552
 31
0.0
  0
LINE
  5
3DA
330
1F
100
AcDbEntity
  8
Default
100
AcDbLine
 10
9.715733535205686
 20
271.1707407363552
 30
0.0
 11
9.715733535205686
 21
302.1492564297686
 31
0.0
  0
LINE
  5
3DB
330
1F
100
AcDbEntity
  8
Default
100
AcDbLine
 10
9.715733535205686
 20
302.1492564297686
 30
0.0
 11
5.773486016761467
 21
302.1492564297686
 31
0.0
  0
POLYLINE
  5
3DC
330
1F
100
AcDbEntity
  8
Default
100
AcDb2dPolyline
 66
     1
 10
0.0
 20
0.0
 30
0.0
 70
     1
  0
VERTEX
  5
3DD
330
3DC
100
AcDbEntity
  8
Default
100
AcDbVertex
100
AcDb2dVertex
 10
33.14349331783734
 20
304.0039844413625
 30
0.0
  0
VERTEX
  5
3DE
330
3DC
100
AcDbEntity
  8
Default
100
AcDbVertex
100
AcDb2dVertex
 10
35.94349331783741
 20
304.0039844413625
 30
0.0
  0
VERTEX
  5
3DF
330
3DC
100
AcDbEntity
  8
Default
100
AcDbVertex
100
AcDb2dVertex
 10
35.94349331783741
 20
296.2039844413625
 30
0.0
  0
VERTEX
  5
3E0
330
3DC
100
AcDbEntity
  8
Default
100
AcDbVertex
100
AcDb2dVertex
 10
33.14349331783734
 20
296.2039844413625
 30
0.0
  0
SEQEND
  5
3E1
330
3DC
100
AcDbEntity
  8
Default
  0
POLYLINE
  5
3E2
330
1F
100
AcDbEntity
  8
Default
100
AcDb2dPolyline
 66
     1
 10
0.0
 20
0.0
 30
0.0
 70
     1
  0
VERTEX
  5
3E3
330
3E2
100
AcDbEntity
  8
Default
100
AcDbVertex
100
AcDb2dVertex
 10
33.14349331783734
 20
404.0039844413625
 30
0.0
  0
VERTEX
  5
3E4
330
3E2
100
AcDbEntity
  8
Default
100
AcDbVertex
100
AcDb2dVertex
 10
35.94349331783741
 20
404.0039844413625
 30
0.0
  0
VERTEX
  5
3E5
330
3E2
100
AcDbEntity
  8
Default
100
AcDbVertex
100
AcDb2dVertex
 10
35.94349331783741
 20
396.2039844413625
 30
0.0
  0
VERTEX
  5
3E6
330
3E2
100
AcDbEntity
  8
Default
100
AcDbVertex
100
AcDb2dVertex
 10
33.14349331783734
 20
396.2039844413625
 30
0.0
  0
SEQEND
  5
3E7
330
3E2
100
AcDbEntity
  8
Default
  0
LINE
  5
3E8
330
1F
100
AcDbEntity
  8
Default
100
AcDbLine
 10
5.768990793805358
 20
402.1707813860198
 30
0.0
 11
5.773486016759023
 21
405.1707780181796
 31
0.0
  0
LINE
  5
3E9
330
1F
100
AcDbEntity
  8
Default
100
AcDbLine
 10
5.773486016759023
 20
405.1707780181796
 30
0.0
 11
-2.226505002334022
 21
405.1827652793894
 31
0.0
  0
LINE
  5
3EA
330
1F
100
AcDbEntity
  8
Default
100
AcDbLine
 10
-2.226505002334022
 20
405.1827652793894
 30
0.0
 11
-2.231000225287687
 21
402.1827686472295
 31
0.0
  0
LINE
  5
3EB
330
1F
100
AcDbEntity
  8
Default
100
AcDbLine
 10
-2.231000225287687
 20
402.1827686472295
 30
0.0
 11
-18.09998244308008
 21
402.2065468782955
 31
0.0
  0
LINE
  5
3EC
330
1F
100
AcDbEntity
  8
Default
100
AcDbLine
 10
-18.09998244308008
 20
402.2065468782955
 30
0.0
 11
-18.09548722012642
 21
405.2065435104554
 31
0.0
  0
LINE
  5
3ED
330
1F
100
AcDbEntity
  8
Default
100
AcDbLine
 10
-18.09548722012642
 20
405.2065435104554
 30
0.0
 11
-26.09547823921946
 21
405.2185307716651
 31
0.0
  0
LINE
  5
3EE
330
1F
100
AcDbEntity
  8
Default
100
AcDbLine
 10
-26.09547823921946
 20
405.2185307716651
 30
0.0
 11
-26.10227298176449
 21
402.1492531397061
 31
0.0
  0
LINE
  5
3EF
330
1F
100
AcDbEntity
  8
Default
100
AcDbLine
 10
-26.10227298176449
 20
402.1492531397061
 30
0.0
 11
-30.04671620357351
 21
402.1492564297686
 31
0.0
  0
LINE
  5
3F0
330
1F
100
AcDbEntity
  8
Default
100
AcDbLine
 10
-30.04671620357351
 20
402.1492564297686
 30
0.0
 11
-30.04671620357351
 21
371.1707407363552
 31
0.0
  0
LINE
  5
3F1
330
1F
100
AcDbEntity
  8
Default
100
AcDbLine
 10
-30.04671620357351
 20
371.1707407363552
 30
0.0
 11
-21.4319690954016
 21
371.2115056442134
 31
0.0
  0
LINE
  5
3F2
330
1F
100
AcDbEntity
  8
Default
100
AcDbLine
 10
-21.4319690954016
 20
371.2115056442134
 30
0.0
 11
-21.41399189329127
 21
383.2090297587299
 31
0.0
  0
LINE
  5
3F3
330
1F
100
AcDbEntity
  8
Default
100
AcDbLine
 10
-21.41399189329127
 20
383.2090297587299
 30
0.0
 11
1.12795407505655
 21
383.1752526964989
 31
0.0
  0
LINE
  5
3F4
330
1F
100
AcDbEntity
  8
Default
100
AcDbLine
 10
1.12795407505655
 20
383.1752526964989
 30
0.0
 11
1.109976872946106
 21
371.1777285819824
 31
0.0
  0
LINE
  5
3F5
330
1F
100
AcDbEntity
  8
Default
100
AcDbLine
 10
1.109976872946106
 20
371.1777285819824
 30
0.0
 11
5.773486016761467
 21
371.1707407363552
 31
0.0
  0
LINE
  5
3F6
330
1F
100
AcDbEntity
  8
Default
100
AcDbLine
 10
5.773486016761467
 20
371.1707407363552
 30
0.0
 11
9.715733535205686
 21
371.1707407363552
 31
0.0
  0
LINE
  5
3F7
330
1F
100
AcDbEntity
  8
Default
100
AcDbLine
 10
9.715733535205686
 20
371.1707407363552
 30
0.0
 11
9.715733535205686
 21
402.1492564297686
 31
0.0
  0
LINE
  5
3F8
330
1F
100
AcDbEntity
  8
Default
100
AcDbLine
 10
9.715733535205686
 20
402.1492564297686
 30
0.0
 11
5.773486016761467
 21
402.1492564297686
 31
0.0
  0
SPLINE
  5
3F9
330
1F
100
AcDbEntity
  8
Make2D$visible$lines
100
AcDbSpline
210
0.0
220
0.0
230
1.0
 70
    28
 71
     2
 72
     6
 73
     3
 74
     0
 42
0.000000001
 43
0.0000000001
 40
-31.96363088217647
 40
-31.96363088217647
 40
-31.96363088217647
 40
-26.46424844311697
 40
-26.46424844311697
 40
-26.46424844311697
 10
-31.1275687895112
 20
431.9462694938194
 30
0.0
 41
1.0
 10
-31.1275687895112
 20
434.6959607133491
 30
0.0
 41
1.0
 10
-31.1275687895112
 20
437.4456519328788
 30
0.0
 41
1.0
  0
LINE
  5
3FA
330
1F
100
AcDbEntity
  8
Make2D$visible$lines
100
AcDbLine
 10
-31.1275687895112
 20
437.4456519328788
 30
0.0
 11
-31.12756878951114
 21
440.4456519328788
 31
0.0
  0
LINE
  5
3FB
330
1F
100
AcDbEntity
  8
Make2D$visible$lines
100
AcDbLine
 10
-31.12756878951114
 20
440.4456519328788
 30
0.0
 11
-23.12756878951114
 21
440.4456519328788
 31
0.0
  0
LINE
  5
3FC
330
1F
100
AcDbEntity
  8
Make2D$visible$lines
100
AcDbLine
 10
-23.12756878951114
 20
440.4456519328788
 30
0.0
 11
-23.12756878951114
 21
437.4456519328788
 31
0.0
  0
LINE
  5
3FD
330
1F
100
AcDbEntity
  8
Make2D$visible$lines
100
AcDbLine
 10
-23.12756878951114
 20
437.4456519328788
 30
0.0
 11
2.331446919532937
 21
437.4456519328787
 31
0.0
  0
LINE
  5
3FE
330
1F
100
AcDbEntity
  8
Make2D$visible$lines
100
AcDbLine
 10
2.331446919532937
 20
437.4456519328787
 30
0.0
 11
2.331446919532993
 21
440.4456519328787
 31
0.0
  0
LINE
  5
3FF
330
1F
100
AcDbEntity
  8
Make2D$visible$lines
100
AcDbLine
 10
2.331446919532993
 20
440.4456519328787
 30
0.0
 11
10.33144691953299
 21
440.4456519328787
 31
0.0
  0
LINE
  5
400
330
1F
100
AcDbEntity
  8
Make2D$visible$lines
100
AcDbLine
 10
10.33144691953299
 20
440.4456519328787
 30
0.0
 11
10.33144691953299
 21
437.4456519328787
 31
0.0
  0
LINE
  5
401
330
1F
100
AcDbEntity
  8
Make2D$visible$lines
100
AcDbLine
 10
10.33144691953299
 20
437.4456519328787
 30
0.0
 11
10.33144691953299
 21
431.9462694938192
 31
0.0
  0
LINE
  5
402
330
1F
100
AcDbEntity
  8
Make2D$visible$lines
100
AcDbLine
 10
10.33144691953299
 20
431.9462694938192
 30
0.0
 11
-4.511933613399435
 21
409.14171410749
 31
0.0
  0
ARC
  5
403
330
1F
100
AcDbEntity
  8
Make2D$visible$lines
100
AcDbCircle
 10
-10.39806093498919
 20
412.4456519328787
 30
0.0
 40
6.749999999999973
100
AcDbArc
 50
209.3059013430885
 51
330.6940986569115
  0
LINE
  5
404
330
1F
100
AcDbEntity
  8
Make2D$visible$lines
100
AcDbLine
 10
-16.28418825657894
 20
409.14171410749
 30
0.0
 11
-31.1275687895112
 21
431.9462694938194
 31
0.0
  0
SPLINE
  5
405
330
1F
100
AcDbEntity
  8
Make2D$visible$lines
100
AcDbSpline
210
0.0
220
0.0
230
1.0
 70
    15
 71
     2
 72
    12
 73
     9
 74
     0
 42
0.000000001
 43
0.0000000001
 40
0.0
 40
0.0
 40
0.0
 40
5.497787143782138
 40
5.497787143782138
 40
10.99557428756428
 40
10.99557428756428
 40
16.49336143134641
 40
16.49336143134641
 40
21.99114857512855
 40
21.99114857512855
 40
21.99114857512855
 10
-6.898060934989246
 20
412.4456519328788
 30
0.0
 41
1.0
 10
-6.89806093498906
 20
415.9456519328788
 30
0.0
 41
0.7071067811865476
 10
-10.39806093498925
 20
415.9456519328788
 30
0.0
 41
1.0
 10
-13.89806093498908
 20
415.9456519328788
 30
0.0
 41
0.7071067811865476
 10
-13.89806093498925
 20
412.4456519328788
 30
0.0
 41
1.0
 10
-13.89806093498908
 20
408.9456519328787
 30
0.0
 41
0.7071067811865476
 10
-10.39806093498919
 20
408.9456519328788
 30
0.0
 41
1.0
 10
-6.8980609349891
 20
408.9456519328787
 30
0.0
 41
0.7071067811865476
 10
-6.898060934989246
 20
412.4456519328788
 30
0.0
 41
1.0
  0
CIRCLE
  5
406
330
1F
100
AcDbEntity
  8
Default
100
AcDbCircle
 10
21.87189989554076
 20
392.6671216253684
 30
0.0
 40
5.449999999999978
  0
LINE
  5
407
330
1F
100
AcDbEntity
  8
Default
100
AcDbLine
 10
123.0434933178373
 20
441.8334922958845
 30
0.0
 11
33.04349331783737
 21
441.8334922958845
 31
0.0
  0
LINE
  5
408
330
1F
100
AcDbEntity
  8
Default
100
AcDbLine
 10
33.04349331783737
 20
441.8334922958845
 30
0.0
 11
8.043493317836976
 21
416.8334922958845
 31
0.0
  0
LINE
  5
409
330
1F
100
AcDbEntity
  8
Default
100
AcDbLine
 10
8.043493317836976
 20
416.8334922958845
 30
0.0
 11
33.04349331783737
 21
391.8334922958845
 31
0.0
  0
LINE
  5
40A
330
1F
100
AcDbEntity
  8
Default
100
AcDbLine
 10
33.04349331783737
 20
391.8334922958845
 30
0.0
 11
123.0434933178373
 21
391.8334922958845
 31
0.0
  0
LINE
  5
40B
330
1F
100
AcDbEntity
  8
Default
100
AcDbLine
 10
123.0434933178373
 20
391.8334922958845
 30
0.0
 11
148.0434933178377
 21
416.8334922958845
 31
0.0
  0
LINE
  5
40C
330
1F
100
AcDbEntity
  8
Default
100
AcDbLine
 10
148.0434933178377
 20
416.8334922958845
 30
0.0
 11
123.0434933178373
 21
441.8334922958845
 31
0.0
  0
LINE
  5
40D
330
1F
100
AcDbEntity
  8
Default
100
AcDbLine
 10
148.0434933178378
 20
366.8334922958845
 30
0.0
 11
123.0434933178374
 21
391.8334922958845
 31
0.0
  0
LINE
  5
40E
330
1F
100
AcDbEntity
  8
Default
100
AcDbLine
 10
123.0434933178374
 20
391.8334922958845
 30
0.0
 11
33.04349331783737
 21
391.8334922958845
 31
0.0
  0
LINE
  5
40F
330
1F
100
AcDbEntity
  8
Default
100
AcDbLine
 10
33.04349331783737
 20
391.8334922958845
 30
0.0
 11
8.043493317837033
 21
366.8334922958845
 31
0.0
  0
LINE
  5
410
330
1F
100
AcDbEntity
  8
Default
100
AcDbLine
 10
8.043493317837033
 20
366.8334922958845
 30
0.0
 11
33.04349331783737
 21
341.8334922958845
 31
0.0
  0
LINE
  5
411
330
1F
100
AcDbEntity
  8
Default
100
AcDbLine
 10
33.04349331783737
 20
341.8334922958845
 30
0.0
 11
123.0434933178374
 21
341.8334922958845
 31
0.0
  0
LINE
  5
412
330
1F
100
AcDbEntity
  8
Default
100
AcDbLine
 10
123.0434933178374
 20
341.8334922958845
 30
0.0
 11
148.0434933178378
 21
366.8334922958845
 31
0.0
  0
SPLINE
  5
413
330
1F
100
AcDbEntity
  8
Default
100
AcDbSpline
210
0.0
220
0.0
230
1.0
 70
    12
 71
     2
 72
     6
 73
     3
 74
     0
 42
0.000000001
 43
0.0000000001
 40
491.8200833381188
 40
491.8200833381188
 40
491.8200833381188
 40
496.5324723185036
 40
496.5324723185036
 40
496.5324723185036
 10
127.2926242535719
 20
393.8198844172508
 30
0.0
 41
1.0
 10
125.1891550075642
 20
391.680861946331
 30
0.0
 41
0.7071067811865471
 10
127.328177478484
 20
389.5773927003234
 30
0.0
 41
1.0
  0
LINE
  5
414
330
1F
100
AcDbEntity
  8
Default
100
AcDbLine
 10
127.328177478484
 20
389.5773927003234
 30
0.0
 11
145.3284003421444
 21
371.8763560213051
 31
0.0
  0
LINE
  5
415
330
1F
100
AcDbEntity
  8
Default
100
AcDbLine
 10
145.3284003421444
 20
371.8763560213051
 30
0.0
 11
144.5868700558705
 21
372.6055611481171
 31
0.0
  0
LINE
  5
416
330
1F
100
AcDbEntity
  8
Default
100
AcDbLine
 10
144.5868700558705
 20
372.6055611481171
 30
0.0
 11
145.7729682684293
 21
371.4391773691802
 31
0.0
  0
ARC
  5
417
330
1F
100
AcDbEntity
  8
Default
100
AcDbCircle
 10
147.876437514437
 20
373.5781998401
 30
0.0
 40
3.000000000000043
100
AcDbArc
 50
225.4801428469082
 51
315.4801428469062
  0
SPLINE
  5
418
330
1F
100
AcDbEntity
  8
Default
100
AcDbSpline
210
0.0
220
0.0
230
1.0
 70
    12
 71
     2
 72
    10
 73
     7
 74
     0
 42
0.000000001
 43
0.0000000001
 40
542.0716919151952
 40
542.0716919151952
 40
542.0716919151952
 40
552.3176916206288
 40
552.3176916206288
 40
572.3754990065291
 40
572.3754990065291
 40
575.6148097366913
 40
575.6148097366913
 40
575.6148097366913
 10
150.0154599853568
 20
371.4747305940923
 30
0.0
 41
1.0
 10
154.2215352076734
 20
375.7518976750894
 30
0.0
 41
1.0
 10
158.4276104299899
 20
380.0290647560865
 30
0.0
 41
1.0
 10
165.0712969245349
 20
386.8213739865188
 30
0.0
 41
1.0
 10
171.7149834190798
 20
393.6136832169512
 30
0.0
 41
1.0
 10
172.7667177913306
 20
394.6831941974198
 30
0.0
 41
1.0
 10
173.8184526650875
 20
395.752705687871
 30
0.0
 41
1.0
  0
LINE
  5
419
330
1F
100
AcDbEntity
  8
Default
100
AcDbLine
 10
173.8184526650875
 20
395.752705687871
 30
0.0
 11
168.1143927426348
 21
401.3619570105583
 31
0.0
  0
LINE
  5
41A
330
1F
100
AcDbEntity
  8
Default
100
AcDbLine
 10
168.1143927426348
 20
401.3619570105583
 30
0.0
 11
166.0109234966271
 21
399.2229345396385
 31
0.0
  0
LINE
  5
41B
330
1F
100
AcDbEntity
  8
Default
100
AcDbLine
 10
166.0109234966271
 20
399.2229345396385
 30
0.0
 11
154.6962076097476
 21
410.3495857174226
 31
0.0
  0
LINE
  5
41C
330
1F
100
AcDbEntity
  8
Default
100
AcDbLine
 10
154.6962076097476
 20
410.3495857174226
 30
0.0
 11
156.7996768557553
 21
412.4886081883423
 31
0.0
  0
LINE
  5
41D
330
1F
100
AcDbEntity
  8
Default
100
AcDbLine
 10
156.7996768557553
 20
412.4886081883423
 30
0.0
 11
151.0956169333026
 21
418.0978595110296
 31
0.0
  0
LINE
  5
41E
330
1F
100
AcDbEntity
  8
Default
100
AcDbLine
 10
151.0956169333026
 20
418.0978595110296
 30
0.0
 11
148.9921476872949
 21
415.9588370401098
 31
0.0
  0
LINE
  5
41F
330
1F
100
AcDbEntity
  8
Default
100
AcDbLine
 10
148.9921476872949
 20
415.9588370401098
 30
0.0
 11
135.704774698205
 21
402.374218579245
 31
0.0
  0
LINE
  5
420
330
1F
100
AcDbEntity
  8
Default
100
AcDbLine
 10
135.704774698205
 20
402.374218579245
 30
0.0
 11
127.2926242535719
 21
393.8198844172508
 31
0.0
  0
LINE
  5
421
330
1F
100
AcDbEntity
  8
Default
100
AcDbLine
 10
9.918892867162583
 20
410.350588103011
 30
0.0
 11
7.815423621154821
 21
408.2115656320913
 31
0.0
  0
LINE
  5
422
330
1F
100
AcDbEntity
  8
Default
100
AcDbLine
 10
7.815423621154821
 20
408.2115656320913
 30
0.0
 11
14.94549852422068
 21
401.2000014787322
 31
0.0
  0
LINE
  5
423
330
1F
100
AcDbEntity
  8
Default
100
AcDbLine
 10
14.94549852422068
 20
401.2000014787322
 30
0.0
 11
17.04896777022839
 21
403.3390239496519
 31
0.0
  0
LINE
  5
424
330
1F
100
AcDbEntity
  8
Default
100
AcDbLine
 10
17.04896777022839
 20
403.3390239496519
 30
0.0
 11
9.918892867162583
 21
410.350588103011
 31
0.0
  0
SPLINE
  5
425
330
1F
100
AcDbEntity
  8
Default
100
AcDbSpline
210
0.0
220
0.0
230
1.0
 70
    15
 71
     2
 72
    12
 73
     9
 74
     0
 42
0.000000001
 43
0.0000000001
 40
0.0
 40
0.0
 40
0.0
 40
3.926990816987241
 40
3.926990816987241
 40
7.853981633974483
 40
7.853981633974483
 40
11.78097245096172
 40
11.78097245096172
 40
15.70796326794897
 40
15.70796326794897
 40
15.70796326794897
 10
135.2273097250288
 20
394.4321409459383
 30
0.0
 41
1.0
 10
139.0836700093763
 20
398.3536821426245
 30
0.0
 41
0.7071067811865476
 10
143.0052112060625
 20
394.497321858277
 30
0.0
 41
1.0
 10
146.9267524027488
 20
390.6409615739295
 30
0.0
 41
0.7071067811865476
 10
143.0703921184013
 20
386.7194203772433
 30
0.0
 41
1.0
 10
139.2140318340539
 20
382.7978791805569
 30
0.0
 41
0.7071067811865476
 10
135.2924906373675
 20
386.6542394649045
 30
0.0
 41
1.0
 10
131.3709494406813
 20
390.510599749252
 30
0.0
 41
0.7071067811865476
 10
135.2273097250288
 20
394.4321409459383
 30
0.0
 41
1.0
  0
POLYLINE
  5
426
330
1F
100
AcDbEntity
  8
Default
100
AcDb2dPolyline
 66
     1
 10
0.0
 20
0.0
 30
0.0
 70
     1
  0
VERTEX
  5
427
330
426
100
AcDbEntity
  8
Default
100
AcDbVertex
100
AcDb2dVertex
 10
21.85353072933617
 20
394.8590756791143
 30
0.0
  0
VERTEX
  5
428
330
426
100
AcDbEntity
  8
Default
100
AcDbVertex
100
AcDb2dVertex
 10
19.67994584179485
 20
392.6487524591639
 30
0.0
  0
VERTEX
  5
429
330
426
100
AcDbEntity
  8
Default
100
AcDbVertex
100
AcDb2dVertex
 10
21.8902690617453
 20
390.4751675716225
 30
0.0
  0
VERTEX
  5
42A
330
426
100
AcDbEntity
  8
Default
100
AcDbVertex
100
AcDb2dVertex
 10
24.06385394928657
 20
392.6854907915729
 30
0.0
  0
SEQEND
  5
42B
330
426
100
AcDbEntity
  8
Default
  0
POLYLINE
  5
42C
330
1F
100
AcDbEntity
  8
Default
100
AcDb2dPolyline
 66
     1
 10
0.0
 20
0.0
 30
0.0
 70
     1
  0
VERTEX
  5
42D
330
42C
100
AcDbEntity
  8
Default
100
AcDbVertex
100
AcDb2dVertex
 10
14.50907852165761
 20
400.2056183208254
 30
0.0
  0
VERTEX
  5
42E
330
42C
100
AcDbEntity
  8
Default
100
AcDbVertex
100
AcDb2dVertex
 10
11.30907852165757
 20
400.2056183208254
 30
0.0
  0
VERTEX
  5
42F
330
42C
100
AcDbEntity
  8
Default
100
AcDbVertex
100
AcDb2dVertex
 10
11.30907852165763
 20
390.0056183208254
 30
0.0
  0
VERTEX
  5
430
330
42C
100
AcDbEntity
  8
Default
100
AcDbVertex
100
AcDb2dVertex
 10
14.50907852165761
 20
390.0056183208253
 30
0.0
  0
SEQEND
  5
431
330
42C
100
AcDbEntity
  8
Default
  0
POLYLINE
  5
432
330
1F
100
AcDbEntity
  8
Default
100
AcDb2dPolyline
 66
     1
 10
0.0
 20
0.0
 30
0.0
 70
     1
  0
VERTEX
  5
433
330
432
100
AcDbEntity
  8
Default
100
AcDbVertex
100
AcDb2dVertex
 10
13.51901826346284
 20
389.1911979484084
 30
0.0
  0
VERTEX
  5
434
330
432
100
AcDbEntity
  8
Default
100
AcDbVertex
100
AcDb2dVertex
 10
11.2753177343879
 20
386.9095739794273
 30
0.0
  0
VERTEX
  5
435
330
432
100
AcDbEntity
  8
Default
100
AcDbVertex
100
AcDb2dVertex
 10
18.54799413551507
 20
379.757778543001
 30
0.0
  0
VERTEX
  5
436
330
432
100
AcDbEntity
  8
Default
100
AcDbVertex
100
AcDb2dVertex
 10
20.79169466459001
 20
382.0394025119821
 30
0.0
  0
SEQEND
  5
437
330
432
100
AcDbEntity
  8
Default
  0
POLYLINE
  5
438
330
1F
100
AcDbEntity
  8
Default
100
AcDb2dPolyline
 66
     1
 10
0.0
 20
0.0
 30
0.0
 70
     1
  0
VERTEX
  5
439
330
438
100
AcDbEntity
  8
Default
100
AcDbVertex
100
AcDb2dVertex
 10
33.1434933178374
 20
437.4630001504066
 30
0.0
  0
VERTEX
  5
43A
330
438
100
AcDbEntity
  8
Default
100
AcDbVertex
100
AcDb2dVertex
 10
35.94349331783735
 20
437.4630001504066
 30
0.0
  0
VERTEX
  5
43B
330
438
100
AcDbEntity
  8
Default
100
AcDbVertex
100
AcDb2dVertex
 10
35.94349331783735
 20
429.6630001504066
 30
0.0
  0
VERTEX
  5
43C
330
438
100
AcDbEntity
  8
Default
100
AcDbVertex
100
AcDb2dVertex
 10
33.1434933178374
 20
429.6630001504066
 30
0.0
  0
SEQEND
  5
43D
330
438
100
AcDbEntity
  8
Default
  0
POLYLINE
  5
43E
330
1F
100
AcDbEntity
  8
Default
100
AcDb2dPolyline
 66
     1
 10
0.0
 20
0.0
 30
0.0
 70
     1
  0
VERTEX
  5
43F
330
43E
100
AcDbEntity
  8
Default
100
AcDbVertex
100
AcDb2dVertex
 10
46.39349446224651
 20
379.9733438309661
 30
0.0
  0
VERTEX
  5
440
330
43E
100
AcDbEntity
  8
Default
100
AcDbVertex
100
AcDb2dVertex
 10
46.39349446224651
 20
387.8733438309662
 30
0.0
  0
VERTEX
  5
441
330
43E
100
AcDbEntity
  8
Default
100
AcDbVertex
100
AcDb2dVertex
 10
49.19349446224658
 20
387.8733438309662
 30
0.0
  0
VERTEX
  5
442
330
43E
100
AcDbEntity
  8
Default
100
AcDbVertex
100
AcDb2dVertex
 10
49.19349446224658
 20
379.9733438309661
 30
0.0
  0
SEQEND
  5
443
330
43E
100
AcDbEntity
  8
Default
  0
POLYLINE
  5
444
330
1F
100
AcDbEntity
  8
Default
100
AcDb2dPolyline
 66
     1
 10
0.0
 20
0.0
 30
0.0
 70
     1
  0
VERTEX
  5
445
330
444
100
AcDbEntity
  8
Default
100
AcDbVertex
100
AcDb2dVertex
 10
107.3434921734282
 20
437.4630001504066
 30
0.0
  0
VERTEX
  5
446
330
444
100
AcDbEntity
  8
Default
100
AcDbVertex
100
AcDb2dVertex
 10
110.1434921734282
 20
437.4630001504066
 30
0.0
  0
VERTEX
  5
447
330
444
100
AcDbEntity
  8
Default
100
AcDbVertex
100
AcDb2dVertex
 10
110.1434921734282
 20
429.6630001504066
 30
0.0
  0
VERTEX
  5
448
330
444
100
AcDbEntity
  8
Default
100
AcDbVertex
100
AcDb2dVertex
 10
107.3434921734282
 20
429.6630001504066
 30
0.0
  0
SEQEND
  5
449
330
444
100
AcDbEntity
  8
Default
  0
POLYLINE
  5
44A
330
1F
100
AcDbEntity
  8
Default
100
AcDb2dPolyline
 66
     1
 10
0.0
 20
0.0
 30
0.0
 70
     1
  0
VERTEX
  5
44B
330
44A
100
AcDbEntity
  8
Default
100
AcDbVertex
100
AcDb2dVertex
 10
107.3434921734282
 20
404.0039844413625
 30
0.0
  0
VERTEX
  5
44C
330
44A
100
AcDbEntity
  8
Default
100
AcDbVertex
100
AcDb2dVertex
 10
110.1434921734282
 20
404.0039844413625
 30
0.0
  0
VERTEX
  5
44D
330
44A
100
AcDbEntity
  8
Default
100
AcDbVertex
100
AcDb2dVertex
 10
110.1434921734282
 20
396.2039844413625
 30
0.0
  0
VERTEX
  5
44E
330
44A
100
AcDbEntity
  8
Default
100
AcDbVertex
100
AcDb2dVertex
 10
107.3434921734282
 20
396.2039844413625
 30
0.0
  0
SEQEND
  5
44F
330
44A
100
AcDbEntity
  8
Default
  0
POLYLINE
  5
450
330
1F
100
AcDbEntity
  8
Default
100
AcDb2dPolyline
 66
     1
 10
0.0
 20
0.0
 30
0.0
 70
     1
  0
VERTEX
  5
451
330
450
100
AcDbEntity
  8
Default
100
AcDbVertex
100
AcDb2dVertex
 10
110.2934921734282
 20
387.8733438309662
 30
0.0
  0
VERTEX
  5
452
330
450
100
AcDbEntity
  8
Default
100
AcDbVertex
100
AcDb2dVertex
 10
113.0934921734282
 20
387.8733438309662
 30
0.0
  0
VERTEX
  5
453
330
450
100
AcDbEntity
  8
Default
100
AcDbVertex
100
AcDb2dVertex
 10
113.0934921734282
 20
379.9733438309661
 30
0.0
  0
VERTEX
  5
454
330
450
100
AcDbEntity
  8
Default
100
AcDbVertex
100
AcDb2dVertex
 10
110.2934921734282
 20
379.9733438309661
 30
0.0
  0
SEQEND
  5
455
330
450
100
AcDbEntity
  8
Default
  0
POLYLINE
  5
456
330
1F
100
AcDbEntity
  8
Default
100
AcDb2dPolyline
 66
     1
 10
0.0
 20
0.0
 30
0.0
 70
     1
  0
VERTEX
  5
457
330
456
100
AcDbEntity
  8
Default
100
AcDbVertex
100
AcDb2dVertex
 10
113.0934921734282
 20
364.004343798422
 30
0.0
  0
VERTEX
  5
458
330
456
100
AcDbEntity
  8
Default
100
AcDbVertex
100
AcDb2dVertex
 10
113.0934921734282
 20
356.104343798422
 30
0.0
  0
VERTEX
  5
459
330
456
100
AcDbEntity
  8
Default
100
AcDbVertex
100
AcDb2dVertex
 10
110.2934921734282
 20
356.104343798422
 30
0.0
  0
VERTEX
  5
45A
330
456
100
AcDbEntity
  8
Default
100
AcDbVertex
100
AcDb2dVertex
 10
110.2934921734282
 20
364.004343798422
 30
0.0
  0
SEQEND
  5
45B
330
456
100
AcDbEntity
  8
Default
  0
POLYLINE
  5
45C
330
1F
100
AcDbEntity
  8
Default
100
AcDb2dPolyline
 66
     1
 10
0.0
 20
0.0
 30
0.0
 70
     1
  0
VERTEX
  5
45D
330
45C
100
AcDbEntity
  8
Default
100
AcDbVertex
100
AcDb2dVertex
 10
49.19349446224652
 20
356.104343798422
 30
0.0
  0
VERTEX
  5
45E
330
45C
100
AcDbEntity
  8
Default
100
AcDbVertex
100
AcDb2dVertex
 10
46.39349446224657
 20
356.104343798422
 30
0.0
  0
VERTEX
  5
45F
330
45C
100
AcDbEntity
  8
Default
100
AcDbVertex
100
AcDb2dVertex
 10
46.39349446224657
 20
364.004343798422
 30
0.0
  0
VERTEX
  5
460
330
45C
100
AcDbEntity
  8
Default
100
AcDbVertex
100
AcDb2dVertex
 10
49.19349446224652
 20
364.004343798422
 30
0.0
  0
SEQEND
  5
461
330
45C
100
AcDbEntity
  8
Default
  0
LINE
  5
462
330
1F
100
AcDbEntity
  8
Default
100
AcDbLine
 10
-10.41175585625763
 20
371.0820787980965
 30
0.0
 11
-7.411755932674055
 21
371.0814016728719
 31
0.0
  0
LINE
  5
463
330
1F
100
AcDbEntity
  8
Default
100
AcDbLine
 10
-7.411755932674055
 20
371.0814016728719
 30
0.0
 11
-7.412433057898681
 21
368.0814017492884
 31
0.0
  0
LINE
  5
464
330
1F
100
AcDbEntity
  8
Default
100
AcDbLine
 10
-7.412433057898681
 20
368.0814017492884
 30
0.0
 11
-10.4124329814822
 21
368.0820788745129
 31
0.0
  0
LINE
  5
465
330
1F
100
AcDbEntity
  8
Default
100
AcDbLine
 10
-10.4124329814822
 20
368.0820788745129
 30
0.0
 11
-10.41175585625763
 21
371.0820787980965
 31
0.0
  0
SPLINE
  5
466
330
1F
100
AcDbEntity
  8
Make2D$visible$lines
100
AcDbSpline
210
0.0
220
0.0
230
1.0
 70
    28
 71
     2
 72
     6
 73
     3
 74
     0
 42
0.000000001
 43
0.0000000001
 40
-31.96363088217647
 40
-31.96363088217647
 40
-31.96363088217647
 40
-26.46424844311697
 40
-26.46424844311697
 40
-26.46424844311697
 10
11.78175462709822
 20
350.0763939660324
 30
0.0
 41
1.0
 10
11.79124608843705
 20
347.3267191279978
 30
0.0
 41
1.0
 10
11.80073754977587
 20
344.5770442899632
 30
0.0
 41
1.0
  0
LINE
  5
467
330
1F
100
AcDbEntity
  8
Make2D$visible$lines
100
AcDbLine
 10
11.80073754977587
 20
344.5770442899632
 30
0.0
 11
11.81109303398961
 21
341.577062162692
 31
0.0
  0
LINE
  5
468
330
1F
100
AcDbEntity
  8
Make2D$visible$lines
100
AcDbLine
 10
11.81109303398961
 20
341.577062162692
 30
0.0
 11
3.811140694599715
 21
341.549447538122
 31
0.0
  0
LINE
  5
469
330
1F
100
AcDbEntity
  8
Make2D$visible$lines
100
AcDbLine
 10
3.811140694599715
 20
341.549447538122
 30
0.0
 11
3.800785210385982
 21
344.5494296653932
 31
0.0
  0
LINE
  5
46A
330
1F
100
AcDbEntity
  8
Make2D$visible$lines
100
AcDbLine
 10
3.800785210385982
 20
344.5494296653932
 30
0.0
 11
-21.65807882463048
 21
344.4615495203026
 31
0.0
  0
LINE
  5
46B
330
1F
100
AcDbEntity
  8
Make2D$visible$lines
100
AcDbLine
 10
-21.65807882463048
 20
344.4615495203026
 30
0.0
 11
-21.6477233404168
 21
341.4615673930314
 31
0.0
  0
LINE
  5
46C
330
1F
100
AcDbEntity
  8
Make2D$visible$lines
100
AcDbLine
 10
-21.6477233404168
 20
341.4615673930314
 30
0.0
 11
-29.6476756798067
 21
341.4339527684615
 31
0.0
  0
LINE
  5
46D
330
1F
100
AcDbEntity
  8
Make2D$visible$lines
100
AcDbLine
 10
-29.6476756798067
 20
341.4339527684615
 30
0.0
 11
-29.65803116402043
 21
344.4339348957327
 31
0.0
  0
LINE
  5
46E
330
1F
100
AcDbEntity
  8
Make2D$visible$lines
100
AcDbLine
 10
-29.65803116402043
 20
344.4339348957327
 30
0.0
 11
-29.67701408669808
 21
349.9332845718019
 31
0.0
  0
LINE
  5
46F
330
1F
100
AcDbEntity
  8
Make2D$visible$lines
100
AcDbLine
 10
-29.67701408669808
 20
349.9332845718019
 30
0.0
 11
-14.91243938877193
 21
372.788940895849
 31
0.0
  0
ARC
  5
470
330
1F
100
AcDbEntity
  8
Make2D$visible$lines
100
AcDbCircle
 10
-9.014942508903232
 20
369.5053406534414
 30
0.0
 40
6.750000000000009
100
AcDbArc
 50
29.50367691592982
 51
150.8918742297532
  0
LINE
  5
471
330
1F
100
AcDbEntity
  8
Make2D$visible$lines
100
AcDbLine
 10
-3.140254879697238
 20
372.8295766948881
 30
0.0
 11
11.78175462709822
 21
350.0763939660324
 31
0.0
  0
CIRCLE
  5
472
330
1F
100
AcDbEntity
  8
Default
100
AcDbCircle
 10
3.310658224303893
 20
377.1605818610489
 30
0.0
 40
0.9500120487542364
  0
CIRCLE
  5
473
330
1F
100
AcDbEntity
  8
Default
100
AcDbCircle
 10
-23.85189578719456
 20
377.2012824854975
 30
0.0
 40
0.950012048754375
  0
CIRCLE
  5
474
330
1F
100
AcDbEntity
  8
Default
100
AcDbCircle
 10
-10.39806093498913
 20
430.210405910705
 30
0.0
 40
1.9
  0
POLYLINE
  5
475
330
1F
100
AcDbEntity
  8
Default
100
AcDb2dPolyline
 66
     1
 10
0.0
 20
0.0
 30
0.0
 70
     1
  0
VERTEX
  5
476
330
475
100
AcDbEntity
  8
Default
100
AcDbVertex
100
AcDb2dVertex
 10
-40.85048311147834
 20
52.87614248025947
 30
0.0
  0
VERTEX
  5
477
330
475
100
AcDbEntity
  8
Default
100
AcDbVertex
100
AcDb2dVertex
 10
339.1495168885216
 20
52.87614248025947
 30
0.0
  0
VERTEX
  5
478
330
475
100
AcDbEntity
  8
Default
100
AcDbVertex
100
AcDb2dVertex
 10
339.1495168885216
 20
452.8761424802595
 30
0.0
  0
VERTEX
  5
479
330
475
100
AcDbEntity
  8
Default
100
AcDbVertex
100
AcDb2dVertex
 10
-40.85048311147834
 20
452.8761424802595
 30
0.0
  0
SEQEND
  5
47A
330
475
100
AcDbEntity
  8
Default
  0
ENDSEC
  0
SECTION
  2
OBJECTS
  0
DICTIONARY
  5
C
330
0
100
AcDbDictionary
281
     1
  3
ACAD_DETAILVIEWSTYLE
350
4C0
  3
ACAD_GROUP
350
D
  3
ACAD_LAYOUT
350
1A
  3
ACAD_MATERIAL
350
43
  3
ACAD_MLEADERSTYLE
350
6B
  3
ACAD_MLINESTYLE
350
17
  3
ACAD_PLOTSETTINGS
350
19
  3
ACAD_PLOTSTYLENAME
350
E
  3
ACAD_SCALELIST
350
47
  3
ACAD_SECTIONVIEWSTYLE
350
4C1
  3
ACAD_TABLESTYLE
350
69
  3
ACAD_VISUALSTYLE
350
2A
  3
ACDB_RECOMPOSE_DATA
350
4BD
  3
AcDbVariableDictionary
350
47D
  0
DICTIONARY
  5
47B
330
8
100
AcDbDictionary
280
     1
281
     1
  3
ACAD_XREC_ROUNDTRIP
360
47C
  0
DICTIONARY
  5
4C0
102
{ACAD_REACTORS
330
C
102
}
330
C
100
AcDbDictionary
281
     1
  0
DICTIONARY
  5
D
102
{ACAD_REACTORS
330
C
102
}
330
C
100
AcDbDictionary
281
     1
  0
DICTIONARY
  5
1A
102
{ACAD_REACTORS
330
C
102
}
330
C
100
AcDbDictionary
281
     1
  3
Layout1
350
1E
  3
Layout2
350
26
  3
Model
350
22
  0
DICTIONARY
  5
43
102
{ACAD_REACTORS
330
C
102
}
330
C
100
AcDbDictionary
281
     1
  3
ByBlock
350
45
  3
ByLayer
350
44
  3
Global
350
46
  0
DICTIONARY
  5
6B
102
{ACAD_REACTORS
330
C
102
}
330
C
100
AcDbDictionary
281
     1
  3
Standard
350
6C
  0
DICTIONARY
  5
17
102
{ACAD_REACTORS
330
C
102
}
330
C
100
AcDbDictionary
281
     1
  3
Standard
350
18
  0
DICTIONARY
  5
19
102
{ACAD_REACTORS
330
C
102
}
330
C
100
AcDbDictionary
281
     1
  0
ACDBDICTIONARYWDFLT
  5
E
102
{ACAD_REACTORS
330
C
102
}
330
C
100
AcDbDictionary
281
     1
  3
Normal
350
F
100
AcDbDictionaryWithDefault
340
F
  0
DICTIONARY
  5
47
102
{ACAD_REACTORS
330
C
102
}
330
C
100
AcDbDictionary
281
     1
  3
A0
350
48
  3
A1
350
49
  3
A2
350
4A
  3
A3
350
4B
  3
A4
350
4C
  3
A5
350
4D
  3
A6
350
4E
  3
A7
350
4F
  3
A8
350
50
  3
A9
350
51
  3
B0
350
52
  3
B1
350
53
  3
B2
350
54
  3
B3
350
55
  3
B4
350
56
  3
B5
350
57
  3
B6
350
58
  3
B7
350
59
  3
B8
350
5A
  3
B9
350
5B
  3
C0
350
5C
  3
C1
350
5D
  3
C2
350
5E
  3
C3
350
5F
  3
C4
350
60
  3
C5
350
61
  3
C6
350
62
  3
C7
350
63
  3
C8
350
64
  3
C9
350
65
  3
D0
350
66
  3
D1
350
67
  3
D2
350
68
  0
DICTIONARY
  5
4C1
102
{ACAD_REACTORS
330
C
102
}
330
C
100
AcDbDictionary
281
     1
  0
DICTIONARY
  5
69
102
{ACAD_REACTORS
330
C
102
}
330
C
100
AcDbDictionary
281
     1
  3
Standard
350
6A
  0
DICTIONARY
  5
2A
102
{ACAD_REACTORS
330
C
102
}
330
C
100
AcDbDictionary
281
     1
  3
2dWireframe
350
2F
  3
Basic
350
32
  3
Brighten
350
36
  3
ColorChange
350
3A
  3
Conceptual
350
34
  3
Dim
350
35
  3
EdgeColorOff
350
3D
  3
Facepattern
350
39
  3
Flat
350
2B
  3
FlatWithEdges
350
2C
  3
Gouraud
350
2D
  3
GouraudWithEdges
350
2E
  3
Hidden
350
31
  3
JitterOff
350
3B
  3
Linepattern
350
38
  3
OverhangOff
350
3C
  3
Realistic
350
33
  3
Shaded
350
42
  3
Shaded with edges
350
41
  3
Shades of Gray
350
3E
  3
Sketchy
350
3F
  3
Thicken
350
37
  3
Wireframe
350
30
  3
X-Ray
350
40
  0
XRECORD
  5
4BD
102
{ACAD_REACTORS
330
C
102
}
330
C
100
AcDbXrecord
280
     1
 90
        1
330
6A
  0
DICTIONARY
  5
47D
102
{ACAD_REACTORS
330
C
102
}
330
C
100
AcDbDictionary
281
     1
  3
CANNOSCALE
350
47E
  3
CMLEADERSTYLE
350
4BF
  3
CTABLESTYLE
350
4BE
  3
MSLTSCALE
350
47F
  3
XCLIPFRAME
350
480
  0
XRECORD
  5
47C
102
{ACAD_REACTORS
330
47B
102
}
330
47B
100
AcDbXrecord
280
     1
102
VTR_0.000_0.000_1.000_1.000_GRIDDISPLAY
 70
     3
102
VTR_0.000_0.000_1.000_1.000_GRIDMAJOR
 70
     5
102
VTR_0.000_0.000_1.000_1.000_DEFAULTLIGHTING
280
     1
102
VTR_0.000_0.000_1.000_1.000_DEFAULTLIGHTINGTYPE
 70
     1
102
VTR_0.000_0.000_1.000_1.000_BRIGHTNESS
141
0.0
102
VTR_0.000_0.000_1.000_1.000_CONTRAST
142
0.0
  0
LAYOUT
  5
1E
102
{ACAD_REACTORS
330
1A
102
}
330
1A
100
AcDbPlotSettings
  1

  2
none_device
  4

  6

 40
0.0
 41
0.0
 42
0.0
 43
0.0
 44
0.0
 45
0.0
 46
0.0
 47
0.0
 48
0.0
 49
0.0
140
0.0
141
0.0
142
1.0
143
1.0
 70
   688
 72
     0
 73
     0
 74
     5
  7

 75
    16
 76
     0
 77
     2
 78
   300
147
1.0
148
0.0
149
0.0
100
AcDbLayout
  1
Layout1
 70
     1
 71
     1
 10
0.0
 20
0.0
 11
12.0
 21
9.0
 12
0.0
 22
0.0
 32
0.0
 14
1.000000000000000E+20
 24
1.000000000000000E+20
 34
1.000000000000000E+20
 15
-1.000000000000000E+20
 25
-1.000000000000000E+20
 35
-1.000000000000000E+20
146
0.0
 13
0.0
 23
0.0
 33
0.0
 16
1.0
 26
0.0
 36
0.0
 17
0.0
 27
1.0
 37
0.0
 76
     0
330
1B
  0
LAYOUT
  5
26
102
{ACAD_REACTORS
330
1A
102
}
330
1A
100
AcDbPlotSettings
  1

  2
none_device
  4

  6

 40
0.0
 41
0.0
 42
0.0
 43
0.0
 44
0.0
 45
0.0
 46
0.0
 47
0.0
 48
0.0
 49
0.0
140
0.0
141
0.0
142
1.0
143
1.0
 70
   688
 72
     0
 73
     0
 74
     5
  7

 75
    16
 76
     0
 77
     2
 78
   300
147
1.0
148
0.0
149
0.0
100
AcDbLayout
  1
Layout2
 70
     1
 71
     2
 10
0.0
 20
0.0
 11
0.0
 21
0.0
 12
0.0
 22
0.0
 32
0.0
 14
0.0
 24
0.0
 34
0.0
 15
0.0
 25
0.0
 35
0.0
146
0.0
 13
0.0
 23
0.0
 33
0.0
 16
1.0
 26
0.0
 36
0.0
 17
0.0
 27
1.0
 37
0.0
 76
     0
330
23
  0
LAYOUT
  5
22
102
{ACAD_REACTORS
330
1A
102
}
330
1A
100
AcDbPlotSettings
  1

  2
none_device
  4
Letter_(8.50_x_11.00_Inches)
  6

 40
6.35
 41
6.35
 42
6.35000508
 43
6.35000508
 44
215.9
 45
279.4
 46
0.0
 47
0.0
 48
0.0
 49
0.0
140
0.0
141
0.0
142
1.0
143
1.0
 70
  1712
 72
     0
 73
     0
 74
     0
  7

 75
     0
 76
     0
 77
     2
 78
   300
147
1.0
148
0.0
149
0.0
100
AcDbLayout
  1
Model
 70
     1
 71
     0
 10
0.0
 20
0.0
 11
12.0
 21
9.0
 12
0.0
 22
0.0
 32
0.0
 14
-40.85048311147835
 24
52.87614248025947
 34
0.0
 15
339.1495168885216
 25
452.8761424802595
 35
0.0
146
0.0
 13
0.0
 23
0.0
 33
0.0
 16
1.0
 26
0.0
 36
0.0
 17
0.0
 27
1.0
 37
0.0
 76
     0
330
1F
331
29
  0
MATERIAL
  5
45
102
{ACAD_REACTORS
330
43
102
}
102
{ACAD_XDICTIONARY
360
4B3
102
}
330
43
100
AcDbMaterial
  1
ByBlock
  0
MATERIAL
  5
44
102
{ACAD_REACTORS
330
43
102
}
102
{ACAD_XDICTIONARY
360
4B1
102
}
330
43
100
AcDbMaterial
  1
ByLayer
  0
MATERIAL
  5
46
102
{ACAD_REACTORS
330
43
102
}
102
{ACAD_XDICTIONARY
360
4B5
102
}
330
43
100
AcDbMaterial
  1
Global
  0
MLEADERSTYLE
  5
6C
102
{ACAD_REACTORS
330
6B
102
}
102
{ACAD_XDICTIONARY
360
4BB
102
}
330
6B
100
AcDbMLeaderStyle
170
     2
171
     1
172
     0
 90
        2
 40
0.0
 41
0.0
173
     1
 91
-1056964608
340
14
 92
       -2
290
     1
 42
0.09
291
     1
 43
0.36
  3
Standard
341
0
 44
0.18
300

342
11
174
     1
178
     6
175
     1
176
     0
 93
-1056964608
 45
0.18
292
     0
297
     0
 46
0.18
343
0
 94
-1056964608
 47
1.0
 49
1.0
140
1.0
293
     1
141
0.0
294
     1
177
     0
142
1.0
295
     0
296
     0
143
0.125
1001
ACAD_MLEADERVER
1070
     2
  0
MLINESTYLE
  5
18
102
{ACAD_REACTORS
330
17
102
}
330
17
100
AcDbMlineStyle
  2
Standard
 70
     0
  3

 62
   256
 51
90.0
 52
90.0
 71
     2
 49
0.5
 62
   256
  6
BYLAYER
 49
-0.5
 62
   256
  6
BYLAYER
  0
ACDBPLACEHOLDER
  5
F
102
{ACAD_REACTORS
330
E
102
}
330
E
  0
SCALE
  5
48
102
{ACAD_REACTORS
330
47
102
}
330
47
100
AcDbScale
 70
     0
300
1:1
140
1.0
141
1.0
290
     1
  0
SCALE
  5
49
102
{ACAD_REACTORS
330
47
102
}
330
47
100
AcDbScale
 70
     0
300
1:2
140
1.0
141
2.0
290
     0
  0
SCALE
  5
4A
102
{ACAD_REACTORS
330
47
102
}
330
47
100
AcDbScale
 70
     0
300
1:4
140
1.0
141
4.0
290
     0
  0
SCALE
  5
4B
102
{ACAD_REACTORS
330
47
102
}
330
47
100
AcDbScale
 70
     0
300
1:5
140
1.0
141
5.0
290
     0
  0
SCALE
  5
4C
102
{ACAD_REACTORS
330
47
102
}
330
47
100
AcDbScale
 70
     0
300
1:8
140
1.0
141
8.0
290
     0
  0
SCALE
  5
4D
102
{ACAD_REACTORS
330
47
102
}
330
47
100
AcDbScale
 70
     0
300
1:10
140
1.0
141
10.0
290
     0
  0
SCALE
  5
4E
102
{ACAD_REACTORS
330
47
102
}
330
47
100
AcDbScale
 70
     0
300
1:16
140
1.0
141
16.0
290
     0
  0
SCALE
  5
4F
102
{ACAD_REACTORS
330
47
102
}
330
47
100
AcDbScale
 70
     0
300
1:20
140
1.0
141
20.0
290
     0
  0
SCALE
  5
50
102
{ACAD_REACTORS
330
47
102
}
330
47
100
AcDbScale
 70
     0
300
1:30
140
1.0
141
30.0
290
     0
  0
SCALE
  5
51
102
{ACAD_REACTORS
330
47
102
}
330
47
100
AcDbScale
 70
     0
300
1:40
140
1.0
141
40.0
290
     0
  0
SCALE
  5
52
102
{ACAD_REACTORS
330
47
102
}
330
47
100
AcDbScale
 70
     0
300
1:50
140
1.0
141
50.0
290
     0
  0
SCALE
  5
53
102
{ACAD_REACTORS
330
47
102
}
330
47
100
AcDbScale
 70
     0
300
1:100
140
1.0
141
100.0
290
     0
  0
SCALE
  5
54
102
{ACAD_REACTORS
330
47
102
}
330
47
100
AcDbScale
 70
     0
300
2:1
140
2.0
141
1.0
290
     0
  0
SCALE
  5
55
102
{ACAD_REACTORS
330
47
102
}
330
47
100
AcDbScale
 70
     0
300
4:1
140
4.0
141
1.0
290
     0
  0
SCALE
  5
56
102
{ACAD_REACTORS
330
47
102
}
330
47
100
AcDbScale
 70
     0
300
8:1
140
8.0
141
1.0
290
     0
  0
SCALE
  5
57
102
{ACAD_REACTORS
330
47
102
}
330
47
100
AcDbScale
 70
     0
300
10:1
140
10.0
141
1.0
290
     0
  0
SCALE
  5
58
102
{ACAD_REACTORS
330
47
102
}
330
47
100
AcDbScale
 70
     0
300
100:1
140
100.0
141
1.0
290
     0
  0
SCALE
  5
59
102
{ACAD_REACTORS
330
47
102
}
330
47
100
AcDbScale
 70
     0
300
1/128" = 1'-0"
140
0.0078125
141
12.0
290
     0
  0
SCALE
  5
5A
102
{ACAD_REACTORS
330
47
102
}
330
47
100
AcDbScale
 70
     0
300
1/64" = 1'-0"
140
0.015625
141
12.0
290
     0
  0
SCALE
  5
5B
102
{ACAD_REACTORS
330
47
102
}
330
47
100
AcDbScale
 70
     0
300
1/32" = 1'-0"
140
0.03125
141
12.0
290
     0
  0
SCALE
  5
5C
102
{ACAD_REACTORS
330
47
102
}
330
47
100
AcDbScale
 70
     0
300
1/16" = 1'-0"
140
0.0625
141
12.0
290
     0
  0
SCALE
  5
5D
102
{ACAD_REACTORS
330
47
102
}
330
47
100
AcDbScale
 70
     0
300
3/32" = 1'-0"
140
0.09375
141
12.0
290
     0
  0
SCALE
  5
5E
102
{ACAD_REACTORS
330
47
102
}
330
47
100
AcDbScale
 70
     0
300
1/8" = 1'-0"
140
0.125
141
12.0
290
     0
  0
SCALE
  5
5F
102
{ACAD_REACTORS
330
47
102
}
330
47
100
AcDbScale
 70
     0
300
3/16" = 1'-0"
140
0.1875
141
12.0
290
     0
  0
SCALE
  5
60
102
{ACAD_REACTORS
330
47
102
}
330
47
100
AcDbScale
 70
     0
300
1/4" = 1'-0"
140
0.25
141
12.0
290
     0
  0
SCALE
  5
61
102
{ACAD_REACTORS
330
47
102
}
330
47
100
AcDbScale
 70
     0
300
3/8" = 1'-0"
140
0.375
141
12.0
290
     0
  0
SCALE
  5
62
102
{ACAD_REACTORS
330
47
102
}
330
47
100
AcDbScale
 70
     0
300
1/2" = 1'-0"
140
0.5
141
12.0
290
     0
  0
SCALE
  5
63
102
{ACAD_REACTORS
330
47
102
}
330
47
100
AcDbScale
 70
     0
300
3/4" = 1'-0"
140
0.75
141
12.0
290
     0
  0
SCALE
  5
64
102
{ACAD_REACTORS
330
47
102
}
330
47
100
AcDbScale
 70
     0
300
1" = 1'-0"
140
1.0
141
12.0
290
     0
  0
SCALE
  5
65
102
{ACAD_REACTORS
330
47
102
}
330
47
100
AcDbScale
 70
     0
300
1-1/2" = 1'-0"
140
1.5
141
12.0
290
     0
  0
SCALE
  5
66
102
{ACAD_REACTORS
330
47
102
}
330
47
100
AcDbScale
 70
     0
300
3" = 1'-0"
140
3.0
141
12.0
290
     0
  0
SCALE
  5
67
102
{ACAD_REACTORS
330
47
102
}
330
47
100
AcDbScale
 70
     0
300
6" = 1'-0"
140
6.0
141
12.0
290
     0
  0
SCALE
  5
68
102
{ACAD_REACTORS
330
47
102
}
330
47
100
AcDbScale
 70
     0
300
1'-0" = 1'-0"
140
12.0
141
12.0
290
     0
  0
TABLESTYLE
  5
6A
102
{ACAD_REACTORS
330
69
102
}
102
{ACAD_XDICTIONARY
360
4B7
102
}
330
69
100
AcDbTableStyle
  3
Standard
 70
     0
 71
     0
 40
0.06
 41
0.06
280
     0
281
     0
  7
Standard
140
0.18
170
     2
 62
     0
 63
   257
283
     0
274
    -2
284
     1
 64
     0
275
    -2
285
     1
 65
     0
276
    -2
286
     1
 66
     0
277
    -2
287
     1
 67
     0
278
    -2
288
     1
 68
     0
279
    -2
289
     1
 69
     0
  7
Standard
140
0.25
170
     5
 62
     0
 63
   257
283
     0
274
    -2
284
     1
 64
     0
275
    -2
285
     1
 65
     0
276
    -2
286
     1
 66
     0
277
    -2
287
     1
 67
     0
278
    -2
288
     1
 68
     0
279
    -2
289
     1
 69
     0
  7
Standard
140
0.18
170
     5
 62
     0
 63
   257
283
     0
274
    -2
284
     1
 64
     0
275
    -2
285
     1
 65
     0
276
    -2
286
     1
 66
     0
277
    -2
287
     1
 67
     0
278
    -2
288
     1
 68
     0
279
    -2
289
     1
 69
     0
  0
VISUALSTYLE
  5
2F
102
{ACAD_REACTORS
330
2A
102
}
102
{ACAD_XDICTIONARY
360
489
102
}
330
2A
100
AcDbVisualStyle
  2
2dWireframe
 70
     4
 71
     0
 72
     2
 73
     0
 90
        0
 40
0.6
 41
30.0
 62
     5
 63
     7
421
 16777215
 74
     1
 91
        4
 64
     7
 65
   257
 75
     1
175
     1
 42
1.0
 92
        0
 66
   257
 43
1.0
 76
     1
 77
     6
 78
     2
 67
     7
 79
     5
170
     0
171
     0
290
     0
174
     0
 93
        1
 44
0.0
173
     0
291
     0
 45
0.0
1001
ACAD
1000
AcDbSavedByObjectVersion
1070
     0
  0
VISUALSTYLE
  5
32
102
{ACAD_REACTORS
330
2A
102
}
102
{ACAD_XDICTIONARY
360
48F
102
}
330
2A
100
AcDbVisualStyle
  2
Basic
 70
     7
 71
     1
 72
     0
 73
     1
 90
        0
 40
0.6
 41
30.0
 62
     5
 63
     7
421
 16777215
 74
     0
 91
        4
 64
     7
 65
   257
 75
     1
175
     1
 42
1.0
 92
        8
 66
     7
 43
1.0
 76
     1
 77
     6
 78
     2
 67
     7
 79
     5
170
     0
171
     0
290
     0
174
     0
 93
        1
 44
0.0
173
     0
291
     1
 45
0.0
1001
ACAD
1000
AcDbSavedByObjectVersion
1070
     0
  0
VISUALSTYLE
  5
36
102
{ACAD_REACTORS
330
2A
102
}
102
{ACAD_XDICTIONARY
360
497
102
}
330
2A
100
AcDbVisualStyle
  2
Brighten
 70
    12
 71
     2
 72
     2
 73
     0
 90
        0
 40
0.6
 41
30.0
 62
     5
 63
     7
421
 16777215
 74
     1
 91
        4
 64
     7
 65
   257
 75
     1
175
     1
 42
1.0
 92
        8
 66
     7
 43
1.0
 76
     1
 77
     6
 78
     2
 67
     7
 79
     5
170
     0
171
     0
290
     0
174
     0
 93
        1
 44
50.0
173
     0
291
     1
 45
0.0
1001
ACAD
1000
AcDbSavedByObjectVersion
1070
     0
  0
VISUALSTYLE
  5
3A
102
{ACAD_REACTORS
330
2A
102
}
102
{ACAD_XDICTIONARY
360
49F
102
}
330
2A
100
AcDbVisualStyle
  2
ColorChange
 70
    16
 71
     2
 72
     2
 73
     3
 90
        0
 40
0.6
 41
30.0
 62
     5
 63
     8
421
  8421504
 74
     1
 91
        4
 64
     7
 65
   257
 75
     1
175
     1
 42
1.0
 92
        8
 66
     8
424
  8421504
 43
1.0
 76
     1
 77
     6
 78
     2
 67
     7
 79
     5
170
     0
171
     0
290
     0
174
     0
 93
        1
 44
0.0
173
     0
291
     1
 45
0.0
1001
ACAD
1000
AcDbSavedByObjectVersion
1070
     0
  0
VISUALSTYLE
  5
34
102
{ACAD_REACTORS
330
2A
102
}
102
{ACAD_XDICTIONARY
360
493
102
}
330
2A
100
AcDbVisualStyle
  2
Conceptual
 70
     9
 71
     3
 72
     2
 73
     0
 90
        0
 40
0.6
 41
30.0
 62
     5
 63
     7
421
 16777215
 74
     2
 91
        2
 64
     7
 65
   257
 75
     1
175
     1
 42
179.0
 92
        8
 66
     7
 43
1.0
 76
     1
 77
     6
 78
     2
 67
     7
 79
     3
170
     0
171
     0
290
     0
174
     0
 93
        1
 44
0.0
173
     0
291
     0
 45
0.0
1001
ACAD
1000
AcDbSavedByObjectVersion
1070
     0
  0
VISUALSTYLE
  5
35
102
{ACAD_REACTORS
330
2A
102
}
102
{ACAD_XDICTIONARY
360
495
102
}
330
2A
100
AcDbVisualStyle
  2
Dim
 70
    11
 71
     2
 72
     2
 73
     0
 90
        0
 40
0.6
 41
30.0
 62
     5
 63
     7
421
 16777215
 74
     1
 91
        4
 64
     7
 65
   257
 75
     1
175
     1
 42
1.0
 92
        8
 66
     7
 43
1.0
 76
     1
 77
     6
 78
     2
 67
     7
 79
     5
170
     0
171
     0
290
     0
174
     0
 93
        1
 44
-50.0
173
     0
291
     1
 45
0.0
1001
ACAD
1000
AcDbSavedByObjectVersion
1070
     0
  0
VISUALSTYLE
  5
3D
102
{ACAD_REACTORS
330
2A
102
}
102
{ACAD_XDICTIONARY
360
4A5
102
}
330
2A
100
AcDbVisualStyle
  2
EdgeColorOff
 70
    22
 71
     2
 72
     2
 73
     0
 90
        0
 40
0.6
 41
30.0
 62
     5
 63
     7
421
 16777215
 74
     1
 91
        4
 64
     7
 65
   257
 75
     1
175
     1
 42
1.0
 92
        8
 66
     7
 43
1.0
 76
     1
 77
     6
 78
     2
 67
     7
 79
     5
170
     0
171
     0
290
     0
174
     0
 93
        1
 44
0.0
173
     0
291
     1
 45
0.0
1001
ACAD
1000
AcDbSavedByObjectVersion
1070
     0
  0
VISUALSTYLE
  5
39
102
{ACAD_REACTORS
330
2A
102
}
102
{ACAD_XDICTIONARY
360
49D
102
}
330
2A
100
AcDbVisualStyle
  2
Facepattern
 70
    15
 71
     2
 72
     2
 73
     0
 90
        0
 40
0.6
 41
30.0
 62
     5
 63
     7
421
 16777215
 74
     1
 91
        4
 64
     7
 65
   257
 75
     1
175
     1
 42
1.0
 92
        8
 66
     7
 43
1.0
 76
     1
 77
     6
 78
     2
 67
     7
 79
     5
170
     0
171
     0
290
     0
174
     0
 93
        1
 44
0.0
173
     0
291
     1
 45
0.0
1001
ACAD
1000
AcDbSavedByObjectVersion
1070
     0
  0
VISUALSTYLE
  5
2B
102
{ACAD_REACTORS
330
2A
102
}
102
{ACAD_XDICTIONARY
360
481
102
}
330
2A
100
AcDbVisualStyle
  2
Flat
 70
     0
 71
     2
 72
     1
 73
     1
 90
        2
 40
0.6
 41
30.0
 62
     5
 63
     7
421
 16777215
 74
     0
 91
        0
 64
     7
 65
   257
 75
     1
175
     1
 42
1.0
 92
        8
 66
     7
 43
1.0
 76
     1
 77
     6
 78
     2
 67
     7
 79
     5
170
     0
171
     0
290
     0
174
     0
 93
       13
 44
0.0
173
     0
291
     1
 45
0.0
1001
ACAD
1000
AcDbSavedByObjectVersion
1070
     0
  0
VISUALSTYLE
  5
2C
102
{ACAD_REACTORS
330
2A
102
}
102
{ACAD_XDICTIONARY
360
483
102
}
330
2A
100
AcDbVisualStyle
  2
FlatWithEdges
 70
     1
 71
     2
 72
     1
 73
     1
 90
        2
 40
0.6
 41
30.0
 62
     5
 63
     7
421
 16777215
 74
     1
 91
        0
 64
     7
 65
   257
 75
     1
175
     1
 42
1.0
 92
        0
 66
   257
 43
1.0
 76
     1
 77
     6
 78
     2
 67
     7
 79
     5
170
     0
171
     0
290
     0
174
     0
 93
       13
 44
0.0
173
     0
291
     1
 45
0.0
1001
ACAD
1000
AcDbSavedByObjectVersion
1070
     0
  0
VISUALSTYLE
  5
2D
102
{ACAD_REACTORS
330
2A
102
}
102
{ACAD_XDICTIONARY
360
485
102
}
330
2A
100
AcDbVisualStyle
  2
Gouraud
 70
     2
 71
     2
 72
     2
 73
     1
 90
        2
 40
0.6
 41
30.0
 62
     5
 63
     7
421
 16777215
 74
     0
 91
        0
 64
     7
 65
   257
 75
     1
175
     1
 42
1.0
 92
        0
 66
     7
 43
1.0
 76
     1
 77
     6
 78
     2
 67
     7
 79
     5
170
     0
171
     0
290
     0
174
     0
 93
       13
 44
0.0
173
     0
291
     1
 45
0.0
1001
ACAD
1000
AcDbSavedByObjectVersion
1070
     0
  0
VISUALSTYLE
  5
2E
102
{ACAD_REACTORS
330
2A
102
}
102
{ACAD_XDICTIONARY
360
487
102
}
330
2A
100
AcDbVisualStyle
  2
GouraudWithEdges
 70
     3
 71
     2
 72
     2
 73
     1
 90
        2
 40
0.6
 41
30.0
 62
     5
 63
     7
421
 16777215
 74
     1
 91
        0
 64
     7
 65
   257
 75
     1
175
     1
 42
1.0
 92
        0
 66
   257
 43
1.0
 76
     1
 77
     6
 78
     2
 67
     7
 79
     5
170
     0
171
     0
290
     0
174
     0
 93
       13
 44
0.0
173
     0
291
     1
 45
0.0
1001
ACAD
1000
AcDbSavedByObjectVersion
1070
     0
  0
VISUALSTYLE
  5
31
102
{ACAD_REACTORS
330
2A
102
}
102
{ACAD_XDICTIONARY
360
48D
102
}
330
2A
100
AcDbVisualStyle
  2
Hidden
 70
     6
 71
     1
 72
     2
 73
     2
 90
        0
 40
0.6
 41
30.0
 62
     5
 63
     7
421
 16777215
 74
     2
 91
        2
 64
     7
 65
   257
 75
     2
175
     1
 42
40.0
 92
        0
 66
   257
 43
1.0
 76
     1
 77
     6
 78
     2
 67
     7
 79
     3
170
     0
171
     0
290
     0
174
     0
 93
        1
 44
0.0
173
     0
291
     0
 45
0.0
1001
ACAD
1000
AcDbSavedByObjectVersion
1070
     0
  0
VISUALSTYLE
  5
3B
102
{ACAD_REACTORS
330
2A
102
}
102
{ACAD_XDICTIONARY
360
4A1
102
}
330
2A
100
AcDbVisualStyle
  2
JitterOff
 70
    20
 71
     2
 72
     2
 73
     0
 90
        0
 40
0.6
 41
30.0
 62
     5
 63
     7
421
 16777215
 74
     1
 91
        4
 64
     7
 65
   257
 75
     1
175
     1
 42
1.0
 92
       10
 66
     7
 43
1.0
 76
     1
 77
     6
 78
     2
 67
     7
 79
     5
170
     0
171
     0
290
     0
174
     0
 93
        1
 44
0.0
173
     0
291
     1
 45
0.0
1001
ACAD
1000
AcDbSavedByObjectVersion
1070
     0
  0
VISUALSTYLE
  5
38
102
{ACAD_REACTORS
330
2A
102
}
102
{ACAD_XDICTIONARY
360
49B
102
}
330
2A
100
AcDbVisualStyle
  2
Linepattern
 70
    14
 71
     2
 72
     2
 73
     0
 90
        0
 40
0.6
 41
30.0
 62
     5
 63
     7
421
 16777215
 74
     1
 91
        4
 64
     7
 65
   257
 75
     7
175
     7
 42
1.0
 92
        8
 66
     7
 43
1.0
 76
     1
 77
     6
 78
     2
 67
     7
 79
     5
170
     0
171
     0
290
     0
174
     0
 93
        1
 44
0.0
173
     0
291
     1
 45
0.0
1001
ACAD
1000
AcDbSavedByObjectVersion
1070
     0
  0
VISUALSTYLE
  5
3C
102
{ACAD_REACTORS
330
2A
102
}
102
{ACAD_XDICTIONARY
360
4A3
102
}
330
2A
100
AcDbVisualStyle
  2
OverhangOff
 70
    21
 71
     2
 72
     2
 73
     0
 90
        0
 40
0.6
 41
30.0
 62
     5
 63
     7
421
 16777215
 74
     1
 91
        4
 64
     7
 65
   257
 75
     1
175
     1
 42
1.0
 92
        9
 66
     7
 43
1.0
 76
     1
 77
     6
 78
     2
 67
     7
 79
     5
170
     0
171
     0
290
     0
174
     0
 93
        1
 44
0.0
173
     0
291
     1
 45
0.0
1001
ACAD
1000
AcDbSavedByObjectVersion
1070
     0
  0
VISUALSTYLE
  5
33
102
{ACAD_REACTORS
330
2A
102
}
102
{ACAD_XDICTIONARY
360
491
102
}
330
2A
100
AcDbVisualStyle
  2
Realistic
 70
     8
 71
     2
 72
     3
 73
     0
 90
        2
 40
0.6
 41
30.0
 62
     5
 63
     7
421
 16777215
 74
     0
 91
        0
 64
     7
 65
   257
 75
     1
175
     1
 42
1.0
 92
        8
 66
   257
 43
1.0
 76
     1
 77
     6
 78
     2
 67
     7
 79
     3
170
     0
171
     0
290
     0
174
     0
 93
       13
 44
0.0
173
     0
291
     0
 45
0.0
1001
ACAD
1000
AcDbSavedByObjectVersion
1070
     0
  0
VISUALSTYLE
  5
42
102
{ACAD_REACTORS
330
2A
102
}
102
{ACAD_XDICTIONARY
360
4AF
102
}
330
2A
100
AcDbVisualStyle
  2
Shaded
 70
    27
 71
     2
 72
     2
 73
     1
 90
        2
 40
0.6
 41
30.0
 62
     5
 63
     7
421
 16777215
 74
     0
 91
        4
 64
     7
 65
   257
 75
     1
175
     1
 42
1.0
 92
        8
 66
   257
 43
1.0
 76
     1
 77
     6
 78
     2
 67
     8
425
  7895160
 79
     3
170
     0
171
     0
290
     0
174
     0
 93
        5
 44
0.0
173
     0
291
     0
 45
0.0
1001
ACAD
1000
AcDbSavedByObjectVersion
1070
     0
  0
VISUALSTYLE
  5
41
102
{ACAD_REACTORS
330
2A
102
}
102
{ACAD_XDICTIONARY
360
4AD
102
}
330
2A
100
AcDbVisualStyle
  2
Shaded with edges
 70
    26
 71
     2
 72
     2
 73
     1
 90
        2
 40
0.6
 41
30.0
 62
     5
 63
     7
421
 16777215
 74
     1
 91
       10
 64
     7
 65
   257
 75
     2
175
     1
 42
1.0
 92
        8
 66
   257
 43
1.0
 76
     1
 77
     6
 78
     2
 67
     7
 79
     3
170
     0
171
     0
290
     0
174
     0
 93
        5
 44
0.0
173
     0
291
     0
 45
0.0
1001
ACAD
1000
AcDbSavedByObjectVersion
1070
     0
  0
VISUALSTYLE
  5
3E
102
{ACAD_REACTORS
330
2A
102
}
102
{ACAD_XDICTIONARY
360
4A7
102
}
330
2A
100
AcDbVisualStyle
  2
Shades of Gray
 70
    23
 71
     2
 72
     2
 73
     3
 90
        0
 40
0.6
 41
30.0
 62
     5
 63
     7
421
 16777215
 74
     2
 91
        2
 64
     7
 65
     7
 75
     1
175
     1
 42
40.0
 92
        8
 66
     7
 43
1.0
 76
     1
 77
     6
 78
     2
 67
     7
 79
     3
170
     0
171
     0
290
     0
174
     0
 93
        1
 44
0.0
173
     0
291
     0
 45
0.0
1001
ACAD
1000
AcDbSavedByObjectVersion
1070
     0
  0
VISUALSTYLE
  5
3F
102
{ACAD_REACTORS
330
2A
102
}
102
{ACAD_XDICTIONARY
360
4A9
102
}
330
2A
100
AcDbVisualStyle
  2
Sketchy
 70
    24
 71
     1
 72
     2
 73
     2
 90
        0
 40
0.6
 41
30.0
 62
     5
 63
     7
421
 16777215
 74
     2
 91
        2
 64
     7
 65
     7
 75
     1
175
     1
 42
40.0
 92
       11
 66
     7
 43
1.0
 76
     1
 77
     6
 78
     2
 67
     7
 79
     6
170
     0
171
     0
290
     0
174
     0
 93
        1
 44
0.0
173
     0
291
     0
 45
0.0
1001
ACAD
1000
AcDbSavedByObjectVersion
1070
     0
  0
VISUALSTYLE
  5
37
102
{ACAD_REACTORS
330
2A
102
}
102
{ACAD_XDICTIONARY
360
499
102
}
330
2A
100
AcDbVisualStyle
  2
Thicken
 70
    13
 71
     2
 72
     2
 73
     0
 90
        0
 40
0.6
 41
30.0
 62
     5
 63
     7
421
 16777215
 74
     1
 91
        4
 64
     7
 65
   257
 75
     1
175
     1
 42
1.0
 92
       12
 66
     7
 43
1.0
 76
     1
 77
     6
 78
     2
 67
     7
 79
     5
170
     0
171
     0
290
     0
174
     0
 93
        1
 44
0.0
173
     0
291
     1
 45
0.0
1001
ACAD
1000
AcDbSavedByObjectVersion
1070
     0
  0
VISUALSTYLE
  5
30
102
{ACAD_REACTORS
330
2A
102
}
102
{ACAD_XDICTIONARY
360
48B
102
}
330
2A
100
AcDbVisualStyle
  2
Wireframe
 70
     5
 71
     0
 72
     2
 73
     0
 90
        0
 40
0.6
 41
30.0
 62
     5
 63
     7
421
 16777215
 74
     1
 91
        4
 64
     7
 65
   257
 75
     1
175
     1
 42
1.0
 92
        0
 66
   257
 43
1.0
 76
     1
 77
     6
 78
     2
 67
     7
 79
     3
170
     0
171
     0
290
     0
174
     0
 93
        1
 44
0.0
173
     0
291
     0
 45
0.0
1001
ACAD
1000
AcDbSavedByObjectVersion
1070
     0
  0
VISUALSTYLE
  5
40
102
{ACAD_REACTORS
330
2A
102
}
102
{ACAD_XDICTIONARY
360
4AB
102
}
330
2A
100
AcDbVisualStyle
  2
X-Ray
 70
    25
 71
     2
 72
     2
 73
     1
 90
        1
 40
0.5
 41
30.0
 62
     5
 63
     7
421
 16777215
 74
     1
 91
        0
 64
     7
 65
   257
 75
     1
175
     1
 42
1.0
 92
        8
 66
     7
 43
1.0
 76
     1
 77
     6
 78
     2
 67
     7
 79
     3
170
     0
171
     0
290
     0
174
     0
 93
       13
 44
0.0
173
     0
291
     0
 45
0.0
1001
ACAD
1000
AcDbSavedByObjectVersion
1070
     0
  0
DICTIONARYVAR
  5
47E
102
{ACAD_REACTORS
330
47D
102
}
330
47D
100
DictionaryVariables
280
     0
  1
1:1
  0
DICTIONARYVAR
  5
4BF
102
{ACAD_REACTORS
330
47D
102
}
330
47D
100
DictionaryVariables
280
     0
  1
Standard
  0
DICTIONARYVAR
  5
4BE
102
{ACAD_REACTORS
330
47D
102
}
330
47D
100
DictionaryVariables
280
     0
  1
Standard
  0
DICTIONARYVAR
  5
47F
102
{ACAD_REACTORS
330
47D
102
}
330
47D
100
DictionaryVariables
280
     0
  1
1
  0
DICTIONARYVAR
  5
480
102
{ACAD_REACTORS
330
47D
102
}
330
47D
100
DictionaryVariables
280
     0
  1
2
  0
DICTIONARY
  5
4B3
330
45
100
AcDbDictionary
280
     1
281
     1
  3
ACAD_XREC_ROUNDTRIP
360
4B4
  0
DICTIONARY
  5
4B1
330
44
100
AcDbDictionary
280
     1
281
     1
  3
ACAD_XREC_ROUNDTRIP
360
4B2
  0
DICTIONARY
  5
4B5
330
46
100
AcDbDictionary
280
     1
281
     1
  3
ACAD_XREC_ROUNDTRIP
360
4B6
  0
DICTIONARY
  5
4BB
330
6C
100
AcDbDictionary
280
     1
281
     1
  3
ACAD_XREC_ROUNDTRIP
360
4BC
  0
DICTIONARY
  5
4B7
330
6A
100
AcDbDictionary
280
     1
281
     1
  3
ACAD_ROUNDTRIP_2008_TABLESTYLE_CELLSTYLEMAP
360
4B9
  3
ACAD_XREC_ROUNDTRIP
360
4B8
  0
DICTIONARY
  5
489
330
2F
100
AcDbDictionary
280
     1
281
     1
  3
ACAD_XREC_ROUNDTRIP
360
48A
  0
DICTIONARY
  5
48F
330
32
100
AcDbDictionary
280
     1
281
     1
  3
ACAD_XREC_ROUNDTRIP
360
490
  0
DICTIONARY
  5
497
330
36
100
AcDbDictionary
280
     1
281
     1
  3
ACAD_XREC_ROUNDTRIP
360
498
  0
DICTIONARY
  5
49F
330
3A
100
AcDbDictionary
280
     1
281
     1
  3
ACAD_XREC_ROUNDTRIP
360
4A0
  0
DICTIONARY
  5
493
330
34
100
AcDbDictionary
280
     1
281
     1
  3
ACAD_XREC_ROUNDTRIP
360
494
  0
DICTIONARY
  5
495
330
35
100
AcDbDictionary
280
     1
281
     1
  3
ACAD_XREC_ROUNDTRIP
360
496
  0
DICTIONARY
  5
4A5
330
3D
100
AcDbDictionary
280
     1
281
     1
  3
ACAD_XREC_ROUNDTRIP
360
4A6
  0
DICTIONARY
  5
49D
330
39
100
AcDbDictionary
280
     1
281
     1
  3
ACAD_XREC_ROUNDTRIP
360
49E
  0
DICTIONARY
  5
481
330
2B
100
AcDbDictionary
280
     1
281
     1
  3
ACAD_XREC_ROUNDTRIP
360
482
  0
DICTIONARY
  5
483
330
2C
100
AcDbDictionary
280
     1
281
     1
  3
ACAD_XREC_ROUNDTRIP
360
484
  0
DICTIONARY
  5
485
330
2D
100
AcDbDictionary
280
     1
281
     1
  3
ACAD_XREC_ROUNDTRIP
360
486
  0
DICTIONARY
  5
487
330
2E
100
AcDbDictionary
280
     1
281
     1
  3
ACAD_XREC_ROUNDTRIP
360
488
  0
DICTIONARY
  5
48D
330
31
100
AcDbDictionary
280
     1
281
     1
  3
ACAD_XREC_ROUNDTRIP
360
48E
  0
DICTIONARY
  5
4A1
330
3B
100
AcDbDictionary
280
     1
281
     1
  3
ACAD_XREC_ROUNDTRIP
360
4A2
  0
DICTIONARY
  5
49B
330
38
100
AcDbDictionary
280
     1
281
     1
  3
ACAD_XREC_ROUNDTRIP
360
49C
  0
DICTIONARY
  5
4A3
330
3C
100
AcDbDictionary
280
     1
281
     1
  3
ACAD_XREC_ROUNDTRIP
360
4A4
  0
DICTIONARY
  5
491
330
33
100
AcDbDictionary
280
     1
281
     1
  3
ACAD_XREC_ROUNDTRIP
360
492
  0
DICTIONARY
  5
4AF
330
42
100
AcDbDictionary
280
     1
281
     1
  3
ACAD_XREC_ROUNDTRIP
360
4B0
  0
DICTIONARY
  5
4AD
330
41
100
AcDbDictionary
280
     1
281
     1
  3
ACAD_XREC_ROUNDTRIP
360
4AE
  0
DICTIONARY
  5
4A7
330
3E
100
AcDbDictionary
280
     1
281
     1
  3
ACAD_XREC_ROUNDTRIP
360
4A8
  0
DICTIONARY
  5
4A9
330
3F
100
AcDbDictionary
280
     1
281
     1
  3
ACAD_XREC_ROUNDTRIP
360
4AA
  0
DICTIONARY
  5
499
330
37
100
AcDbDictionary
280
     1
281
     1
  3
ACAD_XREC_ROUNDTRIP
360
49A
  0
DICTIONARY
  5
48B
330
30
100
AcDbDictionary
280
     1
281
     1
  3
ACAD_XREC_ROUNDTRIP
360
48C
  0
DICTIONARY
  5
4AB
330
40
100
AcDbDictionary
280
     1
281
     1
  3
ACAD_XREC_ROUNDTRIP
360
4AC
  0
XRECORD
  5
4B4
102
{ACAD_REACTORS
330
4B3
102
}
330
4B3
100
AcDbXrecord
280
     1
102
MATERIAL
148
0.0
149
0.0
149
0.0
 93
        0
 94
      127
282
     0
 72
     1
 77
     1
171
     1
175
     1
179
     1
273
     0
  0
XRECORD
  5
4B2
102
{ACAD_REACTORS
330
4B1
102
}
330
4B1
100
AcDbXrecord
280
     1
102
MATERIAL
148
0.0
149
0.0
149
0.0
 93
        0
 94
      127
282
     0
 72
     1
 77
     1
171
     1
175
     1
179
     1
273
     0
  0
XRECORD
  5
4B6
102
{ACAD_REACTORS
330
4B5
102
}
330
4B5
100
AcDbXrecord
280
     1
102
MATERIAL
148
0.0
149
0.0
149
0.0
 93
        0
 94
      127
282
     0
 72
     1
 77
     1
171
     1
175
     1
179
     1
273
     0
  0
XRECORD
  5
4BC
102
{ACAD_REACTORS
330
4BB
102
}
330
4BB
100
AcDbXrecord
280
     1
102
ACAD_ROUNDTRIP_2010_MLEADER_STYLE
  0
CELLSTYLEMAP
  5
4B9
102
{ACAD_REACTORS
330
4B7
102
}
330
4B7
100
AcDbCellStyleMap
 90
        3
300
CELLSTYLE
  1
TABLEFORMAT_BEGIN
 90
        5
170
     1
 91
        0
 92
    32768
 62
   257
 93
        1
300
CONTENTFORMAT
  1
CONTENTFORMAT_BEGIN
 90
        0
 91
        0
 92
        4
 93
        0
300

 40
0.0
140
1.0
 94
        5
 62
     0
340
11
144
0.25
309
CONTENTFORMAT_END
171
     1
301
MARGIN
  1
CELLMARGIN_BEGIN
 40
0.06
 40
0.06
 40
0.06
 40
0.06
 40
0.06
 40
0.06
309
CELLMARGIN_END
 94
        6
 95
        1
302
GRIDFORMAT
  1
GRIDFORMAT_BEGIN
 90
        0
 91
        1
 62
     0
 92
       -2
340
14
 93
        0
 40
0.045
309
GRIDFORMAT_END
 95
        2
302
GRIDFORMAT
  1
GRIDFORMAT_BEGIN
 90
        0
 91
        1
 62
     0
 92
       -2
340
14
 93
        0
 40
0.045
309
GRIDFORMAT_END
 95
        4
302
GRIDFORMAT
  1
GRIDFORMAT_BEGIN
 90
        0
 91
        1
 62
     0
 92
       -2
340
14
 93
        0
 40
0.045
309
GRIDFORMAT_END
 95
        8
302
GRIDFORMAT
  1
GRIDFORMAT_BEGIN
 90
        0
 91
        1
 62
     0
 92
       -2
340
14
 93
        0
 40
0.045
309
GRIDFORMAT_END
 95
       16
302
GRIDFORMAT
  1
GRIDFORMAT_BEGIN
 90
        0
 91
        1
 62
     0
 92
       -2
340
14
 93
        0
 40
0.045
309
GRIDFORMAT_END
 95
       32
302
GRIDFORMAT
  1
GRIDFORMAT_BEGIN
 90
        0
 91
        1
 62
     0
 92
       -2
340
14
 93
        0
 40
0.045
309
GRIDFORMAT_END
309
TABLEFORMAT_END
  1
CELLSTYLE_BEGIN
 90
        1
 91
        1
300
_TITLE
309
CELLSTYLE_END
300
CELLSTYLE
  1
TABLEFORMAT_BEGIN
 90
        5
170
     1
 91
        0
 92
        0
 62
   257
 93
        1
300
CONTENTFORMAT
  1
CONTENTFORMAT_BEGIN
 90
        0
 91
        0
 92
        4
 93
        0
300

 40
0.0
140
1.0
 94
        5
 62
     0
340
11
144
0.18
309
CONTENTFORMAT_END
171
     1
301
MARGIN
  1
CELLMARGIN_BEGIN
 40
0.06
 40
0.06
 40
0.06
 40
0.06
 40
0.06
 40
0.06
309
CELLMARGIN_END
 94
        6
 95
        1
302
GRIDFORMAT
  1
GRIDFORMAT_BEGIN
 90
        0
 91
        1
 62
     0
 92
       -2
340
14
 93
        0
 40
0.045
309
GRIDFORMAT_END
 95
        2
302
GRIDFORMAT
  1
GRIDFORMAT_BEGIN
 90
        0
 91
        1
 62
     0
 92
       -2
340
14
 93
        0
 40
0.045
309
GRIDFORMAT_END
 95
        4
302
GRIDFORMAT
  1
GRIDFORMAT_BEGIN
 90
        0
 91
        1
 62
     0
 92
       -2
340
14
 93
        0
 40
0.045
309
GRIDFORMAT_END
 95
        8
302
GRIDFORMAT
  1
GRIDFORMAT_BEGIN
 90
        0
 91
        1
 62
     0
 92
       -2
340
14
 93
        0
 40
0.045
309
GRIDFORMAT_END
 95
       16
302
GRIDFORMAT
  1
GRIDFORMAT_BEGIN
 90
        0
 91
        1
 62
     0
 92
       -2
340
14
 93
        0
 40
0.045
309
GRIDFORMAT_END
 95
       32
302
GRIDFORMAT
  1
GRIDFORMAT_BEGIN
 90
        0
 91
        1
 62
     0
 92
       -2
340
14
 93
        0
 40
0.045
309
GRIDFORMAT_END
309
TABLEFORMAT_END
  1
CELLSTYLE_BEGIN
 90
        2
 91
        1
300
_HEADER
309
CELLSTYLE_END
300
CELLSTYLE
  1
TABLEFORMAT_BEGIN
 90
        5
170
     1
 91
        0
 92
        0
 62
   257
 93
        1
300
CONTENTFORMAT
  1
CONTENTFORMAT_BEGIN
 90
        0
 91
        0
 92
        4
 93
        0
300

 40
0.0
140
1.0
 94
        2
 62
     0
340
11
144
0.18
309
CONTENTFORMAT_END
171
     1
301
MARGIN
  1
CELLMARGIN_BEGIN
 40
0.06
 40
0.06
 40
0.06
 40
0.06
 40
0.06
 40
0.06
309
CELLMARGIN_END
 94
        6
 95
        1
302
GRIDFORMAT
  1
GRIDFORMAT_BEGIN
 90
        0
 91
        1
 62
     0
 92
       -2
340
14
 93
        0
 40
0.045
309
GRIDFORMAT_END
 95
        2
302
GRIDFORMAT
  1
GRIDFORMAT_BEGIN
 90
        0
 91
        1
 62
     0
 92
       -2
340
14
 93
        0
 40
0.045
309
GRIDFORMAT_END
 95
        4
302
GRIDFORMAT
  1
GRIDFORMAT_BEGIN
 90
        0
 91
        1
 62
     0
 92
       -2
340
14
 93
        0
 40
0.045
309
GRIDFORMAT_END
 95
        8
302
GRIDFORMAT
  1
GRIDFORMAT_BEGIN
 90
        0
 91
        1
 62
     0
 92
       -2
340
14
 93
        0
 40
0.045
309
GRIDFORMAT_END
 95
       16
302
GRIDFORMAT
  1
GRIDFORMAT_BEGIN
 90
        0
 91
        1
 62
     0
 92
       -2
340
14
 93
        0
 40
0.045
309
GRIDFORMAT_END
 95
       32
302
GRIDFORMAT
  1
GRIDFORMAT_BEGIN
 90
        0
 91
        1
 62
     0
 92
       -2
340
14
 93
        0
 40
0.045
309
GRIDFORMAT_END
309
TABLEFORMAT_END
  1
CELLSTYLE_BEGIN
 90
        3
 91
        2
300
_DATA
309
CELLSTYLE_END
  0
XRECORD
  5
4B8
102
{ACAD_REACTORS
330
4B7
102
}
330
4B7
100
AcDbXrecord
280
     1
102
ACAD_ROUNDTRIP_PRE2007_TABLESTYLE
 90
        4
 91
        0
  1

 92
        4
 93
        0
  2

 94
        4
 95
        0
  3

  0
XRECORD
  5
48A
102
{ACAD_REACTORS
330
489
102
}
330
489
100
AcDbXrecord
280
     1
102
RTVSPropertyOp0
 70
     1
102
RTVSPropertyOp1
 70
     1
102
RTVSPropertyOp2
 70
     1
102
RTVSPropertyOp3
 70
     1
102
RTVSPropertyOp4
 70
     1
102
RTVSPropertyOp5
 70
     1
102
RTVSPropertyOp6
 70
     1
102
RTVSPropertyOp7
 70
     1
102
RTVSPropertyOp8
 70
     1
102
RTVSPropertyOp9
 70
     1
102
RTVSPropertyOp10
 70
     1
102
RTVSPropertyOp11
 70
     1
102
RTVSPropertyOp12
 70
     1
102
RTVSPropertyOp13
 70
     1
102
RTVSPropertyOp14
 70
     1
102
RTVSPropertyOp15
 70
     1
102
RTVSPropertyOp16
 70
     1
102
RTVSPropertyOp17
 70
     1
102
RTVSPropertyOp18
 70
     1
102
RTVSPropertyOp19
 70
     1
102
RTVSPropertyOp20
 70
     1
102
RTVSPropertyOp21
 70
     1
102
RTVSPropertyOp22
 70
     1
102
RTVSPropertyOp23
 70
     1
102
RTVSPropertyOp24
 70
     1
102
RTVSPropertyOp25
 70
     1
102
RTVSPropertyOp26
 70
     1
102
RTVSPropertyOp27
 70
     1
102
RTVSPropertyOp28
 70
     1
102
RTVSPropertyOp29
 70
     1
102
RTVSPropertyOp30
 70
     1
102
RTVSPropertyOp31
 70
     1
102
RTVSPropertyOp32
 70
     1
102
RTVSPropertyOp33
 70
     1
102
RTVSPropertyOp34
 70
     1
102
RTVSPropertyOp35
 70
     1
102
RTVSPropertyOp36
 70
     1
102
RTVSPropertyOp37
 70
     1
102
RTVSPropertyOp38
 70
     1
102
RTVSPropertyOp39
 70
     1
102
RTVSPropertyOp40
 70
     1
102
RTVSPropertyOp41
 70
     1
102
RTVSPropertyOp42
 70
     1
102
RTVSPropertyOp43
 70
     1
102
RTVSPropertyOp44
 70
     1
102
RTVSPropertyOp45
 70
     1
102
RTVSPropertyOp46
 70
     1
102
RTVSPropertyOp47
 70
     1
102
RTVSPropertyOp48
 70
     1
102
RTVSPropertyOp49
 70
     1
102
RTVSPropertyOp50
 70
     1
102
RTVSPropertyOp51
 70
     0
102
RTVSPropertyOp52
 70
     0
102
RTVSPropertyOp53
 70
     1
102
RTVSPropertyOp54
 70
     1
102
RTVSPropertyOp55
 70
     1
102
RTVSPropertyOp56
 70
     1
102
RTVSPropertyOp57
 70
     1
102
RTVSPost2010Prop28
280
     1
102
RTVSPost2010PropOp28
 70
     1
102
RTVSPost2010Prop29
280
     1
102
RTVSPost2010PropOp29
 70
     1
102
RTVSPost2010Prop30
280
     0
102
RTVSPost2010PropOp30
 70
     1
102
RTVSPost2010Prop31
280
     0
102
RTVSPost2010PropOp31
 70
     1
102
RTVSPost2010Prop32
280
     0
102
RTVSPost2010PropOp32
 70
     1
102
RTVSPost2010Prop33
280
     0
102
RTVSPost2010PropOp33
 70
     1
102
RTVSPost2010Prop34
280
     0
102
RTVSPost2010PropOp34
 70
     1
102
RTVSPost2010Prop35
280
     0
102
RTVSPost2010PropOp35
 70
     1
102
RTVSPost2010Prop36
280
     0
102
RTVSPost2010PropOp36
 70
     1
102
RTVSPost2010Prop37
 90
       50
102
RTVSPost2010PropOp37
 70
     1
102
RTVSPost2010Prop38
140
0.0
102
RTVSPost2010PropOp38
 70
     1
102
RTVSPost2010Prop39
140
1.0
102
RTVSPost2010PropOp39
 70
     1
102
RTVSPost2010Prop40
 90
        0
102
RTVSPost2010PropOp40
 70
     1
102
RTVSPost2010Prop41ColorIndex
 90
       18
102
RTVSPost2010Prop41ColorRGB
 90
        0
102
RTVSPost2010PropOp41
 70
     1
102
RTVSPost2010Prop42
 90
       50
102
RTVSPost2010PropOp42
 70
     1
102
RTVSPost2010Prop43
 90
        3
102
RTVSPost2010PropOp43
 70
     1
102
RTVSPost2010Prop44ColorIndex
 90
        5
102
RTVSPost2010Prop44ColorRGB
 90
      255
102
RTVSPost2010PropOp44
 70
     1
102
RTVSPost2010Prop45
280
     0
102
RTVSPost2010PropOp45
 70
     1
102
RTVSPost2010Prop46
 90
       50
102
RTVSPost2010PropOp46
 70
     1
102
RTVSPost2010Prop47
 90
       50
102
RTVSPost2010PropOp47
 70
     1
102
RTVSPost2010Prop48
 90
       50
102
RTVSPost2010PropOp48
 70
     1
102
RTVSPost2010Prop49
280
     0
102
RTVSPost2010PropOp49
 70
     1
102
RTVSPost2010Prop50
 90
       50
102
RTVSPost2010PropOp50
 70
     1
102
RTVSPost2010Prop51ColorIndex
 90
      256
102
RTVSPost2010Prop51ColorRGB
 90
-16777216
102
RTVSPost2010PropOp51
 70
     0
102
RTVSPost2010Prop52
140
1.0
102
RTVSPost2010PropOp52
 70
     0
102
RTVSPost2010Prop53
 90
        2
102
RTVSPost2010PropOp53
 70
     1
102
RTVSPost2010Prop54
  1
strokes_ogs.tif
102
RTVSPost2010PropOp54
 70
     1
102
RTVSPost2010Prop55
280
     0
102
RTVSPost2010PropOp55
 70
     1
102
RTVSPost2010Prop56
140
1.0
102
RTVSPost2010PropOp56
 70
     1
102
RTVSPost2010Prop57
140
1.0
102
RTVSPost2010PropOp57
 70
     1
  0
XRECORD
  5
490
102
{ACAD_REACTORS
330
48F
102
}
330
48F
100
AcDbXrecord
280
     1
102
RTVSPropertyOp0
 70
     1
102
RTVSPropertyOp1
 70
     1
102
RTVSPropertyOp2
 70
     1
102
RTVSPropertyOp3
 70
     1
102
RTVSPropertyOp4
 70
     1
102
RTVSPropertyOp5
 70
     1
102
RTVSPropertyOp6
 70
     1
102
RTVSPropertyOp7
 70
     1
102
RTVSPropertyOp8
 70
     1
102
RTVSPropertyOp9
 70
     1
102
RTVSPropertyOp10
 70
     1
102
RTVSPropertyOp11
 70
     1
102
RTVSPropertyOp12
 70
     1
102
RTVSPropertyOp13
 70
     1
102
RTVSPropertyOp14
 70
     1
102
RTVSPropertyOp15
 70
     1
102
RTVSPropertyOp16
 70
     1
102
RTVSPropertyOp17
 70
     1
102
RTVSPropertyOp18
 70
     1
102
RTVSPropertyOp19
 70
     1
102
RTVSPropertyOp20
 70
     1
102
RTVSPropertyOp21
 70
     1
102
RTVSPropertyOp22
 70
     1
102
RTVSPropertyOp23
 70
     1
102
RTVSPropertyOp24
 70
     1
102
RTVSPropertyOp25
 70
     1
102
RTVSPropertyOp26
 70
     1
102
RTVSPropertyOp27
 70
     1
102
RTVSPropertyOp28
 70
     1
102
RTVSPropertyOp29
 70
     1
102
RTVSPropertyOp30
 70
     1
102
RTVSPropertyOp31
 70
     1
102
RTVSPropertyOp32
 70
     1
102
RTVSPropertyOp33
 70
     1
102
RTVSPropertyOp34
 70
     1
102
RTVSPropertyOp35
 70
     1
102
RTVSPropertyOp36
 70
     1
102
RTVSPropertyOp37
 70
     1
102
RTVSPropertyOp38
 70
     1
102
RTVSPropertyOp39
 70
     1
102
RTVSPropertyOp40
 70
     1
102
RTVSPropertyOp41
 70
     1
102
RTVSPropertyOp42
 70
     1
102
RTVSPropertyOp43
 70
     1
102
RTVSPropertyOp44
 70
     1
102
RTVSPropertyOp45
 70
     1
102
RTVSPropertyOp46
 70
     1
102
RTVSPropertyOp47
 70
     1
102
RTVSPropertyOp48
 70
     1
102
RTVSPropertyOp49
 70
     1
102
RTVSPropertyOp50
 70
     1
102
RTVSPropertyOp51
 70
     0
102
RTVSPropertyOp52
 70
     0
102
RTVSPropertyOp53
 70
     1
102
RTVSPropertyOp54
 70
     1
102
RTVSPropertyOp55
 70
     1
102
RTVSPropertyOp56
 70
     1
102
RTVSPropertyOp57
 70
     1
102
RTVSPost2010Prop28
280
     0
102
RTVSPost2010PropOp28
 70
     1
102
RTVSPost2010Prop29
280
     1
102
RTVSPost2010PropOp29
 70
     1
102
RTVSPost2010Prop30
280
     1
102
RTVSPost2010PropOp30
 70
     1
102
RTVSPost2010Prop31
280
     0
102
RTVSPost2010PropOp31
 70
     1
102
RTVSPost2010Prop32
280
     0
102
RTVSPost2010PropOp32
 70
     1
102
RTVSPost2010Prop33
280
     0
102
RTVSPost2010PropOp33
 70
     1
102
RTVSPost2010Prop34
280
     0
102
RTVSPost2010PropOp34
 70
     1
102
RTVSPost2010Prop35
280
     0
102
RTVSPost2010PropOp35
 70
     1
102
RTVSPost2010Prop36
280
     0
102
RTVSPost2010PropOp36
 70
     1
102
RTVSPost2010Prop37
 90
       50
102
RTVSPost2010PropOp37
 70
     1
102
RTVSPost2010Prop38
140
0.0
102
RTVSPost2010PropOp38
 70
     1
102
RTVSPost2010Prop39
140
1.0
102
RTVSPost2010PropOp39
 70
     1
102
RTVSPost2010Prop40
 90
        0
102
RTVSPost2010PropOp40
 70
     1
102
RTVSPost2010Prop41ColorIndex
 90
       18
102
RTVSPost2010Prop41ColorRGB
 90
        0
102
RTVSPost2010PropOp41
 70
     1
102
RTVSPost2010Prop42
 90
       50
102
RTVSPost2010PropOp42
 70
     1
102
RTVSPost2010Prop43
 90
        3
102
RTVSPost2010PropOp43
 70
     1
102
RTVSPost2010Prop44ColorIndex
 90
        5
102
RTVSPost2010Prop44ColorRGB
 90
      255
102
RTVSPost2010PropOp44
 70
     1
102
RTVSPost2010Prop45
280
     0
102
RTVSPost2010PropOp45
 70
     1
102
RTVSPost2010Prop46
 90
       50
102
RTVSPost2010PropOp46
 70
     1
102
RTVSPost2010Prop47
 90
       50
102
RTVSPost2010PropOp47
 70
     1
102
RTVSPost2010Prop48
 90
       50
102
RTVSPost2010PropOp48
 70
     1
102
RTVSPost2010Prop49
280
     0
102
RTVSPost2010PropOp49
 70
     1
102
RTVSPost2010Prop50
 90
       50
102
RTVSPost2010PropOp50
 70
     1
102
RTVSPost2010Prop51ColorIndex
 90
      256
102
RTVSPost2010Prop51ColorRGB
 90
-16777216
102
RTVSPost2010PropOp51
 70
     0
102
RTVSPost2010Prop52
140
1.0
102
RTVSPost2010PropOp52
 70
     0
102
RTVSPost2010Prop53
 90
        2
102
RTVSPost2010PropOp53
 70
     1
102
RTVSPost2010Prop54
  1
strokes_ogs.tif
102
RTVSPost2010PropOp54
 70
     1
102
RTVSPost2010Prop55
280
     0
102
RTVSPost2010PropOp55
 70
     1
102
RTVSPost2010Prop56
140
1.0
102
RTVSPost2010PropOp56
 70
     1
102
RTVSPost2010Prop57
140
1.0
102
RTVSPost2010PropOp57
 70
     1
  0
XRECORD
  5
498
102
{ACAD_REACTORS
330
497
102
}
330
497
100
AcDbXrecord
280
     1
102
RTVSPropertyOp0
 70
     1
102
RTVSPropertyOp1
 70
     1
102
RTVSPropertyOp2
 70
     1
102
RTVSPropertyOp3
 70
     1
102
RTVSPropertyOp4
 70
     1
102
RTVSPropertyOp5
 70
     1
102
RTVSPropertyOp6
 70
     1
102
RTVSPropertyOp7
 70
     1
102
RTVSPropertyOp8
 70
     1
102
RTVSPropertyOp9
 70
     1
102
RTVSPropertyOp10
 70
     1
102
RTVSPropertyOp11
 70
     1
102
RTVSPropertyOp12
 70
     1
102
RTVSPropertyOp13
 70
     1
102
RTVSPropertyOp14
 70
     1
102
RTVSPropertyOp15
 70
     1
102
RTVSPropertyOp16
 70
     1
102
RTVSPropertyOp17
 70
     1
102
RTVSPropertyOp18
 70
     1
102
RTVSPropertyOp19
 70
     1
102
RTVSPropertyOp20
 70
     1
102
RTVSPropertyOp21
 70
     1
102
RTVSPropertyOp22
 70
     1
102
RTVSPropertyOp23
 70
     1
102
RTVSPropertyOp24
 70
     1
102
RTVSPropertyOp25
 70
     1
102
RTVSPropertyOp26
 70
     1
102
RTVSPropertyOp27
 70
     1
102
RTVSPropertyOp28
 70
     1
102
RTVSPropertyOp29
 70
     1
102
RTVSPropertyOp30
 70
     1
102
RTVSPropertyOp31
 70
     1
102
RTVSPropertyOp32
 70
     1
102
RTVSPropertyOp33
 70
     1
102
RTVSPropertyOp34
 70
     1
102
RTVSPropertyOp35
 70
     1
102
RTVSPropertyOp36
 70
     1
102
RTVSPropertyOp37
 70
     1
102
RTVSPropertyOp38
 70
     1
102
RTVSPropertyOp39
 70
     1
102
RTVSPropertyOp40
 70
     1
102
RTVSPropertyOp41
 70
     1
102
RTVSPropertyOp42
 70
     1
102
RTVSPropertyOp43
 70
     1
102
RTVSPropertyOp44
 70
     1
102
RTVSPropertyOp45
 70
     1
102
RTVSPropertyOp46
 70
     1
102
RTVSPropertyOp47
 70
     1
102
RTVSPropertyOp48
 70
     1
102
RTVSPropertyOp49
 70
     1
102
RTVSPropertyOp50
 70
     1
102
RTVSPropertyOp51
 70
     0
102
RTVSPropertyOp52
 70
     0
102
RTVSPropertyOp53
 70
     1
102
RTVSPropertyOp54
 70
     1
102
RTVSPropertyOp55
 70
     1
102
RTVSPropertyOp56
 70
     1
102
RTVSPropertyOp57
 70
     1
102
RTVSPost2010Prop28
280
     0
102
RTVSPost2010PropOp28
 70
     1
102
RTVSPost2010Prop29
280
     1
102
RTVSPost2010PropOp29
 70
     1
102
RTVSPost2010Prop30
280
     1
102
RTVSPost2010PropOp30
 70
     1
102
RTVSPost2010Prop31
280
     0
102
RTVSPost2010PropOp31
 70
     1
102
RTVSPost2010Prop32
280
     0
102
RTVSPost2010PropOp32
 70
     1
102
RTVSPost2010Prop33
280
     0
102
RTVSPost2010PropOp33
 70
     1
102
RTVSPost2010Prop34
280
     0
102
RTVSPost2010PropOp34
 70
     1
102
RTVSPost2010Prop35
280
     0
102
RTVSPost2010PropOp35
 70
     1
102
RTVSPost2010Prop36
280
     0
102
RTVSPost2010PropOp36
 70
     1
102
RTVSPost2010Prop37
 90
       50
102
RTVSPost2010PropOp37
 70
     1
102
RTVSPost2010Prop38
140
0.0
102
RTVSPost2010PropOp38
 70
     1
102
RTVSPost2010Prop39
140
1.0
102
RTVSPost2010PropOp39
 70
     1
102
RTVSPost2010Prop40
 90
        0
102
RTVSPost2010PropOp40
 70
     1
102
RTVSPost2010Prop41ColorIndex
 90
       18
102
RTVSPost2010Prop41ColorRGB
 90
        0
102
RTVSPost2010PropOp41
 70
     1
102
RTVSPost2010Prop42
 90
       50
102
RTVSPost2010PropOp42
 70
     1
102
RTVSPost2010Prop43
 90
        3
102
RTVSPost2010PropOp43
 70
     1
102
RTVSPost2010Prop44ColorIndex
 90
        5
102
RTVSPost2010Prop44ColorRGB
 90
      255
102
RTVSPost2010PropOp44
 70
     1
102
RTVSPost2010Prop45
280
     0
102
RTVSPost2010PropOp45
 70
     1
102
RTVSPost2010Prop46
 90
       50
102
RTVSPost2010PropOp46
 70
     1
102
RTVSPost2010Prop47
 90
       50
102
RTVSPost2010PropOp47
 70
     1
102
RTVSPost2010Prop48
 90
       50
102
RTVSPost2010PropOp48
 70
     1
102
RTVSPost2010Prop49
280
     0
102
RTVSPost2010PropOp49
 70
     1
102
RTVSPost2010Prop50
 90
       50
102
RTVSPost2010PropOp50
 70
     1
102
RTVSPost2010Prop51ColorIndex
 90
      256
102
RTVSPost2010Prop51ColorRGB
 90
-16777216
102
RTVSPost2010PropOp51
 70
     0
102
RTVSPost2010Prop52
140
1.0
102
RTVSPost2010PropOp52
 70
     0
102
RTVSPost2010Prop53
 90
        2
102
RTVSPost2010PropOp53
 70
     1
102
RTVSPost2010Prop54
  1
strokes_ogs.tif
102
RTVSPost2010PropOp54
 70
     1
102
RTVSPost2010Prop55
280
     0
102
RTVSPost2010PropOp55
 70
     1
102
RTVSPost2010Prop56
140
1.0
102
RTVSPost2010PropOp56
 70
     1
102
RTVSPost2010Prop57
140
1.0
102
RTVSPost2010PropOp57
 70
     1
  0
XRECORD
  5
4A0
102
{ACAD_REACTORS
330
49F
102
}
330
49F
100
AcDbXrecord
280
     1
102
RTVSPropertyOp0
 70
     1
102
RTVSPropertyOp1
 70
     1
102
RTVSPropertyOp2
 70
     1
102
RTVSPropertyOp3
 70
     1
102
RTVSPropertyOp4
 70
     1
102
RTVSPropertyOp5
 70
     1
102
RTVSPropertyOp6
 70
     1
102
RTVSPropertyOp7
 70
     1
102
RTVSPropertyOp8
 70
     1
102
RTVSPropertyOp9
 70
     1
102
RTVSPropertyOp10
 70
     1
102
RTVSPropertyOp11
 70
     1
102
RTVSPropertyOp12
 70
     1
102
RTVSPropertyOp13
 70
     1
102
RTVSPropertyOp14
 70
     1
102
RTVSPropertyOp15
 70
     1
102
RTVSPropertyOp16
 70
     1
102
RTVSPropertyOp17
 70
     1
102
RTVSPropertyOp18
 70
     1
102
RTVSPropertyOp19
 70
     1
102
RTVSPropertyOp20
 70
     1
102
RTVSPropertyOp21
 70
     1
102
RTVSPropertyOp22
 70
     1
102
RTVSPropertyOp23
 70
     1
102
RTVSPropertyOp24
 70
     1
102
RTVSPropertyOp25
 70
     1
102
RTVSPropertyOp26
 70
     1
102
RTVSPropertyOp27
 70
     1
102
RTVSPropertyOp28
 70
     1
102
RTVSPropertyOp29
 70
     1
102
RTVSPropertyOp30
 70
     1
102
RTVSPropertyOp31
 70
     1
102
RTVSPropertyOp32
 70
     1
102
RTVSPropertyOp33
 70
     1
102
RTVSPropertyOp34
 70
     1
102
RTVSPropertyOp35
 70
     1
102
RTVSPropertyOp36
 70
     1
102
RTVSPropertyOp37
 70
     1
102
RTVSPropertyOp38
 70
     1
102
RTVSPropertyOp39
 70
     1
102
RTVSPropertyOp40
 70
     1
102
RTVSPropertyOp41
 70
     1
102
RTVSPropertyOp42
 70
     1
102
RTVSPropertyOp43
 70
     1
102
RTVSPropertyOp44
 70
     1
102
RTVSPropertyOp45
 70
     1
102
RTVSPropertyOp46
 70
     1
102
RTVSPropertyOp47
 70
     1
102
RTVSPropertyOp48
 70
     1
102
RTVSPropertyOp49
 70
     1
102
RTVSPropertyOp50
 70
     1
102
RTVSPropertyOp51
 70
     0
102
RTVSPropertyOp52
 70
     0
102
RTVSPropertyOp53
 70
     1
102
RTVSPropertyOp54
 70
     1
102
RTVSPropertyOp55
 70
     1
102
RTVSPropertyOp56
 70
     1
102
RTVSPropertyOp57
 70
     1
102
RTVSPost2010Prop28
280
     0
102
RTVSPost2010PropOp28
 70
     1
102
RTVSPost2010Prop29
280
     1
102
RTVSPost2010PropOp29
 70
     1
102
RTVSPost2010Prop30
280
     1
102
RTVSPost2010PropOp30
 70
     1
102
RTVSPost2010Prop31
280
     0
102
RTVSPost2010PropOp31
 70
     1
102
RTVSPost2010Prop32
280
     0
102
RTVSPost2010PropOp32
 70
     1
102
RTVSPost2010Prop33
280
     0
102
RTVSPost2010PropOp33
 70
     1
102
RTVSPost2010Prop34
280
     0
102
RTVSPost2010PropOp34
 70
     1
102
RTVSPost2010Prop35
280
     0
102
RTVSPost2010PropOp35
 70
     1
102
RTVSPost2010Prop36
280
     0
102
RTVSPost2010PropOp36
 70
     1
102
RTVSPost2010Prop37
 90
       50
102
RTVSPost2010PropOp37
 70
     1
102
RTVSPost2010Prop38
140
0.0
102
RTVSPost2010PropOp38
 70
     1
102
RTVSPost2010Prop39
140
1.0
102
RTVSPost2010PropOp39
 70
     1
102
RTVSPost2010Prop40
 90
        0
102
RTVSPost2010PropOp40
 70
     1
102
RTVSPost2010Prop41ColorIndex
 90
       18
102
RTVSPost2010Prop41ColorRGB
 90
        0
102
RTVSPost2010PropOp41
 70
     1
102
RTVSPost2010Prop42
 90
       50
102
RTVSPost2010PropOp42
 70
     1
102
RTVSPost2010Prop43
 90
        3
102
RTVSPost2010PropOp43
 70
     1
102
RTVSPost2010Prop44ColorIndex
 90
        5
102
RTVSPost2010Prop44ColorRGB
 90
      255
102
RTVSPost2010PropOp44
 70
     1
102
RTVSPost2010Prop45
280
     0
102
RTVSPost2010PropOp45
 70
     1
102
RTVSPost2010Prop46
 90
       50
102
RTVSPost2010PropOp46
 70
     1
102
RTVSPost2010Prop47
 90
       50
102
RTVSPost2010PropOp47
 70
     1
102
RTVSPost2010Prop48
 90
       50
102
RTVSPost2010PropOp48
 70
     1
102
RTVSPost2010Prop49
280
     0
102
RTVSPost2010PropOp49
 70
     1
102
RTVSPost2010Prop50
 90
       50
102
RTVSPost2010PropOp50
 70
     1
102
RTVSPost2010Prop51ColorIndex
 90
      256
102
RTVSPost2010Prop51ColorRGB
 90
-16777216
102
RTVSPost2010PropOp51
 70
     0
102
RTVSPost2010Prop52
140
1.0
102
RTVSPost2010PropOp52
 70
     0
102
RTVSPost2010Prop53
 90
        2
102
RTVSPost2010PropOp53
 70
     1
102
RTVSPost2010Prop54
  1
strokes_ogs.tif
102
RTVSPost2010PropOp54
 70
     1
102
RTVSPost2010Prop55
280
     0
102
RTVSPost2010PropOp55
 70
     1
102
RTVSPost2010Prop56
140
1.0
102
RTVSPost2010PropOp56
 70
     1
102
RTVSPost2010Prop57
140
1.0
102
RTVSPost2010PropOp57
 70
     1
  0
XRECORD
  5
494
102
{ACAD_REACTORS
330
493
102
}
330
493
100
AcDbXrecord
280
     1
102
RTVSPropertyOp0
 70
     1
102
RTVSPropertyOp1
 70
     1
102
RTVSPropertyOp2
 70
     1
102
RTVSPropertyOp3
 70
     1
102
RTVSPropertyOp4
 70
     1
102
RTVSPropertyOp5
 70
     1
102
RTVSPropertyOp6
 70
     1
102
RTVSPropertyOp7
 70
     1
102
RTVSPropertyOp8
 70
     1
102
RTVSPropertyOp9
 70
     1
102
RTVSPropertyOp10
 70
     1
102
RTVSPropertyOp11
 70
     1
102
RTVSPropertyOp12
 70
     1
102
RTVSPropertyOp13
 70
     1
102
RTVSPropertyOp14
 70
     1
102
RTVSPropertyOp15
 70
     1
102
RTVSPropertyOp16
 70
     1
102
RTVSPropertyOp17
 70
     1
102
RTVSPropertyOp18
 70
     1
102
RTVSPropertyOp19
 70
     1
102
RTVSPropertyOp20
 70
     1
102
RTVSPropertyOp21
 70
     1
102
RTVSPropertyOp22
 70
     1
102
RTVSPropertyOp23
 70
     1
102
RTVSPropertyOp24
 70
     1
102
RTVSPropertyOp25
 70
     1
102
RTVSPropertyOp26
 70
     1
102
RTVSPropertyOp27
 70
     1
102
RTVSPropertyOp28
 70
     1
102
RTVSPropertyOp29
 70
     1
102
RTVSPropertyOp30
 70
     1
102
RTVSPropertyOp31
 70
     1
102
RTVSPropertyOp32
 70
     1
102
RTVSPropertyOp33
 70
     1
102
RTVSPropertyOp34
 70
     1
102
RTVSPropertyOp35
 70
     1
102
RTVSPropertyOp36
 70
     1
102
RTVSPropertyOp37
 70
     1
102
RTVSPropertyOp38
 70
     1
102
RTVSPropertyOp39
 70
     1
102
RTVSPropertyOp40
 70
     1
102
RTVSPropertyOp41
 70
     1
102
RTVSPropertyOp42
 70
     1
102
RTVSPropertyOp43
 70
     1
102
RTVSPropertyOp44
 70
     1
102
RTVSPropertyOp45
 70
     1
102
RTVSPropertyOp46
 70
     1
102
RTVSPropertyOp47
 70
     1
102
RTVSPropertyOp48
 70
     1
102
RTVSPropertyOp49
 70
     1
102
RTVSPropertyOp50
 70
     1
102
RTVSPropertyOp51
 70
     0
102
RTVSPropertyOp52
 70
     0
102
RTVSPropertyOp53
 70
     1
102
RTVSPropertyOp54
 70
     1
102
RTVSPropertyOp55
 70
     1
102
RTVSPropertyOp56
 70
     1
102
RTVSPropertyOp57
 70
     1
102
RTVSPost2010Prop28
280
     0
102
RTVSPost2010PropOp28
 70
     1
102
RTVSPost2010Prop29
280
     1
102
RTVSPost2010PropOp29
 70
     1
102
RTVSPost2010Prop30
280
     1
102
RTVSPost2010PropOp30
 70
     1
102
RTVSPost2010Prop31
280
     0
102
RTVSPost2010PropOp31
 70
     1
102
RTVSPost2010Prop32
280
     0
102
RTVSPost2010PropOp32
 70
     1
102
RTVSPost2010Prop33
280
     0
102
RTVSPost2010PropOp33
 70
     1
102
RTVSPost2010Prop34
280
     0
102
RTVSPost2010PropOp34
 70
     1
102
RTVSPost2010Prop35
280
     0
102
RTVSPost2010PropOp35
 70
     1
102
RTVSPost2010Prop36
280
     0
102
RTVSPost2010PropOp36
 70
     1
102
RTVSPost2010Prop37
 90
       50
102
RTVSPost2010PropOp37
 70
     1
102
RTVSPost2010Prop38
140
0.0
102
RTVSPost2010PropOp38
 70
     1
102
RTVSPost2010Prop39
140
1.0
102
RTVSPost2010PropOp39
 70
     1
102
RTVSPost2010Prop40
 90
        0
102
RTVSPost2010PropOp40
 70
     1
102
RTVSPost2010Prop41ColorIndex
 90
       18
102
RTVSPost2010Prop41ColorRGB
 90
        0
102
RTVSPost2010PropOp41
 70
     1
102
RTVSPost2010Prop42
 90
       50
102
RTVSPost2010PropOp42
 70
     1
102
RTVSPost2010Prop43
 90
        3
102
RTVSPost2010PropOp43
 70
     1
102
RTVSPost2010Prop44ColorIndex
 90
        5
102
RTVSPost2010Prop44ColorRGB
 90
      255
102
RTVSPost2010PropOp44
 70
     1
102
RTVSPost2010Prop45
280
     0
102
RTVSPost2010PropOp45
 70
     1
102
RTVSPost2010Prop46
 90
       50
102
RTVSPost2010PropOp46
 70
     1
102
RTVSPost2010Prop47
 90
       50
102
RTVSPost2010PropOp47
 70
     1
102
RTVSPost2010Prop48
 90
       50
102
RTVSPost2010PropOp48
 70
     1
102
RTVSPost2010Prop49
280
     0
102
RTVSPost2010PropOp49
 70
     1
102
RTVSPost2010Prop50
 90
       50
102
RTVSPost2010PropOp50
 70
     1
102
RTVSPost2010Prop51ColorIndex
 90
      256
102
RTVSPost2010Prop51ColorRGB
 90
-16777216
102
RTVSPost2010PropOp51
 70
     0
102
RTVSPost2010Prop52
140
1.0
102
RTVSPost2010PropOp52
 70
     0
102
RTVSPost2010Prop53
 90
        2
102
RTVSPost2010PropOp53
 70
     1
102
RTVSPost2010Prop54
  1
strokes_ogs.tif
102
RTVSPost2010PropOp54
 70
     1
102
RTVSPost2010Prop55
280
     0
102
RTVSPost2010PropOp55
 70
     1
102
RTVSPost2010Prop56
140
1.0
102
RTVSPost2010PropOp56
 70
     1
102
RTVSPost2010Prop57
140
1.0
102
RTVSPost2010PropOp57
 70
     1
  0
XRECORD
  5
496
102
{ACAD_REACTORS
330
495
102
}
330
495
100
AcDbXrecord
280
     1
102
RTVSPropertyOp0
 70
     1
102
RTVSPropertyOp1
 70
     1
102
RTVSPropertyOp2
 70
     1
102
RTVSPropertyOp3
 70
     1
102
RTVSPropertyOp4
 70
     1
102
RTVSPropertyOp5
 70
     1
102
RTVSPropertyOp6
 70
     1
102
RTVSPropertyOp7
 70
     1
102
RTVSPropertyOp8
 70
     1
102
RTVSPropertyOp9
 70
     1
102
RTVSPropertyOp10
 70
     1
102
RTVSPropertyOp11
 70
     1
102
RTVSPropertyOp12
 70
     1
102
RTVSPropertyOp13
 70
     1
102
RTVSPropertyOp14
 70
     1
102
RTVSPropertyOp15
 70
     1
102
RTVSPropertyOp16
 70
     1
102
RTVSPropertyOp17
 70
     1
102
RTVSPropertyOp18
 70
     1
102
RTVSPropertyOp19
 70
     1
102
RTVSPropertyOp20
 70
     1
102
RTVSPropertyOp21
 70
     1
102
RTVSPropertyOp22
 70
     1
102
RTVSPropertyOp23
 70
     1
102
RTVSPropertyOp24
 70
     1
102
RTVSPropertyOp25
 70
     1
102
RTVSPropertyOp26
 70
     1
102
RTVSPropertyOp27
 70
     1
102
RTVSPropertyOp28
 70
     1
102
RTVSPropertyOp29
 70
     1
102
RTVSPropertyOp30
 70
     1
102
RTVSPropertyOp31
 70
     1
102
RTVSPropertyOp32
 70
     1
102
RTVSPropertyOp33
 70
     1
102
RTVSPropertyOp34
 70
     1
102
RTVSPropertyOp35
 70
     1
102
RTVSPropertyOp36
 70
     1
102
RTVSPropertyOp37
 70
     1
102
RTVSPropertyOp38
 70
     1
102
RTVSPropertyOp39
 70
     1
102
RTVSPropertyOp40
 70
     1
102
RTVSPropertyOp41
 70
     1
102
RTVSPropertyOp42
 70
     1
102
RTVSPropertyOp43
 70
     1
102
RTVSPropertyOp44
 70
     1
102
RTVSPropertyOp45
 70
     1
102
RTVSPropertyOp46
 70
     1
102
RTVSPropertyOp47
 70
     1
102
RTVSPropertyOp48
 70
     1
102
RTVSPropertyOp49
 70
     1
102
RTVSPropertyOp50
 70
     1
102
RTVSPropertyOp51
 70
     0
102
RTVSPropertyOp52
 70
     0
102
RTVSPropertyOp53
 70
     1
102
RTVSPropertyOp54
 70
     1
102
RTVSPropertyOp55
 70
     1
102
RTVSPropertyOp56
 70
     1
102
RTVSPropertyOp57
 70
     1
102
RTVSPost2010Prop28
280
     0
102
RTVSPost2010PropOp28
 70
     1
102
RTVSPost2010Prop29
280
     1
102
RTVSPost2010PropOp29
 70
     1
102
RTVSPost2010Prop30
280
     1
102
RTVSPost2010PropOp30
 70
     1
102
RTVSPost2010Prop31
280
     0
102
RTVSPost2010PropOp31
 70
     1
102
RTVSPost2010Prop32
280
     0
102
RTVSPost2010PropOp32
 70
     1
102
RTVSPost2010Prop33
280
     0
102
RTVSPost2010PropOp33
 70
     1
102
RTVSPost2010Prop34
280
     0
102
RTVSPost2010PropOp34
 70
     1
102
RTVSPost2010Prop35
280
     0
102
RTVSPost2010PropOp35
 70
     1
102
RTVSPost2010Prop36
280
     0
102
RTVSPost2010PropOp36
 70
     1
102
RTVSPost2010Prop37
 90
       50
102
RTVSPost2010PropOp37
 70
     1
102
RTVSPost2010Prop38
140
0.0
102
RTVSPost2010PropOp38
 70
     1
102
RTVSPost2010Prop39
140
1.0
102
RTVSPost2010PropOp39
 70
     1
102
RTVSPost2010Prop40
 90
        0
102
RTVSPost2010PropOp40
 70
     1
102
RTVSPost2010Prop41ColorIndex
 90
       18
102
RTVSPost2010Prop41ColorRGB
 90
        0
102
RTVSPost2010PropOp41
 70
     1
102
RTVSPost2010Prop42
 90
       50
102
RTVSPost2010PropOp42
 70
     1
102
RTVSPost2010Prop43
 90
        3
102
RTVSPost2010PropOp43
 70
     1
102
RTVSPost2010Prop44ColorIndex
 90
        5
102
RTVSPost2010Prop44ColorRGB
 90
      255
102
RTVSPost2010PropOp44
 70
     1
102
RTVSPost2010Prop45
280
     0
102
RTVSPost2010PropOp45
 70
     1
102
RTVSPost2010Prop46
 90
       50
102
RTVSPost2010PropOp46
 70
     1
102
RTVSPost2010Prop47
 90
       50
102
RTVSPost2010PropOp47
 70
     1
102
RTVSPost2010Prop48
 90
       50
102
RTVSPost2010PropOp48
 70
     1
102
RTVSPost2010Prop49
280
     0
102
RTVSPost2010PropOp49
 70
     1
102
RTVSPost2010Prop50
 90
       50
102
RTVSPost2010PropOp50
 70
     1
102
RTVSPost2010Prop51ColorIndex
 90
      256
102
RTVSPost2010Prop51ColorRGB
 90
-16777216
102
RTVSPost2010PropOp51
 70
     0
102
RTVSPost2010Prop52
140
1.0
102
RTVSPost2010PropOp52
 70
     0
102
RTVSPost2010Prop53
 90
        2
102
RTVSPost2010PropOp53
 70
     1
102
RTVSPost2010Prop54
  1
strokes_ogs.tif
102
RTVSPost2010PropOp54
 70
     1
102
RTVSPost2010Prop55
280
     0
102
RTVSPost2010PropOp55
 70
     1
102
RTVSPost2010Prop56
140
1.0
102
RTVSPost2010PropOp56
 70
     1
102
RTVSPost2010Prop57
140
1.0
102
RTVSPost2010PropOp57
 70
     1
  0
XRECORD
  5
4A6
102
{ACAD_REACTORS
330
4A5
102
}
330
4A5
100
AcDbXrecord
280
     1
102
RTVSPropertyOp0
 70
     0
102
RTVSPropertyOp1
 70
     0
102
RTVSPropertyOp2
 70
     0
102
RTVSPropertyOp3
 70
     0
102
RTVSPropertyOp4
 70
     0
102
RTVSPropertyOp5
 70
     0
102
RTVSPropertyOp6
 70
     0
102
RTVSPropertyOp7
 70
     0
102
RTVSPropertyOp8
 70
     0
102
RTVSPropertyOp9
 70
     0
102
RTVSPropertyOp10
 70
     0
102
RTVSPropertyOp11
 70
     0
102
RTVSPropertyOp12
 70
     0
102
RTVSPropertyOp13
 70
     0
102
RTVSPropertyOp14
 70
     2
102
RTVSPropertyOp15
 70
     0
102
RTVSPropertyOp16
 70
     0
102
RTVSPropertyOp17
 70
     0
102
RTVSPropertyOp18
 70
     0
102
RTVSPropertyOp19
 70
     0
102
RTVSPropertyOp20
 70
     0
102
RTVSPropertyOp21
 70
     0
102
RTVSPropertyOp22
 70
     0
102
RTVSPropertyOp23
 70
     0
102
RTVSPropertyOp24
 70
     0
102
RTVSPropertyOp25
 70
     0
102
RTVSPropertyOp26
 70
     0
102
RTVSPropertyOp27
 70
     0
102
RTVSPropertyOp28
 70
     0
102
RTVSPropertyOp29
 70
     0
102
RTVSPropertyOp30
 70
     0
102
RTVSPropertyOp31
 70
     0
102
RTVSPropertyOp32
 70
     0
102
RTVSPropertyOp33
 70
     0
102
RTVSPropertyOp34
 70
     0
102
RTVSPropertyOp35
 70
     0
102
RTVSPropertyOp36
 70
     0
102
RTVSPropertyOp37
 70
     0
102
RTVSPropertyOp38
 70
     0
102
RTVSPropertyOp39
 70
     0
102
RTVSPropertyOp40
 70
     0
102
RTVSPropertyOp41
 70
     0
102
RTVSPropertyOp42
 70
     0
102
RTVSPropertyOp43
 70
     0
102
RTVSPropertyOp44
 70
     0
102
RTVSPropertyOp45
 70
     0
102
RTVSPropertyOp46
 70
     0
102
RTVSPropertyOp47
 70
     0
102
RTVSPropertyOp48
 70
     0
102
RTVSPropertyOp49
 70
     0
102
RTVSPropertyOp50
 70
     0
102
RTVSPropertyOp51
 70
     0
102
RTVSPropertyOp52
 70
     0
102
RTVSPropertyOp53
 70
     0
102
RTVSPropertyOp54
 70
     0
102
RTVSPropertyOp55
 70
     0
102
RTVSPropertyOp56
 70
     0
102
RTVSPropertyOp57
 70
     0
102
RTVSPost2010Prop28
280
     0
102
RTVSPost2010PropOp28
 70
     0
102
RTVSPost2010Prop29
280
     1
102
RTVSPost2010PropOp29
 70
     0
102
RTVSPost2010Prop30
280
     1
102
RTVSPost2010PropOp30
 70
     0
102
RTVSPost2010Prop31
280
     0
102
RTVSPost2010PropOp31
 70
     0
102
RTVSPost2010Prop32
280
     0
102
RTVSPost2010PropOp32
 70
     0
102
RTVSPost2010Prop33
280
     0
102
RTVSPost2010PropOp33
 70
     0
102
RTVSPost2010Prop34
280
     0
102
RTVSPost2010PropOp34
 70
     0
102
RTVSPost2010Prop35
280
     0
102
RTVSPost2010PropOp35
 70
     0
102
RTVSPost2010Prop36
280
     0
102
RTVSPost2010PropOp36
 70
     0
102
RTVSPost2010Prop37
 90
       50
102
RTVSPost2010PropOp37
 70
     0
102
RTVSPost2010Prop38
140
0.0
102
RTVSPost2010PropOp38
 70
     0
102
RTVSPost2010Prop39
140
1.0
102
RTVSPost2010PropOp39
 70
     0
102
RTVSPost2010Prop40
 90
        0
102
RTVSPost2010PropOp40
 70
     0
102
RTVSPost2010Prop41ColorIndex
 90
       18
102
RTVSPost2010Prop41ColorRGB
 90
        0
102
RTVSPost2010PropOp41
 70
     0
102
RTVSPost2010Prop42
 90
       50
102
RTVSPost2010PropOp42
 70
     0
102
RTVSPost2010Prop43
 90
        3
102
RTVSPost2010PropOp43
 70
     0
102
RTVSPost2010Prop44ColorIndex
 90
        5
102
RTVSPost2010Prop44ColorRGB
 90
      255
102
RTVSPost2010PropOp44
 70
     0
102
RTVSPost2010Prop45
280
     0
102
RTVSPost2010PropOp45
 70
     0
102
RTVSPost2010Prop46
 90
       50
102
RTVSPost2010PropOp46
 70
     0
102
RTVSPost2010Prop47
 90
       50
102
RTVSPost2010PropOp47
 70
     0
102
RTVSPost2010Prop48
 90
       50
102
RTVSPost2010PropOp48
 70
     0
102
RTVSPost2010Prop49
280
     0
102
RTVSPost2010PropOp49
 70
     0
102
RTVSPost2010Prop50
 90
       50
102
RTVSPost2010PropOp50
 70
     0
102
RTVSPost2010Prop51ColorIndex
 90
      256
102
RTVSPost2010Prop51ColorRGB
 90
-16777216
102
RTVSPost2010PropOp51
 70
     0
102
RTVSPost2010Prop52
140
1.0
102
RTVSPost2010PropOp52
 70
     0
102
RTVSPost2010Prop53
 90
        2
102
RTVSPost2010PropOp53
 70
     0
102
RTVSPost2010Prop54
  1
strokes_ogs.tif
102
RTVSPost2010PropOp54
 70
     0
102
RTVSPost2010Prop55
280
     0
102
RTVSPost2010PropOp55
 70
     0
102
RTVSPost2010Prop56
140
1.0
102
RTVSPost2010PropOp56
 70
     0
102
RTVSPost2010Prop57
140
1.0
102
RTVSPost2010PropOp57
 70
     0
  0
XRECORD
  5
49E
102
{ACAD_REACTORS
330
49D
102
}
330
49D
100
AcDbXrecord
280
     1
102
RTVSPropertyOp0
 70
     1
102
RTVSPropertyOp1
 70
     1
102
RTVSPropertyOp2
 70
     1
102
RTVSPropertyOp3
 70
     1
102
RTVSPropertyOp4
 70
     1
102
RTVSPropertyOp5
 70
     1
102
RTVSPropertyOp6
 70
     1
102
RTVSPropertyOp7
 70
     1
102
RTVSPropertyOp8
 70
     1
102
RTVSPropertyOp9
 70
     1
102
RTVSPropertyOp10
 70
     1
102
RTVSPropertyOp11
 70
     1
102
RTVSPropertyOp12
 70
     1
102
RTVSPropertyOp13
 70
     1
102
RTVSPropertyOp14
 70
     1
102
RTVSPropertyOp15
 70
     1
102
RTVSPropertyOp16
 70
     1
102
RTVSPropertyOp17
 70
     1
102
RTVSPropertyOp18
 70
     1
102
RTVSPropertyOp19
 70
     1
102
RTVSPropertyOp20
 70
     1
102
RTVSPropertyOp21
 70
     1
102
RTVSPropertyOp22
 70
     1
102
RTVSPropertyOp23
 70
     1
102
RTVSPropertyOp24
 70
     1
102
RTVSPropertyOp25
 70
     1
102
RTVSPropertyOp26
 70
     1
102
RTVSPropertyOp27
 70
     1
102
RTVSPropertyOp28
 70
     1
102
RTVSPropertyOp29
 70
     1
102
RTVSPropertyOp30
 70
     1
102
RTVSPropertyOp31
 70
     1
102
RTVSPropertyOp32
 70
     1
102
RTVSPropertyOp33
 70
     1
102
RTVSPropertyOp34
 70
     1
102
RTVSPropertyOp35
 70
     1
102
RTVSPropertyOp36
 70
     1
102
RTVSPropertyOp37
 70
     1
102
RTVSPropertyOp38
 70
     1
102
RTVSPropertyOp39
 70
     1
102
RTVSPropertyOp40
 70
     1
102
RTVSPropertyOp41
 70
     1
102
RTVSPropertyOp42
 70
     1
102
RTVSPropertyOp43
 70
     1
102
RTVSPropertyOp44
 70
     1
102
RTVSPropertyOp45
 70
     1
102
RTVSPropertyOp46
 70
     1
102
RTVSPropertyOp47
 70
     1
102
RTVSPropertyOp48
 70
     1
102
RTVSPropertyOp49
 70
     1
102
RTVSPropertyOp50
 70
     1
102
RTVSPropertyOp51
 70
     0
102
RTVSPropertyOp52
 70
     0
102
RTVSPropertyOp53
 70
     1
102
RTVSPropertyOp54
 70
     1
102
RTVSPropertyOp55
 70
     1
102
RTVSPropertyOp56
 70
     1
102
RTVSPropertyOp57
 70
     1
102
RTVSPost2010Prop28
280
     0
102
RTVSPost2010PropOp28
 70
     1
102
RTVSPost2010Prop29
280
     1
102
RTVSPost2010PropOp29
 70
     1
102
RTVSPost2010Prop30
280
     1
102
RTVSPost2010PropOp30
 70
     1
102
RTVSPost2010Prop31
280
     0
102
RTVSPost2010PropOp31
 70
     1
102
RTVSPost2010Prop32
280
     0
102
RTVSPost2010PropOp32
 70
     1
102
RTVSPost2010Prop33
280
     0
102
RTVSPost2010PropOp33
 70
     1
102
RTVSPost2010Prop34
280
     0
102
RTVSPost2010PropOp34
 70
     1
102
RTVSPost2010Prop35
280
     0
102
RTVSPost2010PropOp35
 70
     1
102
RTVSPost2010Prop36
280
     0
102
RTVSPost2010PropOp36
 70
     1
102
RTVSPost2010Prop37
 90
       50
102
RTVSPost2010PropOp37
 70
     1
102
RTVSPost2010Prop38
140
0.0
102
RTVSPost2010PropOp38
 70
     1
102
RTVSPost2010Prop39
140
1.0
102
RTVSPost2010PropOp39
 70
     1
102
RTVSPost2010Prop40
 90
        0
102
RTVSPost2010PropOp40
 70
     1
102
RTVSPost2010Prop41ColorIndex
 90
       18
102
RTVSPost2010Prop41ColorRGB
 90
        0
102
RTVSPost2010PropOp41
 70
     1
102
RTVSPost2010Prop42
 90
       50
102
RTVSPost2010PropOp42
 70
     1
102
RTVSPost2010Prop43
 90
        3
102
RTVSPost2010PropOp43
 70
     1
102
RTVSPost2010Prop44ColorIndex
 90
        5
102
RTVSPost2010Prop44ColorRGB
 90
      255
102
RTVSPost2010PropOp44
 70
     1
102
RTVSPost2010Prop45
280
     0
102
RTVSPost2010PropOp45
 70
     1
102
RTVSPost2010Prop46
 90
       50
102
RTVSPost2010PropOp46
 70
     1
102
RTVSPost2010Prop47
 90
       50
102
RTVSPost2010PropOp47
 70
     1
102
RTVSPost2010Prop48
 90
       50
102
RTVSPost2010PropOp48
 70
     1
102
RTVSPost2010Prop49
280
     0
102
RTVSPost2010PropOp49
 70
     1
102
RTVSPost2010Prop50
 90
       50
102
RTVSPost2010PropOp50
 70
     1
102
RTVSPost2010Prop51ColorIndex
 90
      256
102
RTVSPost2010Prop51ColorRGB
 90
-16777216
102
RTVSPost2010PropOp51
 70
     0
102
RTVSPost2010Prop52
140
1.0
102
RTVSPost2010PropOp52
 70
     0
102
RTVSPost2010Prop53
 90
        2
102
RTVSPost2010PropOp53
 70
     1
102
RTVSPost2010Prop54
  1
strokes_ogs.tif
102
RTVSPost2010PropOp54
 70
     1
102
RTVSPost2010Prop55
280
     0
102
RTVSPost2010PropOp55
 70
     1
102
RTVSPost2010Prop56
140
1.0
102
RTVSPost2010PropOp56
 70
     1
102
RTVSPost2010Prop57
140
1.0
102
RTVSPost2010PropOp57
 70
     1
  0
XRECORD
  5
482
102
{ACAD_REACTORS
330
481
102
}
330
481
100
AcDbXrecord
280
     1
102
RTVSPropertyOp0
 70
     1
102
RTVSPropertyOp1
 70
     1
102
RTVSPropertyOp2
 70
     1
102
RTVSPropertyOp3
 70
     1
102
RTVSPropertyOp4
 70
     1
102
RTVSPropertyOp5
 70
     1
102
RTVSPropertyOp6
 70
     1
102
RTVSPropertyOp7
 70
     1
102
RTVSPropertyOp8
 70
     1
102
RTVSPropertyOp9
 70
     1
102
RTVSPropertyOp10
 70
     1
102
RTVSPropertyOp11
 70
     1
102
RTVSPropertyOp12
 70
     1
102
RTVSPropertyOp13
 70
     1
102
RTVSPropertyOp14
 70
     1
102
RTVSPropertyOp15
 70
     1
102
RTVSPropertyOp16
 70
     1
102
RTVSPropertyOp17
 70
     1
102
RTVSPropertyOp18
 70
     1
102
RTVSPropertyOp19
 70
     1
102
RTVSPropertyOp20
 70
     1
102
RTVSPropertyOp21
 70
     1
102
RTVSPropertyOp22
 70
     1
102
RTVSPropertyOp23
 70
     1
102
RTVSPropertyOp24
 70
     1
102
RTVSPropertyOp25
 70
     1
102
RTVSPropertyOp26
 70
     1
102
RTVSPropertyOp27
 70
     1
102
RTVSPropertyOp28
 70
     1
102
RTVSPropertyOp29
 70
     1
102
RTVSPropertyOp30
 70
     1
102
RTVSPropertyOp31
 70
     1
102
RTVSPropertyOp32
 70
     1
102
RTVSPropertyOp33
 70
     1
102
RTVSPropertyOp34
 70
     1
102
RTVSPropertyOp35
 70
     1
102
RTVSPropertyOp36
 70
     1
102
RTVSPropertyOp37
 70
     1
102
RTVSPropertyOp38
 70
     1
102
RTVSPropertyOp39
 70
     1
102
RTVSPropertyOp40
 70
     1
102
RTVSPropertyOp41
 70
     1
102
RTVSPropertyOp42
 70
     1
102
RTVSPropertyOp43
 70
     1
102
RTVSPropertyOp44
 70
     1
102
RTVSPropertyOp45
 70
     1
102
RTVSPropertyOp46
 70
     1
102
RTVSPropertyOp47
 70
     1
102
RTVSPropertyOp48
 70
     1
102
RTVSPropertyOp49
 70
     1
102
RTVSPropertyOp50
 70
     1
102
RTVSPropertyOp51
 70
     0
102
RTVSPropertyOp52
 70
     0
102
RTVSPropertyOp53
 70
     1
102
RTVSPropertyOp54
 70
     1
102
RTVSPropertyOp55
 70
     1
102
RTVSPropertyOp56
 70
     1
102
RTVSPropertyOp57
 70
     1
102
RTVSPost2010Prop28
280
     0
102
RTVSPost2010PropOp28
 70
     1
102
RTVSPost2010Prop29
280
     1
102
RTVSPost2010PropOp29
 70
     1
102
RTVSPost2010Prop30
280
     1
102
RTVSPost2010PropOp30
 70
     1
102
RTVSPost2010Prop31
280
     0
102
RTVSPost2010PropOp31
 70
     1
102
RTVSPost2010Prop32
280
     0
102
RTVSPost2010PropOp32
 70
     1
102
RTVSPost2010Prop33
280
     0
102
RTVSPost2010PropOp33
 70
     1
102
RTVSPost2010Prop34
280
     0
102
RTVSPost2010PropOp34
 70
     1
102
RTVSPost2010Prop35
280
     0
102
RTVSPost2010PropOp35
 70
     1
102
RTVSPost2010Prop36
280
     0
102
RTVSPost2010PropOp36
 70
     1
102
RTVSPost2010Prop37
 90
       50
102
RTVSPost2010PropOp37
 70
     1
102
RTVSPost2010Prop38
140
0.0
102
RTVSPost2010PropOp38
 70
     1
102
RTVSPost2010Prop39
140
1.0
102
RTVSPost2010PropOp39
 70
     1
102
RTVSPost2010Prop40
 90
        0
102
RTVSPost2010PropOp40
 70
     1
102
RTVSPost2010Prop41ColorIndex
 90
       18
102
RTVSPost2010Prop41ColorRGB
 90
        0
102
RTVSPost2010PropOp41
 70
     1
102
RTVSPost2010Prop42
 90
       50
102
RTVSPost2010PropOp42
 70
     1
102
RTVSPost2010Prop43
 90
        3
102
RTVSPost2010PropOp43
 70
     1
102
RTVSPost2010Prop44ColorIndex
 90
        5
102
RTVSPost2010Prop44ColorRGB
 90
      255
102
RTVSPost2010PropOp44
 70
     1
102
RTVSPost2010Prop45
280
     0
102
RTVSPost2010PropOp45
 70
     1
102
RTVSPost2010Prop46
 90
       50
102
RTVSPost2010PropOp46
 70
     1
102
RTVSPost2010Prop47
 90
       50
102
RTVSPost2010PropOp47
 70
     1
102
RTVSPost2010Prop48
 90
       50
102
RTVSPost2010PropOp48
 70
     1
102
RTVSPost2010Prop49
280
     0
102
RTVSPost2010PropOp49
 70
     1
102
RTVSPost2010Prop50
 90
       50
102
RTVSPost2010PropOp50
 70
     1
102
RTVSPost2010Prop51ColorIndex
 90
      256
102
RTVSPost2010Prop51ColorRGB
 90
-16777216
102
RTVSPost2010PropOp51
 70
     0
102
RTVSPost2010Prop52
140
1.0
102
RTVSPost2010PropOp52
 70
     0
102
RTVSPost2010Prop53
 90
        2
102
RTVSPost2010PropOp53
 70
     1
102
RTVSPost2010Prop54
  1
strokes_ogs.tif
102
RTVSPost2010PropOp54
 70
     1
102
RTVSPost2010Prop55
280
     0
102
RTVSPost2010PropOp55
 70
     1
102
RTVSPost2010Prop56
140
1.0
102
RTVSPost2010PropOp56
 70
     1
102
RTVSPost2010Prop57
140
1.0
102
RTVSPost2010PropOp57
 70
     1
  0
XRECORD
  5
484
102
{ACAD_REACTORS
330
483
102
}
330
483
100
AcDbXrecord
280
     1
102
RTVSPropertyOp0
 70
     1
102
RTVSPropertyOp1
 70
     1
102
RTVSPropertyOp2
 70
     1
102
RTVSPropertyOp3
 70
     1
102
RTVSPropertyOp4
 70
     1
102
RTVSPropertyOp5
 70
     1
102
RTVSPropertyOp6
 70
     1
102
RTVSPropertyOp7
 70
     1
102
RTVSPropertyOp8
 70
     1
102
RTVSPropertyOp9
 70
     1
102
RTVSPropertyOp10
 70
     1
102
RTVSPropertyOp11
 70
     1
102
RTVSPropertyOp12
 70
     1
102
RTVSPropertyOp13
 70
     1
102
RTVSPropertyOp14
 70
     1
102
RTVSPropertyOp15
 70
     1
102
RTVSPropertyOp16
 70
     1
102
RTVSPropertyOp17
 70
     1
102
RTVSPropertyOp18
 70
     1
102
RTVSPropertyOp19
 70
     1
102
RTVSPropertyOp20
 70
     1
102
RTVSPropertyOp21
 70
     1
102
RTVSPropertyOp22
 70
     1
102
RTVSPropertyOp23
 70
     1
102
RTVSPropertyOp24
 70
     1
102
RTVSPropertyOp25
 70
     1
102
RTVSPropertyOp26
 70
     1
102
RTVSPropertyOp27
 70
     1
102
RTVSPropertyOp28
 70
     1
102
RTVSPropertyOp29
 70
     1
102
RTVSPropertyOp30
 70
     1
102
RTVSPropertyOp31
 70
     1
102
RTVSPropertyOp32
 70
     1
102
RTVSPropertyOp33
 70
     1
102
RTVSPropertyOp34
 70
     1
102
RTVSPropertyOp35
 70
     1
102
RTVSPropertyOp36
 70
     1
102
RTVSPropertyOp37
 70
     1
102
RTVSPropertyOp38
 70
     1
102
RTVSPropertyOp39
 70
     1
102
RTVSPropertyOp40
 70
     1
102
RTVSPropertyOp41
 70
     1
102
RTVSPropertyOp42
 70
     1
102
RTVSPropertyOp43
 70
     1
102
RTVSPropertyOp44
 70
     1
102
RTVSPropertyOp45
 70
     1
102
RTVSPropertyOp46
 70
     1
102
RTVSPropertyOp47
 70
     1
102
RTVSPropertyOp48
 70
     1
102
RTVSPropertyOp49
 70
     1
102
RTVSPropertyOp50
 70
     1
102
RTVSPropertyOp51
 70
     0
102
RTVSPropertyOp52
 70
     0
102
RTVSPropertyOp53
 70
     1
102
RTVSPropertyOp54
 70
     1
102
RTVSPropertyOp55
 70
     1
102
RTVSPropertyOp56
 70
     1
102
RTVSPropertyOp57
 70
     1
102
RTVSPost2010Prop28
280
     0
102
RTVSPost2010PropOp28
 70
     1
102
RTVSPost2010Prop29
280
     1
102
RTVSPost2010PropOp29
 70
     1
102
RTVSPost2010Prop30
280
     1
102
RTVSPost2010PropOp30
 70
     1
102
RTVSPost2010Prop31
280
     0
102
RTVSPost2010PropOp31
 70
     1
102
RTVSPost2010Prop32
280
     0
102
RTVSPost2010PropOp32
 70
     1
102
RTVSPost2010Prop33
280
     0
102
RTVSPost2010PropOp33
 70
     1
102
RTVSPost2010Prop34
280
     0
102
RTVSPost2010PropOp34
 70
     1
102
RTVSPost2010Prop35
280
     0
102
RTVSPost2010PropOp35
 70
     1
102
RTVSPost2010Prop36
280
     0
102
RTVSPost2010PropOp36
 70
     1
102
RTVSPost2010Prop37
 90
       50
102
RTVSPost2010PropOp37
 70
     1
102
RTVSPost2010Prop38
140
0.0
102
RTVSPost2010PropOp38
 70
     1
102
RTVSPost2010Prop39
140
1.0
102
RTVSPost2010PropOp39
 70
     1
102
RTVSPost2010Prop40
 90
        0
102
RTVSPost2010PropOp40
 70
     1
102
RTVSPost2010Prop41ColorIndex
 90
       18
102
RTVSPost2010Prop41ColorRGB
 90
        0
102
RTVSPost2010PropOp41
 70
     1
102
RTVSPost2010Prop42
 90
       50
102
RTVSPost2010PropOp42
 70
     1
102
RTVSPost2010Prop43
 90
        3
102
RTVSPost2010PropOp43
 70
     1
102
RTVSPost2010Prop44ColorIndex
 90
        5
102
RTVSPost2010Prop44ColorRGB
 90
      255
102
RTVSPost2010PropOp44
 70
     1
102
RTVSPost2010Prop45
280
     0
102
RTVSPost2010PropOp45
 70
     1
102
RTVSPost2010Prop46
 90
       50
102
RTVSPost2010PropOp46
 70
     1
102
RTVSPost2010Prop47
 90
       50
102
RTVSPost2010PropOp47
 70
     1
102
RTVSPost2010Prop48
 90
       50
102
RTVSPost2010PropOp48
 70
     1
102
RTVSPost2010Prop49
280
     0
102
RTVSPost2010PropOp49
 70
     1
102
RTVSPost2010Prop50
 90
       50
102
RTVSPost2010PropOp50
 70
     1
102
RTVSPost2010Prop51ColorIndex
 90
      256
102
RTVSPost2010Prop51ColorRGB
 90
-16777216
102
RTVSPost2010PropOp51
 70
     0
102
RTVSPost2010Prop52
140
1.0
102
RTVSPost2010PropOp52
 70
     0
102
RTVSPost2010Prop53
 90
        2
102
RTVSPost2010PropOp53
 70
     1
102
RTVSPost2010Prop54
  1
strokes_ogs.tif
102
RTVSPost2010PropOp54
 70
     1
102
RTVSPost2010Prop55
280
     0
102
RTVSPost2010PropOp55
 70
     1
102
RTVSPost2010Prop56
140
1.0
102
RTVSPost2010PropOp56
 70
     1
102
RTVSPost2010Prop57
140
1.0
102
RTVSPost2010PropOp57
 70
     1
  0
XRECORD
  5
486
102
{ACAD_REACTORS
330
485
102
}
330
485
100
AcDbXrecord
280
     1
102
RTVSPropertyOp0
 70
     1
102
RTVSPropertyOp1
 70
     1
102
RTVSPropertyOp2
 70
     1
102
RTVSPropertyOp3
 70
     1
102
RTVSPropertyOp4
 70
     1
102
RTVSPropertyOp5
 70
     1
102
RTVSPropertyOp6
 70
     1
102
RTVSPropertyOp7
 70
     1
102
RTVSPropertyOp8
 70
     1
102
RTVSPropertyOp9
 70
     1
102
RTVSPropertyOp10
 70
     1
102
RTVSPropertyOp11
 70
     1
102
RTVSPropertyOp12
 70
     1
102
RTVSPropertyOp13
 70
     1
102
RTVSPropertyOp14
 70
     1
102
RTVSPropertyOp15
 70
     1
102
RTVSPropertyOp16
 70
     1
102
RTVSPropertyOp17
 70
     1
102
RTVSPropertyOp18
 70
     1
102
RTVSPropertyOp19
 70
     1
102
RTVSPropertyOp20
 70
     1
102
RTVSPropertyOp21
 70
     1
102
RTVSPropertyOp22
 70
     1
102
RTVSPropertyOp23
 70
     1
102
RTVSPropertyOp24
 70
     1
102
RTVSPropertyOp25
 70
     1
102
RTVSPropertyOp26
 70
     1
102
RTVSPropertyOp27
 70
     1
102
RTVSPropertyOp28
 70
     1
102
RTVSPropertyOp29
 70
     1
102
RTVSPropertyOp30
 70
     1
102
RTVSPropertyOp31
 70
     1
102
RTVSPropertyOp32
 70
     1
102
RTVSPropertyOp33
 70
     1
102
RTVSPropertyOp34
 70
     1
102
RTVSPropertyOp35
 70
     1
102
RTVSPropertyOp36
 70
     1
102
RTVSPropertyOp37
 70
     1
102
RTVSPropertyOp38
 70
     1
102
RTVSPropertyOp39
 70
     1
102
RTVSPropertyOp40
 70
     1
102
RTVSPropertyOp41
 70
     1
102
RTVSPropertyOp42
 70
     1
102
RTVSPropertyOp43
 70
     1
102
RTVSPropertyOp44
 70
     1
102
RTVSPropertyOp45
 70
     1
102
RTVSPropertyOp46
 70
     1
102
RTVSPropertyOp47
 70
     1
102
RTVSPropertyOp48
 70
     1
102
RTVSPropertyOp49
 70
     1
102
RTVSPropertyOp50
 70
     1
102
RTVSPropertyOp51
 70
     0
102
RTVSPropertyOp52
 70
     0
102
RTVSPropertyOp53
 70
     1
102
RTVSPropertyOp54
 70
     1
102
RTVSPropertyOp55
 70
     1
102
RTVSPropertyOp56
 70
     1
102
RTVSPropertyOp57
 70
     1
102
RTVSPost2010Prop28
280
     0
102
RTVSPost2010PropOp28
 70
     1
102
RTVSPost2010Prop29
280
     1
102
RTVSPost2010PropOp29
 70
     1
102
RTVSPost2010Prop30
280
     1
102
RTVSPost2010PropOp30
 70
     1
102
RTVSPost2010Prop31
280
     0
102
RTVSPost2010PropOp31
 70
     1
102
RTVSPost2010Prop32
280
     0
102
RTVSPost2010PropOp32
 70
     1
102
RTVSPost2010Prop33
280
     0
102
RTVSPost2010PropOp33
 70
     1
102
RTVSPost2010Prop34
280
     0
102
RTVSPost2010PropOp34
 70
     1
102
RTVSPost2010Prop35
280
     0
102
RTVSPost2010PropOp35
 70
     1
102
RTVSPost2010Prop36
280
     0
102
RTVSPost2010PropOp36
 70
     1
102
RTVSPost2010Prop37
 90
       50
102
RTVSPost2010PropOp37
 70
     1
102
RTVSPost2010Prop38
140
0.0
102
RTVSPost2010PropOp38
 70
     1
102
RTVSPost2010Prop39
140
1.0
102
RTVSPost2010PropOp39
 70
     1
102
RTVSPost2010Prop40
 90
        0
102
RTVSPost2010PropOp40
 70
     1
102
RTVSPost2010Prop41ColorIndex
 90
       18
102
RTVSPost2010Prop41ColorRGB
 90
        0
102
RTVSPost2010PropOp41
 70
     1
102
RTVSPost2010Prop42
 90
       50
102
RTVSPost2010PropOp42
 70
     1
102
RTVSPost2010Prop43
 90
        3
102
RTVSPost2010PropOp43
 70
     1
102
RTVSPost2010Prop44ColorIndex
 90
        5
102
RTVSPost2010Prop44ColorRGB
 90
      255
102
RTVSPost2010PropOp44
 70
     1
102
RTVSPost2010Prop45
280
     0
102
RTVSPost2010PropOp45
 70
     1
102
RTVSPost2010Prop46
 90
       50
102
RTVSPost2010PropOp46
 70
     1
102
RTVSPost2010Prop47
 90
       50
102
RTVSPost2010PropOp47
 70
     1
102
RTVSPost2010Prop48
 90
       50
102
RTVSPost2010PropOp48
 70
     1
102
RTVSPost2010Prop49
280
     0
102
RTVSPost2010PropOp49
 70
     1
102
RTVSPost2010Prop50
 90
       50
102
RTVSPost2010PropOp50
 70
     1
102
RTVSPost2010Prop51ColorIndex
 90
      256
102
RTVSPost2010Prop51ColorRGB
 90
-16777216
102
RTVSPost2010PropOp51
 70
     0
102
RTVSPost2010Prop52
140
1.0
102
RTVSPost2010PropOp52
 70
     0
102
RTVSPost2010Prop53
 90
        2
102
RTVSPost2010PropOp53
 70
     1
102
RTVSPost2010Prop54
  1
strokes_ogs.tif
102
RTVSPost2010PropOp54
 70
     1
102
RTVSPost2010Prop55
280
     0
102
RTVSPost2010PropOp55
 70
     1
102
RTVSPost2010Prop56
140
1.0
102
RTVSPost2010PropOp56
 70
     1
102
RTVSPost2010Prop57
140
1.0
102
RTVSPost2010PropOp57
 70
     1
  0
XRECORD
  5
488
102
{ACAD_REACTORS
330
487
102
}
330
487
100
AcDbXrecord
280
     1
102
RTVSPropertyOp0
 70
     1
102
RTVSPropertyOp1
 70
     1
102
RTVSPropertyOp2
 70
     1
102
RTVSPropertyOp3
 70
     1
102
RTVSPropertyOp4
 70
     1
102
RTVSPropertyOp5
 70
     1
102
RTVSPropertyOp6
 70
     1
102
RTVSPropertyOp7
 70
     1
102
RTVSPropertyOp8
 70
     1
102
RTVSPropertyOp9
 70
     1
102
RTVSPropertyOp10
 70
     1
102
RTVSPropertyOp11
 70
     1
102
RTVSPropertyOp12
 70
     1
102
RTVSPropertyOp13
 70
     1
102
RTVSPropertyOp14
 70
     1
102
RTVSPropertyOp15
 70
     1
102
RTVSPropertyOp16
 70
     1
102
RTVSPropertyOp17
 70
     1
102
RTVSPropertyOp18
 70
     1
102
RTVSPropertyOp19
 70
     1
102
RTVSPropertyOp20
 70
     1
102
RTVSPropertyOp21
 70
     1
102
RTVSPropertyOp22
 70
     1
102
RTVSPropertyOp23
 70
     1
102
RTVSPropertyOp24
 70
     1
102
RTVSPropertyOp25
 70
     1
102
RTVSPropertyOp26
 70
     1
102
RTVSPropertyOp27
 70
     1
102
RTVSPropertyOp28
 70
     1
102
RTVSPropertyOp29
 70
     1
102
RTVSPropertyOp30
 70
     1
102
RTVSPropertyOp31
 70
     1
102
RTVSPropertyOp32
 70
     1
102
RTVSPropertyOp33
 70
     1
102
RTVSPropertyOp34
 70
     1
102
RTVSPropertyOp35
 70
     1
102
RTVSPropertyOp36
 70
     1
102
RTVSPropertyOp37
 70
     1
102
RTVSPropertyOp38
 70
     1
102
RTVSPropertyOp39
 70
     1
102
RTVSPropertyOp40
 70
     1
102
RTVSPropertyOp41
 70
     1
102
RTVSPropertyOp42
 70
     1
102
RTVSPropertyOp43
 70
     1
102
RTVSPropertyOp44
 70
     1
102
RTVSPropertyOp45
 70
     1
102
RTVSPropertyOp46
 70
     1
102
RTVSPropertyOp47
 70
     1
102
RTVSPropertyOp48
 70
     1
102
RTVSPropertyOp49
 70
     1
102
RTVSPropertyOp50
 70
     1
102
RTVSPropertyOp51
 70
     0
102
RTVSPropertyOp52
 70
     0
102
RTVSPropertyOp53
 70
     1
102
RTVSPropertyOp54
 70
     1
102
RTVSPropertyOp55
 70
     1
102
RTVSPropertyOp56
 70
     1
102
RTVSPropertyOp57
 70
     1
102
RTVSPost2010Prop28
280
     0
102
RTVSPost2010PropOp28
 70
     1
102
RTVSPost2010Prop29
280
     1
102
RTVSPost2010PropOp29
 70
     1
102
RTVSPost2010Prop30
280
     1
102
RTVSPost2010PropOp30
 70
     1
102
RTVSPost2010Prop31
280
     0
102
RTVSPost2010PropOp31
 70
     1
102
RTVSPost2010Prop32
280
     0
102
RTVSPost2010PropOp32
 70
     1
102
RTVSPost2010Prop33
280
     0
102
RTVSPost2010PropOp33
 70
     1
102
RTVSPost2010Prop34
280
     0
102
RTVSPost2010PropOp34
 70
     1
102
RTVSPost2010Prop35
280
     0
102
RTVSPost2010PropOp35
 70
     1
102
RTVSPost2010Prop36
280
     0
102
RTVSPost2010PropOp36
 70
     1
102
RTVSPost2010Prop37
 90
       50
102
RTVSPost2010PropOp37
 70
     1
102
RTVSPost2010Prop38
140
0.0
102
RTVSPost2010PropOp38
 70
     1
102
RTVSPost2010Prop39
140
1.0
102
RTVSPost2010PropOp39
 70
     1
102
RTVSPost2010Prop40
 90
        0
102
RTVSPost2010PropOp40
 70
     1
102
RTVSPost2010Prop41ColorIndex
 90
       18
102
RTVSPost2010Prop41ColorRGB
 90
        0
102
RTVSPost2010PropOp41
 70
     1
102
RTVSPost2010Prop42
 90
       50
102
RTVSPost2010PropOp42
 70
     1
102
RTVSPost2010Prop43
 90
        3
102
RTVSPost2010PropOp43
 70
     1
102
RTVSPost2010Prop44ColorIndex
 90
        5
102
RTVSPost2010Prop44ColorRGB
 90
      255
102
RTVSPost2010PropOp44
 70
     1
102
RTVSPost2010Prop45
280
     0
102
RTVSPost2010PropOp45
 70
     1
102
RTVSPost2010Prop46
 90
       50
102
RTVSPost2010PropOp46
 70
     1
102
RTVSPost2010Prop47
 90
       50
102
RTVSPost2010PropOp47
 70
     1
102
RTVSPost2010Prop48
 90
       50
102
RTVSPost2010PropOp48
 70
     1
102
RTVSPost2010Prop49
280
     0
102
RTVSPost2010PropOp49
 70
     1
102
RTVSPost2010Prop50
 90
       50
102
RTVSPost2010PropOp50
 70
     1
102
RTVSPost2010Prop51ColorIndex
 90
      256
102
RTVSPost2010Prop51ColorRGB
 90
-16777216
102
RTVSPost2010PropOp51
 70
     0
102
RTVSPost2010Prop52
140
1.0
102
RTVSPost2010PropOp52
 70
     0
102
RTVSPost2010Prop53
 90
        2
102
RTVSPost2010PropOp53
 70
     1
102
RTVSPost2010Prop54
  1
strokes_ogs.tif
102
RTVSPost2010PropOp54
 70
     1
102
RTVSPost2010Prop55
280
     0
102
RTVSPost2010PropOp55
 70
     1
102
RTVSPost2010Prop56
140
1.0
102
RTVSPost2010PropOp56
 70
     1
102
RTVSPost2010Prop57
140
1.0
102
RTVSPost2010PropOp57
 70
     1
  0
XRECORD
  5
48E
102
{ACAD_REACTORS
330
48D
102
}
330
48D
100
AcDbXrecord
280
     1
102
RTVSPropertyOp0
 70
     1
102
RTVSPropertyOp1
 70
     1
102
RTVSPropertyOp2
 70
     1
102
RTVSPropertyOp3
 70
     1
102
RTVSPropertyOp4
 70
     1
102
RTVSPropertyOp5
 70
     1
102
RTVSPropertyOp6
 70
     1
102
RTVSPropertyOp7
 70
     1
102
RTVSPropertyOp8
 70
     1
102
RTVSPropertyOp9
 70
     1
102
RTVSPropertyOp10
 70
     1
102
RTVSPropertyOp11
 70
     1
102
RTVSPropertyOp12
 70
     1
102
RTVSPropertyOp13
 70
     1
102
RTVSPropertyOp14
 70
     1
102
RTVSPropertyOp15
 70
     1
102
RTVSPropertyOp16
 70
     1
102
RTVSPropertyOp17
 70
     1
102
RTVSPropertyOp18
 70
     1
102
RTVSPropertyOp19
 70
     1
102
RTVSPropertyOp20
 70
     1
102
RTVSPropertyOp21
 70
     1
102
RTVSPropertyOp22
 70
     1
102
RTVSPropertyOp23
 70
     1
102
RTVSPropertyOp24
 70
     1
102
RTVSPropertyOp25
 70
     1
102
RTVSPropertyOp26
 70
     1
102
RTVSPropertyOp27
 70
     1
102
RTVSPropertyOp28
 70
     1
102
RTVSPropertyOp29
 70
     1
102
RTVSPropertyOp30
 70
     1
102
RTVSPropertyOp31
 70
     1
102
RTVSPropertyOp32
 70
     1
102
RTVSPropertyOp33
 70
     1
102
RTVSPropertyOp34
 70
     1
102
RTVSPropertyOp35
 70
     1
102
RTVSPropertyOp36
 70
     1
102
RTVSPropertyOp37
 70
     1
102
RTVSPropertyOp38
 70
     1
102
RTVSPropertyOp39
 70
     1
102
RTVSPropertyOp40
 70
     1
102
RTVSPropertyOp41
 70
     1
102
RTVSPropertyOp42
 70
     1
102
RTVSPropertyOp43
 70
     1
102
RTVSPropertyOp44
 70
     1
102
RTVSPropertyOp45
 70
     1
102
RTVSPropertyOp46
 70
     1
102
RTVSPropertyOp47
 70
     1
102
RTVSPropertyOp48
 70
     1
102
RTVSPropertyOp49
 70
     1
102
RTVSPropertyOp50
 70
     1
102
RTVSPropertyOp51
 70
     0
102
RTVSPropertyOp52
 70
     0
102
RTVSPropertyOp53
 70
     1
102
RTVSPropertyOp54
 70
     1
102
RTVSPropertyOp55
 70
     1
102
RTVSPropertyOp56
 70
     1
102
RTVSPropertyOp57
 70
     1
102
RTVSPost2010Prop28
280
     0
102
RTVSPost2010PropOp28
 70
     1
102
RTVSPost2010Prop29
280
     1
102
RTVSPost2010PropOp29
 70
     1
102
RTVSPost2010Prop30
280
     1
102
RTVSPost2010PropOp30
 70
     1
102
RTVSPost2010Prop31
280
     0
102
RTVSPost2010PropOp31
 70
     1
102
RTVSPost2010Prop32
280
     0
102
RTVSPost2010PropOp32
 70
     1
102
RTVSPost2010Prop33
280
     0
102
RTVSPost2010PropOp33
 70
     1
102
RTVSPost2010Prop34
280
     0
102
RTVSPost2010PropOp34
 70
     1
102
RTVSPost2010Prop35
280
     0
102
RTVSPost2010PropOp35
 70
     1
102
RTVSPost2010Prop36
280
     0
102
RTVSPost2010PropOp36
 70
     1
102
RTVSPost2010Prop37
 90
       50
102
RTVSPost2010PropOp37
 70
     1
102
RTVSPost2010Prop38
140
0.0
102
RTVSPost2010PropOp38
 70
     1
102
RTVSPost2010Prop39
140
1.0
102
RTVSPost2010PropOp39
 70
     1
102
RTVSPost2010Prop40
 90
        0
102
RTVSPost2010PropOp40
 70
     1
102
RTVSPost2010Prop41ColorIndex
 90
       18
102
RTVSPost2010Prop41ColorRGB
 90
        0
102
RTVSPost2010PropOp41
 70
     1
102
RTVSPost2010Prop42
 90
       50
102
RTVSPost2010PropOp42
 70
     1
102
RTVSPost2010Prop43
 90
        3
102
RTVSPost2010PropOp43
 70
     1
102
RTVSPost2010Prop44ColorIndex
 90
        5
102
RTVSPost2010Prop44ColorRGB
 90
      255
102
RTVSPost2010PropOp44
 70
     1
102
RTVSPost2010Prop45
280
     0
102
RTVSPost2010PropOp45
 70
     1
102
RTVSPost2010Prop46
 90
       50
102
RTVSPost2010PropOp46
 70
     1
102
RTVSPost2010Prop47
 90
       50
102
RTVSPost2010PropOp47
 70
     1
102
RTVSPost2010Prop48
 90
       50
102
RTVSPost2010PropOp48
 70
     1
102
RTVSPost2010Prop49
280
     0
102
RTVSPost2010PropOp49
 70
     1
102
RTVSPost2010Prop50
 90
       50
102
RTVSPost2010PropOp50
 70
     1
102
RTVSPost2010Prop51ColorIndex
 90
      256
102
RTVSPost2010Prop51ColorRGB
 90
-16777216
102
RTVSPost2010PropOp51
 70
     0
102
RTVSPost2010Prop52
140
1.0
102
RTVSPost2010PropOp52
 70
     0
102
RTVSPost2010Prop53
 90
        2
102
RTVSPost2010PropOp53
 70
     1
102
RTVSPost2010Prop54
  1
strokes_ogs.tif
102
RTVSPost2010PropOp54
 70
     1
102
RTVSPost2010Prop55
280
     0
102
RTVSPost2010PropOp55
 70
     1
102
RTVSPost2010Prop56
140
1.0
102
RTVSPost2010PropOp56
 70
     1
102
RTVSPost2010Prop57
140
1.0
102
RTVSPost2010PropOp57
 70
     1
  0
XRECORD
  5
4A2
102
{ACAD_REACTORS
330
4A1
102
}
330
4A1
100
AcDbXrecord
280
     1
102
RTVSPropertyOp0
 70
     0
102
RTVSPropertyOp1
 70
     0
102
RTVSPropertyOp2
 70
     0
102
RTVSPropertyOp3
 70
     0
102
RTVSPropertyOp4
 70
     0
102
RTVSPropertyOp5
 70
     0
102
RTVSPropertyOp6
 70
     0
102
RTVSPropertyOp7
 70
     0
102
RTVSPropertyOp8
 70
     0
102
RTVSPropertyOp9
 70
     0
102
RTVSPropertyOp10
 70
     0
102
RTVSPropertyOp11
 70
     0
102
RTVSPropertyOp12
 70
     0
102
RTVSPropertyOp13
 70
     0
102
RTVSPropertyOp14
 70
     2
102
RTVSPropertyOp15
 70
     0
102
RTVSPropertyOp16
 70
     0
102
RTVSPropertyOp17
 70
     0
102
RTVSPropertyOp18
 70
     0
102
RTVSPropertyOp19
 70
     0
102
RTVSPropertyOp20
 70
     0
102
RTVSPropertyOp21
 70
     0
102
RTVSPropertyOp22
 70
     0
102
RTVSPropertyOp23
 70
     0
102
RTVSPropertyOp24
 70
     0
102
RTVSPropertyOp25
 70
     0
102
RTVSPropertyOp26
 70
     0
102
RTVSPropertyOp27
 70
     0
102
RTVSPropertyOp28
 70
     0
102
RTVSPropertyOp29
 70
     0
102
RTVSPropertyOp30
 70
     0
102
RTVSPropertyOp31
 70
     0
102
RTVSPropertyOp32
 70
     0
102
RTVSPropertyOp33
 70
     0
102
RTVSPropertyOp34
 70
     0
102
RTVSPropertyOp35
 70
     0
102
RTVSPropertyOp36
 70
     0
102
RTVSPropertyOp37
 70
     0
102
RTVSPropertyOp38
 70
     0
102
RTVSPropertyOp39
 70
     0
102
RTVSPropertyOp40
 70
     0
102
RTVSPropertyOp41
 70
     0
102
RTVSPropertyOp42
 70
     0
102
RTVSPropertyOp43
 70
     0
102
RTVSPropertyOp44
 70
     0
102
RTVSPropertyOp45
 70
     0
102
RTVSPropertyOp46
 70
     0
102
RTVSPropertyOp47
 70
     0
102
RTVSPropertyOp48
 70
     0
102
RTVSPropertyOp49
 70
     0
102
RTVSPropertyOp50
 70
     0
102
RTVSPropertyOp51
 70
     0
102
RTVSPropertyOp52
 70
     0
102
RTVSPropertyOp53
 70
     0
102
RTVSPropertyOp54
 70
     0
102
RTVSPropertyOp55
 70
     0
102
RTVSPropertyOp56
 70
     0
102
RTVSPropertyOp57
 70
     0
102
RTVSPost2010Prop28
280
     0
102
RTVSPost2010PropOp28
 70
     0
102
RTVSPost2010Prop29
280
     1
102
RTVSPost2010PropOp29
 70
     0
102
RTVSPost2010Prop30
280
     1
102
RTVSPost2010PropOp30
 70
     0
102
RTVSPost2010Prop31
280
     0
102
RTVSPost2010PropOp31
 70
     0
102
RTVSPost2010Prop32
280
     0
102
RTVSPost2010PropOp32
 70
     0
102
RTVSPost2010Prop33
280
     0
102
RTVSPost2010PropOp33
 70
     0
102
RTVSPost2010Prop34
280
     0
102
RTVSPost2010PropOp34
 70
     0
102
RTVSPost2010Prop35
280
     0
102
RTVSPost2010PropOp35
 70
     0
102
RTVSPost2010Prop36
280
     0
102
RTVSPost2010PropOp36
 70
     0
102
RTVSPost2010Prop37
 90
       50
102
RTVSPost2010PropOp37
 70
     0
102
RTVSPost2010Prop38
140
0.0
102
RTVSPost2010PropOp38
 70
     0
102
RTVSPost2010Prop39
140
1.0
102
RTVSPost2010PropOp39
 70
     0
102
RTVSPost2010Prop40
 90
        0
102
RTVSPost2010PropOp40
 70
     0
102
RTVSPost2010Prop41ColorIndex
 90
       18
102
RTVSPost2010Prop41ColorRGB
 90
        0
102
RTVSPost2010PropOp41
 70
     0
102
RTVSPost2010Prop42
 90
       50
102
RTVSPost2010PropOp42
 70
     0
102
RTVSPost2010Prop43
 90
        3
102
RTVSPost2010PropOp43
 70
     0
102
RTVSPost2010Prop44ColorIndex
 90
        5
102
RTVSPost2010Prop44ColorRGB
 90
      255
102
RTVSPost2010PropOp44
 70
     0
102
RTVSPost2010Prop45
280
     0
102
RTVSPost2010PropOp45
 70
     0
102
RTVSPost2010Prop46
 90
       50
102
RTVSPost2010PropOp46
 70
     0
102
RTVSPost2010Prop47
 90
       50
102
RTVSPost2010PropOp47
 70
     0
102
RTVSPost2010Prop48
 90
       50
102
RTVSPost2010PropOp48
 70
     0
102
RTVSPost2010Prop49
280
     0
102
RTVSPost2010PropOp49
 70
     0
102
RTVSPost2010Prop50
 90
       50
102
RTVSPost2010PropOp50
 70
     0
102
RTVSPost2010Prop51ColorIndex
 90
      256
102
RTVSPost2010Prop51ColorRGB
 90
-16777216
102
RTVSPost2010PropOp51
 70
     0
102
RTVSPost2010Prop52
140
1.0
102
RTVSPost2010PropOp52
 70
     0
102
RTVSPost2010Prop53
 90
        2
102
RTVSPost2010PropOp53
 70
     0
102
RTVSPost2010Prop54
  1
strokes_ogs.tif
102
RTVSPost2010PropOp54
 70
     0
102
RTVSPost2010Prop55
280
     0
102
RTVSPost2010PropOp55
 70
     0
102
RTVSPost2010Prop56
140
1.0
102
RTVSPost2010PropOp56
 70
     0
102
RTVSPost2010Prop57
140
1.0
102
RTVSPost2010PropOp57
 70
     0
  0
XRECORD
  5
49C
102
{ACAD_REACTORS
330
49B
102
}
330
49B
100
AcDbXrecord
280
     1
102
RTVSPropertyOp0
 70
     1
102
RTVSPropertyOp1
 70
     1
102
RTVSPropertyOp2
 70
     1
102
RTVSPropertyOp3
 70
     1
102
RTVSPropertyOp4
 70
     1
102
RTVSPropertyOp5
 70
     1
102
RTVSPropertyOp6
 70
     1
102
RTVSPropertyOp7
 70
     1
102
RTVSPropertyOp8
 70
     1
102
RTVSPropertyOp9
 70
     1
102
RTVSPropertyOp10
 70
     1
102
RTVSPropertyOp11
 70
     1
102
RTVSPropertyOp12
 70
     1
102
RTVSPropertyOp13
 70
     1
102
RTVSPropertyOp14
 70
     1
102
RTVSPropertyOp15
 70
     1
102
RTVSPropertyOp16
 70
     1
102
RTVSPropertyOp17
 70
     1
102
RTVSPropertyOp18
 70
     1
102
RTVSPropertyOp19
 70
     1
102
RTVSPropertyOp20
 70
     1
102
RTVSPropertyOp21
 70
     1
102
RTVSPropertyOp22
 70
     1
102
RTVSPropertyOp23
 70
     1
102
RTVSPropertyOp24
 70
     1
102
RTVSPropertyOp25
 70
     1
102
RTVSPropertyOp26
 70
     1
102
RTVSPropertyOp27
 70
     1
102
RTVSPropertyOp28
 70
     1
102
RTVSPropertyOp29
 70
     1
102
RTVSPropertyOp30
 70
     1
102
RTVSPropertyOp31
 70
     1
102
RTVSPropertyOp32
 70
     1
102
RTVSPropertyOp33
 70
     1
102
RTVSPropertyOp34
 70
     1
102
RTVSPropertyOp35
 70
     1
102
RTVSPropertyOp36
 70
     1
102
RTVSPropertyOp37
 70
     1
102
RTVSPropertyOp38
 70
     1
102
RTVSPropertyOp39
 70
     1
102
RTVSPropertyOp40
 70
     1
102
RTVSPropertyOp41
 70
     1
102
RTVSPropertyOp42
 70
     1
102
RTVSPropertyOp43
 70
     1
102
RTVSPropertyOp44
 70
     1
102
RTVSPropertyOp45
 70
     1
102
RTVSPropertyOp46
 70
     1
102
RTVSPropertyOp47
 70
     1
102
RTVSPropertyOp48
 70
     1
102
RTVSPropertyOp49
 70
     1
102
RTVSPropertyOp50
 70
     1
102
RTVSPropertyOp51
 70
     0
102
RTVSPropertyOp52
 70
     0
102
RTVSPropertyOp53
 70
     1
102
RTVSPropertyOp54
 70
     1
102
RTVSPropertyOp55
 70
     1
102
RTVSPropertyOp56
 70
     1
102
RTVSPropertyOp57
 70
     1
102
RTVSPost2010Prop28
280
     0
102
RTVSPost2010PropOp28
 70
     1
102
RTVSPost2010Prop29
280
     1
102
RTVSPost2010PropOp29
 70
     1
102
RTVSPost2010Prop30
280
     1
102
RTVSPost2010PropOp30
 70
     1
102
RTVSPost2010Prop31
280
     0
102
RTVSPost2010PropOp31
 70
     1
102
RTVSPost2010Prop32
280
     0
102
RTVSPost2010PropOp32
 70
     1
102
RTVSPost2010Prop33
280
     0
102
RTVSPost2010PropOp33
 70
     1
102
RTVSPost2010Prop34
280
     0
102
RTVSPost2010PropOp34
 70
     1
102
RTVSPost2010Prop35
280
     0
102
RTVSPost2010PropOp35
 70
     1
102
RTVSPost2010Prop36
280
     0
102
RTVSPost2010PropOp36
 70
     1
102
RTVSPost2010Prop37
 90
       50
102
RTVSPost2010PropOp37
 70
     1
102
RTVSPost2010Prop38
140
0.0
102
RTVSPost2010PropOp38
 70
     1
102
RTVSPost2010Prop39
140
1.0
102
RTVSPost2010PropOp39
 70
     1
102
RTVSPost2010Prop40
 90
        0
102
RTVSPost2010PropOp40
 70
     1
102
RTVSPost2010Prop41ColorIndex
 90
       18
102
RTVSPost2010Prop41ColorRGB
 90
        0
102
RTVSPost2010PropOp41
 70
     1
102
RTVSPost2010Prop42
 90
       50
102
RTVSPost2010PropOp42
 70
     1
102
RTVSPost2010Prop43
 90
        3
102
RTVSPost2010PropOp43
 70
     1
102
RTVSPost2010Prop44ColorIndex
 90
        5
102
RTVSPost2010Prop44ColorRGB
 90
      255
102
RTVSPost2010PropOp44
 70
     1
102
RTVSPost2010Prop45
280
     0
102
RTVSPost2010PropOp45
 70
     1
102
RTVSPost2010Prop46
 90
       50
102
RTVSPost2010PropOp46
 70
     1
102
RTVSPost2010Prop47
 90
       50
102
RTVSPost2010PropOp47
 70
     1
102
RTVSPost2010Prop48
 90
       50
102
RTVSPost2010PropOp48
 70
     1
102
RTVSPost2010Prop49
280
     0
102
RTVSPost2010PropOp49
 70
     1
102
RTVSPost2010Prop50
 90
       50
102
RTVSPost2010PropOp50
 70
     1
102
RTVSPost2010Prop51ColorIndex
 90
      256
102
RTVSPost2010Prop51ColorRGB
 90
-16777216
102
RTVSPost2010PropOp51
 70
     0
102
RTVSPost2010Prop52
140
1.0
102
RTVSPost2010PropOp52
 70
     0
102
RTVSPost2010Prop53
 90
        2
102
RTVSPost2010PropOp53
 70
     1
102
RTVSPost2010Prop54
  1
strokes_ogs.tif
102
RTVSPost2010PropOp54
 70
     1
102
RTVSPost2010Prop55
280
     0
102
RTVSPost2010PropOp55
 70
     1
102
RTVSPost2010Prop56
140
1.0
102
RTVSPost2010PropOp56
 70
     1
102
RTVSPost2010Prop57
140
1.0
102
RTVSPost2010PropOp57
 70
     1
  0
XRECORD
  5
4A4
102
{ACAD_REACTORS
330
4A3
102
}
330
4A3
100
AcDbXrecord
280
     1
102
RTVSPropertyOp0
 70
     0
102
RTVSPropertyOp1
 70
     0
102
RTVSPropertyOp2
 70
     0
102
RTVSPropertyOp3
 70
     0
102
RTVSPropertyOp4
 70
     0
102
RTVSPropertyOp5
 70
     0
102
RTVSPropertyOp6
 70
     0
102
RTVSPropertyOp7
 70
     0
102
RTVSPropertyOp8
 70
     0
102
RTVSPropertyOp9
 70
     0
102
RTVSPropertyOp10
 70
     0
102
RTVSPropertyOp11
 70
     0
102
RTVSPropertyOp12
 70
     0
102
RTVSPropertyOp13
 70
     0
102
RTVSPropertyOp14
 70
     2
102
RTVSPropertyOp15
 70
     0
102
RTVSPropertyOp16
 70
     0
102
RTVSPropertyOp17
 70
     0
102
RTVSPropertyOp18
 70
     0
102
RTVSPropertyOp19
 70
     0
102
RTVSPropertyOp20
 70
     0
102
RTVSPropertyOp21
 70
     0
102
RTVSPropertyOp22
 70
     0
102
RTVSPropertyOp23
 70
     0
102
RTVSPropertyOp24
 70
     0
102
RTVSPropertyOp25
 70
     0
102
RTVSPropertyOp26
 70
     0
102
RTVSPropertyOp27
 70
     0
102
RTVSPropertyOp28
 70
     0
102
RTVSPropertyOp29
 70
     0
102
RTVSPropertyOp30
 70
     0
102
RTVSPropertyOp31
 70
     0
102
RTVSPropertyOp32
 70
     0
102
RTVSPropertyOp33
 70
     0
102
RTVSPropertyOp34
 70
     0
102
RTVSPropertyOp35
 70
     0
102
RTVSPropertyOp36
 70
     0
102
RTVSPropertyOp37
 70
     0
102
RTVSPropertyOp38
 70
     0
102
RTVSPropertyOp39
 70
     0
102
RTVSPropertyOp40
 70
     0
102
RTVSPropertyOp41
 70
     0
102
RTVSPropertyOp42
 70
     0
102
RTVSPropertyOp43
 70
     0
102
RTVSPropertyOp44
 70
     0
102
RTVSPropertyOp45
 70
     0
102
RTVSPropertyOp46
 70
     0
102
RTVSPropertyOp47
 70
     0
102
RTVSPropertyOp48
 70
     0
102
RTVSPropertyOp49
 70
     0
102
RTVSPropertyOp50
 70
     0
102
RTVSPropertyOp51
 70
     0
102
RTVSPropertyOp52
 70
     0
102
RTVSPropertyOp53
 70
     0
102
RTVSPropertyOp54
 70
     0
102
RTVSPropertyOp55
 70
     0
102
RTVSPropertyOp56
 70
     0
102
RTVSPropertyOp57
 70
     0
102
RTVSPost2010Prop28
280
     0
102
RTVSPost2010PropOp28
 70
     0
102
RTVSPost2010Prop29
280
     1
102
RTVSPost2010PropOp29
 70
     0
102
RTVSPost2010Prop30
280
     1
102
RTVSPost2010PropOp30
 70
     0
102
RTVSPost2010Prop31
280
     0
102
RTVSPost2010PropOp31
 70
     0
102
RTVSPost2010Prop32
280
     0
102
RTVSPost2010PropOp32
 70
     0
102
RTVSPost2010Prop33
280
     0
102
RTVSPost2010PropOp33
 70
     0
102
RTVSPost2010Prop34
280
     0
102
RTVSPost2010PropOp34
 70
     0
102
RTVSPost2010Prop35
280
     0
102
RTVSPost2010PropOp35
 70
     0
102
RTVSPost2010Prop36
280
     0
102
RTVSPost2010PropOp36
 70
     0
102
RTVSPost2010Prop37
 90
       50
102
RTVSPost2010PropOp37
 70
     0
102
RTVSPost2010Prop38
140
0.0
102
RTVSPost2010PropOp38
 70
     0
102
RTVSPost2010Prop39
140
1.0
102
RTVSPost2010PropOp39
 70
     0
102
RTVSPost2010Prop40
 90
        0
102
RTVSPost2010PropOp40
 70
     0
102
RTVSPost2010Prop41ColorIndex
 90
       18
102
RTVSPost2010Prop41ColorRGB
 90
        0
102
RTVSPost2010PropOp41
 70
     0
102
RTVSPost2010Prop42
 90
       50
102
RTVSPost2010PropOp42
 70
     0
102
RTVSPost2010Prop43
 90
        3
102
RTVSPost2010PropOp43
 70
     0
102
RTVSPost2010Prop44ColorIndex
 90
        5
102
RTVSPost2010Prop44ColorRGB
 90
      255
102
RTVSPost2010PropOp44
 70
     0
102
RTVSPost2010Prop45
280
     0
102
RTVSPost2010PropOp45
 70
     0
102
RTVSPost2010Prop46
 90
       50
102
RTVSPost2010PropOp46
 70
     0
102
RTVSPost2010Prop47
 90
       50
102
RTVSPost2010PropOp47
 70
     0
102
RTVSPost2010Prop48
 90
       50
102
RTVSPost2010PropOp48
 70
     0
102
RTVSPost2010Prop49
280
     0
102
RTVSPost2010PropOp49
 70
     0
102
RTVSPost2010Prop50
 90
       50
102
RTVSPost2010PropOp50
 70
     0
102
RTVSPost2010Prop51ColorIndex
 90
      256
102
RTVSPost2010Prop51ColorRGB
 90
-16777216
102
RTVSPost2010PropOp51
 70
     0
102
RTVSPost2010Prop52
140
1.0
102
RTVSPost2010PropOp52
 70
     0
102
RTVSPost2010Prop53
 90
        2
102
RTVSPost2010PropOp53
 70
     0
102
RTVSPost2010Prop54
  1
strokes_ogs.tif
102
RTVSPost2010PropOp54
 70
     0
102
RTVSPost2010Prop55
280
     0
102
RTVSPost2010PropOp55
 70
     0
102
RTVSPost2010Prop56
140
1.0
102
RTVSPost2010PropOp56
 70
     0
102
RTVSPost2010Prop57
140
1.0
102
RTVSPost2010PropOp57
 70
     0
  0
XRECORD
  5
492
102
{ACAD_REACTORS
330
491
102
}
330
491
100
AcDbXrecord
280
     1
102
RTVSPropertyOp0
 70
     1
102
RTVSPropertyOp1
 70
     1
102
RTVSPropertyOp2
 70
     1
102
RTVSPropertyOp3
 70
     1
102
RTVSPropertyOp4
 70
     1
102
RTVSPropertyOp5
 70
     1
102
RTVSPropertyOp6
 70
     1
102
RTVSPropertyOp7
 70
     1
102
RTVSPropertyOp8
 70
     1
102
RTVSPropertyOp9
 70
     1
102
RTVSPropertyOp10
 70
     1
102
RTVSPropertyOp11
 70
     1
102
RTVSPropertyOp12
 70
     1
102
RTVSPropertyOp13
 70
     1
102
RTVSPropertyOp14
 70
     1
102
RTVSPropertyOp15
 70
     1
102
RTVSPropertyOp16
 70
     1
102
RTVSPropertyOp17
 70
     1
102
RTVSPropertyOp18
 70
     1
102
RTVSPropertyOp19
 70
     1
102
RTVSPropertyOp20
 70
     1
102
RTVSPropertyOp21
 70
     1
102
RTVSPropertyOp22
 70
     1
102
RTVSPropertyOp23
 70
     1
102
RTVSPropertyOp24
 70
     1
102
RTVSPropertyOp25
 70
     1
102
RTVSPropertyOp26
 70
     1
102
RTVSPropertyOp27
 70
     1
102
RTVSPropertyOp28
 70
     1
102
RTVSPropertyOp29
 70
     1
102
RTVSPropertyOp30
 70
     1
102
RTVSPropertyOp31
 70
     1
102
RTVSPropertyOp32
 70
     1
102
RTVSPropertyOp33
 70
     1
102
RTVSPropertyOp34
 70
     1
102
RTVSPropertyOp35
 70
     1
102
RTVSPropertyOp36
 70
     1
102
RTVSPropertyOp37
 70
     1
102
RTVSPropertyOp38
 70
     1
102
RTVSPropertyOp39
 70
     1
102
RTVSPropertyOp40
 70
     1
102
RTVSPropertyOp41
 70
     1
102
RTVSPropertyOp42
 70
     1
102
RTVSPropertyOp43
 70
     1
102
RTVSPropertyOp44
 70
     1
102
RTVSPropertyOp45
 70
     1
102
RTVSPropertyOp46
 70
     1
102
RTVSPropertyOp47
 70
     1
102
RTVSPropertyOp48
 70
     1
102
RTVSPropertyOp49
 70
     1
102
RTVSPropertyOp50
 70
     1
102
RTVSPropertyOp51
 70
     0
102
RTVSPropertyOp52
 70
     0
102
RTVSPropertyOp53
 70
     1
102
RTVSPropertyOp54
 70
     1
102
RTVSPropertyOp55
 70
     1
102
RTVSPropertyOp56
 70
     1
102
RTVSPropertyOp57
 70
     1
102
RTVSPost2010Prop28
280
     0
102
RTVSPost2010PropOp28
 70
     1
102
RTVSPost2010Prop29
280
     1
102
RTVSPost2010PropOp29
 70
     1
102
RTVSPost2010Prop30
280
     1
102
RTVSPost2010PropOp30
 70
     1
102
RTVSPost2010Prop31
280
     0
102
RTVSPost2010PropOp31
 70
     1
102
RTVSPost2010Prop32
280
     0
102
RTVSPost2010PropOp32
 70
     1
102
RTVSPost2010Prop33
280
     0
102
RTVSPost2010PropOp33
 70
     1
102
RTVSPost2010Prop34
280
     0
102
RTVSPost2010PropOp34
 70
     1
102
RTVSPost2010Prop35
280
     0
102
RTVSPost2010PropOp35
 70
     1
102
RTVSPost2010Prop36
280
     0
102
RTVSPost2010PropOp36
 70
     1
102
RTVSPost2010Prop37
 90
       50
102
RTVSPost2010PropOp37
 70
     1
102
RTVSPost2010Prop38
140
0.0
102
RTVSPost2010PropOp38
 70
     1
102
RTVSPost2010Prop39
140
1.0
102
RTVSPost2010PropOp39
 70
     1
102
RTVSPost2010Prop40
 90
        0
102
RTVSPost2010PropOp40
 70
     1
102
RTVSPost2010Prop41ColorIndex
 90
       18
102
RTVSPost2010Prop41ColorRGB
 90
        0
102
RTVSPost2010PropOp41
 70
     1
102
RTVSPost2010Prop42
 90
       50
102
RTVSPost2010PropOp42
 70
     1
102
RTVSPost2010Prop43
 90
        3
102
RTVSPost2010PropOp43
 70
     1
102
RTVSPost2010Prop44ColorIndex
 90
        5
102
RTVSPost2010Prop44ColorRGB
 90
      255
102
RTVSPost2010PropOp44
 70
     1
102
RTVSPost2010Prop45
280
     0
102
RTVSPost2010PropOp45
 70
     1
102
RTVSPost2010Prop46
 90
       50
102
RTVSPost2010PropOp46
 70
     1
102
RTVSPost2010Prop47
 90
       50
102
RTVSPost2010PropOp47
 70
     1
102
RTVSPost2010Prop48
 90
       50
102
RTVSPost2010PropOp48
 70
     1
102
RTVSPost2010Prop49
280
     0
102
RTVSPost2010PropOp49
 70
     1
102
RTVSPost2010Prop50
 90
       50
102
RTVSPost2010PropOp50
 70
     1
102
RTVSPost2010Prop51ColorIndex
 90
      256
102
RTVSPost2010Prop51ColorRGB
 90
-16777216
102
RTVSPost2010PropOp51
 70
     0
102
RTVSPost2010Prop52
140
1.0
102
RTVSPost2010PropOp52
 70
     0
102
RTVSPost2010Prop53
 90
        2
102
RTVSPost2010PropOp53
 70
     1
102
RTVSPost2010Prop54
  1
strokes_ogs.tif
102
RTVSPost2010PropOp54
 70
     1
102
RTVSPost2010Prop55
280
     0
102
RTVSPost2010PropOp55
 70
     1
102
RTVSPost2010Prop56
140
1.0
102
RTVSPost2010PropOp56
 70
     1
102
RTVSPost2010Prop57
140
1.0
102
RTVSPost2010PropOp57
 70
     1
  0
XRECORD
  5
4B0
102
{ACAD_REACTORS
330
4AF
102
}
330
4AF
100
AcDbXrecord
280
     1
102
RTVSPropertyOp0
 70
     1
102
RTVSPropertyOp1
 70
     1
102
RTVSPropertyOp2
 70
     1
102
RTVSPropertyOp3
 70
     1
102
RTVSPropertyOp4
 70
     1
102
RTVSPropertyOp5
 70
     1
102
RTVSPropertyOp6
 70
     1
102
RTVSPropertyOp7
 70
     1
102
RTVSPropertyOp8
 70
     1
102
RTVSPropertyOp9
 70
     1
102
RTVSPropertyOp10
 70
     1
102
RTVSPropertyOp11
 70
     1
102
RTVSPropertyOp12
 70
     1
102
RTVSPropertyOp13
 70
     1
102
RTVSPropertyOp14
 70
     1
102
RTVSPropertyOp15
 70
     1
102
RTVSPropertyOp16
 70
     1
102
RTVSPropertyOp17
 70
     1
102
RTVSPropertyOp18
 70
     1
102
RTVSPropertyOp19
 70
     1
102
RTVSPropertyOp20
 70
     1
102
RTVSPropertyOp21
 70
     1
102
RTVSPropertyOp22
 70
     1
102
RTVSPropertyOp23
 70
     1
102
RTVSPropertyOp24
 70
     1
102
RTVSPropertyOp25
 70
     1
102
RTVSPropertyOp26
 70
     1
102
RTVSPropertyOp27
 70
     1
102
RTVSPropertyOp28
 70
     1
102
RTVSPropertyOp29
 70
     1
102
RTVSPropertyOp30
 70
     1
102
RTVSPropertyOp31
 70
     1
102
RTVSPropertyOp32
 70
     1
102
RTVSPropertyOp33
 70
     1
102
RTVSPropertyOp34
 70
     1
102
RTVSPropertyOp35
 70
     1
102
RTVSPropertyOp36
 70
     1
102
RTVSPropertyOp37
 70
     1
102
RTVSPropertyOp38
 70
     1
102
RTVSPropertyOp39
 70
     1
102
RTVSPropertyOp40
 70
     1
102
RTVSPropertyOp41
 70
     1
102
RTVSPropertyOp42
 70
     1
102
RTVSPropertyOp43
 70
     1
102
RTVSPropertyOp44
 70
     1
102
RTVSPropertyOp45
 70
     1
102
RTVSPropertyOp46
 70
     1
102
RTVSPropertyOp47
 70
     1
102
RTVSPropertyOp48
 70
     1
102
RTVSPropertyOp49
 70
     1
102
RTVSPropertyOp50
 70
     1
102
RTVSPropertyOp51
 70
     0
102
RTVSPropertyOp52
 70
     0
102
RTVSPropertyOp53
 70
     1
102
RTVSPropertyOp54
 70
     1
102
RTVSPropertyOp55
 70
     1
102
RTVSPropertyOp56
 70
     1
102
RTVSPropertyOp57
 70
     1
102
RTVSPost2010Prop28
280
     0
102
RTVSPost2010PropOp28
 70
     1
102
RTVSPost2010Prop29
280
     1
102
RTVSPost2010PropOp29
 70
     1
102
RTVSPost2010Prop30
280
     1
102
RTVSPost2010PropOp30
 70
     1
102
RTVSPost2010Prop31
280
     0
102
RTVSPost2010PropOp31
 70
     1
102
RTVSPost2010Prop32
280
     0
102
RTVSPost2010PropOp32
 70
     1
102
RTVSPost2010Prop33
280
     0
102
RTVSPost2010PropOp33
 70
     1
102
RTVSPost2010Prop34
280
     0
102
RTVSPost2010PropOp34
 70
     1
102
RTVSPost2010Prop35
280
     0
102
RTVSPost2010PropOp35
 70
     1
102
RTVSPost2010Prop36
280
     0
102
RTVSPost2010PropOp36
 70
     1
102
RTVSPost2010Prop37
 90
       50
102
RTVSPost2010PropOp37
 70
     1
102
RTVSPost2010Prop38
140
0.0
102
RTVSPost2010PropOp38
 70
     1
102
RTVSPost2010Prop39
140
1.0
102
RTVSPost2010PropOp39
 70
     1
102
RTVSPost2010Prop40
 90
        0
102
RTVSPost2010PropOp40
 70
     1
102
RTVSPost2010Prop41ColorIndex
 90
       18
102
RTVSPost2010Prop41ColorRGB
 90
        0
102
RTVSPost2010PropOp41
 70
     1
102
RTVSPost2010Prop42
 90
       50
102
RTVSPost2010PropOp42
 70
     1
102
RTVSPost2010Prop43
 90
        3
102
RTVSPost2010PropOp43
 70
     1
102
RTVSPost2010Prop44ColorIndex
 90
        5
102
RTVSPost2010Prop44ColorRGB
 90
      255
102
RTVSPost2010PropOp44
 70
     1
102
RTVSPost2010Prop45
280
     0
102
RTVSPost2010PropOp45
 70
     1
102
RTVSPost2010Prop46
 90
       50
102
RTVSPost2010PropOp46
 70
     1
102
RTVSPost2010Prop47
 90
       50
102
RTVSPost2010PropOp47
 70
     1
102
RTVSPost2010Prop48
 90
       50
102
RTVSPost2010PropOp48
 70
     1
102
RTVSPost2010Prop49
280
     0
102
RTVSPost2010PropOp49
 70
     1
102
RTVSPost2010Prop50
 90
       50
102
RTVSPost2010PropOp50
 70
     1
102
RTVSPost2010Prop51ColorIndex
 90
      256
102
RTVSPost2010Prop51ColorRGB
 90
-16777216
102
RTVSPost2010PropOp51
 70
     0
102
RTVSPost2010Prop52
140
1.0
102
RTVSPost2010PropOp52
 70
     0
102
RTVSPost2010Prop53
 90
        2
102
RTVSPost2010PropOp53
 70
     1
102
RTVSPost2010Prop54
  1
strokes_ogs.tif
102
RTVSPost2010PropOp54
 70
     1
102
RTVSPost2010Prop55
280
     0
102
RTVSPost2010PropOp55
 70
     1
102
RTVSPost2010Prop56
140
1.0
102
RTVSPost2010PropOp56
 70
     1
102
RTVSPost2010Prop57
140
1.0
102
RTVSPost2010PropOp57
 70
     1
  0
XRECORD
  5
4AE
102
{ACAD_REACTORS
330
4AD
102
}
330
4AD
100
AcDbXrecord
280
     1
102
RTVSPropertyOp0
 70
     1
102
RTVSPropertyOp1
 70
     1
102
RTVSPropertyOp2
 70
     1
102
RTVSPropertyOp3
 70
     1
102
RTVSPropertyOp4
 70
     1
102
RTVSPropertyOp5
 70
     1
102
RTVSPropertyOp6
 70
     1
102
RTVSPropertyOp7
 70
     1
102
RTVSPropertyOp8
 70
     1
102
RTVSPropertyOp9
 70
     1
102
RTVSPropertyOp10
 70
     1
102
RTVSPropertyOp11
 70
     1
102
RTVSPropertyOp12
 70
     1
102
RTVSPropertyOp13
 70
     1
102
RTVSPropertyOp14
 70
     1
102
RTVSPropertyOp15
 70
     1
102
RTVSPropertyOp16
 70
     1
102
RTVSPropertyOp17
 70
     1
102
RTVSPropertyOp18
 70
     1
102
RTVSPropertyOp19
 70
     1
102
RTVSPropertyOp20
 70
     1
102
RTVSPropertyOp21
 70
     1
102
RTVSPropertyOp22
 70
     1
102
RTVSPropertyOp23
 70
     1
102
RTVSPropertyOp24
 70
     1
102
RTVSPropertyOp25
 70
     1
102
RTVSPropertyOp26
 70
     1
102
RTVSPropertyOp27
 70
     1
102
RTVSPropertyOp28
 70
     1
102
RTVSPropertyOp29
 70
     1
102
RTVSPropertyOp30
 70
     1
102
RTVSPropertyOp31
 70
     1
102
RTVSPropertyOp32
 70
     1
102
RTVSPropertyOp33
 70
     1
102
RTVSPropertyOp34
 70
     1
102
RTVSPropertyOp35
 70
     1
102
RTVSPropertyOp36
 70
     1
102
RTVSPropertyOp37
 70
     1
102
RTVSPropertyOp38
 70
     1
102
RTVSPropertyOp39
 70
     1
102
RTVSPropertyOp40
 70
     1
102
RTVSPropertyOp41
 70
     1
102
RTVSPropertyOp42
 70
     1
102
RTVSPropertyOp43
 70
     1
102
RTVSPropertyOp44
 70
     1
102
RTVSPropertyOp45
 70
     1
102
RTVSPropertyOp46
 70
     1
102
RTVSPropertyOp47
 70
     1
102
RTVSPropertyOp48
 70
     1
102
RTVSPropertyOp49
 70
     1
102
RTVSPropertyOp50
 70
     1
102
RTVSPropertyOp51
 70
     0
102
RTVSPropertyOp52
 70
     0
102
RTVSPropertyOp53
 70
     1
102
RTVSPropertyOp54
 70
     1
102
RTVSPropertyOp55
 70
     1
102
RTVSPropertyOp56
 70
     1
102
RTVSPropertyOp57
 70
     1
102
RTVSPost2010Prop28
280
     0
102
RTVSPost2010PropOp28
 70
     1
102
RTVSPost2010Prop29
280
     1
102
RTVSPost2010PropOp29
 70
     1
102
RTVSPost2010Prop30
280
     1
102
RTVSPost2010PropOp30
 70
     1
102
RTVSPost2010Prop31
280
     0
102
RTVSPost2010PropOp31
 70
     1
102
RTVSPost2010Prop32
280
     0
102
RTVSPost2010PropOp32
 70
     1
102
RTVSPost2010Prop33
280
     0
102
RTVSPost2010PropOp33
 70
     1
102
RTVSPost2010Prop34
280
     0
102
RTVSPost2010PropOp34
 70
     1
102
RTVSPost2010Prop35
280
     0
102
RTVSPost2010PropOp35
 70
     1
102
RTVSPost2010Prop36
280
     0
102
RTVSPost2010PropOp36
 70
     1
102
RTVSPost2010Prop37
 90
       50
102
RTVSPost2010PropOp37
 70
     1
102
RTVSPost2010Prop38
140
0.0
102
RTVSPost2010PropOp38
 70
     1
102
RTVSPost2010Prop39
140
1.0
102
RTVSPost2010PropOp39
 70
     1
102
RTVSPost2010Prop40
 90
        0
102
RTVSPost2010PropOp40
 70
     1
102
RTVSPost2010Prop41ColorIndex
 90
       18
102
RTVSPost2010Prop41ColorRGB
 90
        0
102
RTVSPost2010PropOp41
 70
     1
102
RTVSPost2010Prop42
 90
       50
102
RTVSPost2010PropOp42
 70
     1
102
RTVSPost2010Prop43
 90
        3
102
RTVSPost2010PropOp43
 70
     1
102
RTVSPost2010Prop44ColorIndex
 90
        5
102
RTVSPost2010Prop44ColorRGB
 90
      255
102
RTVSPost2010PropOp44
 70
     1
102
RTVSPost2010Prop45
280
     0
102
RTVSPost2010PropOp45
 70
     1
102
RTVSPost2010Prop46
 90
       50
102
RTVSPost2010PropOp46
 70
     1
102
RTVSPost2010Prop47
 90
       50
102
RTVSPost2010PropOp47
 70
     1
102
RTVSPost2010Prop48
 90
       50
102
RTVSPost2010PropOp48
 70
     1
102
RTVSPost2010Prop49
280
     0
102
RTVSPost2010PropOp49
 70
     1
102
RTVSPost2010Prop50
 90
       50
102
RTVSPost2010PropOp50
 70
     1
102
RTVSPost2010Prop51ColorIndex
 90
      256
102
RTVSPost2010Prop51ColorRGB
 90
-16777216
102
RTVSPost2010PropOp51
 70
     0
102
RTVSPost2010Prop52
140
1.0
102
RTVSPost2010PropOp52
 70
     0
102
RTVSPost2010Prop53
 90
        2
102
RTVSPost2010PropOp53
 70
     1
102
RTVSPost2010Prop54
  1
strokes_ogs.tif
102
RTVSPost2010PropOp54
 70
     1
102
RTVSPost2010Prop55
280
     0
102
RTVSPost2010PropOp55
 70
     1
102
RTVSPost2010Prop56
140
1.0
102
RTVSPost2010PropOp56
 70
     1
102
RTVSPost2010Prop57
140
1.0
102
RTVSPost2010PropOp57
 70
     1
  0
XRECORD
  5
4A8
102
{ACAD_REACTORS
330
4A7
102
}
330
4A7
100
AcDbXrecord
280
     1
102
RTVSPropertyOp0
 70
     1
102
RTVSPropertyOp1
 70
     1
102
RTVSPropertyOp2
 70
     1
102
RTVSPropertyOp3
 70
     1
102
RTVSPropertyOp4
 70
     1
102
RTVSPropertyOp5
 70
     1
102
RTVSPropertyOp6
 70
     1
102
RTVSPropertyOp7
 70
     1
102
RTVSPropertyOp8
 70
     1
102
RTVSPropertyOp9
 70
     1
102
RTVSPropertyOp10
 70
     1
102
RTVSPropertyOp11
 70
     1
102
RTVSPropertyOp12
 70
     1
102
RTVSPropertyOp13
 70
     1
102
RTVSPropertyOp14
 70
     1
102
RTVSPropertyOp15
 70
     1
102
RTVSPropertyOp16
 70
     1
102
RTVSPropertyOp17
 70
     1
102
RTVSPropertyOp18
 70
     1
102
RTVSPropertyOp19
 70
     1
102
RTVSPropertyOp20
 70
     1
102
RTVSPropertyOp21
 70
     1
102
RTVSPropertyOp22
 70
     1
102
RTVSPropertyOp23
 70
     1
102
RTVSPropertyOp24
 70
     1
102
RTVSPropertyOp25
 70
     1
102
RTVSPropertyOp26
 70
     1
102
RTVSPropertyOp27
 70
     1
102
RTVSPropertyOp28
 70
     1
102
RTVSPropertyOp29
 70
     1
102
RTVSPropertyOp30
 70
     1
102
RTVSPropertyOp31
 70
     1
102
RTVSPropertyOp32
 70
     1
102
RTVSPropertyOp33
 70
     1
102
RTVSPropertyOp34
 70
     1
102
RTVSPropertyOp35
 70
     1
102
RTVSPropertyOp36
 70
     1
102
RTVSPropertyOp37
 70
     1
102
RTVSPropertyOp38
 70
     1
102
RTVSPropertyOp39
 70
     1
102
RTVSPropertyOp40
 70
     1
102
RTVSPropertyOp41
 70
     1
102
RTVSPropertyOp42
 70
     1
102
RTVSPropertyOp43
 70
     1
102
RTVSPropertyOp44
 70
     1
102
RTVSPropertyOp45
 70
     1
102
RTVSPropertyOp46
 70
     1
102
RTVSPropertyOp47
 70
     1
102
RTVSPropertyOp48
 70
     1
102
RTVSPropertyOp49
 70
     1
102
RTVSPropertyOp50
 70
     1
102
RTVSPropertyOp51
 70
     0
102
RTVSPropertyOp52
 70
     0
102
RTVSPropertyOp53
 70
     1
102
RTVSPropertyOp54
 70
     1
102
RTVSPropertyOp55
 70
     1
102
RTVSPropertyOp56
 70
     1
102
RTVSPropertyOp57
 70
     1
102
RTVSPost2010Prop28
280
     0
102
RTVSPost2010PropOp28
 70
     1
102
RTVSPost2010Prop29
280
     1
102
RTVSPost2010PropOp29
 70
     1
102
RTVSPost2010Prop30
280
     1
102
RTVSPost2010PropOp30
 70
     1
102
RTVSPost2010Prop31
280
     0
102
RTVSPost2010PropOp31
 70
     1
102
RTVSPost2010Prop32
280
     0
102
RTVSPost2010PropOp32
 70
     1
102
RTVSPost2010Prop33
280
     0
102
RTVSPost2010PropOp33
 70
     1
102
RTVSPost2010Prop34
280
     0
102
RTVSPost2010PropOp34
 70
     1
102
RTVSPost2010Prop35
280
     0
102
RTVSPost2010PropOp35
 70
     1
102
RTVSPost2010Prop36
280
     0
102
RTVSPost2010PropOp36
 70
     1
102
RTVSPost2010Prop37
 90
       50
102
RTVSPost2010PropOp37
 70
     1
102
RTVSPost2010Prop38
140
0.0
102
RTVSPost2010PropOp38
 70
     1
102
RTVSPost2010Prop39
140
1.0
102
RTVSPost2010PropOp39
 70
     1
102
RTVSPost2010Prop40
 90
        0
102
RTVSPost2010PropOp40
 70
     1
102
RTVSPost2010Prop41ColorIndex
 90
       18
102
RTVSPost2010Prop41ColorRGB
 90
        0
102
RTVSPost2010PropOp41
 70
     1
102
RTVSPost2010Prop42
 90
       50
102
RTVSPost2010PropOp42
 70
     1
102
RTVSPost2010Prop43
 90
        3
102
RTVSPost2010PropOp43
 70
     1
102
RTVSPost2010Prop44ColorIndex
 90
        5
102
RTVSPost2010Prop44ColorRGB
 90
      255
102
RTVSPost2010PropOp44
 70
     1
102
RTVSPost2010Prop45
280
     0
102
RTVSPost2010PropOp45
 70
     1
102
RTVSPost2010Prop46
 90
       50
102
RTVSPost2010PropOp46
 70
     1
102
RTVSPost2010Prop47
 90
       50
102
RTVSPost2010PropOp47
 70
     1
102
RTVSPost2010Prop48
 90
       50
102
RTVSPost2010PropOp48
 70
     1
102
RTVSPost2010Prop49
280
     0
102
RTVSPost2010PropOp49
 70
     1
102
RTVSPost2010Prop50
 90
       50
102
RTVSPost2010PropOp50
 70
     1
102
RTVSPost2010Prop51ColorIndex
 90
      256
102
RTVSPost2010Prop51ColorRGB
 90
-16777216
102
RTVSPost2010PropOp51
 70
     0
102
RTVSPost2010Prop52
140
1.0
102
RTVSPost2010PropOp52
 70
     0
102
RTVSPost2010Prop53
 90
        2
102
RTVSPost2010PropOp53
 70
     1
102
RTVSPost2010Prop54
  1
strokes_ogs.tif
102
RTVSPost2010PropOp54
 70
     1
102
RTVSPost2010Prop55
280
     0
102
RTVSPost2010PropOp55
 70
     1
102
RTVSPost2010Prop56
140
1.0
102
RTVSPost2010PropOp56
 70
     1
102
RTVSPost2010Prop57
140
1.0
102
RTVSPost2010PropOp57
 70
     1
  0
XRECORD
  5
4AA
102
{ACAD_REACTORS
330
4A9
102
}
330
4A9
100
AcDbXrecord
280
     1
102
RTVSPropertyOp0
 70
     1
102
RTVSPropertyOp1
 70
     1
102
RTVSPropertyOp2
 70
     1
102
RTVSPropertyOp3
 70
     1
102
RTVSPropertyOp4
 70
     1
102
RTVSPropertyOp5
 70
     1
102
RTVSPropertyOp6
 70
     1
102
RTVSPropertyOp7
 70
     1
102
RTVSPropertyOp8
 70
     1
102
RTVSPropertyOp9
 70
     1
102
RTVSPropertyOp10
 70
     1
102
RTVSPropertyOp11
 70
     1
102
RTVSPropertyOp12
 70
     1
102
RTVSPropertyOp13
 70
     1
102
RTVSPropertyOp14
 70
     1
102
RTVSPropertyOp15
 70
     1
102
RTVSPropertyOp16
 70
     1
102
RTVSPropertyOp17
 70
     1
102
RTVSPropertyOp18
 70
     1
102
RTVSPropertyOp19
 70
     1
102
RTVSPropertyOp20
 70
     1
102
RTVSPropertyOp21
 70
     1
102
RTVSPropertyOp22
 70
     1
102
RTVSPropertyOp23
 70
     1
102
RTVSPropertyOp24
 70
     1
102
RTVSPropertyOp25
 70
     1
102
RTVSPropertyOp26
 70
     1
102
RTVSPropertyOp27
 70
     1
102
RTVSPropertyOp28
 70
     1
102
RTVSPropertyOp29
 70
     1
102
RTVSPropertyOp30
 70
     1
102
RTVSPropertyOp31
 70
     1
102
RTVSPropertyOp32
 70
     1
102
RTVSPropertyOp33
 70
     1
102
RTVSPropertyOp34
 70
     1
102
RTVSPropertyOp35
 70
     1
102
RTVSPropertyOp36
 70
     1
102
RTVSPropertyOp37
 70
     1
102
RTVSPropertyOp38
 70
     1
102
RTVSPropertyOp39
 70
     1
102
RTVSPropertyOp40
 70
     1
102
RTVSPropertyOp41
 70
     1
102
RTVSPropertyOp42
 70
     1
102
RTVSPropertyOp43
 70
     1
102
RTVSPropertyOp44
 70
     1
102
RTVSPropertyOp45
 70
     1
102
RTVSPropertyOp46
 70
     1
102
RTVSPropertyOp47
 70
     1
102
RTVSPropertyOp48
 70
     1
102
RTVSPropertyOp49
 70
     1
102
RTVSPropertyOp50
 70
     1
102
RTVSPropertyOp51
 70
     0
102
RTVSPropertyOp52
 70
     0
102
RTVSPropertyOp53
 70
     1
102
RTVSPropertyOp54
 70
     1
102
RTVSPropertyOp55
 70
     1
102
RTVSPropertyOp56
 70
     1
102
RTVSPropertyOp57
 70
     1
102
RTVSPost2010Prop28
280
     0
102
RTVSPost2010PropOp28
 70
     1
102
RTVSPost2010Prop29
280
     1
102
RTVSPost2010PropOp29
 70
     1
102
RTVSPost2010Prop30
280
     1
102
RTVSPost2010PropOp30
 70
     1
102
RTVSPost2010Prop31
280
     0
102
RTVSPost2010PropOp31
 70
     1
102
RTVSPost2010Prop32
280
     0
102
RTVSPost2010PropOp32
 70
     1
102
RTVSPost2010Prop33
280
     0
102
RTVSPost2010PropOp33
 70
     1
102
RTVSPost2010Prop34
280
     0
102
RTVSPost2010PropOp34
 70
     1
102
RTVSPost2010Prop35
280
     0
102
RTVSPost2010PropOp35
 70
     1
102
RTVSPost2010Prop36
280
     0
102
RTVSPost2010PropOp36
 70
     1
102
RTVSPost2010Prop37
 90
       50
102
RTVSPost2010PropOp37
 70
     1
102
RTVSPost2010Prop38
140
0.0
102
RTVSPost2010PropOp38
 70
     1
102
RTVSPost2010Prop39
140
1.0
102
RTVSPost2010PropOp39
 70
     1
102
RTVSPost2010Prop40
 90
        0
102
RTVSPost2010PropOp40
 70
     1
102
RTVSPost2010Prop41ColorIndex
 90
       18
102
RTVSPost2010Prop41ColorRGB
 90
        0
102
RTVSPost2010PropOp41
 70
     1
102
RTVSPost2010Prop42
 90
       50
102
RTVSPost2010PropOp42
 70
     1
102
RTVSPost2010Prop43
 90
        3
102
RTVSPost2010PropOp43
 70
     1
102
RTVSPost2010Prop44ColorIndex
 90
        5
102
RTVSPost2010Prop44ColorRGB
 90
      255
102
RTVSPost2010PropOp44
 70
     1
102
RTVSPost2010Prop45
280
     0
102
RTVSPost2010PropOp45
 70
     1
102
RTVSPost2010Prop46
 90
       50
102
RTVSPost2010PropOp46
 70
     1
102
RTVSPost2010Prop47
 90
       50
102
RTVSPost2010PropOp47
 70
     1
102
RTVSPost2010Prop48
 90
       50
102
RTVSPost2010PropOp48
 70
     1
102
RTVSPost2010Prop49
280
     0
102
RTVSPost2010PropOp49
 70
     1
102
RTVSPost2010Prop50
 90
       50
102
RTVSPost2010PropOp50
 70
     1
102
RTVSPost2010Prop51ColorIndex
 90
      256
102
RTVSPost2010Prop51ColorRGB
 90
-16777216
102
RTVSPost2010PropOp51
 70
     0
102
RTVSPost2010Prop52
140
1.0
102
RTVSPost2010PropOp52
 70
     0
102
RTVSPost2010Prop53
 90
        2
102
RTVSPost2010PropOp53
 70
     1
102
RTVSPost2010Prop54
  1
strokes_ogs.tif
102
RTVSPost2010PropOp54
 70
     1
102
RTVSPost2010Prop55
280
     0
102
RTVSPost2010PropOp55
 70
     1
102
RTVSPost2010Prop56
140
1.0
102
RTVSPost2010PropOp56
 70
     1
102
RTVSPost2010Prop57
140
1.0
102
RTVSPost2010PropOp57
 70
     1
  0
XRECORD
  5
49A
102
{ACAD_REACTORS
330
499
102
}
330
499
100
AcDbXrecord
280
     1
102
RTVSPropertyOp0
 70
     1
102
RTVSPropertyOp1
 70
     1
102
RTVSPropertyOp2
 70
     1
102
RTVSPropertyOp3
 70
     1
102
RTVSPropertyOp4
 70
     1
102
RTVSPropertyOp5
 70
     1
102
RTVSPropertyOp6
 70
     1
102
RTVSPropertyOp7
 70
     1
102
RTVSPropertyOp8
 70
     1
102
RTVSPropertyOp9
 70
     1
102
RTVSPropertyOp10
 70
     1
102
RTVSPropertyOp11
 70
     1
102
RTVSPropertyOp12
 70
     1
102
RTVSPropertyOp13
 70
     1
102
RTVSPropertyOp14
 70
     1
102
RTVSPropertyOp15
 70
     1
102
RTVSPropertyOp16
 70
     1
102
RTVSPropertyOp17
 70
     1
102
RTVSPropertyOp18
 70
     1
102
RTVSPropertyOp19
 70
     1
102
RTVSPropertyOp20
 70
     1
102
RTVSPropertyOp21
 70
     1
102
RTVSPropertyOp22
 70
     1
102
RTVSPropertyOp23
 70
     1
102
RTVSPropertyOp24
 70
     1
102
RTVSPropertyOp25
 70
     1
102
RTVSPropertyOp26
 70
     1
102
RTVSPropertyOp27
 70
     1
102
RTVSPropertyOp28
 70
     1
102
RTVSPropertyOp29
 70
     1
102
RTVSPropertyOp30
 70
     1
102
RTVSPropertyOp31
 70
     1
102
RTVSPropertyOp32
 70
     1
102
RTVSPropertyOp33
 70
     1
102
RTVSPropertyOp34
 70
     1
102
RTVSPropertyOp35
 70
     1
102
RTVSPropertyOp36
 70
     1
102
RTVSPropertyOp37
 70
     1
102
RTVSPropertyOp38
 70
     1
102
RTVSPropertyOp39
 70
     1
102
RTVSPropertyOp40
 70
     1
102
RTVSPropertyOp41
 70
     1
102
RTVSPropertyOp42
 70
     1
102
RTVSPropertyOp43
 70
     1
102
RTVSPropertyOp44
 70
     1
102
RTVSPropertyOp45
 70
     1
102
RTVSPropertyOp46
 70
     1
102
RTVSPropertyOp47
 70
     1
102
RTVSPropertyOp48
 70
     1
102
RTVSPropertyOp49
 70
     1
102
RTVSPropertyOp50
 70
     1
102
RTVSPropertyOp51
 70
     0
102
RTVSPropertyOp52
 70
     0
102
RTVSPropertyOp53
 70
     1
102
RTVSPropertyOp54
 70
     1
102
RTVSPropertyOp55
 70
     1
102
RTVSPropertyOp56
 70
     1
102
RTVSPropertyOp57
 70
     1
102
RTVSPost2010Prop28
280
     0
102
RTVSPost2010PropOp28
 70
     1
102
RTVSPost2010Prop29
280
     1
102
RTVSPost2010PropOp29
 70
     1
102
RTVSPost2010Prop30
280
     1
102
RTVSPost2010PropOp30
 70
     1
102
RTVSPost2010Prop31
280
     0
102
RTVSPost2010PropOp31
 70
     1
102
RTVSPost2010Prop32
280
     0
102
RTVSPost2010PropOp32
 70
     1
102
RTVSPost2010Prop33
280
     0
102
RTVSPost2010PropOp33
 70
     1
102
RTVSPost2010Prop34
280
     0
102
RTVSPost2010PropOp34
 70
     1
102
RTVSPost2010Prop35
280
     0
102
RTVSPost2010PropOp35
 70
     1
102
RTVSPost2010Prop36
280
     0
102
RTVSPost2010PropOp36
 70
     1
102
RTVSPost2010Prop37
 90
       50
102
RTVSPost2010PropOp37
 70
     1
102
RTVSPost2010Prop38
140
0.0
102
RTVSPost2010PropOp38
 70
     1
102
RTVSPost2010Prop39
140
1.0
102
RTVSPost2010PropOp39
 70
     1
102
RTVSPost2010Prop40
 90
        0
102
RTVSPost2010PropOp40
 70
     1
102
RTVSPost2010Prop41ColorIndex
 90
       18
102
RTVSPost2010Prop41ColorRGB
 90
        0
102
RTVSPost2010PropOp41
 70
     1
102
RTVSPost2010Prop42
 90
       50
102
RTVSPost2010PropOp42
 70
     1
102
RTVSPost2010Prop43
 90
        3
102
RTVSPost2010PropOp43
 70
     1
102
RTVSPost2010Prop44ColorIndex
 90
        5
102
RTVSPost2010Prop44ColorRGB
 90
      255
102
RTVSPost2010PropOp44
 70
     1
102
RTVSPost2010Prop45
280
     0
102
RTVSPost2010PropOp45
 70
     1
102
RTVSPost2010Prop46
 90
       50
102
RTVSPost2010PropOp46
 70
     1
102
RTVSPost2010Prop47
 90
       50
102
RTVSPost2010PropOp47
 70
     1
102
RTVSPost2010Prop48
 90
       50
102
RTVSPost2010PropOp48
 70
     1
102
RTVSPost2010Prop49
280
     0
102
RTVSPost2010PropOp49
 70
     1
102
RTVSPost2010Prop50
 90
       50
102
RTVSPost2010PropOp50
 70
     1
102
RTVSPost2010Prop51ColorIndex
 90
      256
102
RTVSPost2010Prop51ColorRGB
 90
-16777216
102
RTVSPost2010PropOp51
 70
     0
102
RTVSPost2010Prop52
140
1.0
102
RTVSPost2010PropOp52
 70
     0
102
RTVSPost2010Prop53
 90
        2
102
RTVSPost2010PropOp53
 70
     1
102
RTVSPost2010Prop54
  1
strokes_ogs.tif
102
RTVSPost2010PropOp54
 70
     1
102
RTVSPost2010Prop55
280
     0
102
RTVSPost2010PropOp55
 70
     1
102
RTVSPost2010Prop56
140
1.0
102
RTVSPost2010PropOp56
 70
     1
102
RTVSPost2010Prop57
140
1.0
102
RTVSPost2010PropOp57
 70
     1
  0
XRECORD
  5
48C
102
{ACAD_REACTORS
330
48B
102
}
330
48B
100
AcDbXrecord
280
     1
102
RTVSPropertyOp0
 70
     1
102
RTVSPropertyOp1
 70
     1
102
RTVSPropertyOp2
 70
     1
102
RTVSPropertyOp3
 70
     1
102
RTVSPropertyOp4
 70
     1
102
RTVSPropertyOp5
 70
     1
102
RTVSPropertyOp6
 70
     1
102
RTVSPropertyOp7
 70
     1
102
RTVSPropertyOp8
 70
     1
102
RTVSPropertyOp9
 70
     1
102
RTVSPropertyOp10
 70
     1
102
RTVSPropertyOp11
 70
     1
102
RTVSPropertyOp12
 70
     1
102
RTVSPropertyOp13
 70
     1
102
RTVSPropertyOp14
 70
     1
102
RTVSPropertyOp15
 70
     1
102
RTVSPropertyOp16
 70
     1
102
RTVSPropertyOp17
 70
     1
102
RTVSPropertyOp18
 70
     1
102
RTVSPropertyOp19
 70
     1
102
RTVSPropertyOp20
 70
     1
102
RTVSPropertyOp21
 70
     1
102
RTVSPropertyOp22
 70
     1
102
RTVSPropertyOp23
 70
     1
102
RTVSPropertyOp24
 70
     1
102
RTVSPropertyOp25
 70
     1
102
RTVSPropertyOp26
 70
     1
102
RTVSPropertyOp27
 70
     1
102
RTVSPropertyOp28
 70
     1
102
RTVSPropertyOp29
 70
     1
102
RTVSPropertyOp30
 70
     1
102
RTVSPropertyOp31
 70
     1
102
RTVSPropertyOp32
 70
     1
102
RTVSPropertyOp33
 70
     1
102
RTVSPropertyOp34
 70
     1
102
RTVSPropertyOp35
 70
     1
102
RTVSPropertyOp36
 70
     1
102
RTVSPropertyOp37
 70
     1
102
RTVSPropertyOp38
 70
     1
102
RTVSPropertyOp39
 70
     1
102
RTVSPropertyOp40
 70
     1
102
RTVSPropertyOp41
 70
     1
102
RTVSPropertyOp42
 70
     1
102
RTVSPropertyOp43
 70
     1
102
RTVSPropertyOp44
 70
     1
102
RTVSPropertyOp45
 70
     1
102
RTVSPropertyOp46
 70
     1
102
RTVSPropertyOp47
 70
     1
102
RTVSPropertyOp48
 70
     1
102
RTVSPropertyOp49
 70
     1
102
RTVSPropertyOp50
 70
     1
102
RTVSPropertyOp51
 70
     0
102
RTVSPropertyOp52
 70
     0
102
RTVSPropertyOp53
 70
     1
102
RTVSPropertyOp54
 70
     1
102
RTVSPropertyOp55
 70
     1
102
RTVSPropertyOp56
 70
     1
102
RTVSPropertyOp57
 70
     1
102
RTVSPost2010Prop28
280
     0
102
RTVSPost2010PropOp28
 70
     1
102
RTVSPost2010Prop29
280
     1
102
RTVSPost2010PropOp29
 70
     1
102
RTVSPost2010Prop30
280
     1
102
RTVSPost2010PropOp30
 70
     1
102
RTVSPost2010Prop31
280
     0
102
RTVSPost2010PropOp31
 70
     1
102
RTVSPost2010Prop32
280
     0
102
RTVSPost2010PropOp32
 70
     1
102
RTVSPost2010Prop33
280
     0
102
RTVSPost2010PropOp33
 70
     1
102
RTVSPost2010Prop34
280
     0
102
RTVSPost2010PropOp34
 70
     1
102
RTVSPost2010Prop35
280
     0
102
RTVSPost2010PropOp35
 70
     1
102
RTVSPost2010Prop36
280
     0
102
RTVSPost2010PropOp36
 70
     1
102
RTVSPost2010Prop37
 90
       50
102
RTVSPost2010PropOp37
 70
     1
102
RTVSPost2010Prop38
140
0.0
102
RTVSPost2010PropOp38
 70
     1
102
RTVSPost2010Prop39
140
1.0
102
RTVSPost2010PropOp39
 70
     1
102
RTVSPost2010Prop40
 90
        0
102
RTVSPost2010PropOp40
 70
     1
102
RTVSPost2010Prop41ColorIndex
 90
       18
102
RTVSPost2010Prop41ColorRGB
 90
        0
102
RTVSPost2010PropOp41
 70
     1
102
RTVSPost2010Prop42
 90
       50
102
RTVSPost2010PropOp42
 70
     1
102
RTVSPost2010Prop43
 90
        3
102
RTVSPost2010PropOp43
 70
     1
102
RTVSPost2010Prop44ColorIndex
 90
        5
102
RTVSPost2010Prop44ColorRGB
 90
      255
102
RTVSPost2010PropOp44
 70
     1
102
RTVSPost2010Prop45
280
     0
102
RTVSPost2010PropOp45
 70
     1
102
RTVSPost2010Prop46
 90
       50
102
RTVSPost2010PropOp46
 70
     1
102
RTVSPost2010Prop47
 90
       50
102
RTVSPost2010PropOp47
 70
     1
102
RTVSPost2010Prop48
 90
       50
102
RTVSPost2010PropOp48
 70
     1
102
RTVSPost2010Prop49
280
     0
102
RTVSPost2010PropOp49
 70
     1
102
RTVSPost2010Prop50
 90
       50
102
RTVSPost2010PropOp50
 70
     1
102
RTVSPost2010Prop51ColorIndex
 90
      256
102
RTVSPost2010Prop51ColorRGB
 90
-16777216
102
RTVSPost2010PropOp51
 70
     0
102
RTVSPost2010Prop52
140
1.0
102
RTVSPost2010PropOp52
 70
     0
102
RTVSPost2010Prop53
 90
        2
102
RTVSPost2010PropOp53
 70
     1
102
RTVSPost2010Prop54
  1
strokes_ogs.tif
102
RTVSPost2010PropOp54
 70
     1
102
RTVSPost2010Prop55
280
     0
102
RTVSPost2010PropOp55
 70
     1
102
RTVSPost2010Prop56
140
1.0
102
RTVSPost2010PropOp56
 70
     1
102
RTVSPost2010Prop57
140
1.0
102
RTVSPost2010PropOp57
 70
     1
  0
XRECORD
  5
4AC
102
{ACAD_REACTORS
330
4AB
102
}
330
4AB
100
AcDbXrecord
280
     1
102
RTVSPropertyOp0
 70
     1
102
RTVSPropertyOp1
 70
     1
102
RTVSPropertyOp2
 70
     1
102
RTVSPropertyOp3
 70
     1
102
RTVSPropertyOp4
 70
     1
102
RTVSPropertyOp5
 70
     1
102
RTVSPropertyOp6
 70
     1
102
RTVSPropertyOp7
 70
     1
102
RTVSPropertyOp8
 70
     1
102
RTVSPropertyOp9
 70
     1
102
RTVSPropertyOp10
 70
     1
102
RTVSPropertyOp11
 70
     1
102
RTVSPropertyOp12
 70
     1
102
RTVSPropertyOp13
 70
     1
102
RTVSPropertyOp14
 70
     1
102
RTVSPropertyOp15
 70
     1
102
RTVSPropertyOp16
 70
     1
102
RTVSPropertyOp17
 70
     1
102
RTVSPropertyOp18
 70
     1
102
RTVSPropertyOp19
 70
     1
102
RTVSPropertyOp20
 70
     1
102
RTVSPropertyOp21
 70
     1
102
RTVSPropertyOp22
 70
     1
102
RTVSPropertyOp23
 70
     1
102
RTVSPropertyOp24
 70
     1
102
RTVSPropertyOp25
 70
     1
102
RTVSPropertyOp26
 70
     1
102
RTVSPropertyOp27
 70
     1
102
RTVSPropertyOp28
 70
     1
102
RTVSPropertyOp29
 70
     1
102
RTVSPropertyOp30
 70
     1
102
RTVSPropertyOp31
 70
     1
102
RTVSPropertyOp32
 70
     1
102
RTVSPropertyOp33
 70
     1
102
RTVSPropertyOp34
 70
     1
102
RTVSPropertyOp35
 70
     1
102
RTVSPropertyOp36
 70
     1
102
RTVSPropertyOp37
 70
     1
102
RTVSPropertyOp38
 70
     1
102
RTVSPropertyOp39
 70
     1
102
RTVSPropertyOp40
 70
     1
102
RTVSPropertyOp41
 70
     1
102
RTVSPropertyOp42
 70
     1
102
RTVSPropertyOp43
 70
     1
102
RTVSPropertyOp44
 70
     1
102
RTVSPropertyOp45
 70
     1
102
RTVSPropertyOp46
 70
     1
102
RTVSPropertyOp47
 70
     1
102
RTVSPropertyOp48
 70
     1
102
RTVSPropertyOp49
 70
     1
102
RTVSPropertyOp50
 70
     1
102
RTVSPropertyOp51
 70
     0
102
RTVSPropertyOp52
 70
     0
102
RTVSPropertyOp53
 70
     1
102
RTVSPropertyOp54
 70
     1
102
RTVSPropertyOp55
 70
     1
102
RTVSPropertyOp56
 70
     1
102
RTVSPropertyOp57
 70
     1
102
RTVSPost2010Prop28
280
     0
102
RTVSPost2010PropOp28
 70
     1
102
RTVSPost2010Prop29
280
     1
102
RTVSPost2010PropOp29
 70
     1
102
RTVSPost2010Prop30
280
     1
102
RTVSPost2010PropOp30
 70
     1
102
RTVSPost2010Prop31
280
     0
102
RTVSPost2010PropOp31
 70
     1
102
RTVSPost2010Prop32
280
     0
102
RTVSPost2010PropOp32
 70
     1
102
RTVSPost2010Prop33
280
     0
102
RTVSPost2010PropOp33
 70
     1
102
RTVSPost2010Prop34
280
     0
102
RTVSPost2010PropOp34
 70
     1
102
RTVSPost2010Prop35
280
     0
102
RTVSPost2010PropOp35
 70
     1
102
RTVSPost2010Prop36
280
     0
102
RTVSPost2010PropOp36
 70
     1
102
RTVSPost2010Prop37
 90
       50
102
RTVSPost2010PropOp37
 70
     1
102
RTVSPost2010Prop38
140
0.0
102
RTVSPost2010PropOp38
 70
     1
102
RTVSPost2010Prop39
140
1.0
102
RTVSPost2010PropOp39
 70
     1
102
RTVSPost2010Prop40
 90
        0
102
RTVSPost2010PropOp40
 70
     1
102
RTVSPost2010Prop41ColorIndex
 90
       18
102
RTVSPost2010Prop41ColorRGB
 90
        0
102
RTVSPost2010PropOp41
 70
     1
102
RTVSPost2010Prop42
 90
       50
102
RTVSPost2010PropOp42
 70
     1
102
RTVSPost2010Prop43
 90
        3
102
RTVSPost2010PropOp43
 70
     1
102
RTVSPost2010Prop44ColorIndex
 90
        5
102
RTVSPost2010Prop44ColorRGB
 90
      255
102
RTVSPost2010PropOp44
 70
     1
102
RTVSPost2010Prop45
280
     0
102
RTVSPost2010PropOp45
 70
     1
102
RTVSPost2010Prop46
 90
       50
102
RTVSPost2010PropOp46
 70
     1
102
RTVSPost2010Prop47
 90
       50
102
RTVSPost2010PropOp47
 70
     1
102
RTVSPost2010Prop48
 90
       50
102
RTVSPost2010PropOp48
 70
     1
102
RTVSPost2010Prop49
280
     0
102
RTVSPost2010PropOp49
 70
     1
102
RTVSPost2010Prop50
 90
       50
102
RTVSPost2010PropOp50
 70
     1
102
RTVSPost2010Prop51ColorIndex
 90
      256
102
RTVSPost2010Prop51ColorRGB
 90
-16777216
102
RTVSPost2010PropOp51
 70
     0
102
RTVSPost2010Prop52
140
1.0
102
RTVSPost2010PropOp52
 70
     0
102
RTVSPost2010Prop53
 90
        2
102
RTVSPost2010PropOp53
 70
     1
102
RTVSPost2010Prop54
  1
strokes_ogs.tif
102
RTVSPost2010PropOp54
 70
     1
102
RTVSPost2010Prop55
280
     0
102
RTVSPost2010PropOp55
 70
     1
102
RTVSPost2010Prop56
140
1.0
102
RTVSPost2010PropOp56
 70
     1
102
RTVSPost2010Prop57
140
1.0
102
RTVSPost2010PropOp57
 70
     1
  0
ENDSEC
  0
EOF
