  0
SECTION
  2
HEADER
  9
$ACADVER
  1
AC1009
  9
$DWGCODEPAGE
  3
ansi_1252
  9
$INSBASE
 10
0.0
 20
0.0
 30
0.0
  9
$EXTMIN
 10
2032.036608152645
 20
10806.44568726321
 30
0.0
  9
$EXTMAX
 10
3177.490212927003
 20
11929.01307328564
 30
0.0
  9
$LIMMIN
 10
0.0
 20
0.0
  9
$LIMMAX
 10
12.0
 20
9.0
  9
$ORTHOMODE
 70
     0
  9
$REGENMODE
 70
     1
  9
$FILLMODE
 70
     1
  9
$QTEXTMODE
 70
     0
  9
$MIRRTEXT
 70
     1
  9
$DRAGMODE
 70
     2
  9
$LTSCALE
 40
1.0
  9
$OSMODE
 70
    37
  9
$ATTMODE
 70
     1
  9
$TEXTSIZE
 40
0.2
  9
$TRACEWID
 40
0.05
  9
$TEXTSTYLE
  7
STANDARD
  9
$CLAYER
  8
DEFAULT
  9
$CELTYPE
  6
BYLAYER
  9
$CECOLOR
 62
   256
  9
$DIMSCALE
 40
1.0
  9
$DIMASZ
 40
0.18
  9
$DIMEXO
 40
0.0625
  9
$DIMDLI
 40
0.38
  9
$DIMRND
 40
0.0
  9
$DIMDLE
 40
0.0
  9
$DIMEXE
 40
0.18
  9
$DIMTP
 40
0.0
  9
$DIMTM
 40
0.0
  9
$DIMTXT
 40
0.18
  9
$DIMCEN
 40
0.09
  9
$DIMTSZ
 40
0.0
  9
$DIMTOL
 70
     0
  9
$DIMLIM
 70
     0
  9
$DIMTIH
 70
     1
  9
$DIMTOH
 70
     1
  9
$DIMSE1
 70
     0
  9
$DIMSE2
 70
     0
  9
$DIMTAD
 70
     0
  9
$DIMZIN
 70
     0
  9
$DIMBLK
  1

  9
$DIMASO
 70
     1
  9
$DIMSHO
 70
     1
  9
$DIMPOST
  1

  9
$DIMAPOST
  1

  9
$DIMALT
 70
     0
  9
$DIMALTD
 70
     2
  9
$DIMALTF
 40
25.4
  9
$DIMLFAC
 40
1.0
  9
$DIMTOFL
 70
     0
  9
$DIMTVP
 40
0.0
  9
$DIMTIX
 70
     0
  9
$DIMSOXD
 70
     0
  9
$DIMSAH
 70
     0
  9
$DIMBLK1
  1

  9
$DIMBLK2
  1

  9
$DIMSTYLE
  2
STANDARD
  9
$DIMCLRD
 70
     0
  9
$DIMCLRE
 70
     0
  9
$DIMCLRT
 70
     0
  9
$DIMTFAC
 40
1.0
  9
$DIMGAP
 40
0.09
  9
$LUNITS
 70
     2
  9
$LUPREC
 70
     3
  9
$SKETCHINC
 40
0.1
  9
$FILLETRAD
 40
0.5
  9
$AUNITS
 70
     0
  9
$AUPREC
 70
     0
  9
$MENU
  1
.
  9
$ELEVATION
 40
0.0
  9
$PELEVATION
 40
0.0
  9
$THICKNESS
 40
0.0
  9
$LIMCHECK
 70
     0
  9
$CHAMFERA
 40
0.0
  9
$CHAMFERB
 40
0.0
  9
$SKPOLY
 70
     0
  9
$TDCREATE
 40
2457930.851993715
  9
$TDUPDATE
 40
2457930.852072037
  9
$TDINDWG
 40
0.0000000116
  9
$TDUSRTIMER
 40
0.0000000116
  9
$USRTIMER
 70
     1
  9
$ANGBASE
 50
0.0
  9
$ANGDIR
 70
     0
  9
$PDMODE
 70
     0
  9
$PDSIZE
 40
0.0
  9
$PLINEWID
 40
0.0
  9
$COORDS
 70
     1
  9
$SPLFRAME
 70
     0
  9
$SPLINETYPE
 70
     6
  9
$SPLINESEGS
 70
     8
  9
$ATTDIA
 70
     0
  9
$ATTREQ
 70
     1
  9
$HANDLING
 70
     1
  9
$HANDSEED
  5
4AA
  9
$SURFTAB1
 70
     6
  9
$SURFTAB2
 70
     6
  9
$SURFTYPE
 70
     6
  9
$SURFU
 70
     6
  9
$SURFV
 70
     6
  9
$UCSNAME
  2

  9
$UCSORG
 10
0.0
 20
0.0
 30
0.0
  9
$UCSXDIR
 10
1.0
 20
0.0
 30
0.0
  9
$UCSYDIR
 10
0.0
 20
1.0
 30
0.0
  9
$PUCSNAME
  2

  9
$PUCSORG
 10
0.0
 20
0.0
 30
0.0
  9
$PUCSXDIR
 10
1.0
 20
0.0
 30
0.0
  9
$PUCSYDIR
 10
0.0
 20
1.0
 30
0.0
  9
$USERI1
 70
     0
  9
$USERI2
 70
     0
  9
$USERI3
 70
     0
  9
$USERI4
 70
     0
  9
$USERI5
 70
     0
  9
$USERR1
 40
0.0
  9
$USERR2
 40
0.0
  9
$USERR3
 40
0.0
  9
$USERR4
 40
0.0
  9
$USERR5
 40
0.0
  9
$WORLDVIEW
 70
     1
  9
$SHADEDGE
 70
     3
  9
$SHADEDIF
 70
    70
  9
$TILEMODE
 70
     1
  9
$MAXACTVP
 70
    64
  9
$PLIMCHECK
 70
     0
  9
$PEXTMIN
 10
1.000000000000000E+20
 20
1.000000000000000E+20
 30
1.000000000000000E+20
  9
$PEXTMAX
 10
-1.000000000000000E+20
 20
-1.000000000000000E+20
 30
-1.000000000000000E+20
  9
$PLIMMIN
 10
0.0
 20
0.0
  9
$PLIMMAX
 10
12.0
 20
9.0
  9
$UNITMODE
 70
     0
  9
$VISRETAIN
 70
     1
  9
$PLINEGEN
 70
     0
  9
$PSLTSCALE
 70
     1
  0
ENDSEC
  0
SECTION
  2
TABLES
  0
TABLE
  2
VPORT
 70
     1
  0
VPORT
  2
*ACTIVE
 70
     0
 10
0.0
 20
0.0
 11
1.0
 21
1.0
 12
2604.763410539824
 22
11367.72938027442
 13
0.0
 23
0.0
 14
0.5
 24
0.5
 15
0.5
 25
0.5
 16
0.0
 26
0.0
 36
1.0
 17
0.0
 27
0.0
 37
0.0
 40
1145.018733742883
 41
1.020387389689821
 42
50.0
 43
0.0
 44
0.0
 50
0.0
 51
0.0
 71
     0
 72
   100
 73
     1
 74
     3
 75
     0
 76
     0
 77
     0
 78
     0
  0
ENDTAB
  0
TABLE
  2
LTYPE
 70
     1
  0
LTYPE
  2
CONTINUOUS
 70
     0
  3
Solid line
 72
    65
 73
     0
 40
0.0
  0
ENDTAB
  0
TABLE
  2
LAYER
 70
     2
  0
LAYER
  2
0
 70
     0
 62
     7
  6
CONTINUOUS
  0
LAYER
  2
DEFAULT
 70
     0
 62
     7
  6
CONTINUOUS
  0
ENDTAB
  0
TABLE
  2
STYLE
 70
     1
  0
STYLE
  2
STANDARD
 70
     0
 40
0.0
 41
1.0
 50
0.0
 71
     0
 42
0.2
  3
txt
  4

  0
ENDTAB
  0
TABLE
  2
VIEW
 70
     0
  0
ENDTAB
  0
TABLE
  2
UCS
 70
     0
  0
ENDTAB
  0
TABLE
  2
APPID
 70
     1
  0
APPID
  2
ACAD
 70
     0
  0
ENDTAB
  0
TABLE
  2
DIMSTYLE
 70
     1
  0
DIMSTYLE
  2
STANDARD
 70
     0
  3

  4

  5

  6

  7

 40
1.0
 41
0.18
 42
0.0625
 43
0.38
 44
0.18
 45
0.0
 46
0.0
 47
0.0
 48
0.0
140
0.18
141
0.09
142
0.0
143
25.4
144
1.0
145
0.0
146
1.0
147
0.09
 71
     0
 72
     0
 73
     1
 74
     1
 75
     0
 76
     0
 77
     0
 78
     0
170
     0
171
     2
172
     0
173
     0
174
     0
175
     0
176
     0
177
     0
178
     0
  0
ENDTAB
  0
ENDSEC
  0
SECTION
  2
BLOCKS
  0
BLOCK
  8
0
  2
$MODEL_SPACE
 70
     0
 10
0.0
 20
0.0
 30
0.0
  3
$MODEL_SPACE
  1

  0
ENDBLK
  5
21
  8
0
  0
BLOCK
 67
     1
  8
0
  2
$PAPER_SPACE
 70
     0
 10
0.0
 20
0.0
 30
0.0
  3
$PAPER_SPACE
  1

  0
ENDBLK
  5
1D
 67
     1
  8
0
  0
ENDSEC
  0
SECTION
  2
ENTITIES
  0
LINE
  5
6F
  8
DEFAULT
 10
3155.136408686139
 20
11278.77450125668
 30
0.0
 11
2698.276950651862
 21
11278.77450125668
 31
0.0
  0
LINE
  5
70
  8
DEFAULT
 10
2698.276950651862
 20
11278.77450125668
 30
0.0
 11
2698.276950651862
 21
11268.77450125668
 31
0.0
  0
ARC
  5
71
  8
DEFAULT
 10
2698.276950651862
 20
11265.52450125668
 30
0.0
 40
3.25
 50
270.0
 51
90.0
  0
LINE
  5
72
  8
DEFAULT
 10
2698.276950651862
 20
11262.27450125668
 30
0.0
 11
2690.276950651866
 21
11262.27450125668
 31
0.0
  0
LINE
  5
73
  8
DEFAULT
 10
2690.276950651866
 20
11262.27450125668
 30
0.0
 11
2690.276950651866
 21
11247.27450125668
 31
0.0
  0
LINE
  5
74
  8
DEFAULT
 10
2690.276950651866
 20
11247.27450125668
 30
0.0
 11
2690.276950651866
 21
11237.27450125668
 31
0.0
  0
LINE
  5
75
  8
DEFAULT
 10
2690.276950651866
 20
11237.27450125668
 30
0.0
 11
2690.276950651866
 21
11227.27450125668
 31
0.0
  0
LINE
  5
76
  8
DEFAULT
 10
2690.276950651866
 20
11227.27450125668
 30
0.0
 11
2690.276950651866
 21
11212.27450125668
 31
0.0
  0
LINE
  5
77
  8
DEFAULT
 10
2690.276950651866
 20
11212.27450125668
 30
0.0
 11
2698.276950651862
 21
11212.27450125668
 31
0.0
  0
ARC
  5
78
  8
DEFAULT
 10
2698.276950651862
 20
11209.02450125668
 30
0.0
 40
3.25
 50
270.0
 51
90.0
  0
LINE
  5
79
  8
DEFAULT
 10
2698.276950651862
 20
11205.77450125668
 30
0.0
 11
2698.276950651862
 21
11195.77450125668
 31
0.0
  0
LINE
  5
7A
  8
DEFAULT
 10
2698.276950651862
 20
11195.77450125668
 30
0.0
 11
3155.136408686139
 21
11195.77450125668
 31
0.0
  0
LINE
  5
7B
  8
DEFAULT
 10
3155.136408686139
 20
11195.77450125668
 30
0.0
 11
3155.136408686139
 21
11205.77450125668
 31
0.0
  0
ARC
  5
7C
  8
DEFAULT
 10
3155.136408686139
 20
11209.02450125668
 30
0.0
 40
3.25
 50
90.0
 51
270.0
  0
LINE
  5
7D
  8
DEFAULT
 10
3155.136408686139
 20
11212.27450125668
 30
0.0
 11
3163.136408686134
 21
11212.27450125668
 31
0.0
  0
LINE
  5
7E
  8
DEFAULT
 10
3163.136408686134
 20
11212.27450125668
 30
0.0
 11
3163.136408686134
 21
11227.27450125668
 31
0.0
  0
LINE
  5
7F
  8
DEFAULT
 10
3163.136408686134
 20
11227.27450125668
 30
0.0
 11
3163.136408686134
 21
11237.27450125668
 31
0.0
  0
LINE
  5
80
  8
DEFAULT
 10
3163.136408686134
 20
11237.27450125668
 30
0.0
 11
3163.136408686134
 21
11247.27450125668
 31
0.0
  0
LINE
  5
81
  8
DEFAULT
 10
3163.136408686134
 20
11247.27450125668
 30
0.0
 11
3163.136408686134
 21
11262.27450125668
 31
0.0
  0
LINE
  5
82
  8
DEFAULT
 10
3163.136408686134
 20
11262.27450125668
 30
0.0
 11
3155.136408686139
 21
11262.27450125668
 31
0.0
  0
ARC
  5
83
  8
DEFAULT
 10
3155.136408686139
 20
11265.52450125668
 30
0.0
 40
3.25
 50
90.0
 51
270.0
  0
LINE
  5
84
  8
DEFAULT
 10
3155.136408686139
 20
11268.77450125668
 30
0.0
 11
3155.136408686139
 21
11278.77450125668
 31
0.0
  0
LINE
  5
85
  8
DEFAULT
 10
2500.998646303548
 20
11684.07151138693
 30
0.0
 11
2500.998646303548
 21
11692.27151138693
 31
0.0
  0
ARC
  5
86
  8
DEFAULT
 10
3151.719835354862
 20
11417.50781748259
 30
0.0
 40
3.25
 50
90.0
 51
270.0
  0
LINE
  5
87
  8
DEFAULT
 10
3151.719835354862
 20
11420.75781748259
 30
0.0
 11
3151.719835354862
 21
11424.25781748259
 31
0.0
  0
LINE
  5
88
  8
DEFAULT
 10
3151.719835354862
 20
11424.25781748259
 30
0.0
 11
3151.719835354882
 21
11443.33041838684
 31
0.0
  0
LINE
  5
89
  8
DEFAULT
 10
3151.719835354882
 20
11443.33041838684
 30
0.0
 11
3137.442977291309
 21
11433.87239679179
 31
0.0
  0
LINE
  5
8A
  8
DEFAULT
 10
3137.442977291309
 20
11433.87239679179
 30
0.0
 11
3123.166119227736
 21
11425.02457013836
 31
0.0
  0
LINE
  5
8B
  8
DEFAULT
 10
3123.166119227736
 20
11425.02457013836
 30
0.0
 11
3108.889261164164
 21
11416.78693842654
 31
0.0
  0
LINE
  5
8C
  8
DEFAULT
 10
3108.889261164164
 20
11416.78693842654
 30
0.0
 11
3094.612403100591
 21
11409.15950165633
 31
0.0
  0
LINE
  5
8D
  8
DEFAULT
 10
3094.612403100591
 20
11409.15950165633
 30
0.0
 11
3080.335545037019
 21
11402.14225982775
 31
0.0
  0
LINE
  5
8E
  8
DEFAULT
 10
3080.335545037019
 20
11402.14225982775
 30
0.0
 11
3073.197116005233
 21
11398.86246201656
 31
0.0
  0
LINE
  5
8F
  8
DEFAULT
 10
3073.197116005233
 20
11398.86246201656
 30
0.0
 11
3066.058686973446
 21
11395.73521294078
 31
0.0
  0
LINE
  5
90
  8
DEFAULT
 10
3066.058686973446
 20
11395.73521294078
 30
0.0
 11
3058.92025794166
 21
11392.7605126004
 31
0.0
  0
LINE
  5
91
  8
DEFAULT
 10
3058.92025794166
 20
11392.7605126004
 30
0.0
 11
3051.781828909874
 21
11389.93836099542
 31
0.0
  0
LINE
  5
92
  8
DEFAULT
 10
3051.781828909874
 20
11389.93836099542
 30
0.0
 11
3044.643399878088
 21
11387.26875812585
 31
0.0
  0
LINE
  5
93
  8
DEFAULT
 10
3044.643399878088
 20
11387.26875812585
 30
0.0
 11
3037.504970846302
 21
11384.75170399169
 31
0.0
  0
LINE
  5
94
  8
DEFAULT
 10
3037.504970846302
 20
11384.75170399169
 30
0.0
 11
3030.366541814516
 21
11382.38719859292
 31
0.0
  0
LINE
  5
95
  8
DEFAULT
 10
3030.366541814516
 20
11382.38719859292
 30
0.0
 11
3023.22811278273
 21
11380.17524192956
 31
0.0
  0
LINE
  5
96
  8
DEFAULT
 10
3023.22811278273
 20
11380.17524192956
 30
0.0
 11
3016.089683750944
 21
11378.11583400161
 31
0.0
  0
LINE
  5
97
  8
DEFAULT
 10
3016.089683750944
 20
11378.11583400161
 30
0.0
 11
3008.951254719158
 21
11376.20897480906
 31
0.0
  0
LINE
  5
98
  8
DEFAULT
 10
3008.951254719158
 20
11376.20897480906
 30
0.0
 11
3001.812825687372
 21
11374.45466435191
 31
0.0
  0
LINE
  5
99
  8
DEFAULT
 10
3001.812825687372
 20
11374.45466435191
 30
0.0
 11
2994.674396655586
 21
11372.85290263017
 31
0.0
  0
LINE
  5
9A
  8
DEFAULT
 10
2994.674396655586
 20
11372.85290263017
 30
0.0
 11
2987.5359676238
 21
11371.40368964383
 31
0.0
  0
LINE
  5
9B
  8
DEFAULT
 10
2987.5359676238
 20
11371.40368964383
 30
0.0
 11
2980.397538592014
 21
11370.1070253929
 31
0.0
  0
LINE
  5
9C
  8
DEFAULT
 10
2980.397538592014
 20
11370.1070253929
 30
0.0
 11
2973.259109560228
 21
11368.96290987737
 31
0.0
  0
LINE
  5
9D
  8
DEFAULT
 10
2973.259109560228
 20
11368.96290987737
 30
0.0
 11
2966.120680528443
 21
11367.97134309724
 31
0.0
  0
LINE
  5
9E
  8
DEFAULT
 10
2966.120680528443
 20
11367.97134309724
 30
0.0
 11
2958.982251496657
 21
11367.13232505252
 31
0.0
  0
LINE
  5
9F
  8
DEFAULT
 10
2958.982251496657
 20
11367.13232505252
 30
0.0
 11
2951.843822464871
 21
11366.4458557432
 31
0.0
  0
LINE
  5
A0
  8
DEFAULT
 10
2951.843822464871
 20
11366.4458557432
 30
0.0
 11
2944.705393433085
 21
11365.91193516928
 31
0.0
  0
LINE
  5
A1
  8
DEFAULT
 10
2944.705393433085
 20
11365.91193516928
 30
0.0
 11
2937.566964401299
 21
11365.53056333077
 31
0.0
  0
LINE
  5
A2
  8
DEFAULT
 10
2937.566964401299
 20
11365.53056333077
 30
0.0
 11
2930.428535369513
 21
11365.30174022767
 31
0.0
  0
LINE
  5
A3
  8
DEFAULT
 10
2930.428535369513
 20
11365.30174022767
 30
0.0
 11
2923.290106337728
 21
11365.22546585996
 31
0.0
  0
LINE
  5
A4
  8
DEFAULT
 10
2923.290106337728
 20
11365.22546585996
 30
0.0
 11
2916.151677305942
 21
11365.30174022767
 31
0.0
  0
LINE
  5
A5
  8
DEFAULT
 10
2916.151677305942
 20
11365.30174022767
 30
0.0
 11
2909.013248274156
 21
11365.53056333077
 31
0.0
  0
LINE
  5
A6
  8
DEFAULT
 10
2909.013248274156
 20
11365.53056333077
 30
0.0
 11
2901.87481924237
 21
11365.91193516928
 31
0.0
  0
LINE
  5
A7
  8
DEFAULT
 10
2901.87481924237
 20
11365.91193516928
 30
0.0
 11
2894.736390210584
 21
11366.4458557432
 31
0.0
  0
LINE
  5
A8
  8
DEFAULT
 10
2894.736390210584
 20
11366.4458557432
 30
0.0
 11
2887.597961178799
 21
11367.13232505252
 31
0.0
  0
LINE
  5
A9
  8
DEFAULT
 10
2887.597961178799
 20
11367.13232505252
 30
0.0
 11
2880.459532147013
 21
11367.97134309724
 31
0.0
  0
LINE
  5
AA
  8
DEFAULT
 10
2880.459532147013
 20
11367.97134309724
 30
0.0
 11
2873.321103115228
 21
11368.96290987737
 31
0.0
  0
LINE
  5
AB
  8
DEFAULT
 10
2873.321103115228
 20
11368.96290987737
 30
0.0
 11
2866.182674083442
 21
11370.1070253929
 31
0.0
  0
LINE
  5
AC
  8
DEFAULT
 10
2866.182674083442
 20
11370.1070253929
 30
0.0
 11
2859.044245051657
 21
11371.40368964383
 31
0.0
  0
LINE
  5
AD
  8
DEFAULT
 10
2859.044245051657
 20
11371.40368964383
 30
0.0
 11
2851.905816019871
 21
11372.85290263017
 31
0.0
  0
LINE
  5
AE
  8
DEFAULT
 10
2851.905816019871
 20
11372.85290263017
 30
0.0
 11
2844.767386988085
 21
11374.45466435191
 31
0.0
  0
LINE
  5
AF
  8
DEFAULT
 10
2844.767386988085
 20
11374.45466435191
 30
0.0
 11
2837.6289579563
 21
11376.20897480906
 31
0.0
  0
LINE
  5
B0
  8
DEFAULT
 10
2837.6289579563
 20
11376.20897480906
 30
0.0
 11
2830.490528924514
 21
11378.11583400161
 31
0.0
  0
LINE
  5
B1
  8
DEFAULT
 10
2830.490528924514
 20
11378.11583400161
 30
0.0
 11
2823.352099892729
 21
11380.17524192956
 31
0.0
  0
LINE
  5
B2
  8
DEFAULT
 10
2823.352099892729
 20
11380.17524192956
 30
0.0
 11
2816.213670860943
 21
11382.38719859292
 31
0.0
  0
LINE
  5
B3
  8
DEFAULT
 10
2816.213670860943
 20
11382.38719859292
 30
0.0
 11
2809.075241829158
 21
11384.75170399169
 31
0.0
  0
LINE
  5
B4
  8
DEFAULT
 10
2809.075241829158
 20
11384.75170399169
 30
0.0
 11
2801.936812797372
 21
11387.26875812585
 31
0.0
  0
LINE
  5
B5
  8
DEFAULT
 10
2801.936812797372
 20
11387.26875812585
 30
0.0
 11
2794.798383765587
 21
11389.93836099542
 31
0.0
  0
LINE
  5
B6
  8
DEFAULT
 10
2794.798383765587
 20
11389.93836099542
 30
0.0
 11
2787.659954733801
 21
11392.7605126004
 31
0.0
  0
LINE
  5
B7
  8
DEFAULT
 10
2787.659954733801
 20
11392.7605126004
 30
0.0
 11
2780.521525702016
 21
11395.73521294078
 31
0.0
  0
LINE
  5
B8
  8
DEFAULT
 10
2780.521525702016
 20
11395.73521294078
 30
0.0
 11
2773.383096670231
 21
11398.86246201656
 31
0.0
  0
LINE
  5
B9
  8
DEFAULT
 10
2773.383096670231
 20
11398.86246201656
 30
0.0
 11
2766.244667638445
 21
11402.14225982775
 31
0.0
  0
LINE
  5
BA
  8
DEFAULT
 10
2766.244667638445
 20
11402.14225982775
 30
0.0
 11
2751.967809574875
 21
11409.15950165633
 31
0.0
  0
LINE
  5
BB
  8
DEFAULT
 10
2751.967809574875
 20
11409.15950165633
 30
0.0
 11
2737.690951511304
 21
11416.78693842654
 31
0.0
  0
LINE
  5
BC
  8
DEFAULT
 10
2737.690951511304
 20
11416.78693842654
 30
0.0
 11
2723.414093447734
 21
11425.02457013836
 31
0.0
  0
LINE
  5
BD
  8
DEFAULT
 10
2723.414093447734
 20
11425.02457013836
 30
0.0
 11
2709.137235384163
 21
11433.87239679179
 31
0.0
  0
LINE
  5
BE
  8
DEFAULT
 10
2709.137235384163
 20
11433.87239679179
 30
0.0
 11
2694.860377320593
 21
11443.33041838684
 31
0.0
  0
LINE
  5
BF
  8
DEFAULT
 10
2694.860377320593
 20
11443.33041838684
 30
0.0
 11
2694.860377320593
 21
11424.25781748259
 31
0.0
  0
LINE
  5
C0
  8
DEFAULT
 10
2694.860377320593
 20
11424.25781748259
 30
0.0
 11
2694.860377320594
 21
11420.75781748259
 31
0.0
  0
ARC
  5
C1
  8
DEFAULT
 10
2694.860377320594
 20
11417.50781748259
 30
0.0
 40
3.25
 50
270.0
 51
90.0
  0
LINE
  5
C2
  8
DEFAULT
 10
2694.860377320594
 20
11414.25781748259
 30
0.0
 11
2686.860377320593
 21
11414.25781748259
 31
0.0
  0
LINE
  5
C3
  8
DEFAULT
 10
2686.860377320593
 20
11414.25781748259
 30
0.0
 11
2686.860377320593
 21
11314.25781748259
 31
0.0
  0
LINE
  5
C4
  8
DEFAULT
 10
2686.860377320593
 20
11314.25781748259
 30
0.0
 11
2694.860377320593
 21
11314.25781748259
 31
0.0
  0
ARC
  5
C5
  8
DEFAULT
 10
2694.860377320594
 20
11311.00781748258
 30
0.0
 40
3.25
 50
270.0
 51
90.0
  0
LINE
  5
C6
  8
DEFAULT
 10
2694.860377320594
 20
11307.75781748258
 30
0.0
 11
2694.860377320593
 21
11304.25781748259
 31
0.0
  0
LINE
  5
C7
  8
DEFAULT
 10
2694.860377320593
 20
11304.25781748259
 30
0.0
 11
2891.790106337726
 21
11304.25781748259
 31
0.0
  0
ARC
  5
C8
  8
DEFAULT
 10
2895.040106337726
 20
11304.25781748259
 30
0.0
 40
3.25
 50
0.0
 51
180.0
  0
LINE
  5
C9
  8
DEFAULT
 10
2898.290106337726
 20
11304.25781748259
 30
0.0
 11
2898.290106337726
 21
11296.25781748259
 31
0.0
  0
LINE
  5
CA
  8
DEFAULT
 10
2898.290106337726
 20
11296.25781748259
 30
0.0
 11
2948.290106337729
 21
11296.25781748259
 31
0.0
  0
LINE
  5
CB
  8
DEFAULT
 10
2948.290106337729
 20
11296.25781748259
 30
0.0
 11
2948.290106337729
 21
11304.25781748259
 31
0.0
  0
ARC
  5
CC
  8
DEFAULT
 10
2951.540106337729
 20
11304.25781748259
 30
0.0
 40
3.25
 50
0.0
 51
180.0
  0
LINE
  5
CD
  8
DEFAULT
 10
2954.790106337728
 20
11304.25781748259
 30
0.0
 11
3151.719835354862
 21
11304.25781748259
 31
0.0
  0
LINE
  5
CE
  8
DEFAULT
 10
3151.719835354862
 20
11304.25781748259
 30
0.0
 11
3151.719835354862
 21
11307.75781748258
 31
0.0
  0
ARC
  5
CF
  8
DEFAULT
 10
3151.719835354862
 20
11311.00781748258
 30
0.0
 40
3.25
 50
90.0
 51
270.0
  0
LINE
  5
D0
  8
DEFAULT
 10
3151.719835354862
 20
11314.25781748258
 30
0.0
 11
3159.719835354862
 21
11314.25781748258
 31
0.0
  0
LINE
  5
D1
  8
DEFAULT
 10
3159.719835354862
 20
11314.25781748258
 30
0.0
 11
3159.719835354862
 21
11414.25781748259
 31
0.0
  0
LINE
  5
D2
  8
DEFAULT
 10
3159.719835354862
 20
11414.25781748259
 30
0.0
 11
3151.719835354862
 21
11414.25781748259
 31
0.0
  0
ARC
  5
D3
  8
DEFAULT
 10
2549.240584975601
 20
10831.21058479581
 30
0.0
 40
3.25
 50
90.0
 51
270.0
  0
LINE
  5
D4
  8
DEFAULT
 10
2549.240584975601
 20
10827.96058479581
 30
0.0
 11
2557.440584975602
 21
10827.96058479581
 31
0.0
  0
ARC
  5
D5
  8
DEFAULT
 10
2557.440584975602
 20
10831.21058479581
 30
0.0
 40
3.25
 50
270.0
 51
90.0
  0
LINE
  5
D6
  8
DEFAULT
 10
2557.440584975602
 20
10834.46058479581
 30
0.0
 11
2557.440584975602
 21
10851.46058479581
 31
0.0
  0
ARC
  5
D7
  8
DEFAULT
 10
2557.440584975602
 20
10854.71058479581
 30
0.0
 40
3.25
 50
270.0
 51
90.0
  0
LINE
  5
D8
  8
DEFAULT
 10
2557.440584975602
 20
10857.96058479581
 30
0.0
 11
2549.240584975601
 21
10857.96058479581
 31
0.0
  0
ARC
  5
D9
  8
DEFAULT
 10
2549.240584975601
 20
10854.71058479581
 30
0.0
 40
3.25
 50
90.0
 51
270.0
  0
LINE
  5
DA
  8
DEFAULT
 10
2549.240584975601
 20
10851.46058479581
 30
0.0
 11
2549.240584975601
 21
10834.46058479581
 31
0.0
  0
LINE
  5
DB
  8
DEFAULT
 10
2399.240584975605
 20
10851.46058479581
 30
0.0
 11
2399.240584975605
 21
10834.46058479581
 31
0.0
  0
ARC
  5
DC
  8
DEFAULT
 10
2399.240584975605
 20
10831.21058479581
 30
0.0
 40
3.25
 50
90.0
 51
270.0
  0
LINE
  5
DD
  8
DEFAULT
 10
2399.240584975605
 20
10827.96058479581
 30
0.0
 11
2407.440584975606
 21
10827.96058479581
 31
0.0
  0
ARC
  5
DE
  8
DEFAULT
 10
2407.440584975606
 20
10831.21058479581
 30
0.0
 40
3.25
 50
270.0
 51
90.0
  0
LINE
  5
DF
  8
DEFAULT
 10
2407.440584975606
 20
10834.46058479581
 30
0.0
 11
2407.440584975606
 21
10851.46058479581
 31
0.0
  0
ARC
  5
E0
  8
DEFAULT
 10
2407.440584975606
 20
10854.71058479581
 30
0.0
 40
3.25
 50
270.0
 51
90.0
  0
LINE
  5
E1
  8
DEFAULT
 10
2407.440584975606
 20
10857.96058479581
 30
0.0
 11
2399.240584975605
 21
10857.96058479581
 31
0.0
  0
ARC
  5
E2
  8
DEFAULT
 10
2399.240584975605
 20
10854.71058479581
 30
0.0
 40
3.25
 50
90.0
 51
270.0
  0
LINE
  5
E3
  8
DEFAULT
 10
2501.433215425761
 20
11403.48855472788
 30
0.0
 11
2475.270264521856
 21
11377.32560382398
 31
0.0
  0
ARC
  5
E4
  8
DEFAULT
 10
2472.972167483
 20
11375.02750678512
 30
0.0
 40
3.25
 50
225.0
 51
45.0
  0
LINE
  5
E5
  8
DEFAULT
 10
2470.674070444144
 20
11372.72940974627
 30
0.0
 11
2464.875794838414
 21
11378.527685352
 31
0.0
  0
ARC
  5
E6
  8
DEFAULT
 10
2467.17389187727
 20
11380.82578239086
 30
0.0
 40
3.25
 50
45.0
 51
225.0
  0
LINE
  5
E7
  8
DEFAULT
 10
2469.471988916126
 20
11383.12387942971
 30
0.0
 11
2495.634939820031
 21
11409.28683033362
 31
0.0
  0
ARC
  5
E8
  8
DEFAULT
 10
2497.933036858887
 20
11411.58492737247
 30
0.0
 40
3.25
 50
45.0
 51
225.0
  0
LINE
  5
E9
  8
DEFAULT
 10
2500.231133897743
 20
11413.88302441133
 30
0.0
 11
2506.029409503473
 21
11408.0847488056
 31
0.0
  0
ARC
  5
EA
  8
DEFAULT
 10
2503.731312464617
 20
11405.78665176674
 30
0.0
 40
3.25
 50
225.0
 51
45.0
  0
LINE
  5
EB
  8
DEFAULT
 10
2481.352602170949
 20
10834.46058479581
 30
0.0
 11
2481.352602170949
 21
10921.46058479581
 31
0.0
  0
ARC
  5
EC
  8
DEFAULT
 10
2481.352602170949
 20
10924.71058479581
 30
0.0
 40
3.25
 50
90.0
 51
270.0
  0
LINE
  5
ED
  8
DEFAULT
 10
2481.352602170949
 20
10927.96058479581
 30
0.0
 11
2489.552602170948
 21
10927.96058479581
 31
0.0
  0
ARC
  5
EE
  8
DEFAULT
 10
2489.55260217095
 20
10924.71058479581
 30
0.0
 40
3.25
 50
270.0
 51
90.0
  0
LINE
  5
EF
  8
DEFAULT
 10
2489.55260217095
 20
10921.46058479581
 30
0.0
 11
2489.55260217095
 21
10834.46058479581
 31
0.0
  0
ARC
  5
F0
  8
DEFAULT
 10
2489.55260217095
 20
10831.21058479581
 30
0.0
 40
3.25
 50
270.0
 51
90.0
  0
LINE
  5
F1
  8
DEFAULT
 10
2489.55260217095
 20
10827.96058479581
 30
0.0
 11
2481.352602170949
 21
10827.96058479581
 31
0.0
  0
ARC
  5
F2
  8
DEFAULT
 10
2481.352602170949
 20
10831.21058479581
 30
0.0
 40
3.25
 50
90.0
 51
270.0
  0
ARC
  5
F3
  8
DEFAULT
 10
2338.306066120625
 20
11557.9605847958
 30
0.0
 40
10.0
 50
90.0
 51
184.6483977629183
  0
LINE
  5
F4
  8
DEFAULT
 10
2338.306066120625
 20
11567.9605847958
 30
0.0
 11
2355.944730245103
 21
11567.9605847958
 31
0.0
  0
ARC
  5
F5
  8
DEFAULT
 10
2355.944730245101
 20
11547.9605847958
 30
0.0
 40
20.0
 50
9.073730113146494
 51
89.9999999999948
  0
LINE
  5
F6
  8
DEFAULT
 10
2375.694454601226
 20
11551.11469130273
 30
0.0
 11
2375.981909830185
 21
11549.74361430571
 31
0.0
  0
LINE
  5
F7
  8
DEFAULT
 10
2375.981909830185
 20
11549.74361430571
 30
0.0
 11
2376.299036400036
 21
11548.35390336037
 31
0.0
  0
LINE
  5
F8
  8
DEFAULT
 10
2376.299036400036
 20
11548.35390336037
 30
0.0
 11
2377.023789348728
 21
11545.51982280805
 31
0.0
  0
LINE
  5
F9
  8
DEFAULT
 10
2377.023789348728
 20
11545.51982280805
 30
0.0
 11
2377.871491159161
 21
11542.61517531592
 31
0.0
  0
LINE
  5
FA
  8
DEFAULT
 10
2377.871491159161
 20
11542.61517531592
 30
0.0
 11
2378.844585249019
 21
11539.64307240286
 31
0.0
  0
LINE
  5
FB
  8
DEFAULT
 10
2378.844585249019
 20
11539.64307240286
 30
0.0
 11
2379.945146967745
 21
11536.60701314891
 31
0.0
  0
LINE
  5
FC
  8
DEFAULT
 10
2379.945146967745
 20
11536.60701314891
 30
0.0
 11
2381.17485113364
 21
11533.51088233252
 31
0.0
  0
LINE
  5
FD
  8
DEFAULT
 10
2381.17485113364
 20
11533.51088233252
 30
0.0
 11
2382.534941415311
 21
11530.35894475261
 31
0.0
  0
LINE
  5
FE
  8
DEFAULT
 10
2382.534941415311
 20
11530.35894475261
 30
0.0
 11
2384.026202101376
 21
11527.15583554499
 31
0.0
  0
LINE
  5
FF
  8
DEFAULT
 10
2384.026202101376
 20
11527.15583554499
 30
0.0
 11
2385.64893280148
 21
11523.90654636005
 31
0.0
  0
LINE
  5
100
  8
DEFAULT
 10
2385.64893280148
 20
11523.90654636005
 30
0.0
 11
2387.402926607851
 21
11520.61640733532
 31
0.0
  0
LINE
  5
101
  8
DEFAULT
 10
2387.402926607851
 20
11520.61640733532
 30
0.0
 11
2389.287452219193
 21
11517.29106486881
 31
0.0
  0
LINE
  5
102
  8
DEFAULT
 10
2389.287452219193
 20
11517.29106486881
 30
0.0
 11
2391.301240487292
 21
11513.93645527785
 31
0.0
  0
LINE
  5
103
  8
DEFAULT
 10
2391.301240487292
 20
11513.93645527785
 30
0.0
 11
2393.442475791359
 21
11510.55877450906
 31
0.0
  0
LINE
  5
104
  8
DEFAULT
 10
2393.442475791359
 20
11510.55877450906
 30
0.0
 11
2395.708792576569
 21
11507.16444414866
 31
0.0
  0
LINE
  5
105
  8
DEFAULT
 10
2395.708792576569
 20
11507.16444414866
 30
0.0
 11
2398.097277312589
 21
11503.7600740631
 31
0.0
  0
LINE
  5
106
  8
DEFAULT
 10
2398.097277312589
 20
11503.7600740631
 30
0.0
 11
2400.604476036906
 21
11500.35242207837
 31
0.0
  0
LINE
  5
107
  8
DEFAULT
 10
2400.604476036906
 20
11500.35242207837
 30
0.0
 11
2403.226407548534
 21
11496.94835117734
 31
0.0
  0
LINE
  5
108
  8
DEFAULT
 10
2403.226407548534
 20
11496.94835117734
 30
0.0
 11
2405.958582212999
 21
11493.55478475731
 31
0.0
  0
LINE
  5
109
  8
DEFAULT
 10
2405.958582212999
 20
11493.55478475731
 30
0.0
 11
2408.796026232196
 21
11490.17866054132
 31
0.0
  0
LINE
  5
10A
  8
DEFAULT
 10
2408.796026232196
 20
11490.17866054132
 30
0.0
 11
2411.733311125989
 21
11486.82688377536
 31
0.0
  0
LINE
  5
10B
  8
DEFAULT
 10
2411.733311125989
 20
11486.82688377536
 30
0.0
 11
2414.764588069623
 21
11483.50628036742
 31
0.0
  0
LINE
  5
10C
  8
DEFAULT
 10
2414.764588069623
 20
11483.50628036742
 30
0.0
 11
2417.88362663521
 21
11480.22355063277
 31
0.0
  0
LINE
  5
10D
  8
DEFAULT
 10
2417.88362663521
 20
11480.22355063277
 30
0.0
 11
2421.083857399886
 21
11476.98522430198
 31
0.0
  0
LINE
  5
10E
  8
DEFAULT
 10
2421.083857399886
 20
11476.98522430198
 30
0.0
 11
2424.358417810242
 21
11473.7976174249
 31
0.0
  0
LINE
  5
10F
  8
DEFAULT
 10
2424.358417810242
 20
11473.7976174249
 30
0.0
 11
2427.700200634643
 21
11470.6667917643
 31
0.0
  0
LINE
  5
110
  8
DEFAULT
 10
2427.700200634643
 20
11470.6667917643
 30
0.0
 11
2431.101904293598
 21
11467.59851722091
 31
0.0
  0
LINE
  5
111
  8
DEFAULT
 10
2431.101904293598
 20
11467.59851722091
 30
0.0
 11
2434.556084334527
 21
11464.59823776576
 31
0.0
  0
LINE
  5
112
  8
DEFAULT
 10
2434.556084334527
 20
11464.59823776576
 30
0.0
 11
2438.055205311477
 21
11461.67104128137
 31
0.0
  0
LINE
  5
113
  8
DEFAULT
 10
2438.055205311477
 20
11461.67104128137
 30
0.0
 11
2441.591692342137
 21
11458.82163363022
 31
0.0
  0
LINE
  5
114
  8
DEFAULT
 10
2441.591692342137
 20
11458.82163363022
 30
0.0
 11
2445.157981643166
 21
11456.05431718206
 31
0.0
  0
LINE
  5
115
  8
DEFAULT
 10
2445.157981643166
 20
11456.05431718206
 30
0.0
 11
2448.746569388693
 21
11453.37297394157
 31
0.0
  0
LINE
  5
116
  8
DEFAULT
 10
2448.746569388693
 20
11453.37297394157
 30
0.0
 11
2452.350058294096
 21
11450.78105332949
 31
0.0
  0
ARC
  5
117
  8
DEFAULT
 10
2481.176546689783
 20
11491.63486057892
 30
0.0
 40
50.0
 50
234.7931666849449
 51
305.206833315093
  0
LINE
  5
118
  8
DEFAULT
 10
2510.0030350855
 20
11450.78105332951
 30
0.0
 11
2513.606523433032
 21
11453.3729728167
 31
0.0
  0
LINE
  5
119
  8
DEFAULT
 10
2513.606523433032
 20
11453.3729728167
 30
0.0
 11
2517.195110683719
 21
11456.05431501008
 31
0.0
  0
LINE
  5
11A
  8
DEFAULT
 10
2517.195110683719
 20
11456.05431501008
 30
0.0
 11
2520.761399551852
 21
11458.82163049191
 31
0.0
  0
LINE
  5
11B
  8
DEFAULT
 10
2520.761399551852
 20
11458.82163049191
 30
0.0
 11
2524.297886210058
 21
11461.67103726004
 31
0.0
  0
LINE
  5
11C
  8
DEFAULT
 10
2524.297886210058
 20
11461.67103726004
 30
0.0
 11
2527.797006873096
 21
11464.59823294677
 31
0.0
  0
LINE
  5
11D
  8
DEFAULT
 10
2527.797006873096
 20
11464.59823294677
 30
0.0
 11
2531.251186656375
 21
11467.59851169111
 31
0.0
  0
LINE
  5
11E
  8
DEFAULT
 10
2531.251186656375
 20
11467.59851169111
 30
0.0
 11
2534.652890111318
 21
11470.66678561147
 31
0.0
  0
LINE
  5
11F
  8
DEFAULT
 10
2534.652890111318
 20
11470.66678561147
 30
0.0
 11
2537.994672782406
 21
11473.79761073718
 31
0.0
  0
LINE
  5
120
  8
DEFAULT
 10
2537.994672782406
 20
11473.79761073718
 30
0.0
 11
2541.269233086932
 21
11476.98521716732
 31
0.0
  0
LINE
  5
121
  8
DEFAULT
 10
2541.269233086932
 20
11476.98521716732
 30
0.0
 11
2544.469463789819
 21
11480.22354313833
 31
0.0
  0
LINE
  5
122
  8
DEFAULT
 10
2544.469463789819
 20
11480.22354313833
 30
0.0
 11
2547.588502334034
 21
11483.50627259905
 31
0.0
  0
LINE
  5
123
  8
DEFAULT
 10
2547.588502334034
 20
11483.50627259905
 30
0.0
 11
2550.619779292953
 21
11486.826875817
 31
0.0
  0
LINE
  5
124
  8
DEFAULT
 10
2550.619779292953
 20
11486.826875817
 30
0.0
 11
2553.557064234851
 21
11490.17865247455
 31
0.0
  0
LINE
  5
125
  8
DEFAULT
 10
2553.557064234851
 20
11490.17865247455
 30
0.0
 11
2556.394508331105
 21
11493.55477666084
 31
0.0
  0
LINE
  5
126
  8
DEFAULT
 10
2556.394508331105
 20
11493.55477666084
 30
0.0
 11
2559.126683097736
 21
11496.94834312658
 31
0.0
  0
LINE
  5
127
  8
DEFAULT
 10
2559.126683097736
 20
11496.94834312658
 30
0.0
 11
2561.748614732864
 21
11500.35241414503
 31
0.0
  0
LINE
  5
128
  8
DEFAULT
 10
2561.748614732864
 20
11500.35241414503
 30
0.0
 11
2564.25581359836
 21
11503.76006631488
 31
0.0
  0
LINE
  5
129
  8
DEFAULT
 10
2564.25581359836
 20
11503.76006631488
 30
0.0
 11
2566.644298489747
 21
11507.16443664893
 31
0.0
  0
LINE
  5
12A
  8
DEFAULT
 10
2566.644298489747
 20
11507.16443664893
 30
0.0
 11
2568.910615441209
 21
11510.55876731663
 31
0.0
  0
LINE
  5
12B
  8
DEFAULT
 10
2568.910615441209
 20
11510.55876731663
 30
0.0
 11
2571.051850919355
 21
11513.93644844683
 31
0.0
  0
LINE
  5
12C
  8
DEFAULT
 10
2571.051850919355
 20
11513.93644844683
 30
0.0
 11
2573.065639366551
 21
11517.29105844845
 31
0.0
  0
LINE
  5
12D
  8
DEFAULT
 10
2573.065639366551
 20
11517.29105844845
 30
0.0
 11
2574.950165159484
 21
11520.61640136998
 31
0.0
  0
LINE
  5
12E
  8
DEFAULT
 10
2574.950165159484
 20
11520.61640136998
 30
0.0
 11
2576.704159147711
 21
11523.9065408892
 31
0.0
  0
LINE
  5
12F
  8
DEFAULT
 10
2576.704159147711
 20
11523.9065408892
 30
0.0
 11
2578.326890028015
 21
11527.15583060321
 31
0.0
  0
LINE
  5
130
  8
DEFAULT
 10
2578.326890028015
 20
11527.15583060321
 30
0.0
 11
2579.818150891007
 21
11530.35894036973
 31
0.0
  0
LINE
  5
131
  8
DEFAULT
 10
2579.818150891007
 20
11530.35894036973
 30
0.0
 11
2581.178241345028
 21
11533.51087853371
 31
0.0
  0
LINE
  5
132
  8
DEFAULT
 10
2581.178241345028
 20
11533.51087853371
 30
0.0
 11
2582.407945677689
 21
11536.6070099549
 31
0.0
  0
LINE
  5
133
  8
DEFAULT
 10
2582.407945677689
 20
11536.6070099549
 30
0.0
 11
2583.508507556877
 21
11539.6430698301
 31
0.0
  0
LINE
  5
134
  8
DEFAULT
 10
2583.508507556877
 20
11539.6430698301
 30
0.0
 11
2584.481601800451
 21
11542.61517337683
 31
0.0
  0
LINE
  5
135
  8
DEFAULT
 10
2584.481601800451
 20
11542.61517337683
 30
0.0
 11
2585.329303757661
 21
11545.51982151126
 31
0.0
  0
LINE
  5
136
  8
DEFAULT
 10
2585.329303757661
 20
11545.51982151126
 30
0.0
 11
2586.054056846239
 21
11548.35390271103
 31
0.0
  0
LINE
  5
137
  8
DEFAULT
 10
2586.054056846239
 20
11548.35390271103
 30
0.0
 11
2586.371183483518
 21
11549.743613981
 31
0.0
  0
LINE
  5
138
  8
DEFAULT
 10
2586.371183483518
 20
11549.743613981
 30
0.0
 11
2586.658638778293
 21
11551.11469130273
 31
0.0
  0
ARC
  5
139
  8
DEFAULT
 10
2606.408363134422
 20
11547.96058479581
 30
0.0
 40
20.0
 50
90.00000000001042
 51
170.9262698868482
  0
LINE
  5
13A
  8
DEFAULT
 10
2606.408363134418
 20
11567.96058479581
 30
0.0
 11
2623.779806159022
 21
11567.96058479581
 31
0.0
  0
ARC
  5
13B
  8
DEFAULT
 10
2623.779806159022
 20
11557.96058479581
 30
0.0
 40
10.0
 50
351.2867301880693
 51
90.0
  0
LINE
  5
13C
  8
DEFAULT
 10
2633.664394439053
 20
11556.44568726321
 30
0.0
 11
2598.340584975605
 21
10817.96058479581
 31
0.0
  0
LINE
  5
13D
  8
DEFAULT
 10
2598.340584975605
 20
10817.96058479581
 30
0.0
 11
2584.840584975605
 21
10817.96058479581
 31
0.0
  0
ARC
  5
13E
  8
DEFAULT
 10
2581.590584975605
 20
10817.96058479581
 30
0.0
 40
3.25
 50
0.0
 51
180.0
  0
LINE
  5
13F
  8
DEFAULT
 10
2578.340584975605
 20
10817.96058479581
 30
0.0
 11
2578.340584975604
 21
10809.96058479581
 31
0.0
  0
LINE
  5
140
  8
DEFAULT
 10
2578.340584975604
 20
10809.96058479581
 30
0.0
 11
2528.340584975605
 21
10809.96058479581
 31
0.0
  0
LINE
  5
141
  8
DEFAULT
 10
2528.340584975605
 20
10809.96058479581
 30
0.0
 11
2528.340584975604
 21
10817.96058479581
 31
0.0
  0
ARC
  5
142
  8
DEFAULT
 10
2525.090584975604
 20
10817.96058479581
 30
0.0
 40
3.25
 50
0.0
 51
180.0
  0
LINE
  5
143
  8
DEFAULT
 10
2521.840584975604
 20
10817.96058479581
 30
0.0
 11
2434.840584975605
 21
10817.9605847958
 31
0.0
  0
ARC
  5
144
  8
DEFAULT
 10
2431.590584975605
 20
10817.9605847958
 30
0.0
 40
3.25
 50
0.0
 51
180.0
  0
LINE
  5
145
  8
DEFAULT
 10
2428.340584975605
 20
10817.9605847958
 30
0.0
 11
2428.340584975605
 21
10809.9605847958
 31
0.0
  0
LINE
  5
146
  8
DEFAULT
 10
2428.340584975605
 20
10809.9605847958
 30
0.0
 11
2378.340584975605
 21
10809.96058479582
 31
0.0
  0
LINE
  5
147
  8
DEFAULT
 10
2378.340584975605
 20
10809.96058479582
 30
0.0
 11
2378.340584975605
 21
10817.9605847958
 31
0.0
  0
ARC
  5
148
  8
DEFAULT
 10
2375.090584975605
 20
10817.9605847958
 30
0.0
 40
3.25
 50
0.0
 51
180.0
  0
LINE
  5
149
  8
DEFAULT
 10
2371.840584975607
 20
10817.9605847958
 30
0.0
 11
2358.340584975605
 21
10817.9605847958
 31
0.0
  0
LINE
  5
14A
  8
DEFAULT
 10
2358.340584975605
 20
10817.9605847958
 30
0.0
 11
2328.306066120624
 21
11557.9605847958
 31
0.0
  0
LINE
  5
14B
  8
DEFAULT
 10
2562.228556195454
 20
11229.08018443432
 30
0.0
 11
2397.456979490391
 21
11229.08018443432
 31
0.0
  0
ARC
  5
14C
  8
DEFAULT
 10
2397.456979490391
 20
11235.08018443432
 30
0.0
 40
6.0
 50
182.3241988813817
 51
270.0
  0
LINE
  5
14D
  8
DEFAULT
 10
2391.461915352422
 20
11234.83686164122
 30
0.0
 11
2389.899879426222
 21
11273.3227981388
 31
0.0
  0
ARC
  5
14E
  8
DEFAULT
 10
2395.894943564192
 20
11273.56612093189
 30
0.0
 40
6.0
 50
89.99999999998263
 51
182.3241988813817
  0
LINE
  5
14F
  8
DEFAULT
 10
2395.894943564193
 20
11279.56612093189
 30
0.0
 11
2564.069446259888
 21
11279.56612093189
 31
0.0
  0
ARC
  5
150
  8
DEFAULT
 10
2564.069446259888
 20
11273.56612093189
 30
0.0
 40
6.0
 50
357.2614697872096
 51
90.0
  0
LINE
  5
151
  8
DEFAULT
 10
2570.062594085881
 20
11273.27945189661
 30
0.0
 11
2568.221704021447
 21
11234.79351539904
 31
0.0
  0
ARC
  5
152
  8
DEFAULT
 10
2562.228556195454
 20
11235.08018443432
 30
0.0
 40
6.0
 50
270.0
 51
357.2614697872096
  0
LINE
  5
153
  8
DEFAULT
 10
2556.221146015276
 20
11104.00472442099
 30
0.0
 11
2402.48305857933
 21
11104.63757753335
 31
0.0
  0
ARC
  5
154
  8
DEFAULT
 10
2402.507756990548
 20
11110.63752669884
 30
0.0
 40
6.0
 50
182.3241988813817
 51
269.764146880004
  0
LINE
  5
155
  8
DEFAULT
 10
2396.512692852579
 20
11110.39420390575
 30
0.0
 11
2392.944266420653
 21
11198.31422594367
 31
0.0
  0
ARC
  5
156
  8
DEFAULT
 10
2398.939330558622
 20
11198.55754873676
 30
0.0
 40
6.0
 50
89.99999999998263
 51
182.3241988813817
  0
LINE
  5
157
  8
DEFAULT
 10
2398.939330558624
 20
11204.55754873676
 30
0.0
 11
2560.481576303548
 21
11204.55754873676
 31
0.0
  0
ARC
  5
158
  8
DEFAULT
 10
2560.481576303548
 20
11198.55754873676
 30
0.0
 40
6.0
 50
357.2614697872096
 51
90.0
  0
LINE
  5
159
  8
DEFAULT
 10
2566.474724129541
 20
11198.27087970149
 30
0.0
 11
2562.238992252489
 21
11109.7180045512
 31
0.0
  0
ARC
  5
15A
  8
DEFAULT
 10
2556.245844426496
 20
11110.00467358648
 30
0.0
 40
6.0
 50
269.7641468799866
 51
357.2614697872096
  0
LINE
  5
15B
  8
DEFAULT
 10
2404.034445012177
 20
11079.63097953698
 30
0.0
 11
2554.501062692219
 21
11079.01159322293
 31
0.0
  0
ARC
  5
15C
  8
DEFAULT
 10
2554.476364281001
 20
11073.01164405744
 30
0.0
 40
6.0
 50
357.261469787227
 51
89.76414688000398
  0
LINE
  5
15D
  8
DEFAULT
 10
2560.469512106994
 20
11072.72497502217
 30
0.0
 11
2558.652208173782
 21
11034.73213388424
 31
0.0
  0
ARC
  5
15E
  8
DEFAULT
 10
2552.659060347789
 20
11035.01880291952
 30
0.0
 40
6.0
 50
269.764146880004
 51
357.261469787227
  0
LINE
  5
15F
  8
DEFAULT
 10
2552.634361936571
 20
11029.01885375403
 30
0.0
 11
2405.527632113939
 21
11029.62440930224
 31
0.0
  0
ARC
  5
160
  8
DEFAULT
 10
2405.552330525157
 20
11035.62435846773
 30
0.0
 40
6.0
 50
182.3241988813817
 51
269.764146880004
  0
LINE
  5
161
  8
DEFAULT
 10
2399.557266387188
 20
11035.38103567464
 30
0.0
 11
2398.014682462988
 21
11073.3877075784
 31
0.0
  0
ARC
  5
162
  8
DEFAULT
 10
2404.009746600957
 20
11073.63103037149
 30
0.0
 40
6.0
 50
89.76414687999102
 51
182.3241988813817
  0
LINE
  5
163
  8
DEFAULT
 10
2116.125542034394
 20
11294.77529252203
 30
0.0
 11
2266.592159714436
 21
11295.39467883608
 31
0.0
  0
ARC
  5
164
  8
DEFAULT
 10
2266.567461303218
 20
11301.39462800157
 30
0.0
 40
6.0
 50
270.235853119996
 51
2.738530212773008
  0
LINE
  5
165
  8
DEFAULT
 10
2272.560609129211
 20
11301.68129703685
 30
0.0
 11
2270.743305195999
 21
11339.67413817477
 31
0.0
  0
ARC
  5
166
  8
DEFAULT
 10
2264.750157370006
 20
11339.38746913949
 30
0.0
 40
6.0
 50
2.738530212773008
 51
90.23585311999595
  0
LINE
  5
167
  8
DEFAULT
 10
2264.725458958787
 20
11345.38741830498
 30
0.0
 11
2117.618729136156
 21
11344.78186275677
 31
0.0
  0
ARC
  5
168
  8
DEFAULT
 10
2117.643427547374
 20
11338.78191359128
 30
0.0
 40
6.0
 50
90.23585311999602
 51
177.6758011186183
  0
LINE
  5
169
  8
DEFAULT
 10
2111.648363409405
 20
11339.02523638438
 30
0.0
 11
2110.105779485205
 21
11301.01856448061
 31
0.0
  0
ARC
  5
16A
  8
DEFAULT
 10
2116.100843623174
 20
11300.77524168752
 30
0.0
 40
6.0
 50
177.6758011186183
 51
270.235853120009
  0
LINE
  5
16B
  8
DEFAULT
 10
2268.312243037492
 20
11270.40154763803
 30
0.0
 11
2114.574155601546
 21
11269.76869452566
 31
0.0
  0
ARC
  5
16C
  8
DEFAULT
 10
2114.598854012765
 20
11263.76874536017
 30
0.0
 40
6.0
 50
90.23585311999602
 51
177.6758011186183
  0
LINE
  5
16D
  8
DEFAULT
 10
2108.603789874795
 20
11264.01206815326
 30
0.0
 11
2105.035363442869
 21
11176.09204611534
 31
0.0
  0
ARC
  5
16E
  8
DEFAULT
 10
2111.030427580838
 20
11175.84872332225
 30
0.0
 40
6.0
 50
177.6758011186183
 51
270.0000000000173
  0
LINE
  5
16F
  8
DEFAULT
 10
2111.03042758084
 20
11169.84872332225
 30
0.0
 11
2272.572673325764
 21
11169.84872332225
 31
0.0
  0
ARC
  5
170
  8
DEFAULT
 10
2272.572673325764
 20
11175.84872332225
 30
0.0
 40
6.0
 50
270.0
 51
2.738530212790359
  0
LINE
  5
171
  8
DEFAULT
 10
2278.565821151758
 20
11176.13539235753
 30
0.0
 11
2274.330089274706
 21
11264.68826750781
 31
0.0
  0
ARC
  5
172
  8
DEFAULT
 10
2268.336941448712
 20
11264.40159847254
 30
0.0
 40
6.0
 50
2.738530212790359
 51
90.23585312001339
  0
LINE
  5
173
  8
DEFAULT
 10
2274.319653217671
 20
11145.32608762469
 30
0.0
 11
2109.548076512608
 21
11145.32608762469
 31
0.0
  0
ARC
  5
174
  8
DEFAULT
 10
2109.548076512608
 20
11139.32608762469
 30
0.0
 40
6.0
 50
90.0
 51
177.6758011186183
  0
LINE
  5
175
  8
DEFAULT
 10
2103.553012374638
 20
11139.56941041779
 30
0.0
 11
2101.990976448439
 21
11101.08347392021
 31
0.0
  0
ARC
  5
176
  8
DEFAULT
 10
2107.986040586408
 20
11100.84015112712
 30
0.0
 40
6.0
 50
177.6758011186183
 51
270.0000000000173
  0
LINE
  5
177
  8
DEFAULT
 10
2107.98604058641
 20
11094.84015112712
 30
0.0
 11
2276.160543282104
 21
11094.84015112712
 31
0.0
  0
ARC
  5
178
  8
DEFAULT
 10
2276.160543282104
 20
11100.84015112712
 30
0.0
 40
6.0
 50
270.0
 51
2.738530212790359
  0
LINE
  5
179
  8
DEFAULT
 10
2282.153691108098
 20
11101.1268201624
 30
0.0
 11
2280.312801043664
 21
11139.61275665997
 31
0.0
  0
ARC
  5
17A
  8
DEFAULT
 10
2274.319653217671
 20
11139.32608762469
 30
0.0
 40
6.0
 50
2.738530212790359
 51
90.0
  0
ARC
  5
17B
  8
DEFAULT
 10
2050.397163142842
 20
10816.44568726321
 30
0.0
 40
10.0
 50
175.3516022370817
 51
270.0
  0
LINE
  5
17C
  8
DEFAULT
 10
2050.397163142842
 20
10806.44568726321
 30
0.0
 11
2068.035827267319
 21
10806.44568726321
 31
0.0
  0
ARC
  5
17D
  8
DEFAULT
 10
2068.035827267317
 20
10826.44568726321
 30
0.0
 40
20.0
 50
270.0000000000052
 51
350.9262698868535
  0
LINE
  5
17E
  8
DEFAULT
 10
2087.785551623443
 20
10823.29158075628
 30
0.0
 11
2088.073006852402
 21
10824.6626577533
 31
0.0
  0
LINE
  5
17F
  8
DEFAULT
 10
2088.073006852402
 20
10824.6626577533
 30
0.0
 11
2088.390133422252
 21
10826.05236869864
 31
0.0
  0
LINE
  5
180
  8
DEFAULT
 10
2088.390133422252
 20
10826.05236869864
 30
0.0
 11
2089.114886370945
 21
10828.88644925096
 31
0.0
  0
LINE
  5
181
  8
DEFAULT
 10
2089.114886370945
 20
10828.88644925096
 30
0.0
 11
2089.962588181378
 21
10831.79109674309
 31
0.0
  0
LINE
  5
182
  8
DEFAULT
 10
2089.962588181378
 20
10831.79109674309
 30
0.0
 11
2090.935682271237
 21
10834.76319965615
 31
0.0
  0
LINE
  5
183
  8
DEFAULT
 10
2090.935682271237
 20
10834.76319965615
 30
0.0
 11
2092.036243989962
 21
10837.7992589101
 31
0.0
  0
LINE
  5
184
  8
DEFAULT
 10
2092.036243989962
 20
10837.7992589101
 30
0.0
 11
2093.265948155858
 21
10840.8953897265
 31
0.0
  0
LINE
  5
185
  8
DEFAULT
 10
2093.265948155858
 20
10840.8953897265
 30
0.0
 11
2094.626038437529
 21
10844.0473273064
 31
0.0
  0
LINE
  5
186
  8
DEFAULT
 10
2094.626038437529
 20
10844.0473273064
 30
0.0
 11
2096.117299123593
 21
10847.25043651402
 31
0.0
  0
LINE
  5
187
  8
DEFAULT
 10
2096.117299123593
 20
10847.25043651402
 30
0.0
 11
2097.740029823697
 21
10850.49972569896
 31
0.0
  0
LINE
  5
188
  8
DEFAULT
 10
2097.740029823697
 20
10850.49972569896
 30
0.0
 11
2099.494023630067
 21
10853.7898647237
 31
0.0
  0
LINE
  5
189
  8
DEFAULT
 10
2099.494023630067
 20
10853.7898647237
 30
0.0
 11
2101.378549241409
 21
10857.1152071902
 31
0.0
  0
LINE
  5
18A
  8
DEFAULT
 10
2101.378549241409
 20
10857.1152071902
 30
0.0
 11
2103.392337509509
 21
10860.46981678116
 31
0.0
  0
LINE
  5
18B
  8
DEFAULT
 10
2103.392337509509
 20
10860.46981678116
 30
0.0
 11
2105.533572813576
 21
10863.84749754995
 31
0.0
  0
LINE
  5
18C
  8
DEFAULT
 10
2105.533572813576
 20
10863.84749754995
 30
0.0
 11
2107.799889598786
 21
10867.24182791035
 31
0.0
  0
LINE
  5
18D
  8
DEFAULT
 10
2107.799889598786
 20
10867.24182791035
 30
0.0
 11
2110.188374334806
 21
10870.64619799591
 31
0.0
  0
LINE
  5
18E
  8
DEFAULT
 10
2110.188374334806
 20
10870.64619799591
 30
0.0
 11
2112.695573059123
 21
10874.05384998064
 31
0.0
  0
LINE
  5
18F
  8
DEFAULT
 10
2112.695573059123
 20
10874.05384998064
 30
0.0
 11
2115.317504570751
 21
10877.45792088168
 31
0.0
  0
LINE
  5
190
  8
DEFAULT
 10
2115.317504570751
 20
10877.45792088168
 30
0.0
 11
2118.049679235216
 21
10880.85148730171
 31
0.0
  0
LINE
  5
191
  8
DEFAULT
 10
2118.049679235216
 20
10880.85148730171
 30
0.0
 11
2120.887123254412
 21
10884.2276115177
 31
0.0
  0
LINE
  5
192
  8
DEFAULT
 10
2120.887123254412
 20
10884.2276115177
 30
0.0
 11
2123.824408148205
 21
10887.57938828366
 31
0.0
  0
LINE
  5
193
  8
DEFAULT
 10
2123.824408148205
 20
10887.57938828366
 30
0.0
 11
2126.85568509184
 21
10890.89999169159
 31
0.0
  0
LINE
  5
194
  8
DEFAULT
 10
2126.85568509184
 20
10890.89999169159
 30
0.0
 11
2129.974723657428
 21
10894.18272142625
 31
0.0
  0
LINE
  5
195
  8
DEFAULT
 10
2129.974723657428
 20
10894.18272142625
 30
0.0
 11
2133.174954422103
 21
10897.42104775703
 31
0.0
  0
LINE
  5
196
  8
DEFAULT
 10
2133.174954422103
 20
10897.42104775703
 30
0.0
 11
2136.449514832459
 21
10900.60865463411
 31
0.0
  0
LINE
  5
197
  8
DEFAULT
 10
2136.449514832459
 20
10900.60865463411
 30
0.0
 11
2139.79129765686
 21
10903.73948029471
 31
0.0
  0
LINE
  5
198
  8
DEFAULT
 10
2139.79129765686
 20
10903.73948029471
 30
0.0
 11
2143.193001315815
 21
10906.80775483811
 31
0.0
  0
LINE
  5
199
  8
DEFAULT
 10
2143.193001315815
 20
10906.80775483811
 30
0.0
 11
2146.647181356744
 21
10909.80803429325
 31
0.0
  0
LINE
  5
19A
  8
DEFAULT
 10
2146.647181356744
 20
10909.80803429325
 30
0.0
 11
2150.146302333693
 21
10912.73523077764
 31
0.0
  0
LINE
  5
19B
  8
DEFAULT
 10
2150.146302333693
 20
10912.73523077764
 30
0.0
 11
2153.682789364354
 21
10915.58463842879
 31
0.0
  0
LINE
  5
19C
  8
DEFAULT
 10
2153.682789364354
 20
10915.58463842879
 30
0.0
 11
2157.249078665383
 21
10918.35195487695
 31
0.0
  0
LINE
  5
19D
  8
DEFAULT
 10
2157.249078665383
 20
10918.35195487695
 30
0.0
 11
2160.83766641091
 21
10921.03329811745
 31
0.0
  0
LINE
  5
19E
  8
DEFAULT
 10
2160.83766641091
 20
10921.03329811745
 30
0.0
 11
2164.441155316313
 21
10923.62521872952
 31
0.0
  0
ARC
  5
19F
  8
DEFAULT
 10
2193.267643712
 20
10882.7714114801
 30
0.0
 40
50.0
 50
54.79316668490694
 51
125.2068333150552
  0
LINE
  5
1A0
  8
DEFAULT
 10
2222.094132107717
 20
10923.6252187295
 30
0.0
 11
2225.697620455249
 21
10921.03329924231
 31
0.0
  0
LINE
  5
1A1
  8
DEFAULT
 10
2225.697620455249
 20
10921.03329924231
 30
0.0
 11
2229.286207705936
 21
10918.35195704894
 31
0.0
  0
LINE
  5
1A2
  8
DEFAULT
 10
2229.286207705936
 20
10918.35195704894
 30
0.0
 11
2232.852496574068
 21
10915.5846415671
 31
0.0
  0
LINE
  5
1A3
  8
DEFAULT
 10
2232.852496574068
 20
10915.5846415671
 30
0.0
 11
2236.388983232275
 21
10912.73523479897
 31
0.0
  0
LINE
  5
1A4
  8
DEFAULT
 10
2236.388983232275
 20
10912.73523479897
 30
0.0
 11
2239.888103895312
 21
10909.80803911224
 31
0.0
  0
LINE
  5
1A5
  8
DEFAULT
 10
2239.888103895312
 20
10909.80803911224
 30
0.0
 11
2243.342283678592
 21
10906.80776036791
 31
0.0
  0
LINE
  5
1A6
  8
DEFAULT
 10
2243.342283678592
 20
10906.80776036791
 30
0.0
 11
2246.743987133535
 21
10903.73948644754
 31
0.0
  0
LINE
  5
1A7
  8
DEFAULT
 10
2246.743987133535
 20
10903.73948644754
 30
0.0
 11
2250.085769804622
 21
10900.60866132183
 31
0.0
  0
LINE
  5
1A8
  8
DEFAULT
 10
2250.085769804622
 20
10900.60866132183
 30
0.0
 11
2253.360330109148
 21
10897.42105489169
 31
0.0
  0
LINE
  5
1A9
  8
DEFAULT
 10
2253.360330109148
 20
10897.42105489169
 30
0.0
 11
2256.560560812036
 21
10894.18272892068
 31
0.0
  0
LINE
  5
1AA
  8
DEFAULT
 10
2256.560560812036
 20
10894.18272892068
 30
0.0
 11
2259.67959935625
 21
10890.89999945997
 31
0.0
  0
LINE
  5
1AB
  8
DEFAULT
 10
2259.67959935625
 20
10890.89999945997
 30
0.0
 11
2262.71087631517
 21
10887.57939624201
 31
0.0
  0
LINE
  5
1AC
  8
DEFAULT
 10
2262.71087631517
 20
10887.57939624201
 30
0.0
 11
2265.648161257068
 21
10884.22761958446
 31
0.0
  0
LINE
  5
1AD
  8
DEFAULT
 10
2265.648161257068
 20
10884.22761958446
 30
0.0
 11
2268.485605353321
 21
10880.85149539818
 31
0.0
  0
LINE
  5
1AE
  8
DEFAULT
 10
2268.485605353321
 20
10880.85149539818
 30
0.0
 11
2271.217780119952
 21
10877.45792893243
 31
0.0
  0
LINE
  5
1AF
  8
DEFAULT
 10
2271.217780119952
 20
10877.45792893243
 30
0.0
 11
2273.83971175508
 21
10874.05385791398
 31
0.0
  0
LINE
  5
1B0
  8
DEFAULT
 10
2273.83971175508
 20
10874.05385791398
 30
0.0
 11
2276.346910620577
 21
10870.64620574413
 31
0.0
  0
LINE
  5
1B1
  8
DEFAULT
 10
2276.346910620577
 20
10870.64620574413
 30
0.0
 11
2278.735395511962
 21
10867.24183541008
 31
0.0
  0
LINE
  5
1B2
  8
DEFAULT
 10
2278.735395511962
 20
10867.24183541008
 30
0.0
 11
2281.001712463425
 21
10863.84750474237
 31
0.0
  0
LINE
  5
1B3
  8
DEFAULT
 10
2281.001712463425
 20
10863.84750474237
 30
0.0
 11
2283.142947941571
 21
10860.46982361219
 31
0.0
  0
LINE
  5
1B4
  8
DEFAULT
 10
2283.142947941571
 20
10860.46982361219
 30
0.0
 11
2285.156736388768
 21
10857.11521361056
 31
0.0
  0
LINE
  5
1B5
  8
DEFAULT
 10
2285.156736388768
 20
10857.11521361056
 30
0.0
 11
2287.0412621817
 21
10853.78987068903
 31
0.0
  0
LINE
  5
1B6
  8
DEFAULT
 10
2287.0412621817
 20
10853.78987068903
 30
0.0
 11
2288.795256169928
 21
10850.49973116981
 31
0.0
  0
LINE
  5
1B7
  8
DEFAULT
 10
2288.795256169928
 20
10850.49973116981
 30
0.0
 11
2290.417987050231
 21
10847.2504414558
 31
0.0
  0
LINE
  5
1B8
  8
DEFAULT
 10
2290.417987050231
 20
10847.2504414558
 30
0.0
 11
2291.909247913224
 21
10844.04733168928
 31
0.0
  0
LINE
  5
1B9
  8
DEFAULT
 10
2291.909247913224
 20
10844.04733168928
 30
0.0
 11
2293.269338367245
 21
10840.8953935253
 31
0.0
  0
LINE
  5
1BA
  8
DEFAULT
 10
2293.269338367245
 20
10840.8953935253
 30
0.0
 11
2294.499042699906
 21
10837.79926210411
 31
0.0
  0
LINE
  5
1BB
  8
DEFAULT
 10
2294.499042699906
 20
10837.79926210411
 30
0.0
 11
2295.599604579093
 21
10834.76320222891
 31
0.0
  0
LINE
  5
1BC
  8
DEFAULT
 10
2295.599604579093
 20
10834.76320222891
 30
0.0
 11
2296.572698822667
 21
10831.79109868218
 31
0.0
  0
LINE
  5
1BD
  8
DEFAULT
 10
2296.572698822667
 20
10831.79109868218
 30
0.0
 11
2297.420400779878
 21
10828.88645054775
 31
0.0
  0
LINE
  5
1BE
  8
DEFAULT
 10
2297.420400779878
 20
10828.88645054775
 30
0.0
 11
2298.145153868456
 21
10826.05236934798
 31
0.0
  0
LINE
  5
1BF
  8
DEFAULT
 10
2298.145153868456
 20
10826.05236934798
 30
0.0
 11
2298.462280505735
 21
10824.66265807802
 31
0.0
  0
LINE
  5
1C0
  8
DEFAULT
 10
2298.462280505735
 20
10824.66265807802
 30
0.0
 11
2298.74973580051
 21
10823.29158075628
 31
0.0
  0
ARC
  5
1C1
  8
DEFAULT
 10
2318.499460156639
 20
10826.44568726321
 30
0.0
 40
20.0
 50
189.0737301131518
 51
269.9999999999895
  0
LINE
  5
1C2
  8
DEFAULT
 10
2318.499460156635
 20
10806.44568726321
 30
0.0
 11
2335.870903181239
 21
10806.44568726321
 31
0.0
  0
ARC
  5
1C3
  8
DEFAULT
 10
2335.870903181239
 20
10816.44568726321
 30
0.0
 40
10.0
 50
270.0
 51
8.713269811930655
  0
LINE
  5
1C4
  8
DEFAULT
 10
2345.755491461269
 20
10817.96058479581
 30
0.0
 11
2310.431681997822
 21
11556.44568726321
 31
0.0
  0
LINE
  5
1C5
  8
DEFAULT
 10
2310.431681997822
 20
11556.44568726321
 30
0.0
 11
2296.931681997822
 21
11556.44568726321
 31
0.0
  0
ARC
  5
1C6
  8
DEFAULT
 10
2293.681681997822
 20
11556.44568726321
 30
0.0
 40
3.25
 50
180.0
 51
0.0
  0
LINE
  5
1C7
  8
DEFAULT
 10
2290.431681997822
 20
11556.44568726321
 30
0.0
 11
2290.43168199782
 21
11564.44568726321
 31
0.0
  0
LINE
  5
1C8
  8
DEFAULT
 10
2290.43168199782
 20
11564.44568726321
 30
0.0
 11
2240.431681997822
 21
11564.44568726321
 31
0.0
  0
LINE
  5
1C9
  8
DEFAULT
 10
2240.431681997822
 20
11564.44568726321
 30
0.0
 11
2240.43168199782
 21
11556.44568726321
 31
0.0
  0
ARC
  5
1CA
  8
DEFAULT
 10
2237.18168199782
 20
11556.44568726321
 30
0.0
 40
3.25
 50
180.0
 51
0.0
  0
LINE
  5
1CB
  8
DEFAULT
 10
2233.93168199782
 20
11556.44568726321
 30
0.0
 11
2146.931681997822
 21
11556.44568726321
 31
0.0
  0
ARC
  5
1CC
  8
DEFAULT
 10
2143.681681997822
 20
11556.44568726321
 30
0.0
 40
3.25
 50
180.0
 51
0.0
  0
LINE
  5
1CD
  8
DEFAULT
 10
2140.431681997822
 20
11556.44568726321
 30
0.0
 11
2140.431681997822
 21
11564.44568726321
 31
0.0
  0
LINE
  5
1CE
  8
DEFAULT
 10
2140.431681997822
 20
11564.44568726321
 30
0.0
 11
2090.431681997822
 21
11564.4456872632
 31
0.0
  0
LINE
  5
1CF
  8
DEFAULT
 10
2090.431681997822
 20
11564.4456872632
 30
0.0
 11
2090.431681997822
 21
11556.44568726321
 31
0.0
  0
ARC
  5
1D0
  8
DEFAULT
 10
2087.181681997822
 20
11556.44568726321
 30
0.0
 40
3.25
 50
180.0
 51
0.0
  0
LINE
  5
1D1
  8
DEFAULT
 10
2083.931681997824
 20
11556.44568726321
 30
0.0
 11
2070.431681997822
 21
11556.44568726321
 31
0.0
  0
LINE
  5
1D2
  8
DEFAULT
 10
2070.431681997822
 20
11556.44568726321
 30
0.0
 11
2040.39716314284
 21
10816.44568726321
 31
0.0
  0
LINE
  5
1D3
  8
DEFAULT
 10
2193.443699193166
 20
11539.94568726321
 30
0.0
 11
2193.443699193166
 21
11452.94568726321
 31
0.0
  0
ARC
  5
1D4
  8
DEFAULT
 10
2193.443699193166
 20
11449.69568726321
 30
0.0
 40
3.25
 50
90.0
 51
270.0
  0
LINE
  5
1D5
  8
DEFAULT
 10
2193.443699193166
 20
11446.44568726321
 30
0.0
 11
2201.643699193165
 21
11446.44568726321
 31
0.0
  0
ARC
  5
1D6
  8
DEFAULT
 10
2201.643699193167
 20
11449.69568726321
 30
0.0
 40
3.25
 50
270.0
 51
90.0
  0
LINE
  5
1D7
  8
DEFAULT
 10
2201.643699193167
 20
11452.94568726321
 30
0.0
 11
2201.643699193167
 21
11539.94568726321
 31
0.0
  0
ARC
  5
1D8
  8
DEFAULT
 10
2201.643699193167
 20
11543.19568726321
 30
0.0
 40
3.25
 50
270.0
 51
90.0
  0
LINE
  5
1D9
  8
DEFAULT
 10
2201.643699193167
 20
11546.44568726321
 30
0.0
 11
2193.443699193166
 21
11546.44568726321
 31
0.0
  0
ARC
  5
1DA
  8
DEFAULT
 10
2193.443699193166
 20
11543.19568726321
 30
0.0
 40
3.25
 50
90.0
 51
270.0
  0
LINE
  5
1DB
  8
DEFAULT
 10
2213.524312447978
 20
10970.91771733113
 30
0.0
 11
2187.361361544073
 21
10997.08066823503
 31
0.0
  0
ARC
  5
1DC
  8
DEFAULT
 10
2185.063264505216
 20
10999.37876527389
 30
0.0
 40
3.25
 50
315.0
 51
135.0
  0
LINE
  5
1DD
  8
DEFAULT
 10
2182.76516746636
 20
11001.67686231274
 30
0.0
 11
2176.96689186063
 21
10995.87858670701
 31
0.0
  0
ARC
  5
1DE
  8
DEFAULT
 10
2179.264988899487
 20
10993.58048966816
 30
0.0
 40
3.25
 50
135.0
 51
315.0
  0
LINE
  5
1DF
  8
DEFAULT
 10
2181.563085938343
 20
10991.2823926293
 30
0.0
 11
2207.726036842248
 21
10965.1194417254
 31
0.0
  0
ARC
  5
1E0
  8
DEFAULT
 10
2210.024133881104
 20
10962.82134468654
 30
0.0
 40
3.25
 50
135.0
 51
315.0
  0
LINE
  5
1E1
  8
DEFAULT
 10
2212.32223091996
 20
10960.52324764768
 30
0.0
 11
2218.12050652569
 21
10966.32152325341
 31
0.0
  0
ARC
  5
1E2
  8
DEFAULT
 10
2215.822409486834
 20
10968.61962029227
 30
0.0
 40
3.25
 50
315.0
 51
135.0
  0
LINE
  5
1E3
  8
DEFAULT
 10
2111.331681997822
 20
11522.94568726321
 30
0.0
 11
2111.331681997822
 21
11539.94568726321
 31
0.0
  0
ARC
  5
1E4
  8
DEFAULT
 10
2111.331681997822
 20
11543.19568726321
 30
0.0
 40
3.25
 50
90.0
 51
270.0
  0
LINE
  5
1E5
  8
DEFAULT
 10
2111.331681997822
 20
11546.44568726321
 30
0.0
 11
2119.531681997822
 21
11546.44568726321
 31
0.0
  0
ARC
  5
1E6
  8
DEFAULT
 10
2119.531681997822
 20
11543.19568726321
 30
0.0
 40
3.25
 50
270.0
 51
90.0
  0
LINE
  5
1E7
  8
DEFAULT
 10
2119.531681997822
 20
11539.94568726321
 30
0.0
 11
2119.531681997822
 21
11522.94568726321
 31
0.0
  0
ARC
  5
1E8
  8
DEFAULT
 10
2119.531681997822
 20
11519.69568726321
 30
0.0
 40
3.25
 50
270.0
 51
90.0
  0
LINE
  5
1E9
  8
DEFAULT
 10
2119.531681997822
 20
11516.44568726321
 30
0.0
 11
2111.331681997822
 21
11516.44568726321
 31
0.0
  0
ARC
  5
1EA
  8
DEFAULT
 10
2111.331681997822
 20
11519.69568726321
 30
0.0
 40
3.25
 50
90.0
 51
270.0
  0
ARC
  5
1EB
  8
DEFAULT
 10
2261.331681997818
 20
11543.19568726321
 30
0.0
 40
3.25
 50
90.0
 51
270.0
  0
LINE
  5
1EC
  8
DEFAULT
 10
2261.331681997818
 20
11546.44568726321
 30
0.0
 11
2269.531681997819
 21
11546.44568726321
 31
0.0
  0
ARC
  5
1ED
  8
DEFAULT
 10
2269.531681997819
 20
11543.19568726321
 30
0.0
 40
3.25
 50
270.0
 51
90.0
  0
LINE
  5
1EE
  8
DEFAULT
 10
2269.531681997819
 20
11539.94568726321
 30
0.0
 11
2269.531681997819
 21
11522.94568726321
 31
0.0
  0
ARC
  5
1EF
  8
DEFAULT
 10
2269.531681997819
 20
11519.69568726321
 30
0.0
 40
3.25
 50
270.0
 51
90.0
  0
LINE
  5
1F0
  8
DEFAULT
 10
2269.531681997819
 20
11516.44568726321
 30
0.0
 11
2261.331681997818
 21
11516.44568726321
 31
0.0
  0
ARC
  5
1F1
  8
DEFAULT
 10
2261.331681997818
 20
11519.69568726321
 30
0.0
 40
3.25
 50
90.0
 51
270.0
  0
LINE
  5
1F2
  8
DEFAULT
 10
2261.331681997818
 20
11522.94568726321
 30
0.0
 11
2261.331681997818
 21
11539.94568726321
 31
0.0
  0
LINE
  5
1F3
  8
DEFAULT
 10
2364.478826958794
 20
11767.27151138693
 30
0.0
 11
2327.478826958791
 21
11767.27151138693
 31
0.0
  0
ARC
  5
1F4
  8
DEFAULT
 10
2324.228826958791
 20
11767.27151138693
 30
0.0
 40
3.25
 50
0.0
 51
180.0
  0
LINE
  5
1F5
  8
DEFAULT
 10
2320.978826958791
 20
11767.27151138693
 30
0.0
 11
2320.978826958791
 21
11759.07151138693
 31
0.0
  0
ARC
  5
1F6
  8
DEFAULT
 10
2324.228826958791
 20
11759.07151138693
 30
0.0
 40
3.25
 50
180.0
 51
0.0
  0
LINE
  5
1F7
  8
DEFAULT
 10
2327.478826958791
 20
11759.07151138693
 30
0.0
 11
2364.478826958794
 21
11759.07151138693
 31
0.0
  0
ARC
  5
1F8
  8
DEFAULT
 10
2367.728826958794
 20
11759.07151138693
 30
0.0
 40
3.25
 50
180.0
 51
0.0
  0
LINE
  5
1F9
  8
DEFAULT
 10
2370.978826958794
 20
11759.07151138693
 30
0.0
 11
2370.978826958794
 21
11767.27151138693
 31
0.0
  0
ARC
  5
1FA
  8
DEFAULT
 10
2367.728826958794
 20
11767.27151138693
 30
0.0
 40
3.25
 50
0.0
 51
180.0
  0
ARC
  5
1FB
  8
DEFAULT
 10
2698.048558159413
 20
11684.7969734465
 30
0.0
 40
3.25
 50
180.0
 51
0.0
  0
LINE
  5
1FC
  8
DEFAULT
 10
2694.798558159413
 20
11684.7969734465
 30
0.0
 11
2694.798558159413
 21
11692.9969734465
 31
0.0
  0
ARC
  5
1FD
  8
DEFAULT
 10
2698.048558159413
 20
11692.9969734465
 30
0.0
 40
3.25
 50
0.0
 51
180.0
  0
LINE
  5
1FE
  8
DEFAULT
 10
2701.298558159413
 20
11692.9969734465
 30
0.0
 11
2718.298558159413
 21
11692.9969734465
 31
0.0
  0
ARC
  5
1FF
  8
DEFAULT
 10
2721.548558159413
 20
11692.9969734465
 30
0.0
 40
3.25
 50
0.0
 51
180.0
  0
LINE
  5
200
  8
DEFAULT
 10
2724.798558159413
 20
11692.9969734465
 30
0.0
 11
2724.798558159413
 21
11684.7969734465
 31
0.0
  0
ARC
  5
201
  8
DEFAULT
 10
2721.548558159413
 20
11684.7969734465
 30
0.0
 40
3.25
 50
180.0
 51
0.0
  0
LINE
  5
202
  8
DEFAULT
 10
2718.298558159413
 20
11684.7969734465
 30
0.0
 11
2701.298558159413
 21
11684.7969734465
 31
0.0
  0
LINE
  5
203
  8
DEFAULT
 10
2718.298558159413
 20
11534.79697344651
 30
0.0
 11
2701.298558159413
 21
11534.79697344651
 31
0.0
  0
ARC
  5
204
  8
DEFAULT
 10
2698.048558159413
 20
11534.79697344651
 30
0.0
 40
3.25
 50
180.0
 51
0.0
  0
LINE
  5
205
  8
DEFAULT
 10
2694.798558159413
 20
11534.79697344651
 30
0.0
 11
2694.798558159413
 21
11542.99697344651
 31
0.0
  0
ARC
  5
206
  8
DEFAULT
 10
2698.048558159413
 20
11542.99697344651
 30
0.0
 40
3.25
 50
0.0
 51
180.0
  0
LINE
  5
207
  8
DEFAULT
 10
2701.298558159413
 20
11542.99697344651
 30
0.0
 11
2718.298558159413
 21
11542.99697344651
 31
0.0
  0
ARC
  5
208
  8
DEFAULT
 10
2721.548558159413
 20
11542.99697344651
 30
0.0
 40
3.25
 50
0.0
 51
180.0
  0
LINE
  5
209
  8
DEFAULT
 10
2724.798558159413
 20
11542.99697344651
 30
0.0
 11
2724.798558159413
 21
11534.79697344651
 31
0.0
  0
ARC
  5
20A
  8
DEFAULT
 10
2721.548558159413
 20
11534.79697344651
 30
0.0
 40
3.25
 50
180.0
 51
0.0
  0
LINE
  5
20B
  8
DEFAULT
 10
2968.990212927003
 20
11534.79697344651
 30
0.0
 11
2951.990212927003
 21
11534.79697344651
 31
0.0
  0
ARC
  5
20C
  8
DEFAULT
 10
2948.740212927003
 20
11534.79697344651
 30
0.0
 40
3.25
 50
180.0
 51
0.0
  0
LINE
  5
20D
  8
DEFAULT
 10
2945.490212927003
 20
11534.79697344651
 30
0.0
 11
2945.490212927003
 21
11542.99697344651
 31
0.0
  0
ARC
  5
20E
  8
DEFAULT
 10
2948.740212927003
 20
11542.99697344651
 30
0.0
 40
3.25
 50
0.0
 51
180.0
  0
LINE
  5
20F
  8
DEFAULT
 10
2951.990212927003
 20
11542.99697344651
 30
0.0
 11
2968.990212927003
 21
11542.99697344651
 31
0.0
  0
ARC
  5
210
  8
DEFAULT
 10
2972.240212927003
 20
11542.99697344651
 30
0.0
 40
3.25
 50
0.0
 51
180.0
  0
LINE
  5
211
  8
DEFAULT
 10
2975.490212927003
 20
11542.99697344651
 30
0.0
 11
2975.490212927003
 21
11534.79697344651
 31
0.0
  0
ARC
  5
212
  8
DEFAULT
 10
2972.240212927003
 20
11534.79697344651
 30
0.0
 40
3.25
 50
180.0
 51
0.0
  0
ARC
  5
213
  8
DEFAULT
 10
2948.740212927003
 20
11684.7969734465
 30
0.0
 40
3.25
 50
180.0
 51
0.0
  0
LINE
  5
214
  8
DEFAULT
 10
2945.490212927003
 20
11684.7969734465
 30
0.0
 11
2945.490212927003
 21
11692.9969734465
 31
0.0
  0
ARC
  5
215
  8
DEFAULT
 10
2948.740212927003
 20
11692.9969734465
 30
0.0
 40
3.25
 50
0.0
 51
180.0
  0
LINE
  5
216
  8
DEFAULT
 10
2951.990212927003
 20
11692.9969734465
 30
0.0
 11
2968.990212927003
 21
11692.9969734465
 31
0.0
  0
ARC
  5
217
  8
DEFAULT
 10
2972.240212927003
 20
11692.9969734465
 30
0.0
 40
3.25
 50
0.0
 51
180.0
  0
LINE
  5
218
  8
DEFAULT
 10
2975.490212927003
 20
11692.9969734465
 30
0.0
 11
2975.490212927003
 21
11684.7969734465
 31
0.0
  0
ARC
  5
219
  8
DEFAULT
 10
2972.240212927003
 20
11684.7969734465
 30
0.0
 40
3.25
 50
180.0
 51
0.0
  0
LINE
  5
21A
  8
DEFAULT
 10
2968.990212927003
 20
11684.7969734465
 30
0.0
 11
2951.990212927003
 21
11684.7969734465
 31
0.0
  0
LINE
  5
21B
  8
DEFAULT
 10
2576.298333231288
 20
11914.42155585664
 30
0.0
 11
2545.285782140271
 21
11885.49374388626
 31
0.0
  0
ARC
  5
21C
  8
DEFAULT
 10
2494.128205734684
 20
11940.3380906898
 30
0.0
 40
75.0
 50
249.0271586905337
 51
313.0080430221822
  0
LINE
  5
21D
  8
DEFAULT
 10
2467.283801921273
 20
11870.30682635805
 30
0.0
 11
2351.705913338039
 21
11914.61017490724
 31
0.0
  0
LINE
  5
21E
  8
DEFAULT
 10
2351.705913338039
 20
11914.61017490724
 30
0.0
 11
2524.801088972486
 21
11917.11195216576
 31
0.0
  0
LINE
  5
21F
  8
DEFAULT
 10
2524.801088972486
 20
11917.11195216576
 30
0.0
 11
2578.800875040152
 21
11920.19470886756
 31
0.0
  0
LINE
  5
220
  8
DEFAULT
 10
2578.800875040152
 20
11920.19470886756
 30
0.0
 11
2581.06688178995
 21
11920.24979870011
 31
0.0
  0
LINE
  5
221
  8
DEFAULT
 10
2581.06688178995
 20
11920.24979870011
 30
0.0
 11
2583.363376427692
 21
11920.25745047989
 31
0.0
  0
LINE
  5
222
  8
DEFAULT
 10
2583.363376427692
 20
11920.25745047989
 30
0.0
 11
2585.686204387731
 21
11920.20673280516
 31
0.0
  0
LINE
  5
223
  8
DEFAULT
 10
2585.686204387731
 20
11920.20673280516
 30
0.0
 11
2588.031211104424
 21
11920.08671427417
 31
0.0
  0
LINE
  5
224
  8
DEFAULT
 10
2588.031211104424
 20
11920.08671427417
 30
0.0
 11
2589.210733194751
 21
11919.99730112454
 31
0.0
  0
LINE
  5
225
  8
DEFAULT
 10
2589.210733194751
 20
11919.99730112454
 30
0.0
 11
2590.394242012125
 21
11919.88646348519
 31
0.0
  0
LINE
  5
226
  8
DEFAULT
 10
2590.394242012125
 20
11919.88646348519
 30
0.0
 11
2591.581218235839
 21
11919.7528349309
 31
0.0
  0
LINE
  5
227
  8
DEFAULT
 10
2591.581218235839
 20
11919.7528349309
 30
0.0
 11
2592.771142545188
 21
11919.59504903646
 31
0.0
  0
ARC
  5
228
  8
DEFAULT
 10
2589.940353606112
 20
11899.79639670902
 30
0.0
 40
20.00000000000679
 50
81.86306279481035
 51
133.0080430221648
  0
LINE
  5
229
  8
DEFAULT
 10
2209.459007614039
 20
11692.27151138693
 30
0.0
 11
2172.459007614036
 21
11692.27151138693
 31
0.0
  0
ARC
  5
22A
  8
DEFAULT
 10
2169.209007614036
 20
11692.27151138693
 30
0.0
 40
3.25
 50
0.0
 51
180.0
  0
LINE
  5
22B
  8
DEFAULT
 10
2165.959007614036
 20
11692.27151138693
 30
0.0
 11
2165.959007614036
 21
11684.07151138693
 31
0.0
  0
ARC
  5
22C
  8
DEFAULT
 10
2169.209007614036
 20
11684.07151138693
 30
0.0
 40
3.25
 50
180.0
 51
0.0
  0
LINE
  5
22D
  8
DEFAULT
 10
2172.459007614036
 20
11684.07151138693
 30
0.0
 11
2209.459007614039
 21
11684.07151138693
 31
0.0
  0
ARC
  5
22E
  8
DEFAULT
 10
2212.709007614039
 20
11684.07151138693
 30
0.0
 40
3.25
 50
180.0
 51
0.0
  0
LINE
  5
22F
  8
DEFAULT
 10
2215.959007614039
 20
11684.07151138693
 30
0.0
 11
2215.959007614039
 21
11692.27151138693
 31
0.0
  0
ARC
  5
230
  8
DEFAULT
 10
2212.709007614039
 20
11692.27151138693
 30
0.0
 40
3.25
 50
0.0
 51
180.0
  0
LINE
  5
231
  8
DEFAULT
 10
2209.459007614039
 20
11842.27151138693
 30
0.0
 11
2172.459007614036
 21
11842.27151138693
 31
0.0
  0
ARC
  5
232
  8
DEFAULT
 10
2169.209007614036
 20
11842.27151138693
 30
0.0
 40
3.25
 50
0.0
 51
180.0
  0
LINE
  5
233
  8
DEFAULT
 10
2165.959007614036
 20
11842.27151138693
 30
0.0
 11
2165.959007614036
 21
11834.07151138693
 31
0.0
  0
ARC
  5
234
  8
DEFAULT
 10
2169.209007614036
 20
11834.07151138693
 30
0.0
 40
3.25
 50
180.0
 51
0.0
  0
LINE
  5
235
  8
DEFAULT
 10
2172.459007614036
 20
11834.07151138693
 30
0.0
 11
2209.459007614039
 21
11834.07151138693
 31
0.0
  0
ARC
  5
236
  8
DEFAULT
 10
2212.709007614039
 20
11834.07151138693
 30
0.0
 40
3.25
 50
180.0
 51
0.0
  0
LINE
  5
237
  8
DEFAULT
 10
2215.959007614039
 20
11834.07151138693
 30
0.0
 11
2215.959007614039
 21
11842.27151138693
 31
0.0
  0
ARC
  5
238
  8
DEFAULT
 10
2212.709007614039
 20
11842.27151138693
 30
0.0
 40
3.25
 50
0.0
 51
180.0
  0
LINE
  5
239
  8
DEFAULT
 10
2519.498646303549
 20
11842.27151138693
 30
0.0
 11
2482.498646303546
 21
11842.27151138693
 31
0.0
  0
ARC
  5
23A
  8
DEFAULT
 10
2479.248646303546
 20
11842.27151138693
 30
0.0
 40
3.25
 50
0.0
 51
180.0
  0
LINE
  5
23B
  8
DEFAULT
 10
2475.998646303546
 20
11842.27151138693
 30
0.0
 11
2475.998646303546
 21
11834.07151138693
 31
0.0
  0
ARC
  5
23C
  8
DEFAULT
 10
2479.248646303546
 20
11834.07151138693
 30
0.0
 40
3.25
 50
180.0
 51
0.0
  0
LINE
  5
23D
  8
DEFAULT
 10
2482.498646303546
 20
11834.07151138693
 30
0.0
 11
2519.498646303549
 21
11834.07151138693
 31
0.0
  0
ARC
  5
23E
  8
DEFAULT
 10
2522.748646303549
 20
11834.07151138693
 30
0.0
 40
3.25
 50
180.0
 51
0.0
  0
LINE
  5
23F
  8
DEFAULT
 10
2525.998646303549
 20
11834.07151138693
 30
0.0
 11
2525.998646303549
 21
11842.27151138693
 31
0.0
  0
ARC
  5
240
  8
DEFAULT
 10
2522.748646303549
 20
11842.27151138693
 30
0.0
 40
3.25
 50
0.0
 51
180.0
  0
LINE
  5
241
  8
DEFAULT
 10
2109.34909794166
 20
11819.67151138693
 30
0.0
 11
2109.34909794166
 21
11856.67151138693
 31
0.0
  0
ARC
  5
242
  8
DEFAULT
 10
2109.34909794166
 20
11859.92151138693
 30
0.0
 40
3.25
 50
90.0
 51
270.0
  0
LINE
  5
243
  8
DEFAULT
 10
2109.34909794166
 20
11863.17151138693
 30
0.0
 11
2117.54909794166
 21
11863.17151138693
 31
0.0
  0
ARC
  5
244
  8
DEFAULT
 10
2117.54909794166
 20
11859.92151138693
 30
0.0
 40
3.25
 50
270.0
 51
90.0
  0
LINE
  5
245
  8
DEFAULT
 10
2117.54909794166
 20
11856.67151138693
 30
0.0
 11
2117.54909794166
 21
11819.67151138693
 31
0.0
  0
ARC
  5
246
  8
DEFAULT
 10
2117.54909794166
 20
11816.42151138693
 30
0.0
 40
3.25
 50
270.0
 51
90.0
  0
LINE
  5
247
  8
DEFAULT
 10
2117.54909794166
 20
11813.17151138693
 30
0.0
 11
2109.34909794166
 21
11813.17151138693
 31
0.0
  0
ARC
  5
248
  8
DEFAULT
 10
2109.34909794166
 20
11816.42151138693
 30
0.0
 40
3.25
 50
90.0
 51
270.0
  0
LINE
  5
249
  8
DEFAULT
 10
2109.34909794166
 20
11669.67151138693
 30
0.0
 11
2109.34909794166
 21
11706.67151138693
 31
0.0
  0
ARC
  5
24A
  8
DEFAULT
 10
2109.34909794166
 20
11709.92151138693
 30
0.0
 40
3.25
 50
90.0
 51
270.0
  0
LINE
  5
24B
  8
DEFAULT
 10
2109.34909794166
 20
11713.17151138693
 30
0.0
 11
2117.54909794166
 21
11713.17151138693
 31
0.0
  0
ARC
  5
24C
  8
DEFAULT
 10
2117.54909794166
 20
11709.92151138693
 30
0.0
 40
3.25
 50
270.0
 51
90.0
  0
LINE
  5
24D
  8
DEFAULT
 10
2117.54909794166
 20
11706.67151138693
 30
0.0
 11
2117.54909794166
 21
11669.67151138693
 31
0.0
  0
ARC
  5
24E
  8
DEFAULT
 10
2117.54909794166
 20
11666.42151138693
 30
0.0
 40
3.25
 50
270.0
 51
90.0
  0
LINE
  5
24F
  8
DEFAULT
 10
2117.54909794166
 20
11663.17151138693
 30
0.0
 11
2109.34909794166
 21
11663.17151138693
 31
0.0
  0
ARC
  5
250
  8
DEFAULT
 10
2109.34909794166
 20
11666.42151138693
 30
0.0
 40
3.25
 50
90.0
 51
270.0
  0
LINE
  5
251
  8
DEFAULT
 10
2345.978826958793
 20
11914.58815376457
 30
0.0
 11
2523.888363596748
 21
11917.07860022634
 31
0.0
  0
LINE
  5
252
  8
DEFAULT
 10
2523.888363596748
 20
11917.07860022634
 30
0.0
 11
2578.503291266303
 21
11920.18443872523
 31
0.0
  0
LINE
  5
253
  8
DEFAULT
 10
2578.503291266303
 20
11920.18443872523
 30
0.0
 11
2580.614186014128
 21
11920.2422833527
 31
0.0
  0
LINE
  5
254
  8
DEFAULT
 10
2580.614186014128
 20
11920.2422833527
 30
0.0
 11
2582.752384377772
 21
11920.26065768315
 31
0.0
  0
LINE
  5
255
  8
DEFAULT
 10
2582.752384377772
 20
11920.26065768315
 30
0.0
 11
2584.914503645022
 21
11920.2306611986
 31
0.0
  0
LINE
  5
256
  8
DEFAULT
 10
2584.914503645022
 20
11920.2306611986
 30
0.0
 11
2587.097161103665
 21
11920.1433933811
 31
0.0
  0
LINE
  5
257
  8
DEFAULT
 10
2587.097161103665
 20
11920.1433933811
 30
0.0
 11
2589.296974041486
 21
11919.98995371266
 31
0.0
  0
LINE
  5
258
  8
DEFAULT
 10
2589.296974041486
 20
11919.98995371266
 30
0.0
 11
2590.402256717521
 21
11919.88563802247
 31
0.0
  0
LINE
  5
259
  8
DEFAULT
 10
2590.402256717521
 20
11919.88563802247
 30
0.0
 11
2591.510559746271
 21
11919.76144167531
 31
0.0
  0
LINE
  5
25A
  8
DEFAULT
 10
2591.510559746271
 20
11919.76144167531
 30
0.0
 11
2592.621460288708
 21
11919.61625210643
 31
0.0
  0
LINE
  5
25B
  8
DEFAULT
 10
2592.621460288708
 20
11919.61625210643
 30
0.0
 11
2593.734535505807
 21
11919.44895675108
 31
0.0
  0
LINE
  5
25C
  8
DEFAULT
 10
2593.734535505807
 20
11919.44895675108
 30
0.0
 11
2594.84936255854
 21
11919.25844304451
 31
0.0
  0
LINE
  5
25D
  8
DEFAULT
 10
2594.84936255854
 20
11919.25844304451
 30
0.0
 11
2595.965518607879
 21
11919.04359842199
 31
0.0
  0
LINE
  5
25E
  8
DEFAULT
 10
2595.965518607879
 20
11919.04359842199
 30
0.0
 11
2597.0825808148
 21
11918.80331031876
 31
0.0
  0
LINE
  5
25F
  8
DEFAULT
 10
2597.0825808148
 20
11918.80331031876
 30
0.0
 11
2598.200126340275
 21
11918.53646617008
 31
0.0
  0
LINE
  5
260
  8
DEFAULT
 10
2598.200126340275
 20
11918.53646617008
 30
0.0
 11
2599.317732345278
 21
11918.24195341119
 31
0.0
  0
LINE
  5
261
  8
DEFAULT
 10
2599.317732345278
 20
11918.24195341119
 30
0.0
 11
2600.434975990781
 21
11917.91865947737
 31
0.0
  0
LINE
  5
262
  8
DEFAULT
 10
2600.434975990781
 20
11917.91865947737
 30
0.0
 11
2601.551434437758
 21
11917.56547180385
 31
0.0
  0
LINE
  5
263
  8
DEFAULT
 10
2601.551434437758
 20
11917.56547180385
 30
0.0
 11
2602.666684847182
 21
11917.18127782588
 31
0.0
  0
LINE
  5
264
  8
DEFAULT
 10
2602.666684847182
 20
11917.18127782588
 30
0.0
 11
2603.780304380026
 21
11916.76496497874
 31
0.0
  0
LINE
  5
265
  8
DEFAULT
 10
2603.780304380026
 20
11916.76496497874
 30
0.0
 11
2604.891870197265
 21
11916.31542069766
 31
0.0
  0
LINE
  5
266
  8
DEFAULT
 10
2604.891870197265
 20
11916.31542069766
 30
0.0
 11
2606.00095945987
 21
11915.8315324179
 31
0.0
  0
LINE
  5
267
  8
DEFAULT
 10
2606.00095945987
 20
11915.8315324179
 30
0.0
 11
2607.107149328815
 21
11915.31218757471
 31
0.0
  0
LINE
  5
268
  8
DEFAULT
 10
2607.107149328815
 20
11915.31218757471
 30
0.0
 11
2608.210016965075
 21
11914.75627360336
 31
0.0
  0
LINE
  5
269
  8
DEFAULT
 10
2608.210016965075
 20
11914.75627360336
 30
0.0
 11
2609.309139529621
 21
11914.16267793908
 31
0.0
  0
LINE
  5
26A
  8
DEFAULT
 10
2609.309139529621
 20
11914.16267793908
 30
0.0
 11
2610.404094183426
 21
11913.53028801714
 31
0.0
  0
LINE
  5
26B
  8
DEFAULT
 10
2610.404094183426
 20
11913.53028801714
 30
0.0
 11
2611.494458087466
 21
11912.85799127278
 31
0.0
  0
LINE
  5
26C
  8
DEFAULT
 10
2611.494458087466
 20
11912.85799127278
 30
0.0
 11
2612.579808402713
 21
11912.14467514127
 31
0.0
  0
LINE
  5
26D
  8
DEFAULT
 10
2612.579808402713
 20
11912.14467514127
 30
0.0
 11
2613.659722290139
 21
11911.38922705785
 31
0.0
  0
LINE
  5
26E
  8
DEFAULT
 10
2613.659722290139
 20
11911.38922705785
 30
0.0
 11
2614.733776910718
 21
11910.59053445778
 31
0.0
  0
LINE
  5
26F
  8
DEFAULT
 10
2614.733776910718
 20
11910.59053445778
 30
0.0
 11
2615.801549425425
 21
11909.74748477632
 31
0.0
  0
LINE
  5
270
  8
DEFAULT
 10
2615.801549425425
 20
11909.74748477632
 30
0.0
 11
2616.86261699523
 21
11908.8589654487
 31
0.0
  0
LINE
  5
271
  8
DEFAULT
 10
2616.86261699523
 20
11908.8589654487
 30
0.0
 11
2617.916556781109
 21
11907.9238639102
 31
0.0
  0
LINE
  5
272
  8
DEFAULT
 10
2617.916556781109
 20
11907.9238639102
 30
0.0
 11
2618.962945944034
 21
11906.94106759605
 31
0.0
  0
LINE
  5
273
  8
DEFAULT
 10
2618.962945944034
 20
11906.94106759605
 30
0.0
 11
2620.001361644979
 21
11905.90946394153
 31
0.0
  0
LINE
  5
274
  8
DEFAULT
 10
2620.001361644979
 20
11905.90946394153
 30
0.0
 11
2621.031381044917
 21
11904.82794038187
 31
0.0
  0
LINE
  5
275
  8
DEFAULT
 10
2621.031381044917
 20
11904.82794038187
 30
0.0
 11
2622.05258130482
 21
11903.69538435233
 31
0.0
  0
LINE
  5
276
  8
DEFAULT
 10
2622.05258130482
 20
11903.69538435233
 30
0.0
 11
2623.064539585664
 21
11902.51068328817
 31
0.0
  0
LINE
  5
277
  8
DEFAULT
 10
2623.064539585664
 20
11902.51068328817
 30
0.0
 11
2624.06683304842
 21
11901.27272462464
 31
0.0
  0
LINE
  5
278
  8
DEFAULT
 10
2624.06683304842
 20
11901.27272462464
 30
0.0
 11
2625.059038854061
 21
11899.98039579699
 31
0.0
  0
LINE
  5
279
  8
DEFAULT
 10
2625.059038854061
 20
11899.98039579699
 30
0.0
 11
2626.040734163563
 21
11898.63258424047
 31
0.0
  0
LINE
  5
27A
  8
DEFAULT
 10
2626.040734163563
 20
11898.63258424047
 30
0.0
 11
2627.011496137898
 21
11897.22817739035
 31
0.0
  0
LINE
  5
27B
  8
DEFAULT
 10
2627.011496137898
 20
11897.22817739035
 30
0.0
 11
2627.970901938038
 21
11895.76606268187
 31
0.0
  0
LINE
  5
27C
  8
DEFAULT
 10
2627.970901938038
 20
11895.76606268187
 30
0.0
 11
2628.918528724957
 21
11894.24512755028
 31
0.0
  0
LINE
  5
27D
  8
DEFAULT
 10
2628.918528724957
 20
11894.24512755028
 30
0.0
 11
2629.853953659628
 21
11892.66425943084
 31
0.0
  0
LINE
  5
27E
  8
DEFAULT
 10
2629.853953659628
 20
11892.66425943084
 30
0.0
 11
2630.776753903025
 21
11891.02234575881
 31
0.0
  0
LINE
  5
27F
  8
DEFAULT
 10
2630.776753903025
 20
11891.02234575881
 30
0.0
 11
2631.68650661612
 21
11889.31827396943
 31
0.0
  0
LINE
  5
280
  8
DEFAULT
 10
2631.68650661612
 20
11889.31827396943
 30
0.0
 11
2632.582788959889
 21
11887.55093149796
 31
0.0
  0
LINE
  5
281
  8
DEFAULT
 10
2632.582788959889
 20
11887.55093149796
 30
0.0
 11
2633.465178095303
 21
11885.71920577966
 31
0.0
  0
LINE
  5
282
  8
DEFAULT
 10
2633.465178095303
 20
11885.71920577966
 30
0.0
 11
2634.333251183335
 21
11883.82198424977
 31
0.0
  0
LINE
  5
283
  8
DEFAULT
 10
2634.333251183335
 20
11883.82198424977
 30
0.0
 11
2635.18658538496
 21
11881.85815434355
 31
0.0
  0
LINE
  5
284
  8
DEFAULT
 10
2635.18658538496
 20
11881.85815434355
 30
0.0
 11
2636.02475786115
 21
11879.82660349626
 31
0.0
  0
LINE
  5
285
  8
DEFAULT
 10
2636.02475786115
 20
11879.82660349626
 30
0.0
 11
2636.847345772879
 21
11877.72621914314
 31
0.0
  0
LINE
  5
286
  8
DEFAULT
 10
2636.847345772879
 20
11877.72621914314
 30
0.0
 11
2638.444076546846
 21
11873.31449966044
 31
0.0
  0
LINE
  5
287
  8
DEFAULT
 10
2638.444076546846
 20
11873.31449966044
 30
0.0
 11
2639.973394994646
 21
11868.6140953775
 31
0.0
  0
LINE
  5
288
  8
DEFAULT
 10
2639.973394994646
 20
11868.6140953775
 30
0.0
 11
2641.432737658173
 21
11863.62056424491
 31
0.0
  0
LINE
  5
289
  8
DEFAULT
 10
2641.432737658173
 20
11863.62056424491
 30
0.0
 11
2642.822818095741
 21
11858.34729808763
 31
0.0
  0
LINE
  5
28A
  8
DEFAULT
 10
2642.822818095741
 20
11858.34729808763
 30
0.0
 11
2644.145169119774
 21
11852.81214719917
 31
0.0
  0
LINE
  5
28B
  8
DEFAULT
 10
2644.145169119774
 20
11852.81214719917
 30
0.0
 11
2645.401323542692
 21
11847.03296187307
 31
0.0
  0
LINE
  5
28C
  8
DEFAULT
 10
2645.401323542692
 20
11847.03296187307
 30
0.0
 11
2647.721173834874
 21
11834.81388908203
 31
0.0
  0
LINE
  5
28D
  8
DEFAULT
 10
2647.721173834874
 20
11834.81388908203
 30
0.0
 11
2649.794631471661
 21
11821.83288206271
 31
0.0
  0
LINE
  5
28E
  8
DEFAULT
 10
2649.794631471661
 20
11821.83288206271
 30
0.0
 11
2651.63395895243
 21
11808.23274316332
 31
0.0
  0
LINE
  5
28F
  8
DEFAULT
 10
2651.63395895243
 20
11808.23274316332
 30
0.0
 11
2653.251418776555
 21
11794.15627473208
 31
0.0
  0
LINE
  5
290
  8
DEFAULT
 10
2653.251418776555
 20
11794.15627473208
 30
0.0
 11
2655.869785452374
 21
11765.14555866682
 31
0.0
  0
LINE
  5
291
  8
DEFAULT
 10
2655.869785452374
 20
11765.14555866682
 30
0.0
 11
2657.747831494121
 21
11735.94315265261
 31
0.0
  0
LINE
  5
292
  8
DEFAULT
 10
2657.747831494121
 20
11735.94315265261
 30
0.0
 11
2658.983656896797
 21
11707.69147547508
 31
0.0
  0
LINE
  5
293
  8
DEFAULT
 10
2658.983656896797
 20
11707.69147547508
 30
0.0
 11
2659.921045764941
 21
11658.60998277274
 31
0.0
  0
LINE
  5
294
  8
DEFAULT
 10
2659.921045764941
 20
11658.60998277274
 30
0.0
 11
2659.799291604488
 21
11639.78781365058
 31
0.0
  0
LINE
  5
295
  8
DEFAULT
 10
2659.799291604488
 20
11639.78781365058
 30
0.0
 11
2659.310611089429
 21
11624.82290149591
 31
0.0
  0
LINE
  5
296
  8
DEFAULT
 10
2659.310611089429
 20
11624.82290149591
 30
0.0
 11
2658.922734167503
 21
11618.62418921069
 31
0.0
  0
LINE
  5
297
  8
DEFAULT
 10
2658.922734167503
 20
11618.62418921069
 30
0.0
 11
2658.435998519225
 21
11613.19451808252
 31
0.0
  0
LINE
  5
298
  8
DEFAULT
 10
2658.435998519225
 20
11613.19451808252
 30
0.0
 11
2658.154816262525
 21
11610.74773200599
 31
0.0
  0
LINE
  5
299
  8
DEFAULT
 10
2658.154816262525
 20
11610.74773200599
 30
0.0
 11
2657.848028432025
 21
11608.46879708313
 31
0.0
  0
LINE
  5
29A
  8
DEFAULT
 10
2657.848028432025
 20
11608.46879708313
 30
0.0
 11
2657.515338063653
 21
11606.34957693538
 31
0.0
  0
LINE
  5
29B
  8
DEFAULT
 10
2657.515338063653
 20
11606.34957693538
 30
0.0
 11
2657.156448193338
 21
11604.38193518423
 31
0.0
  0
LINE
  5
29C
  8
DEFAULT
 10
2657.156448193338
 20
11604.38193518423
 30
0.0
 11
2656.771061857009
 21
11602.55773545114
 31
0.0
  0
LINE
  5
29D
  8
DEFAULT
 10
2656.771061857009
 20
11602.55773545114
 30
0.0
 11
2656.358882090594
 21
11600.86884135757
 31
0.0
  0
LINE
  5
29E
  8
DEFAULT
 10
2656.358882090594
 20
11600.86884135757
 30
0.0
 11
2656.142651869834
 21
11600.07259130731
 31
0.0
  0
LINE
  5
29F
  8
DEFAULT
 10
2656.142651869834
 20
11600.07259130731
 30
0.0
 11
2655.919611930025
 21
11599.30711652499
 31
0.0
  0
LINE
  5
2A0
  8
DEFAULT
 10
2655.919611930025
 20
11599.30711652499
 30
0.0
 11
2655.689725150659
 21
11598.57139996327
 31
0.0
  0
LINE
  5
2A1
  8
DEFAULT
 10
2655.689725150659
 20
11598.57139996327
 30
0.0
 11
2655.452954411228
 21
11597.86442457486
 31
0.0
  0
LINE
  5
2A2
  8
DEFAULT
 10
2655.452954411228
 20
11597.86442457486
 30
0.0
 11
2655.209262591223
 21
11597.18517331242
 31
0.0
  0
LINE
  5
2A3
  8
DEFAULT
 10
2655.209262591223
 20
11597.18517331242
 30
0.0
 11
2654.958612570134
 21
11596.53262912865
 31
0.0
  0
LINE
  5
2A4
  8
DEFAULT
 10
2654.958612570134
 20
11596.53262912865
 30
0.0
 11
2654.700967227453
 21
11595.90577497623
 31
0.0
  0
LINE
  5
2A5
  8
DEFAULT
 10
2654.700967227453
 20
11595.90577497623
 30
0.0
 11
2654.436289442671
 21
11595.30359380783
 31
0.0
  0
LINE
  5
2A6
  8
DEFAULT
 10
2654.436289442671
 20
11595.30359380783
 30
0.0
 11
2654.16454209528
 21
11594.72506857615
 31
0.0
  0
LINE
  5
2A7
  8
DEFAULT
 10
2654.16454209528
 20
11594.72506857615
 30
0.0
 11
2653.88568806477
 21
11594.16918223386
 31
0.0
  0
LINE
  5
2A8
  8
DEFAULT
 10
2653.88568806477
 20
11594.16918223386
 30
0.0
 11
2653.599690230631
 21
11593.63491773366
 31
0.0
  0
LINE
  5
2A9
  8
DEFAULT
 10
2653.599690230631
 20
11593.63491773366
 30
0.0
 11
2653.306511472357
 21
11593.12125802821
 31
0.0
  0
LINE
  5
2AA
  8
DEFAULT
 10
2653.306511472357
 20
11593.12125802821
 30
0.0
 11
2653.006114669437
 21
11592.62718607021
 31
0.0
  0
LINE
  5
2AB
  8
DEFAULT
 10
2653.006114669437
 20
11592.62718607021
 30
0.0
 11
2652.698462701363
 21
11592.15168481234
 31
0.0
  0
LINE
  5
2AC
  8
DEFAULT
 10
2652.698462701363
 20
11592.15168481234
 30
0.0
 11
2652.383518447626
 21
11591.69373720729
 31
0.0
  0
LINE
  5
2AD
  8
DEFAULT
 10
2652.383518447626
 20
11591.69373720729
 30
0.0
 11
2652.061244787717
 21
11591.25232620773
 31
0.0
  0
LINE
  5
2AE
  8
DEFAULT
 10
2652.061244787717
 20
11591.25232620773
 30
0.0
 11
2651.731604601127
 21
11590.82643476635
 31
0.0
  0
LINE
  5
2AF
  8
DEFAULT
 10
2651.731604601127
 20
11590.82643476635
 30
0.0
 11
2651.394560767348
 21
11590.41504583583
 31
0.0
  0
LINE
  5
2B0
  8
DEFAULT
 10
2651.394560767348
 20
11590.41504583583
 30
0.0
 11
2651.05007616587
 21
11590.01714236885
 31
0.0
  0
LINE
  5
2B1
  8
DEFAULT
 10
2651.05007616587
 20
11590.01714236885
 30
0.0
 11
2650.698113676185
 21
11589.63170731811
 31
0.0
  0
LINE
  5
2B2
  8
DEFAULT
 10
2650.698113676185
 20
11589.63170731811
 30
0.0
 11
2650.338636177784
 21
11589.25772363627
 31
0.0
  0
LINE
  5
2B3
  8
DEFAULT
 10
2650.338636177784
 20
11589.25772363627
 30
0.0
 11
2649.971606550157
 21
11588.89417427603
 31
0.0
  0
LINE
  5
2B4
  8
DEFAULT
 10
2649.971606550157
 20
11588.89417427603
 30
0.0
 11
2649.596987672797
 21
11588.54004219007
 31
0.0
  0
LINE
  5
2B5
  8
DEFAULT
 10
2649.596987672797
 20
11588.54004219007
 30
0.0
 11
2649.214742425193
 21
11588.19431033107
 31
0.0
  0
LINE
  5
2B6
  8
DEFAULT
 10
2649.214742425193
 20
11588.19431033107
 30
0.0
 11
2648.824833686839
 21
11587.85596165172
 31
0.0
  0
LINE
  5
2B7
  8
DEFAULT
 10
2648.824833686839
 20
11587.85596165172
 30
0.0
 11
2648.427224337223
 21
11587.52397910469
 31
0.0
  0
LINE
  5
2B8
  8
DEFAULT
 10
2648.427224337223
 20
11587.52397910469
 30
0.0
 11
2647.608755322175
 21
11586.87504421836
 31
0.0
  0
LINE
  5
2B9
  8
DEFAULT
 10
2647.608755322175
 20
11586.87504421836
 30
0.0
 11
2646.758033972655
 21
11586.24103783251
 31
0.0
  0
LINE
  5
2BA
  8
DEFAULT
 10
2646.758033972655
 20
11586.24103783251
 30
0.0
 11
2645.869741107972
 21
11585.62216626359
 31
0.0
  0
LINE
  5
2BB
  8
DEFAULT
 10
2645.869741107972
 20
11585.62216626359
 30
0.0
 11
2645.409529224942
 21
11585.31899192779
 31
0.0
  0
LINE
  5
2BC
  8
DEFAULT
 10
2645.409529224942
 20
11585.31899192779
 30
0.0
 11
2644.937553104116
 21
11585.020304367
 31
0.0
  0
LINE
  5
2BD
  8
DEFAULT
 10
2644.937553104116
 20
11585.020304367
 30
0.0
 11
2644.453022292494
 21
11584.72633793813
 31
0.0
  0
LINE
  5
2BE
  8
DEFAULT
 10
2644.453022292494
 20
11584.72633793813
 30
0.0
 11
2643.955146337073
 21
11584.43732699812
 31
0.0
  0
LINE
  5
2BF
  8
DEFAULT
 10
2643.955146337073
 20
11584.43732699812
 30
0.0
 11
2643.443134784851
 21
11584.1535059039
 31
0.0
  0
LINE
  5
2C0
  8
DEFAULT
 10
2643.443134784851
 20
11584.1535059039
 30
0.0
 11
2642.916197182829
 21
11583.87510901238
 31
0.0
  0
LINE
  5
2C1
  8
DEFAULT
 10
2642.916197182829
 20
11583.87510901238
 30
0.0
 11
2642.373543078003
 21
11583.6023706805
 31
0.0
  0
LINE
  5
2C2
  8
DEFAULT
 10
2642.373543078003
 20
11583.6023706805
 30
0.0
 11
2641.814382017372
 21
11583.33552526518
 31
0.0
  0
LINE
  5
2C3
  8
DEFAULT
 10
2641.814382017372
 20
11583.33552526518
 30
0.0
 11
2641.237923547935
 21
11583.07480712335
 31
0.0
  0
LINE
  5
2C4
  8
DEFAULT
 10
2641.237923547935
 20
11583.07480712335
 30
0.0
 11
2640.643377216689
 21
11582.82045061193
 31
0.0
  0
LINE
  5
2C5
  8
DEFAULT
 10
2640.643377216689
 20
11582.82045061193
 30
0.0
 11
2640.029952570633
 21
11582.57269008784
 31
0.0
  0
LINE
  5
2C6
  8
DEFAULT
 10
2640.029952570633
 20
11582.57269008784
 30
0.0
 11
2639.396859156767
 21
11582.33175990802
 31
0.0
  0
LINE
  5
2C7
  8
DEFAULT
 10
2639.396859156767
 20
11582.33175990802
 30
0.0
 11
2638.743306522088
 21
11582.09789442938
 31
0.0
  0
LINE
  5
2C8
  8
DEFAULT
 10
2638.743306522088
 20
11582.09789442938
 30
0.0
 11
2638.068504213594
 21
11581.87132800887
 31
0.0
  0
LINE
  5
2C9
  8
DEFAULT
 10
2638.068504213594
 20
11581.87132800887
 30
0.0
 11
2637.371661778284
 21
11581.65229500339
 31
0.0
  0
LINE
  5
2CA
  8
DEFAULT
 10
2637.371661778284
 20
11581.65229500339
 30
0.0
 11
2636.651988763156
 21
11581.44102976987
 31
0.0
  0
LINE
  5
2CB
  8
DEFAULT
 10
2636.651988763156
 20
11581.44102976987
 30
0.0
 11
2635.908694715209
 21
11581.23776666525
 31
0.0
  0
LINE
  5
2CC
  8
DEFAULT
 10
2635.908694715209
 20
11581.23776666525
 30
0.0
 11
2635.140989181441
 21
11581.04274004644
 31
0.0
  0
LINE
  5
2CD
  8
DEFAULT
 10
2635.140989181441
 20
11581.04274004644
 30
0.0
 11
2633.529181844434
 21
11580.67833369399
 31
0.0
  0
LINE
  5
2CE
  8
DEFAULT
 10
2633.529181844434
 20
11580.67833369399
 30
0.0
 11
2631.810243128125
 21
11580.34968556791
 31
0.0
  0
LINE
  5
2CF
  8
DEFAULT
 10
2631.810243128125
 20
11580.34968556791
 30
0.0
 11
2629.977849408499
 21
11580.05867052361
 31
0.0
  0
LINE
  5
2D0
  8
DEFAULT
 10
2629.977849408499
 20
11580.05867052361
 30
0.0
 11
2628.025677061545
 21
11579.8071634165
 31
0.0
  0
LINE
  5
2D1
  8
DEFAULT
 10
2628.025677061545
 20
11579.8071634165
 30
0.0
 11
2625.94740246325
 21
11579.59703910199
 31
0.0
  0
LINE
  5
2D2
  8
DEFAULT
 10
2625.94740246325
 20
11579.59703910199
 30
0.0
 11
2623.736701989598
 21
11579.43017243547
 31
0.0
  0
LINE
  5
2D3
  8
DEFAULT
 10
2623.736701989598
 20
11579.43017243547
 30
0.0
 11
2621.38725201658
 21
11579.30843827236
 31
0.0
  0
LINE
  5
2D4
  8
DEFAULT
 10
2621.38725201658
 20
11579.30843827236
 30
0.0
 11
2618.892728920181
 21
11579.23371146806
 31
0.0
  0
LINE
  5
2D5
  8
DEFAULT
 10
2618.892728920181
 20
11579.23371146806
 30
0.0
 11
2616.246809076388
 21
11579.20786687797
 31
0.0
  0
LINE
  5
2D6
  8
DEFAULT
 10
2616.246809076388
 20
11579.20786687797
 30
0.0
 11
2610.47548465057
 21
11579.31032376207
 31
0.0
  0
LINE
  5
2D7
  8
DEFAULT
 10
2610.47548465057
 20
11579.31032376207
 30
0.0
 11
2604.022689747024
 21
11579.63080776789
 31
0.0
  0
LINE
  5
2D8
  8
DEFAULT
 10
2604.022689747024
 20
11579.63080776789
 30
0.0
 11
2596.837835373646
 21
11580.18431773869
 31
0.0
  0
LINE
  5
2D9
  8
DEFAULT
 10
2596.837835373646
 20
11580.18431773869
 30
0.0
 11
2588.870332538334
 21
11580.98585251771
 31
0.0
  0
LINE
  5
2DA
  8
DEFAULT
 10
2588.870332538334
 20
11580.98585251771
 30
0.0
 11
2570.385025513492
 21
11583.39299187337
 31
0.0
  0
LINE
  5
2DB
  8
DEFAULT
 10
2570.385025513492
 20
11583.39299187337
 30
0.0
 11
2436.267070339703
 21
11604.87034707181
 31
0.0
  0
LINE
  5
2DC
  8
DEFAULT
 10
2436.267070339703
 20
11604.87034707181
 30
0.0
 11
2405.641632091206
 21
11608.43714975469
 31
0.0
  0
LINE
  5
2DD
  8
DEFAULT
 10
2405.641632091206
 20
11608.43714975469
 30
0.0
 11
2390.401095670851
 21
11609.81592199835
 31
0.0
  0
LINE
  5
2DE
  8
DEFAULT
 10
2390.401095670851
 20
11609.81592199835
 30
0.0
 11
2375.320971023472
 21
11610.86062447361
 31
0.0
  0
LINE
  5
2DF
  8
DEFAULT
 10
2375.320971023472
 20
11610.86062447361
 30
0.0
 11
2360.485475626858
 21
11611.52301940307
 31
0.0
  0
LINE
  5
2E0
  8
DEFAULT
 10
2360.485475626858
 20
11611.52301940307
 30
0.0
 11
2345.978826958793
 21
11611.7548690093
 31
0.0
  0
LINE
  5
2E1
  8
DEFAULT
 10
2345.978826958793
 20
11611.7548690093
 30
0.0
 11
2331.472178290727
 21
11611.52301940307
 31
0.0
  0
LINE
  5
2E2
  8
DEFAULT
 10
2331.472178290727
 20
11611.52301940307
 30
0.0
 11
2316.636682894113
 21
11610.86062447361
 31
0.0
  0
LINE
  5
2E3
  8
DEFAULT
 10
2316.636682894113
 20
11610.86062447361
 30
0.0
 11
2301.556558246734
 21
11609.81592199835
 31
0.0
  0
LINE
  5
2E4
  8
DEFAULT
 10
2301.556558246734
 20
11609.81592199835
 30
0.0
 11
2286.316021826379
 21
11608.43714975469
 31
0.0
  0
LINE
  5
2E5
  8
DEFAULT
 10
2286.316021826379
 20
11608.43714975469
 30
0.0
 11
2255.690583577883
 21
11604.87034707181
 31
0.0
  0
LINE
  5
2E6
  8
DEFAULT
 10
2255.690583577883
 20
11604.87034707181
 30
0.0
 11
2121.572628404093
 21
11583.39299187337
 31
0.0
  0
LINE
  5
2E7
  8
DEFAULT
 10
2121.572628404093
 20
11583.39299187337
 30
0.0
 11
2103.087321379252
 21
11580.98585251771
 31
0.0
  0
LINE
  5
2E8
  8
DEFAULT
 10
2103.087321379252
 20
11580.98585251771
 30
0.0
 11
2095.119818543939
 21
11580.18431773869
 31
0.0
  0
LINE
  5
2E9
  8
DEFAULT
 10
2095.119818543939
 20
11580.18431773869
 30
0.0
 11
2087.934964170561
 21
11579.6308077679
 31
0.0
  0
LINE
  5
2EA
  8
DEFAULT
 10
2087.934964170561
 20
11579.6308077679
 30
0.0
 11
2081.482169267015
 21
11579.31032376207
 31
0.0
  0
LINE
  5
2EB
  8
DEFAULT
 10
2081.482169267015
 20
11579.31032376207
 30
0.0
 11
2075.710844841197
 21
11579.20786687797
 31
0.0
  0
LINE
  5
2EC
  8
DEFAULT
 10
2075.710844841197
 20
11579.20786687797
 30
0.0
 11
2073.064924997404
 21
11579.23371146806
 31
0.0
  0
LINE
  5
2ED
  8
DEFAULT
 10
2073.064924997404
 20
11579.23371146806
 30
0.0
 11
2070.570401901005
 21
11579.30843827236
 31
0.0
  0
LINE
  5
2EE
  8
DEFAULT
 10
2070.570401901005
 20
11579.30843827236
 30
0.0
 11
2068.220951927987
 21
11579.43017243547
 31
0.0
  0
LINE
  5
2EF
  8
DEFAULT
 10
2068.220951927987
 20
11579.43017243547
 30
0.0
 11
2066.010251454336
 21
11579.59703910199
 31
0.0
  0
LINE
  5
2F0
  8
DEFAULT
 10
2066.010251454336
 20
11579.59703910199
 30
0.0
 11
2063.93197685604
 21
11579.8071634165
 31
0.0
  0
LINE
  5
2F1
  8
DEFAULT
 10
2063.93197685604
 20
11579.8071634165
 30
0.0
 11
2061.979804509086
 21
11580.05867052361
 31
0.0
  0
LINE
  5
2F2
  8
DEFAULT
 10
2061.979804509086
 20
11580.05867052361
 30
0.0
 11
2060.14741078946
 21
11580.34968556791
 31
0.0
  0
LINE
  5
2F3
  8
DEFAULT
 10
2060.14741078946
 20
11580.34968556791
 30
0.0
 11
2058.428472073151
 21
11580.67833369399
 31
0.0
  0
LINE
  5
2F4
  8
DEFAULT
 10
2058.428472073151
 20
11580.67833369399
 30
0.0
 11
2056.816664736145
 21
11581.04274004644
 31
0.0
  0
LINE
  5
2F5
  8
DEFAULT
 10
2056.816664736145
 20
11581.04274004644
 30
0.0
 11
2056.048959202376
 21
11581.23776666525
 31
0.0
  0
LINE
  5
2F6
  8
DEFAULT
 10
2056.048959202376
 20
11581.23776666525
 30
0.0
 11
2055.305665154429
 21
11581.44102976987
 31
0.0
  0
LINE
  5
2F7
  8
DEFAULT
 10
2055.305665154429
 20
11581.44102976987
 30
0.0
 11
2054.585992139301
 21
11581.65229500339
 31
0.0
  0
LINE
  5
2F8
  8
DEFAULT
 10
2054.585992139301
 20
11581.65229500339
 30
0.0
 11
2053.889149703991
 21
11581.87132800887
 31
0.0
  0
LINE
  5
2F9
  8
DEFAULT
 10
2053.889149703991
 20
11581.87132800887
 30
0.0
 11
2053.214347395497
 21
11582.09789442938
 31
0.0
  0
LINE
  5
2FA
  8
DEFAULT
 10
2053.214347395497
 20
11582.09789442938
 30
0.0
 11
2052.560794760818
 21
11582.33175990802
 31
0.0
  0
LINE
  5
2FB
  8
DEFAULT
 10
2052.560794760818
 20
11582.33175990802
 30
0.0
 11
2051.927701346952
 21
11582.57269008784
 31
0.0
  0
LINE
  5
2FC
  8
DEFAULT
 10
2051.927701346952
 20
11582.57269008784
 30
0.0
 11
2051.314276700896
 21
11582.82045061193
 31
0.0
  0
LINE
  5
2FD
  8
DEFAULT
 10
2051.314276700896
 20
11582.82045061193
 30
0.0
 11
2050.71973036965
 21
11583.07480712335
 31
0.0
  0
LINE
  5
2FE
  8
DEFAULT
 10
2050.71973036965
 20
11583.07480712335
 30
0.0
 11
2050.143271900213
 21
11583.33552526519
 31
0.0
  0
LINE
  5
2FF
  8
DEFAULT
 10
2050.143271900213
 20
11583.33552526519
 30
0.0
 11
2049.584110839583
 21
11583.60237068051
 31
0.0
  0
LINE
  5
300
  8
DEFAULT
 10
2049.584110839583
 20
11583.60237068051
 30
0.0
 11
2049.041456734757
 21
11583.87510901239
 31
0.0
  0
LINE
  5
301
  8
DEFAULT
 10
2049.041456734757
 20
11583.87510901239
 30
0.0
 11
2048.514519132734
 21
11584.1535059039
 31
0.0
  0
LINE
  5
302
  8
DEFAULT
 10
2048.514519132734
 20
11584.1535059039
 30
0.0
 11
2048.002507580512
 21
11584.43732699813
 31
0.0
  0
LINE
  5
303
  8
DEFAULT
 10
2048.002507580512
 20
11584.43732699813
 30
0.0
 11
2047.504631625091
 21
11584.72633793813
 31
0.0
  0
LINE
  5
304
  8
DEFAULT
 10
2047.504631625091
 20
11584.72633793813
 30
0.0
 11
2047.020100813469
 21
11585.020304367
 31
0.0
  0
LINE
  5
305
  8
DEFAULT
 10
2047.020100813469
 20
11585.020304367
 30
0.0
 11
2046.548124692643
 21
11585.3189919278
 31
0.0
  0
LINE
  5
306
  8
DEFAULT
 10
2046.548124692643
 20
11585.3189919278
 30
0.0
 11
2046.087912809613
 21
11585.6221662636
 31
0.0
  0
LINE
  5
307
  8
DEFAULT
 10
2046.087912809613
 20
11585.6221662636
 30
0.0
 11
2045.199619944931
 21
11586.24103783252
 31
0.0
  0
LINE
  5
308
  8
DEFAULT
 10
2045.199619944931
 20
11586.24103783252
 30
0.0
 11
2044.34889859541
 21
11586.87504421836
 31
0.0
  0
LINE
  5
309
  8
DEFAULT
 10
2044.34889859541
 20
11586.87504421836
 30
0.0
 11
2043.530429580362
 21
11587.52397910469
 31
0.0
  0
LINE
  5
30A
  8
DEFAULT
 10
2043.530429580362
 20
11587.52397910469
 30
0.0
 11
2043.132820230746
 21
11587.85596165172
 31
0.0
  0
LINE
  5
30B
  8
DEFAULT
 10
2043.132820230746
 20
11587.85596165172
 30
0.0
 11
2042.742911492391
 21
11588.19431033107
 31
0.0
  0
LINE
  5
30C
  8
DEFAULT
 10
2042.742911492391
 20
11588.19431033107
 30
0.0
 11
2042.360666244788
 21
11588.54004219007
 31
0.0
  0
LINE
  5
30D
  8
DEFAULT
 10
2042.360666244788
 20
11588.54004219007
 30
0.0
 11
2041.986047367428
 21
11588.89417427603
 31
0.0
  0
LINE
  5
30E
  8
DEFAULT
 10
2041.986047367428
 20
11588.89417427603
 30
0.0
 11
2041.619017739801
 21
11589.25772363627
 31
0.0
  0
LINE
  5
30F
  8
DEFAULT
 10
2041.619017739801
 20
11589.25772363627
 30
0.0
 11
2041.2595402414
 21
11589.63170731811
 31
0.0
  0
LINE
  5
310
  8
DEFAULT
 10
2041.2595402414
 20
11589.63170731811
 30
0.0
 11
2040.907577751715
 21
11590.01714236885
 31
0.0
  0
LINE
  5
311
  8
DEFAULT
 10
2040.907577751715
 20
11590.01714236885
 30
0.0
 11
2040.563093150237
 21
11590.41504583583
 31
0.0
  0
LINE
  5
312
  8
DEFAULT
 10
2040.563093150237
 20
11590.41504583583
 30
0.0
 11
2040.226049316458
 21
11590.82643476635
 31
0.0
  0
LINE
  5
313
  8
DEFAULT
 10
2040.226049316458
 20
11590.82643476635
 30
0.0
 11
2039.896409129868
 21
11591.25232620773
 31
0.0
  0
LINE
  5
314
  8
DEFAULT
 10
2039.896409129868
 20
11591.25232620773
 30
0.0
 11
2039.574135469959
 21
11591.69373720729
 31
0.0
  0
LINE
  5
315
  8
DEFAULT
 10
2039.574135469959
 20
11591.69373720729
 30
0.0
 11
2039.259191216222
 21
11592.15168481234
 31
0.0
  0
LINE
  5
316
  8
DEFAULT
 10
2039.259191216222
 20
11592.15168481234
 30
0.0
 11
2038.951539248148
 21
11592.62718607021
 31
0.0
  0
LINE
  5
317
  8
DEFAULT
 10
2038.951539248148
 20
11592.62718607021
 30
0.0
 11
2038.651142445229
 21
11593.12125802821
 31
0.0
  0
LINE
  5
318
  8
DEFAULT
 10
2038.651142445229
 20
11593.12125802821
 30
0.0
 11
2038.357963686954
 21
11593.63491773366
 31
0.0
  0
LINE
  5
319
  8
DEFAULT
 10
2038.357963686954
 20
11593.63491773366
 30
0.0
 11
2038.071965852816
 21
11594.16918223386
 31
0.0
  0
LINE
  5
31A
  8
DEFAULT
 10
2038.071965852816
 20
11594.16918223386
 30
0.0
 11
2037.793111822306
 21
11594.72506857615
 31
0.0
  0
LINE
  5
31B
  8
DEFAULT
 10
2037.793111822306
 20
11594.72506857615
 30
0.0
 11
2037.521364474914
 21
11595.30359380783
 31
0.0
  0
LINE
  5
31C
  8
DEFAULT
 10
2037.521364474914
 20
11595.30359380783
 30
0.0
 11
2037.256686690132
 21
11595.90577497623
 31
0.0
  0
LINE
  5
31D
  8
DEFAULT
 10
2037.256686690132
 20
11595.90577497623
 30
0.0
 11
2036.999041347452
 21
11596.53262912865
 31
0.0
  0
LINE
  5
31E
  8
DEFAULT
 10
2036.999041347452
 20
11596.53262912865
 30
0.0
 11
2036.748391326363
 21
11597.18517331242
 31
0.0
  0
LINE
  5
31F
  8
DEFAULT
 10
2036.748391326363
 20
11597.18517331242
 30
0.0
 11
2036.504699506358
 21
11597.86442457486
 31
0.0
  0
LINE
  5
320
  8
DEFAULT
 10
2036.504699506358
 20
11597.86442457486
 30
0.0
 11
2036.267928766927
 21
11598.57139996327
 31
0.0
  0
LINE
  5
321
  8
DEFAULT
 10
2036.267928766927
 20
11598.57139996327
 30
0.0
 11
2036.038041987561
 21
11599.30711652499
 31
0.0
  0
LINE
  5
322
  8
DEFAULT
 10
2036.038041987561
 20
11599.30711652499
 30
0.0
 11
2035.815002047752
 21
11600.07259130731
 31
0.0
  0
LINE
  5
323
  8
DEFAULT
 10
2035.815002047752
 20
11600.07259130731
 30
0.0
 11
2035.598771826991
 21
11600.86884135757
 31
0.0
  0
LINE
  5
324
  8
DEFAULT
 10
2035.598771826991
 20
11600.86884135757
 30
0.0
 11
2035.186592060577
 21
11602.55773545114
 31
0.0
  0
LINE
  5
325
  8
DEFAULT
 10
2035.186592060577
 20
11602.55773545114
 30
0.0
 11
2034.801205724248
 21
11604.38193518423
 31
0.0
  0
LINE
  5
326
  8
DEFAULT
 10
2034.801205724248
 20
11604.38193518423
 30
0.0
 11
2034.442315853932
 21
11606.34957693538
 31
0.0
  0
LINE
  5
327
  8
DEFAULT
 10
2034.442315853932
 20
11606.34957693538
 30
0.0
 11
2034.10962548556
 21
11608.46879708313
 31
0.0
  0
LINE
  5
328
  8
DEFAULT
 10
2034.10962548556
 20
11608.46879708313
 30
0.0
 11
2033.802837655059
 21
11610.74773200599
 31
0.0
  0
LINE
  5
329
  8
DEFAULT
 10
2033.802837655059
 20
11610.74773200599
 30
0.0
 11
2033.52165539836
 21
11613.19451808252
 31
0.0
  0
LINE
  5
32A
  8
DEFAULT
 10
2033.52165539836
 20
11613.19451808252
 30
0.0
 11
2033.034919750082
 21
11618.62418921069
 31
0.0
  0
LINE
  5
32B
  8
DEFAULT
 10
2033.034919750082
 20
11618.62418921069
 30
0.0
 11
2032.647042828157
 21
11624.82290149591
 31
0.0
  0
LINE
  5
32C
  8
DEFAULT
 10
2032.647042828157
 20
11624.82290149591
 30
0.0
 11
2032.158362313098
 21
11639.78781365058
 31
0.0
  0
LINE
  5
32D
  8
DEFAULT
 10
2032.158362313098
 20
11639.78781365058
 30
0.0
 11
2032.036608152645
 21
11658.60998277274
 31
0.0
  0
LINE
  5
32E
  8
DEFAULT
 10
2032.036608152645
 20
11658.60998277274
 30
0.0
 11
2032.973997020788
 21
11707.69147547508
 31
0.0
  0
LINE
  5
32F
  8
DEFAULT
 10
2032.973997020788
 20
11707.69147547508
 30
0.0
 11
2034.209822423464
 21
11735.94315265261
 31
0.0
  0
LINE
  5
330
  8
DEFAULT
 10
2034.209822423464
 20
11735.94315265261
 30
0.0
 11
2036.087868465211
 21
11765.14555866682
 31
0.0
  0
LINE
  5
331
  8
DEFAULT
 10
2036.087868465211
 20
11765.14555866682
 30
0.0
 11
2038.706235141031
 21
11794.15627473208
 31
0.0
  0
LINE
  5
332
  8
DEFAULT
 10
2038.706235141031
 20
11794.15627473208
 30
0.0
 11
2040.323694965156
 21
11808.23274316332
 31
0.0
  0
LINE
  5
333
  8
DEFAULT
 10
2040.323694965156
 20
11808.23274316332
 30
0.0
 11
2042.163022445925
 21
11821.83288206271
 31
0.0
  0
LINE
  5
334
  8
DEFAULT
 10
2042.163022445925
 20
11821.83288206271
 30
0.0
 11
2044.236480082712
 21
11834.81388908203
 31
0.0
  0
LINE
  5
335
  8
DEFAULT
 10
2044.236480082712
 20
11834.81388908203
 30
0.0
 11
2046.556330374894
 21
11847.03296187307
 31
0.0
  0
LINE
  5
336
  8
DEFAULT
 10
2046.556330374894
 20
11847.03296187307
 30
0.0
 11
2047.812484797812
 21
11852.81214719917
 31
0.0
  0
LINE
  5
337
  8
DEFAULT
 10
2047.812484797812
 20
11852.81214719917
 30
0.0
 11
2049.134835821844
 21
11858.34729808763
 31
0.0
  0
LINE
  5
338
  8
DEFAULT
 10
2049.134835821844
 20
11858.34729808763
 30
0.0
 11
2050.524916259413
 21
11863.62056424491
 31
0.0
  0
LINE
  5
339
  8
DEFAULT
 10
2050.524916259413
 20
11863.62056424491
 30
0.0
 11
2051.984258922939
 21
11868.6140953775
 31
0.0
  0
LINE
  5
33A
  8
DEFAULT
 10
2051.984258922939
 20
11868.6140953775
 30
0.0
 11
2053.513577370739
 21
11873.31449966044
 31
0.0
  0
LINE
  5
33B
  8
DEFAULT
 10
2053.513577370739
 20
11873.31449966044
 30
0.0
 11
2055.110308144706
 21
11877.72621914314
 31
0.0
  0
LINE
  5
33C
  8
DEFAULT
 10
2055.110308144706
 20
11877.72621914314
 30
0.0
 11
2055.932896056435
 21
11879.82660349626
 31
0.0
  0
LINE
  5
33D
  8
DEFAULT
 10
2055.932896056435
 20
11879.82660349626
 30
0.0
 11
2056.771068532625
 21
11881.85815434355
 31
0.0
  0
LINE
  5
33E
  8
DEFAULT
 10
2056.771068532625
 20
11881.85815434355
 30
0.0
 11
2057.62440273425
 21
11883.82198424977
 31
0.0
  0
LINE
  5
33F
  8
DEFAULT
 10
2057.62440273425
 20
11883.82198424977
 30
0.0
 11
2058.492475822282
 21
11885.71920577966
 31
0.0
  0
LINE
  5
340
  8
DEFAULT
 10
2058.492475822282
 20
11885.71920577966
 30
0.0
 11
2059.374864957696
 21
11887.55093149796
 31
0.0
  0
LINE
  5
341
  8
DEFAULT
 10
2059.374864957696
 20
11887.55093149796
 30
0.0
 11
2060.271147301465
 21
11889.31827396943
 31
0.0
  0
LINE
  5
342
  8
DEFAULT
 10
2060.271147301465
 20
11889.31827396943
 30
0.0
 11
2061.18090001456
 21
11891.02234575881
 31
0.0
  0
LINE
  5
343
  8
DEFAULT
 10
2061.18090001456
 20
11891.02234575881
 30
0.0
 11
2062.103700257957
 21
11892.66425943084
 31
0.0
  0
LINE
  5
344
  8
DEFAULT
 10
2062.103700257957
 20
11892.66425943084
 30
0.0
 11
2063.039125192628
 21
11894.24512755028
 31
0.0
  0
LINE
  5
345
  8
DEFAULT
 10
2063.039125192628
 20
11894.24512755028
 30
0.0
 11
2063.986751979548
 21
11895.76606268187
 31
0.0
  0
LINE
  5
346
  8
DEFAULT
 10
2063.986751979548
 20
11895.76606268187
 30
0.0
 11
2064.946157779687
 21
11897.22817739035
 31
0.0
  0
LINE
  5
347
  8
DEFAULT
 10
2064.946157779687
 20
11897.22817739035
 30
0.0
 11
2065.916919754022
 21
11898.63258424047
 31
0.0
  0
LINE
  5
348
  8
DEFAULT
 10
2065.916919754022
 20
11898.63258424047
 30
0.0
 11
2066.898615063524
 21
11899.98039579699
 31
0.0
  0
LINE
  5
349
  8
DEFAULT
 10
2066.898615063524
 20
11899.98039579699
 30
0.0
 11
2067.890820869166
 21
11901.27272462464
 31
0.0
  0
LINE
  5
34A
  8
DEFAULT
 10
2067.890820869166
 20
11901.27272462464
 30
0.0
 11
2068.893114331921
 21
11902.51068328817
 31
0.0
  0
LINE
  5
34B
  8
DEFAULT
 10
2068.893114331921
 20
11902.51068328817
 30
0.0
 11
2069.905072612765
 21
11903.69538435233
 31
0.0
  0
LINE
  5
34C
  8
DEFAULT
 10
2069.905072612765
 20
11903.69538435233
 30
0.0
 11
2070.926272872669
 21
11904.82794038187
 31
0.0
  0
LINE
  5
34D
  8
DEFAULT
 10
2070.926272872669
 20
11904.82794038187
 30
0.0
 11
2071.956292272606
 21
11905.90946394153
 31
0.0
  0
LINE
  5
34E
  8
DEFAULT
 10
2071.956292272606
 20
11905.90946394153
 30
0.0
 11
2072.994707973551
 21
11906.94106759605
 31
0.0
  0
LINE
  5
34F
  8
DEFAULT
 10
2072.994707973551
 20
11906.94106759605
 30
0.0
 11
2074.041097136476
 21
11907.9238639102
 31
0.0
  0
LINE
  5
350
  8
DEFAULT
 10
2074.041097136476
 20
11907.9238639102
 30
0.0
 11
2075.095036922355
 21
11908.8589654487
 31
0.0
  0
LINE
  5
351
  8
DEFAULT
 10
2075.095036922355
 20
11908.8589654487
 30
0.0
 11
2076.15610449216
 21
11909.74748477632
 31
0.0
  0
LINE
  5
352
  8
DEFAULT
 10
2076.15610449216
 20
11909.74748477632
 30
0.0
 11
2077.223877006867
 21
11910.59053445778
 31
0.0
  0
LINE
  5
353
  8
DEFAULT
 10
2077.223877006867
 20
11910.59053445778
 30
0.0
 11
2078.297931627446
 21
11911.38922705785
 31
0.0
  0
LINE
  5
354
  8
DEFAULT
 10
2078.297931627446
 20
11911.38922705785
 30
0.0
 11
2079.377845514872
 21
11912.14467514127
 31
0.0
  0
LINE
  5
355
  8
DEFAULT
 10
2079.377845514872
 20
11912.14467514127
 30
0.0
 11
2080.463195830119
 21
11912.85799127278
 31
0.0
  0
LINE
  5
356
  8
DEFAULT
 10
2080.463195830119
 20
11912.85799127278
 30
0.0
 11
2081.553559734159
 21
11913.53028801714
 31
0.0
  0
LINE
  5
357
  8
DEFAULT
 10
2081.553559734159
 20
11913.53028801714
 30
0.0
 11
2082.648514387964
 21
11914.16267793908
 31
0.0
  0
LINE
  5
358
  8
DEFAULT
 10
2082.648514387964
 20
11914.16267793908
 30
0.0
 11
2083.74763695251
 21
11914.75627360336
 31
0.0
  0
LINE
  5
359
  8
DEFAULT
 10
2083.74763695251
 20
11914.75627360336
 30
0.0
 11
2084.85050458877
 21
11915.31218757471
 31
0.0
  0
LINE
  5
35A
  8
DEFAULT
 10
2084.85050458877
 20
11915.31218757471
 30
0.0
 11
2085.956694457715
 21
11915.8315324179
 31
0.0
  0
LINE
  5
35B
  8
DEFAULT
 10
2085.956694457715
 20
11915.8315324179
 30
0.0
 11
2087.06578372032
 21
11916.31542069766
 31
0.0
  0
LINE
  5
35C
  8
DEFAULT
 10
2087.06578372032
 20
11916.31542069766
 30
0.0
 11
2088.177349537559
 21
11916.76496497874
 31
0.0
  0
LINE
  5
35D
  8
DEFAULT
 10
2088.177349537559
 20
11916.76496497874
 30
0.0
 11
2089.290969070403
 21
11917.18127782588
 31
0.0
  0
LINE
  5
35E
  8
DEFAULT
 10
2089.290969070403
 20
11917.18127782588
 30
0.0
 11
2090.406219479827
 21
11917.56547180385
 31
0.0
  0
LINE
  5
35F
  8
DEFAULT
 10
2090.406219479827
 20
11917.56547180385
 30
0.0
 11
2091.522677926804
 21
11917.91865947737
 31
0.0
  0
LINE
  5
360
  8
DEFAULT
 10
2091.522677926804
 20
11917.91865947737
 30
0.0
 11
2092.639921572307
 21
11918.24195341119
 31
0.0
  0
LINE
  5
361
  8
DEFAULT
 10
2092.639921572307
 20
11918.24195341119
 30
0.0
 11
2093.75752757731
 21
11918.53646617008
 31
0.0
  0
LINE
  5
362
  8
DEFAULT
 10
2093.75752757731
 20
11918.53646617008
 30
0.0
 11
2094.875073102785
 21
11918.80331031876
 31
0.0
  0
LINE
  5
363
  8
DEFAULT
 10
2094.875073102785
 20
11918.80331031876
 30
0.0
 11
2095.992135309706
 21
11919.04359842199
 31
0.0
  0
LINE
  5
364
  8
DEFAULT
 10
2095.992135309706
 20
11919.04359842199
 30
0.0
 11
2097.108291359045
 21
11919.25844304451
 31
0.0
  0
LINE
  5
365
  8
DEFAULT
 10
2097.108291359045
 20
11919.25844304451
 30
0.0
 11
2098.223118411778
 21
11919.44895675108
 31
0.0
  0
LINE
  5
366
  8
DEFAULT
 10
2098.223118411778
 20
11919.44895675108
 30
0.0
 11
2099.336193628877
 21
11919.61625210643
 31
0.0
  0
LINE
  5
367
  8
DEFAULT
 10
2099.336193628877
 20
11919.61625210643
 30
0.0
 11
2100.447094171314
 21
11919.76144167531
 31
0.0
  0
LINE
  5
368
  8
DEFAULT
 10
2100.447094171314
 20
11919.76144167531
 30
0.0
 11
2101.555397200064
 21
11919.88563802247
 31
0.0
  0
LINE
  5
369
  8
DEFAULT
 10
2101.555397200064
 20
11919.88563802247
 30
0.0
 11
2102.660679876099
 21
11919.98995371266
 31
0.0
  0
LINE
  5
36A
  8
DEFAULT
 10
2102.660679876099
 20
11919.98995371266
 30
0.0
 11
2104.86049281392
 21
11920.1433933811
 31
0.0
  0
LINE
  5
36B
  8
DEFAULT
 10
2104.86049281392
 20
11920.1433933811
 30
0.0
 11
2107.043150272563
 21
11920.2306611986
 31
0.0
  0
LINE
  5
36C
  8
DEFAULT
 10
2107.043150272563
 20
11920.2306611986
 30
0.0
 11
2109.205269539813
 21
11920.26065768315
 31
0.0
  0
LINE
  5
36D
  8
DEFAULT
 10
2109.205269539813
 20
11920.26065768315
 30
0.0
 11
2111.343467903457
 21
11920.2422833527
 31
0.0
  0
LINE
  5
36E
  8
DEFAULT
 10
2111.343467903457
 20
11920.2422833527
 30
0.0
 11
2113.454362651282
 21
11920.18443872523
 31
0.0
  0
LINE
  5
36F
  8
DEFAULT
 10
2113.454362651282
 20
11920.18443872523
 30
0.0
 11
2168.069290320837
 21
11917.07860022634
 31
0.0
  0
LINE
  5
370
  8
DEFAULT
 10
2168.069290320837
 20
11917.07860022634
 30
0.0
 11
2345.978826958793
 21
11914.58815376457
 31
0.0
  0
LINE
  5
371
  8
DEFAULT
 10
2519.498646303549
 20
11692.27151138693
 30
0.0
 11
2482.498646303546
 21
11692.27151138693
 31
0.0
  0
ARC
  5
372
  8
DEFAULT
 10
2479.248646303546
 20
11692.27151138693
 30
0.0
 40
3.25
 50
0.0
 51
180.0
  0
LINE
  5
373
  8
DEFAULT
 10
2475.998646303546
 20
11692.27151138693
 30
0.0
 11
2475.998646303546
 21
11684.07151138693
 31
0.0
  0
ARC
  5
374
  8
DEFAULT
 10
2479.248646303546
 20
11684.07151138693
 30
0.0
 40
3.25
 50
180.0
 51
0.0
  0
LINE
  5
375
  8
DEFAULT
 10
2482.498646303546
 20
11684.07151138693
 30
0.0
 11
2519.498646303549
 21
11684.07151138693
 31
0.0
  0
ARC
  5
376
  8
DEFAULT
 10
2522.748646303549
 20
11684.07151138693
 30
0.0
 40
3.25
 50
180.0
 51
0.0
  0
LINE
  5
377
  8
DEFAULT
 10
2525.998646303549
 20
11684.07151138693
 30
0.0
 11
2525.998646303549
 21
11692.27151138693
 31
0.0
  0
ARC
  5
378
  8
DEFAULT
 10
2522.748646303549
 20
11692.27151138693
 30
0.0
 40
3.25
 50
0.0
 51
180.0
  0
LINE
  5
379
  8
DEFAULT
 10
2582.608555975925
 20
11669.67151138693
 30
0.0
 11
2582.608555975925
 21
11706.67151138693
 31
0.0
  0
ARC
  5
37A
  8
DEFAULT
 10
2582.608555975925
 20
11709.92151138693
 30
0.0
 40
3.25
 50
270.0
 51
90.0
  0
LINE
  5
37B
  8
DEFAULT
 10
2582.608555975925
 20
11713.17151138693
 30
0.0
 11
2574.408555975925
 21
11713.17151138693
 31
0.0
  0
ARC
  5
37C
  8
DEFAULT
 10
2574.408555975925
 20
11709.92151138693
 30
0.0
 40
3.25
 50
90.0
 51
270.0
  0
LINE
  5
37D
  8
DEFAULT
 10
2574.408555975925
 20
11706.67151138693
 30
0.0
 11
2574.408555975925
 21
11669.67151138693
 31
0.0
  0
ARC
  5
37E
  8
DEFAULT
 10
2574.408555975925
 20
11666.42151138693
 30
0.0
 40
3.25
 50
90.0
 51
270.0
  0
LINE
  5
37F
  8
DEFAULT
 10
2574.408555975925
 20
11663.17151138693
 30
0.0
 11
2582.608555975925
 21
11663.17151138693
 31
0.0
  0
ARC
  5
380
  8
DEFAULT
 10
2582.608555975925
 20
11666.42151138693
 30
0.0
 40
3.25
 50
270.0
 51
90.0
  0
LINE
  5
381
  8
DEFAULT
 10
2582.608555975925
 20
11819.67151138693
 30
0.0
 11
2582.608555975925
 21
11856.67151138693
 31
0.0
  0
ARC
  5
382
  8
DEFAULT
 10
2582.608555975925
 20
11859.92151138693
 30
0.0
 40
3.25
 50
270.0
 51
90.0
  0
LINE
  5
383
  8
DEFAULT
 10
2582.608555975925
 20
11863.17151138693
 30
0.0
 11
2574.408555975925
 21
11863.17151138693
 31
0.0
  0
ARC
  5
384
  8
DEFAULT
 10
2574.408555975925
 20
11859.92151138693
 30
0.0
 40
3.25
 50
90.0
 51
270.0
  0
LINE
  5
385
  8
DEFAULT
 10
2574.408555975925
 20
11856.67151138693
 30
0.0
 11
2574.408555975925
 21
11819.67151138693
 31
0.0
  0
ARC
  5
386
  8
DEFAULT
 10
2574.408555975925
 20
11816.42151138693
 30
0.0
 40
3.25
 50
90.0
 51
270.0
  0
LINE
  5
387
  8
DEFAULT
 10
2574.408555975925
 20
11813.17151138693
 30
0.0
 11
2582.608555975925
 21
11813.17151138693
 31
0.0
  0
ARC
  5
388
  8
DEFAULT
 10
2582.608555975925
 20
11816.42151138693
 30
0.0
 40
3.25
 50
270.0
 51
90.0
  0
ARC
  5
389
  8
DEFAULT
 10
2850.472833942522
 20
11616.73293516069
 30
0.0
 40
50.0
 50
144.7931666849081
 51
215.2068333150577
  0
LINE
  5
38A
  8
DEFAULT
 10
2809.619026693115
 20
11645.5594235564
 30
0.0
 11
2812.210946180312
 21
11649.16291190394
 31
0.0
  0
LINE
  5
38B
  8
DEFAULT
 10
2812.210946180312
 20
11649.16291190394
 30
0.0
 11
2814.892288373686
 21
11652.75149915462
 31
0.0
  0
LINE
  5
38C
  8
DEFAULT
 10
2814.892288373686
 20
11652.75149915462
 30
0.0
 11
2817.659603855519
 21
11656.31778802276
 31
0.0
  0
LINE
  5
38D
  8
DEFAULT
 10
2817.659603855519
 20
11656.31778802276
 30
0.0
 11
2820.509010623651
 21
11659.85427468097
 31
0.0
  0
LINE
  5
38E
  8
DEFAULT
 10
2820.509010623651
 20
11659.85427468097
 30
0.0
 11
2823.436206310381
 21
11663.353395344
 31
0.0
  0
LINE
  5
38F
  8
DEFAULT
 10
2823.436206310381
 20
11663.353395344
 30
0.0
 11
2826.436485054712
 21
11666.80757512728
 31
0.0
  0
LINE
  5
390
  8
DEFAULT
 10
2826.436485054712
 20
11666.80757512728
 30
0.0
 11
2829.504758975074
 21
11670.20927858222
 31
0.0
  0
LINE
  5
391
  8
DEFAULT
 10
2829.504758975074
 20
11670.20927858222
 30
0.0
 11
2832.635584100788
 21
11673.55106125331
 31
0.0
  0
LINE
  5
392
  8
DEFAULT
 10
2832.635584100788
 20
11673.55106125331
 30
0.0
 11
2835.823190530932
 21
11676.82562155784
 31
0.0
  0
LINE
  5
393
  8
DEFAULT
 10
2835.823190530932
 20
11676.82562155784
 30
0.0
 11
2839.061516501937
 21
11680.02585226073
 31
0.0
  0
LINE
  5
394
  8
DEFAULT
 10
2839.061516501937
 20
11680.02585226073
 30
0.0
 11
2842.344245962654
 21
11683.14489080494
 31
0.0
  0
LINE
  5
395
  8
DEFAULT
 10
2842.344245962654
 20
11683.14489080494
 30
0.0
 11
2845.664849180608
 21
11686.17616776386
 31
0.0
  0
LINE
  5
396
  8
DEFAULT
 10
2845.664849180608
 20
11686.17616776386
 30
0.0
 11
2849.016625838157
 21
11689.11345270576
 31
0.0
  0
LINE
  5
397
  8
DEFAULT
 10
2849.016625838157
 20
11689.11345270576
 30
0.0
 11
2852.392750024445
 21
11691.95089680201
 31
0.0
  0
LINE
  5
398
  8
DEFAULT
 10
2852.392750024445
 20
11691.95089680201
 30
0.0
 11
2855.786316490186
 21
11694.68307156864
 31
0.0
  0
LINE
  5
399
  8
DEFAULT
 10
2855.786316490186
 20
11694.68307156864
 30
0.0
 11
2859.190387508643
 21
11697.30500320377
 31
0.0
  0
LINE
  5
39A
  8
DEFAULT
 10
2859.190387508643
 20
11697.30500320377
 30
0.0
 11
2862.59803967849
 21
11699.81220206927
 31
0.0
  0
LINE
  5
39B
  8
DEFAULT
 10
2862.59803967849
 20
11699.81220206927
 30
0.0
 11
2866.002410012537
 21
11702.20068696065
 31
0.0
  0
LINE
  5
39C
  8
DEFAULT
 10
2866.002410012537
 20
11702.20068696065
 30
0.0
 11
2869.396740680245
 21
11704.46700391212
 31
0.0
  0
LINE
  5
39D
  8
DEFAULT
 10
2869.396740680245
 20
11704.46700391212
 30
0.0
 11
2872.774421810434
 21
11706.60823939026
 31
0.0
  0
LINE
  5
39E
  8
DEFAULT
 10
2872.774421810434
 20
11706.60823939026
 30
0.0
 11
2876.129031812064
 21
11708.62202783746
 31
0.0
  0
LINE
  5
39F
  8
DEFAULT
 10
2876.129031812064
 20
11708.62202783746
 30
0.0
 11
2879.454374733592
 21
11710.50655363039
 31
0.0
  0
LINE
  5
3A0
  8
DEFAULT
 10
2879.454374733592
 20
11710.50655363039
 30
0.0
 11
2882.744514252812
 21
11712.26054761862
 31
0.0
  0
LINE
  5
3A1
  8
DEFAULT
 10
2882.744514252812
 20
11712.26054761862
 30
0.0
 11
2885.993803966823
 21
11713.88327849892
 31
0.0
  0
LINE
  5
3A2
  8
DEFAULT
 10
2885.993803966823
 20
11713.88327849892
 30
0.0
 11
2889.196913733339
 21
11715.37453936191
 31
0.0
  0
LINE
  5
3A3
  8
DEFAULT
 10
2889.196913733339
 20
11715.37453936191
 30
0.0
 11
2892.348851897319
 21
11716.73462981594
 31
0.0
  0
LINE
  5
3A4
  8
DEFAULT
 10
2892.348851897319
 20
11716.73462981594
 30
0.0
 11
2895.444983318512
 21
11717.9643341486
 31
0.0
  0
LINE
  5
3A5
  8
DEFAULT
 10
2895.444983318512
 20
11717.9643341486
 30
0.0
 11
2898.481043193709
 21
11719.06489602779
 31
0.0
  0
LINE
  5
3A6
  8
DEFAULT
 10
2898.481043193709
 20
11719.06489602779
 30
0.0
 11
2901.453146740439
 21
11720.03799027136
 31
0.0
  0
LINE
  5
3A7
  8
DEFAULT
 10
2901.453146740439
 20
11720.03799027136
 30
0.0
 11
2904.357794874871
 21
11720.88569222857
 31
0.0
  0
LINE
  5
3A8
  8
DEFAULT
 10
2904.357794874871
 20
11720.88569222857
 30
0.0
 11
2907.191876074637
 21
11721.61044531715
 31
0.0
  0
LINE
  5
3A9
  8
DEFAULT
 10
2907.191876074637
 20
11721.61044531715
 30
0.0
 11
2908.581587344603
 21
11721.92757195443
 31
0.0
  0
LINE
  5
3AA
  8
DEFAULT
 10
2908.581587344603
 20
11721.92757195443
 30
0.0
 11
2909.95266466634
 21
11722.2150272492
 31
0.0
  0
ARC
  5
3AB
  8
DEFAULT
 10
2906.798558159412
 20
11741.96475160533
 30
0.0
 40
20.0
 50
279.0737301131542
 51
359.9999999999895
  0
LINE
  5
3AC
  8
DEFAULT
 10
2926.798558159412
 20
11741.96475160533
 30
0.0
 11
2926.798558159412
 21
11759.33619462993
 31
0.0
  0
ARC
  5
3AD
  8
DEFAULT
 10
2916.798558159412
 20
11759.33619462993
 30
0.0
 40
10.0
 50
0.0
 51
98.7132698119358
  0
LINE
  5
3AE
  8
DEFAULT
 10
2915.283660626812
 20
11769.22078290996
 30
0.0
 11
2684.798558159412
 21
11733.89697344651
 31
0.0
  0
LINE
  5
3AF
  8
DEFAULT
 10
2684.798558159412
 20
11733.89697344651
 30
0.0
 11
2684.798558159412
 21
11720.39697344651
 31
0.0
  0
ARC
  5
3B0
  8
DEFAULT
 10
2684.798558159412
 20
11717.14697344651
 30
0.0
 40
3.25
 50
270.0
 51
90.0
  0
LINE
  5
3B1
  8
DEFAULT
 10
2684.798558159412
 20
11713.89697344651
 30
0.0
 11
2676.798558159412
 21
11713.89697344651
 31
0.0
  0
LINE
  5
3B2
  8
DEFAULT
 10
2676.798558159412
 20
11713.89697344651
 30
0.0
 11
2676.798558159412
 21
11663.89697344651
 31
0.0
  0
LINE
  5
3B3
  8
DEFAULT
 10
2676.798558159412
 20
11663.89697344651
 30
0.0
 11
2684.798558159412
 21
11663.89697344651
 31
0.0
  0
ARC
  5
3B4
  8
DEFAULT
 10
2684.798558159412
 20
11660.64697344651
 30
0.0
 40
3.25
 50
270.0
 51
90.0
  0
LINE
  5
3B5
  8
DEFAULT
 10
2684.798558159412
 20
11657.39697344651
 30
0.0
 11
2684.798558159412
 21
11570.39697344651
 31
0.0
  0
ARC
  5
3B6
  8
DEFAULT
 10
2684.798558159412
 20
11567.14697344651
 30
0.0
 40
3.25
 50
270.0
 51
90.0
  0
LINE
  5
3B7
  8
DEFAULT
 10
2684.798558159412
 20
11563.89697344651
 30
0.0
 11
2676.798558159412
 21
11563.89697344651
 31
0.0
  0
LINE
  5
3B8
  8
DEFAULT
 10
2676.798558159412
 20
11563.89697344651
 30
0.0
 11
2676.798558159422
 21
11513.89697344651
 31
0.0
  0
LINE
  5
3B9
  8
DEFAULT
 10
2676.798558159422
 20
11513.89697344651
 30
0.0
 11
2684.798558159412
 21
11513.89697344651
 31
0.0
  0
ARC
  5
3BA
  8
DEFAULT
 10
2684.798558159412
 20
11510.64697344651
 30
0.0
 40
3.25
 50
270.0
 51
90.0
  0
LINE
  5
3BB
  8
DEFAULT
 10
2684.798558159412
 20
11507.39697344651
 30
0.0
 11
2684.798558159413
 21
11493.89697344651
 31
0.0
  0
LINE
  5
3BC
  8
DEFAULT
 10
2684.798558159413
 20
11493.89697344651
 30
0.0
 11
2915.511153077039
 21
11463.945671436
 31
0.0
  0
ARC
  5
3BD
  8
DEFAULT
 10
2916.798558159412
 20
11473.86245459153
 30
0.0
 40
10.0
 50
262.6031828272642
 51
0.0
  0
LINE
  5
3BE
  8
DEFAULT
 10
2926.798558159412
 20
11473.86245459153
 30
0.0
 11
2926.798558159412
 21
11491.50111871601
 31
0.0
  0
ARC
  5
3BF
  8
DEFAULT
 10
2906.798558159412
 20
11491.50111871601
 30
0.0
 40
20.0
 50
0.000000000005211
 51
80.92626988685352
  0
LINE
  5
3C0
  8
DEFAULT
 10
2909.952664666338
 20
11511.25084307214
 30
0.0
 11
2908.581587669319
 21
11511.53829830109
 31
0.0
  0
LINE
  5
3C1
  8
DEFAULT
 10
2908.581587669319
 20
11511.53829830109
 30
0.0
 11
2907.191876723978
 21
11511.85542487095
 31
0.0
  0
LINE
  5
3C2
  8
DEFAULT
 10
2907.191876723978
 20
11511.85542487095
 30
0.0
 11
2904.357796171653
 21
11512.58017781964
 31
0.0
  0
LINE
  5
3C3
  8
DEFAULT
 10
2904.357796171653
 20
11512.58017781964
 30
0.0
 11
2901.453148679531
 21
11513.42787963007
 31
0.0
  0
LINE
  5
3C4
  8
DEFAULT
 10
2901.453148679531
 20
11513.42787963007
 30
0.0
 11
2898.481045766469
 21
11514.40097371993
 31
0.0
  0
LINE
  5
3C5
  8
DEFAULT
 10
2898.481045766469
 20
11514.40097371993
 30
0.0
 11
2895.444986512521
 21
11515.50153543865
 31
0.0
  0
LINE
  5
3C6
  8
DEFAULT
 10
2895.444986512521
 20
11515.50153543865
 30
0.0
 11
2892.348855696123
 21
11516.73123960455
 31
0.0
  0
LINE
  5
3C7
  8
DEFAULT
 10
2892.348855696123
 20
11516.73123960455
 30
0.0
 11
2889.196918116221
 21
11518.09132988622
 31
0.0
  0
LINE
  5
3C8
  8
DEFAULT
 10
2889.196918116221
 20
11518.09132988622
 30
0.0
 11
2885.9938089086
 21
11519.58259057229
 31
0.0
  0
LINE
  5
3C9
  8
DEFAULT
 10
2885.9938089086
 20
11519.58259057229
 30
0.0
 11
2882.744519723664
 21
11521.20532127239
 31
0.0
  0
LINE
  5
3CA
  8
DEFAULT
 10
2882.744519723664
 20
11521.20532127239
 30
0.0
 11
2879.454380698925
 21
11522.95931507876
 31
0.0
  0
LINE
  5
3CB
  8
DEFAULT
 10
2879.454380698925
 20
11522.95931507876
 30
0.0
 11
2876.129038232422
 21
11524.8438406901
 31
0.0
  0
LINE
  5
3CC
  8
DEFAULT
 10
2876.129038232422
 20
11524.8438406901
 30
0.0
 11
2872.774428641458
 21
11526.8576289582
 31
0.0
  0
LINE
  5
3CD
  8
DEFAULT
 10
2872.774428641458
 20
11526.8576289582
 30
0.0
 11
2869.396747872673
 21
11528.99886426227
 31
0.0
  0
LINE
  5
3CE
  8
DEFAULT
 10
2869.396747872673
 20
11528.99886426227
 30
0.0
 11
2866.002417512269
 21
11531.26518104748
 31
0.0
  0
LINE
  5
3CF
  8
DEFAULT
 10
2866.002417512269
 20
11531.26518104748
 30
0.0
 11
2862.598047426707
 21
11533.6536657835
 31
0.0
  0
LINE
  5
3D0
  8
DEFAULT
 10
2862.598047426707
 20
11533.6536657835
 30
0.0
 11
2859.190395441974
 21
11536.16086450782
 31
0.0
  0
LINE
  5
3D1
  8
DEFAULT
 10
2859.190395441974
 20
11536.16086450782
 30
0.0
 11
2855.786324540943
 21
11538.78279601944
 31
0.0
  0
LINE
  5
3D2
  8
DEFAULT
 10
2855.786324540943
 20
11538.78279601944
 30
0.0
 11
2852.392758120912
 21
11541.51497068391
 31
0.0
  0
LINE
  5
3D3
  8
DEFAULT
 10
2852.392758120912
 20
11541.51497068391
 30
0.0
 11
2849.016633904922
 21
11544.35241470311
 31
0.0
  0
LINE
  5
3D4
  8
DEFAULT
 10
2849.016633904922
 20
11544.35241470311
 30
0.0
 11
2845.664857138964
 21
11547.2896995969
 31
0.0
  0
LINE
  5
3D5
  8
DEFAULT
 10
2845.664857138964
 20
11547.2896995969
 30
0.0
 11
2842.344253731027
 21
11550.32097654053
 31
0.0
  0
LINE
  5
3D6
  8
DEFAULT
 10
2842.344253731027
 20
11550.32097654053
 30
0.0
 11
2839.061523996369
 21
11553.44001510612
 31
0.0
  0
LINE
  5
3D7
  8
DEFAULT
 10
2839.061523996369
 20
11553.44001510612
 30
0.0
 11
2835.823197665591
 21
11556.64024587079
 31
0.0
  0
LINE
  5
3D8
  8
DEFAULT
 10
2835.823197665591
 20
11556.64024587079
 30
0.0
 11
2832.635590788507
 21
11559.91480628115
 31
0.0
  0
LINE
  5
3D9
  8
DEFAULT
 10
2832.635590788507
 20
11559.91480628115
 30
0.0
 11
2829.504765127908
 21
11563.25658910555
 31
0.0
  0
LINE
  5
3DA
  8
DEFAULT
 10
2829.504765127908
 20
11563.25658910555
 30
0.0
 11
2826.436490584513
 21
11566.6582927645
 31
0.0
  0
LINE
  5
3DB
  8
DEFAULT
 10
2826.436490584513
 20
11566.6582927645
 30
0.0
 11
2823.436211129368
 21
11570.11247280543
 31
0.0
  0
LINE
  5
3DC
  8
DEFAULT
 10
2823.436211129368
 20
11570.11247280543
 30
0.0
 11
2820.509014644977
 21
11573.61159378238
 31
0.0
  0
LINE
  5
3DD
  8
DEFAULT
 10
2820.509014644977
 20
11573.61159378238
 30
0.0
 11
2817.659606993832
 21
11577.14808081304
 31
0.0
  0
LINE
  5
3DE
  8
DEFAULT
 10
2817.659606993832
 20
11577.14808081304
 30
0.0
 11
2814.892290545667
 21
11580.71437011407
 31
0.0
  0
LINE
  5
3DF
  8
DEFAULT
 10
2814.892290545667
 20
11580.71437011407
 30
0.0
 11
2812.210947305177
 21
11584.3029578596
 31
0.0
  0
LINE
  5
3E0
  8
DEFAULT
 10
2812.210947305177
 20
11584.3029578596
 30
0.0
 11
2809.619026693097
 21
11587.906446765
 31
0.0
  0
ARC
  5
3E1
  8
DEFAULT
 10
3101.164488710112
 20
11616.73293516069
 30
0.0
 40
50.0
 50
144.7931666849081
 51
215.2068333150577
  0
LINE
  5
3E2
  8
DEFAULT
 10
3060.310681460705
 20
11645.5594235564
 30
0.0
 11
3062.902600947903
 21
11649.16291190394
 31
0.0
  0
LINE
  5
3E3
  8
DEFAULT
 10
3062.902600947903
 20
11649.16291190394
 30
0.0
 11
3065.583943141277
 21
11652.75149915462
 31
0.0
  0
LINE
  5
3E4
  8
DEFAULT
 10
3065.583943141277
 20
11652.75149915462
 30
0.0
 11
3068.35125862311
 21
11656.31778802276
 31
0.0
  0
LINE
  5
3E5
  8
DEFAULT
 10
3068.35125862311
 20
11656.31778802276
 30
0.0
 11
3071.200665391241
 21
11659.85427468097
 31
0.0
  0
LINE
  5
3E6
  8
DEFAULT
 10
3071.200665391241
 20
11659.85427468097
 30
0.0
 11
3074.127861077971
 21
11663.353395344
 31
0.0
  0
LINE
  5
3E7
  8
DEFAULT
 10
3074.127861077971
 20
11663.353395344
 30
0.0
 11
3077.128139822302
 21
11666.80757512728
 31
0.0
  0
LINE
  5
3E8
  8
DEFAULT
 10
3077.128139822302
 20
11666.80757512728
 30
0.0
 11
3080.196413742664
 21
11670.20927858222
 31
0.0
  0
LINE
  5
3E9
  8
DEFAULT
 10
3080.196413742664
 20
11670.20927858222
 30
0.0
 11
3083.327238868379
 21
11673.55106125331
 31
0.0
  0
LINE
  5
3EA
  8
DEFAULT
 10
3083.327238868379
 20
11673.55106125331
 30
0.0
 11
3086.514845298522
 21
11676.82562155784
 31
0.0
  0
LINE
  5
3EB
  8
DEFAULT
 10
3086.514845298522
 20
11676.82562155784
 30
0.0
 11
3089.753171269528
 21
11680.02585226073
 31
0.0
  0
LINE
  5
3EC
  8
DEFAULT
 10
3089.753171269528
 20
11680.02585226073
 30
0.0
 11
3093.035900730245
 21
11683.14489080494
 31
0.0
  0
LINE
  5
3ED
  8
DEFAULT
 10
3093.035900730245
 20
11683.14489080494
 30
0.0
 11
3096.356503948198
 21
11686.17616776386
 31
0.0
  0
LINE
  5
3EE
  8
DEFAULT
 10
3096.356503948198
 20
11686.17616776386
 30
0.0
 11
3099.708280605746
 21
11689.11345270576
 31
0.0
  0
LINE
  5
3EF
  8
DEFAULT
 10
3099.708280605746
 20
11689.11345270576
 30
0.0
 11
3103.084404792035
 21
11691.95089680201
 31
0.0
  0
LINE
  5
3F0
  8
DEFAULT
 10
3103.084404792035
 20
11691.95089680201
 30
0.0
 11
3106.477971257775
 21
11694.68307156864
 31
0.0
  0
LINE
  5
3F1
  8
DEFAULT
 10
3106.477971257775
 20
11694.68307156864
 30
0.0
 11
3109.882042276233
 21
11697.30500320377
 31
0.0
  0
LINE
  5
3F2
  8
DEFAULT
 10
3109.882042276233
 20
11697.30500320377
 30
0.0
 11
3113.289694446079
 21
11699.81220206927
 31
0.0
  0
LINE
  5
3F3
  8
DEFAULT
 10
3113.289694446079
 20
11699.81220206927
 30
0.0
 11
3116.694064780127
 21
11702.20068696065
 31
0.0
  0
LINE
  5
3F4
  8
DEFAULT
 10
3116.694064780127
 20
11702.20068696065
 30
0.0
 11
3120.088395447835
 21
11704.46700391212
 31
0.0
  0
LINE
  5
3F5
  8
DEFAULT
 10
3120.088395447835
 20
11704.46700391212
 30
0.0
 11
3123.466076578024
 21
11706.60823939026
 31
0.0
  0
LINE
  5
3F6
  8
DEFAULT
 10
3123.466076578024
 20
11706.60823939026
 30
0.0
 11
3126.820686579653
 21
11708.62202783746
 31
0.0
  0
LINE
  5
3F7
  8
DEFAULT
 10
3126.820686579653
 20
11708.62202783746
 30
0.0
 11
3130.146029501181
 21
11710.50655363039
 31
0.0
  0
LINE
  5
3F8
  8
DEFAULT
 10
3130.146029501181
 20
11710.50655363039
 30
0.0
 11
3133.436169020401
 21
11712.26054761862
 31
0.0
  0
LINE
  5
3F9
  8
DEFAULT
 10
3133.436169020401
 20
11712.26054761862
 30
0.0
 11
3136.685458734413
 21
11713.88327849892
 31
0.0
  0
LINE
  5
3FA
  8
DEFAULT
 10
3136.685458734413
 20
11713.88327849892
 30
0.0
 11
3139.888568500929
 21
11715.37453936191
 31
0.0
  0
LINE
  5
3FB
  8
DEFAULT
 10
3139.888568500929
 20
11715.37453936191
 30
0.0
 11
3143.040506664909
 21
11716.73462981594
 31
0.0
  0
LINE
  5
3FC
  8
DEFAULT
 10
3143.040506664909
 20
11716.73462981594
 30
0.0
 11
3146.136638086103
 21
11717.9643341486
 31
0.0
  0
LINE
  5
3FD
  8
DEFAULT
 10
3146.136638086103
 20
11717.9643341486
 30
0.0
 11
3149.172697961299
 21
11719.06489602779
 31
0.0
  0
LINE
  5
3FE
  8
DEFAULT
 10
3149.172697961299
 20
11719.06489602779
 30
0.0
 11
3152.14480150803
 21
11720.03799027136
 31
0.0
  0
LINE
  5
3FF
  8
DEFAULT
 10
3152.14480150803
 20
11720.03799027136
 30
0.0
 11
3155.049449642461
 21
11720.88569222857
 31
0.0
  0
LINE
  5
400
  8
DEFAULT
 10
3155.049449642461
 20
11720.88569222857
 30
0.0
 11
3157.883530842227
 21
11721.61044531715
 31
0.0
  0
LINE
  5
401
  8
DEFAULT
 10
3157.883530842227
 20
11721.61044531715
 30
0.0
 11
3159.273242112193
 21
11721.92757195443
 31
0.0
  0
LINE
  5
402
  8
DEFAULT
 10
3159.273242112193
 20
11721.92757195443
 30
0.0
 11
3160.64431943393
 21
11722.2150272492
 31
0.0
  0
ARC
  5
403
  8
DEFAULT
 10
3157.490212927002
 20
11741.96475160533
 30
0.0
 40
20.0
 50
279.0737301131542
 51
359.9999999999895
  0
LINE
  5
404
  8
DEFAULT
 10
3177.490212927002
 20
11741.96475160533
 30
0.0
 11
3177.490212927003
 21
11759.33619462993
 31
0.0
  0
ARC
  5
405
  8
DEFAULT
 10
3167.490212927003
 20
11759.33619462993
 30
0.0
 40
10.0
 50
0.0
 51
98.7132698119358
  0
LINE
  5
406
  8
DEFAULT
 10
3165.975315394403
 20
11769.22078290996
 30
0.0
 11
2935.490212927003
 21
11733.89697344651
 31
0.0
  0
LINE
  5
407
  8
DEFAULT
 10
2935.490212927003
 20
11733.89697344651
 30
0.0
 11
2935.490212927002
 21
11720.39697344651
 31
0.0
  0
ARC
  5
408
  8
DEFAULT
 10
2935.490212927002
 20
11717.14697344651
 30
0.0
 40
3.25
 50
270.0
 51
90.0
  0
LINE
  5
409
  8
DEFAULT
 10
2935.490212927002
 20
11713.89697344651
 30
0.0
 11
2927.490212927003
 21
11713.89697344651
 31
0.0
  0
LINE
  5
40A
  8
DEFAULT
 10
2927.490212927003
 20
11713.89697344651
 30
0.0
 11
2927.490212927003
 21
11663.89697344651
 31
0.0
  0
LINE
  5
40B
  8
DEFAULT
 10
2927.490212927003
 20
11663.89697344651
 30
0.0
 11
2935.490212927003
 21
11663.89697344651
 31
0.0
  0
ARC
  5
40C
  8
DEFAULT
 10
2935.490212927003
 20
11660.64697344651
 30
0.0
 40
3.25
 50
270.0
 51
90.0
  0
LINE
  5
40D
  8
DEFAULT
 10
2935.490212927003
 20
11657.39697344651
 30
0.0
 11
2935.490212927002
 21
11570.39697344651
 31
0.0
  0
ARC
  5
40E
  8
DEFAULT
 10
2935.490212927002
 20
11567.14697344651
 30
0.0
 40
3.25
 50
270.0
 51
90.0
  0
LINE
  5
40F
  8
DEFAULT
 10
2935.490212927002
 20
11563.89697344651
 30
0.0
 11
2927.490212927003
 21
11563.89697344651
 31
0.0
  0
LINE
  5
410
  8
DEFAULT
 10
2927.490212927003
 20
11563.89697344651
 30
0.0
 11
2927.490212927013
 21
11513.89697344651
 31
0.0
  0
LINE
  5
411
  8
DEFAULT
 10
2927.490212927013
 20
11513.89697344651
 30
0.0
 11
2935.490212927003
 21
11513.89697344651
 31
0.0
  0
ARC
  5
412
  8
DEFAULT
 10
2935.490212927003
 20
11510.64697344651
 30
0.0
 40
3.25
 50
270.0
 51
90.0
  0
LINE
  5
413
  8
DEFAULT
 10
2935.490212927003
 20
11507.39697344651
 30
0.0
 11
2935.490212927003
 21
11493.89697344651
 31
0.0
  0
LINE
  5
414
  8
DEFAULT
 10
2935.490212927003
 20
11493.89697344651
 30
0.0
 11
3166.20280784463
 21
11463.945671436
 31
0.0
  0
ARC
  5
415
  8
DEFAULT
 10
3167.490212927003
 20
11473.86245459153
 30
0.0
 40
10.0
 50
262.6031828272642
 51
0.0
  0
LINE
  5
416
  8
DEFAULT
 10
3177.490212927003
 20
11473.86245459153
 30
0.0
 11
3177.490212927003
 21
11491.50111871601
 31
0.0
  0
ARC
  5
417
  8
DEFAULT
 10
3157.490212927003
 20
11491.50111871601
 30
0.0
 40
20.0
 50
0.000000000005211
 51
80.92626988685352
  0
LINE
  5
418
  8
DEFAULT
 10
3160.644319433927
 20
11511.25084307214
 30
0.0
 11
3159.273242436909
 21
11511.53829830109
 31
0.0
  0
LINE
  5
419
  8
DEFAULT
 10
3159.273242436909
 20
11511.53829830109
 30
0.0
 11
3157.883531491568
 21
11511.85542487095
 31
0.0
  0
LINE
  5
41A
  8
DEFAULT
 10
3157.883531491568
 20
11511.85542487095
 30
0.0
 11
3155.049450939242
 21
11512.58017781964
 31
0.0
  0
LINE
  5
41B
  8
DEFAULT
 10
3155.049450939242
 20
11512.58017781964
 30
0.0
 11
3152.144803447121
 21
11513.42787963007
 31
0.0
  0
LINE
  5
41C
  8
DEFAULT
 10
3152.144803447121
 20
11513.42787963007
 30
0.0
 11
3149.172700534059
 21
11514.40097371993
 31
0.0
  0
LINE
  5
41D
  8
DEFAULT
 10
3149.172700534059
 20
11514.40097371993
 30
0.0
 11
3146.13664128011
 21
11515.50153543865
 31
0.0
  0
LINE
  5
41E
  8
DEFAULT
 10
3146.13664128011
 20
11515.50153543865
 30
0.0
 11
3143.040510463712
 21
11516.73123960455
 31
0.0
  0
LINE
  5
41F
  8
DEFAULT
 10
3143.040510463712
 20
11516.73123960455
 30
0.0
 11
3139.88857288381
 21
11518.09132988622
 31
0.0
  0
LINE
  5
420
  8
DEFAULT
 10
3139.88857288381
 20
11518.09132988622
 30
0.0
 11
3136.685463676191
 21
11519.58259057229
 31
0.0
  0
LINE
  5
421
  8
DEFAULT
 10
3136.685463676191
 20
11519.58259057229
 30
0.0
 11
3133.436174491254
 21
11521.20532127239
 31
0.0
  0
LINE
  5
422
  8
DEFAULT
 10
3133.436174491254
 20
11521.20532127239
 30
0.0
 11
3130.146035466515
 21
11522.95931507876
 31
0.0
  0
LINE
  5
423
  8
DEFAULT
 10
3130.146035466515
 20
11522.95931507876
 30
0.0
 11
3126.820693000012
 21
11524.8438406901
 31
0.0
  0
LINE
  5
424
  8
DEFAULT
 10
3126.820693000012
 20
11524.8438406901
 30
0.0
 11
3123.466083409048
 21
11526.8576289582
 31
0.0
  0
LINE
  5
425
  8
DEFAULT
 10
3123.466083409048
 20
11526.8576289582
 30
0.0
 11
3120.088402640263
 21
11528.99886426227
 31
0.0
  0
LINE
  5
426
  8
DEFAULT
 10
3120.088402640263
 20
11528.99886426227
 30
0.0
 11
3116.694072279859
 21
11531.26518104748
 31
0.0
  0
LINE
  5
427
  8
DEFAULT
 10
3116.694072279859
 20
11531.26518104748
 30
0.0
 11
3113.289702194297
 21
11533.6536657835
 31
0.0
  0
LINE
  5
428
  8
DEFAULT
 10
3113.289702194297
 20
11533.6536657835
 30
0.0
 11
3109.882050209564
 21
11536.16086450782
 31
0.0
  0
LINE
  5
429
  8
DEFAULT
 10
3109.882050209564
 20
11536.16086450782
 30
0.0
 11
3106.477979308533
 21
11538.78279601944
 31
0.0
  0
LINE
  5
42A
  8
DEFAULT
 10
3106.477979308533
 20
11538.78279601944
 30
0.0
 11
3103.084412888502
 21
11541.51497068391
 31
0.0
  0
LINE
  5
42B
  8
DEFAULT
 10
3103.084412888502
 20
11541.51497068391
 30
0.0
 11
3099.708288672512
 21
11544.35241470311
 31
0.0
  0
LINE
  5
42C
  8
DEFAULT
 10
3099.708288672512
 20
11544.35241470311
 30
0.0
 11
3096.356511906554
 21
11547.2896995969
 31
0.0
  0
LINE
  5
42D
  8
DEFAULT
 10
3096.356511906554
 20
11547.2896995969
 30
0.0
 11
3093.035908498617
 21
11550.32097654053
 31
0.0
  0
LINE
  5
42E
  8
DEFAULT
 10
3093.035908498617
 20
11550.32097654053
 30
0.0
 11
3089.75317876396
 21
11553.44001510612
 31
0.0
  0
LINE
  5
42F
  8
DEFAULT
 10
3089.75317876396
 20
11553.44001510612
 30
0.0
 11
3086.514852433181
 21
11556.64024587079
 31
0.0
  0
LINE
  5
430
  8
DEFAULT
 10
3086.514852433181
 20
11556.64024587079
 30
0.0
 11
3083.327245556098
 21
11559.91480628115
 31
0.0
  0
LINE
  5
431
  8
DEFAULT
 10
3083.327245556098
 20
11559.91480628115
 30
0.0
 11
3080.196419895499
 21
11563.25658910555
 31
0.0
  0
LINE
  5
432
  8
DEFAULT
 10
3080.196419895499
 20
11563.25658910555
 30
0.0
 11
3077.128145352103
 21
11566.6582927645
 31
0.0
  0
LINE
  5
433
  8
DEFAULT
 10
3077.128145352103
 20
11566.6582927645
 30
0.0
 11
3074.127865896958
 21
11570.11247280543
 31
0.0
  0
LINE
  5
434
  8
DEFAULT
 10
3074.127865896958
 20
11570.11247280543
 30
0.0
 11
3071.200669412567
 21
11573.61159378238
 31
0.0
  0
LINE
  5
435
  8
DEFAULT
 10
3071.200669412567
 20
11573.61159378238
 30
0.0
 11
3068.351261761423
 21
11577.14808081304
 31
0.0
  0
LINE
  5
436
  8
DEFAULT
 10
3068.351261761423
 20
11577.14808081304
 30
0.0
 11
3065.583945313257
 21
11580.71437011407
 31
0.0
  0
LINE
  5
437
  8
DEFAULT
 10
3065.583945313257
 20
11580.71437011407
 30
0.0
 11
3062.902602072768
 21
11584.3029578596
 31
0.0
  0
LINE
  5
438
  8
DEFAULT
 10
3062.902602072768
 20
11584.3029578596
 30
0.0
 11
3060.310681460688
 21
11587.906446765
 31
0.0
  0
LINE
  5
439
  8
DEFAULT
 10
2681.400067519121
 20
11820.35842344702
 30
0.0
 11
2681.400067519127
 21
11816.85842344702
 31
0.0
  0
LINE
  5
43A
  8
DEFAULT
 10
2681.400067519127
 20
11816.85842344702
 30
0.0
 11
2723.309977191503
 21
11816.85842344702
 31
0.0
  0
ARC
  5
43B
  8
DEFAULT
 10
2726.559977191503
 20
11816.85842344702
 30
0.0
 40
3.25
 50
0.0
 51
180.0
  0
LINE
  5
43C
  8
DEFAULT
 10
2729.809977191503
 20
11816.85842344702
 30
0.0
 11
2729.809977191503
 21
11808.85842344702
 31
0.0
  0
LINE
  5
43D
  8
DEFAULT
 10
2729.809977191503
 20
11808.85842344702
 30
0.0
 11
2779.809977191507
 21
11808.85842344702
 31
0.0
  0
LINE
  5
43E
  8
DEFAULT
 10
2779.809977191507
 20
11808.85842344702
 30
0.0
 11
2779.809977191507
 21
11816.85842344702
 31
0.0
  0
ARC
  5
43F
  8
DEFAULT
 10
2783.059977191507
 20
11816.85842344702
 30
0.0
 40
3.25
 50
0.0
 51
180.0
  0
LINE
  5
440
  8
DEFAULT
 10
2786.309977191507
 20
11816.85842344702
 30
0.0
 11
3033.349615881013
 21
11816.85842344702
 31
0.0
  0
ARC
  5
441
  8
DEFAULT
 10
3036.599615881013
 20
11816.85842344702
 30
0.0
 40
3.25
 50
0.0
 51
180.0
  0
LINE
  5
442
  8
DEFAULT
 10
3039.849615881013
 20
11816.85842344702
 30
0.0
 11
3039.849615881013
 21
11808.85842344702
 31
0.0
  0
LINE
  5
443
  8
DEFAULT
 10
3039.849615881013
 20
11808.85842344702
 30
0.0
 11
3089.849615881017
 21
11808.85842344702
 31
0.0
  0
LINE
  5
444
  8
DEFAULT
 10
3089.849615881017
 20
11808.85842344702
 30
0.0
 11
3089.849615881016
 21
11816.85842344702
 31
0.0
  0
ARC
  5
445
  8
DEFAULT
 10
3093.099615881016
 20
11816.85842344702
 30
0.0
 40
3.25
 50
0.0
 51
180.0
  0
LINE
  5
446
  8
DEFAULT
 10
3096.349615881016
 20
11816.85842344702
 30
0.0
 11
3138.259525553392
 21
11816.85842344702
 31
0.0
  0
LINE
  5
447
  8
DEFAULT
 10
3138.259525553392
 20
11816.85842344702
 30
0.0
 11
3138.259525553398
 21
11820.35842344702
 31
0.0
  0
ARC
  5
448
  8
DEFAULT
 10
3138.259525553398
 20
11823.60842344702
 30
0.0
 40
3.25
 50
90.0
 51
270.0
  0
LINE
  5
449
  8
DEFAULT
 10
3138.259525553398
 20
11826.85842344702
 30
0.0
 11
3146.259525553394
 21
11826.85842344702
 31
0.0
  0
LINE
  5
44A
  8
DEFAULT
 10
3146.259525553394
 20
11826.85842344702
 30
0.0
 11
3146.259525553394
 21
11856.85842344702
 31
0.0
  0
LINE
  5
44B
  8
DEFAULT
 10
3146.259525553394
 20
11856.85842344702
 30
0.0
 11
3138.259525553398
 21
11856.85842344702
 31
0.0
  0
ARC
  5
44C
  8
DEFAULT
 10
3138.259525553398
 20
11860.10842344702
 30
0.0
 40
3.25
 50
90.0
 51
270.0
  0
LINE
  5
44D
  8
DEFAULT
 10
3138.259525553398
 20
11863.35842344702
 30
0.0
 11
3138.259525553401
 21
11866.85842344702
 31
0.0
  0
LINE
  5
44E
  8
DEFAULT
 10
3138.259525553401
 20
11866.85842344702
 30
0.0
 11
3109.705809426257
 21
11859.18587039579
 31
0.0
  0
LINE
  5
44F
  8
DEFAULT
 10
3109.705809426257
 20
11859.18587039579
 30
0.0
 11
3081.152093299114
 21
11852.53632441806
 31
0.0
  0
LINE
  5
450
  8
DEFAULT
 10
3081.152093299114
 20
11852.53632441806
 30
0.0
 11
3052.598377171972
 21
11846.90978551382
 31
0.0
  0
LINE
  5
451
  8
DEFAULT
 10
3052.598377171972
 20
11846.90978551382
 30
0.0
 11
3038.3215191084
 21
11844.48014371427
 31
0.0
  0
LINE
  5
452
  8
DEFAULT
 10
3038.3215191084
 20
11844.48014371427
 30
0.0
 11
3024.044661044829
 21
11842.30625368308
 31
0.0
  0
LINE
  5
453
  8
DEFAULT
 10
3024.044661044829
 20
11842.30625368308
 30
0.0
 11
3009.767802981258
 21
11840.38811542028
 31
0.0
  0
LINE
  5
454
  8
DEFAULT
 10
3009.767802981258
 20
11840.38811542028
 30
0.0
 11
2995.490944917686
 21
11838.72572892584
 31
0.0
  0
LINE
  5
455
  8
DEFAULT
 10
2995.490944917686
 20
11838.72572892584
 30
0.0
 11
2981.214086854115
 21
11837.31909419979
 31
0.0
  0
LINE
  5
456
  8
DEFAULT
 10
2981.214086854115
 20
11837.31909419979
 30
0.0
 11
2966.937228790543
 21
11836.1682112421
 31
0.0
  0
LINE
  5
457
  8
DEFAULT
 10
2966.937228790543
 20
11836.1682112421
 30
0.0
 11
2952.660370726972
 21
11835.27308005279
 31
0.0
  0
LINE
  5
458
  8
DEFAULT
 10
2952.660370726972
 20
11835.27308005279
 30
0.0
 11
2938.383512663401
 21
11834.63370063185
 31
0.0
  0
LINE
  5
459
  8
DEFAULT
 10
2938.383512663401
 20
11834.63370063185
 30
0.0
 11
2924.10665459983
 21
11834.25007297929
 31
0.0
  0
LINE
  5
45A
  8
DEFAULT
 10
2924.10665459983
 20
11834.25007297929
 30
0.0
 11
2909.829796536259
 21
11834.1221970951
 31
0.0
  0
LINE
  5
45B
  8
DEFAULT
 10
2909.829796536259
 20
11834.1221970951
 30
0.0
 11
2895.552938472687
 21
11834.25007297929
 31
0.0
  0
LINE
  5
45C
  8
DEFAULT
 10
2895.552938472687
 20
11834.25007297929
 30
0.0
 11
2881.276080409116
 21
11834.63370063185
 31
0.0
  0
LINE
  5
45D
  8
DEFAULT
 10
2881.276080409116
 20
11834.63370063185
 30
0.0
 11
2866.999222345545
 21
11835.27308005279
 31
0.0
  0
LINE
  5
45E
  8
DEFAULT
 10
2866.999222345545
 20
11835.27308005279
 30
0.0
 11
2852.722364281974
 21
11836.1682112421
 31
0.0
  0
LINE
  5
45F
  8
DEFAULT
 10
2852.722364281974
 20
11836.1682112421
 30
0.0
 11
2838.445506218402
 21
11837.31909419979
 31
0.0
  0
LINE
  5
460
  8
DEFAULT
 10
2838.445506218402
 20
11837.31909419979
 30
0.0
 11
2824.168648154832
 21
11838.72572892584
 31
0.0
  0
LINE
  5
461
  8
DEFAULT
 10
2824.168648154832
 20
11838.72572892584
 30
0.0
 11
2809.891790091261
 21
11840.38811542028
 31
0.0
  0
LINE
  5
462
  8
DEFAULT
 10
2809.891790091261
 20
11840.38811542028
 30
0.0
 11
2795.61493202769
 21
11842.30625368308
 31
0.0
  0
LINE
  5
463
  8
DEFAULT
 10
2795.61493202769
 20
11842.30625368308
 30
0.0
 11
2781.338073964119
 21
11844.48014371427
 31
0.0
  0
LINE
  5
464
  8
DEFAULT
 10
2781.338073964119
 20
11844.48014371427
 30
0.0
 11
2767.061215900548
 21
11846.90978551382
 31
0.0
  0
LINE
  5
465
  8
DEFAULT
 10
2767.061215900548
 20
11846.90978551382
 30
0.0
 11
2738.507499773406
 21
11852.53632441806
 31
0.0
  0
LINE
  5
466
  8
DEFAULT
 10
2738.507499773406
 20
11852.53632441806
 30
0.0
 11
2709.953783646264
 21
11859.18587039579
 31
0.0
  0
LINE
  5
467
  8
DEFAULT
 10
2709.953783646264
 20
11859.18587039579
 30
0.0
 11
2681.400067519123
 21
11866.85842344702
 31
0.0
  0
LINE
  5
468
  8
DEFAULT
 10
2681.400067519123
 20
11866.85842344702
 30
0.0
 11
2681.400067519121
 21
11863.35842344702
 31
0.0
  0
ARC
  5
469
  8
DEFAULT
 10
2681.400067519121
 20
11860.10842344702
 30
0.0
 40
3.25
 50
270.0
 51
90.0
  0
LINE
  5
46A
  8
DEFAULT
 10
2681.400067519121
 20
11856.85842344702
 30
0.0
 11
2673.400067519126
 21
11856.85842344702
 31
0.0
  0
LINE
  5
46B
  8
DEFAULT
 10
2673.400067519126
 20
11856.85842344702
 30
0.0
 11
2673.400067519126
 21
11826.85842344702
 31
0.0
  0
LINE
  5
46C
  8
DEFAULT
 10
2673.400067519126
 20
11826.85842344702
 30
0.0
 11
2681.400067519121
 21
11826.85842344702
 31
0.0
  0
ARC
  5
46D
  8
DEFAULT
 10
2681.400067519121
 20
11823.60842344702
 30
0.0
 40
3.25
 50
270.0
 51
90.0
  0
LINE
  5
46E
  8
DEFAULT
 10
2681.400067519121
 20
11882.51307328564
 30
0.0
 11
2681.400067519127
 21
11879.01307328564
 31
0.0
  0
LINE
  5
46F
  8
DEFAULT
 10
2681.400067519127
 20
11879.01307328564
 30
0.0
 11
2723.309977191503
 21
11879.01307328564
 31
0.0
  0
ARC
  5
470
  8
DEFAULT
 10
2726.559977191503
 20
11879.01307328564
 30
0.0
 40
3.25
 50
0.0
 51
180.0
  0
LINE
  5
471
  8
DEFAULT
 10
2729.809977191503
 20
11879.01307328564
 30
0.0
 11
2729.809977191503
 21
11871.01307328564
 31
0.0
  0
LINE
  5
472
  8
DEFAULT
 10
2729.809977191503
 20
11871.01307328564
 30
0.0
 11
2779.809977191507
 21
11871.01307328564
 31
0.0
  0
LINE
  5
473
  8
DEFAULT
 10
2779.809977191507
 20
11871.01307328564
 30
0.0
 11
2779.809977191507
 21
11879.01307328564
 31
0.0
  0
ARC
  5
474
  8
DEFAULT
 10
2783.059977191507
 20
11879.01307328564
 30
0.0
 40
3.25
 50
0.0
 51
180.0
  0
LINE
  5
475
  8
DEFAULT
 10
2786.309977191507
 20
11879.01307328564
 30
0.0
 11
3033.349615881013
 21
11879.01307328564
 31
0.0
  0
ARC
  5
476
  8
DEFAULT
 10
3036.599615881013
 20
11879.01307328564
 30
0.0
 40
3.25
 50
0.0
 51
180.0
  0
LINE
  5
477
  8
DEFAULT
 10
3039.849615881013
 20
11879.01307328564
 30
0.0
 11
3039.849615881013
 21
11871.01307328564
 31
0.0
  0
LINE
  5
478
  8
DEFAULT
 10
3039.849615881013
 20
11871.01307328564
 30
0.0
 11
3089.849615881017
 21
11871.01307328564
 31
0.0
  0
LINE
  5
479
  8
DEFAULT
 10
3089.849615881017
 20
11871.01307328564
 30
0.0
 11
3089.849615881016
 21
11879.01307328564
 31
0.0
  0
ARC
  5
47A
  8
DEFAULT
 10
3093.099615881016
 20
11879.01307328564
 30
0.0
 40
3.25
 50
0.0
 51
180.0
  0
LINE
  5
47B
  8
DEFAULT
 10
3096.349615881016
 20
11879.01307328564
 30
0.0
 11
3138.259525553392
 21
11879.01307328564
 31
0.0
  0
LINE
  5
47C
  8
DEFAULT
 10
3138.259525553392
 20
11879.01307328564
 30
0.0
 11
3138.259525553398
 21
11882.51307328564
 31
0.0
  0
ARC
  5
47D
  8
DEFAULT
 10
3138.259525553398
 20
11885.76307328564
 30
0.0
 40
3.25
 50
90.0
 51
270.0
  0
LINE
  5
47E
  8
DEFAULT
 10
3138.259525553398
 20
11889.01307328564
 30
0.0
 11
3146.259525553394
 21
11889.01307328564
 31
0.0
  0
LINE
  5
47F
  8
DEFAULT
 10
3146.259525553394
 20
11889.01307328564
 30
0.0
 11
3146.259525553394
 21
11919.01307328564
 31
0.0
  0
LINE
  5
480
  8
DEFAULT
 10
3146.259525553394
 20
11919.01307328564
 30
0.0
 11
3138.259525553398
 21
11919.01307328564
 31
0.0
  0
ARC
  5
481
  8
DEFAULT
 10
3138.259525553398
 20
11922.26307328564
 30
0.0
 40
3.25
 50
90.0
 51
270.0
  0
LINE
  5
482
  8
DEFAULT
 10
3138.259525553398
 20
11925.51307328564
 30
0.0
 11
3138.259525553401
 21
11929.01307328564
 31
0.0
  0
LINE
  5
483
  8
DEFAULT
 10
3138.259525553401
 20
11929.01307328564
 30
0.0
 11
3109.705809426257
 21
11921.34052023441
 31
0.0
  0
LINE
  5
484
  8
DEFAULT
 10
3109.705809426257
 20
11921.34052023441
 30
0.0
 11
3081.152093299114
 21
11914.69097425667
 31
0.0
  0
LINE
  5
485
  8
DEFAULT
 10
3081.152093299114
 20
11914.69097425667
 30
0.0
 11
3052.598377171972
 21
11909.06443535244
 31
0.0
  0
LINE
  5
486
  8
DEFAULT
 10
3052.598377171972
 20
11909.06443535244
 30
0.0
 11
3038.3215191084
 21
11906.63479355288
 31
0.0
  0
LINE
  5
487
  8
DEFAULT
 10
3038.3215191084
 20
11906.63479355288
 30
0.0
 11
3024.044661044829
 21
11904.4609035217
 31
0.0
  0
LINE
  5
488
  8
DEFAULT
 10
3024.044661044829
 20
11904.4609035217
 30
0.0
 11
3009.767802981258
 21
11902.54276525889
 31
0.0
  0
LINE
  5
489
  8
DEFAULT
 10
3009.767802981258
 20
11902.54276525889
 30
0.0
 11
2995.490944917686
 21
11900.88037876446
 31
0.0
  0
LINE
  5
48A
  8
DEFAULT
 10
2995.490944917686
 20
11900.88037876446
 30
0.0
 11
2981.214086854115
 21
11899.4737440384
 31
0.0
  0
LINE
  5
48B
  8
DEFAULT
 10
2981.214086854115
 20
11899.4737440384
 30
0.0
 11
2966.937228790543
 21
11898.32286108072
 31
0.0
  0
LINE
  5
48C
  8
DEFAULT
 10
2966.937228790543
 20
11898.32286108072
 30
0.0
 11
2952.660370726972
 21
11897.42772989141
 31
0.0
  0
LINE
  5
48D
  8
DEFAULT
 10
2952.660370726972
 20
11897.42772989141
 30
0.0
 11
2938.383512663401
 21
11896.78835047047
 31
0.0
  0
LINE
  5
48E
  8
DEFAULT
 10
2938.383512663401
 20
11896.78835047047
 30
0.0
 11
2924.10665459983
 21
11896.40472281791
 31
0.0
  0
LINE
  5
48F
  8
DEFAULT
 10
2924.10665459983
 20
11896.40472281791
 30
0.0
 11
2909.829796536259
 21
11896.27684693372
 31
0.0
  0
LINE
  5
490
  8
DEFAULT
 10
2909.829796536259
 20
11896.27684693372
 30
0.0
 11
2895.552938472687
 21
11896.40472281791
 31
0.0
  0
LINE
  5
491
  8
DEFAULT
 10
2895.552938472687
 20
11896.40472281791
 30
0.0
 11
2881.276080409116
 21
11896.78835047047
 31
0.0
  0
LINE
  5
492
  8
DEFAULT
 10
2881.276080409116
 20
11896.78835047047
 30
0.0
 11
2866.999222345545
 21
11897.42772989141
 31
0.0
  0
LINE
  5
493
  8
DEFAULT
 10
2866.999222345545
 20
11897.42772989141
 30
0.0
 11
2852.722364281974
 21
11898.32286108072
 31
0.0
  0
LINE
  5
494
  8
DEFAULT
 10
2852.722364281974
 20
11898.32286108072
 30
0.0
 11
2838.445506218402
 21
11899.4737440384
 31
0.0
  0
LINE
  5
495
  8
DEFAULT
 10
2838.445506218402
 20
11899.4737440384
 30
0.0
 11
2824.168648154832
 21
11900.88037876446
 31
0.0
  0
LINE
  5
496
  8
DEFAULT
 10
2824.168648154832
 20
11900.88037876446
 30
0.0
 11
2809.891790091261
 21
11902.54276525889
 31
0.0
  0
LINE
  5
497
  8
DEFAULT
 10
2809.891790091261
 20
11902.54276525889
 30
0.0
 11
2795.61493202769
 21
11904.4609035217
 31
0.0
  0
LINE
  5
498
  8
DEFAULT
 10
2795.61493202769
 20
11904.4609035217
 30
0.0
 11
2781.338073964119
 21
11906.63479355288
 31
0.0
  0
LINE
  5
499
  8
DEFAULT
 10
2781.338073964119
 20
11906.63479355288
 30
0.0
 11
2767.061215900548
 21
11909.06443535244
 31
0.0
  0
LINE
  5
49A
  8
DEFAULT
 10
2767.061215900548
 20
11909.06443535244
 30
0.0
 11
2738.507499773406
 21
11914.69097425667
 31
0.0
  0
LINE
  5
49B
  8
DEFAULT
 10
2738.507499773406
 20
11914.69097425667
 30
0.0
 11
2709.953783646264
 21
11921.34052023441
 31
0.0
  0
LINE
  5
49C
  8
DEFAULT
 10
2709.953783646264
 20
11921.34052023441
 30
0.0
 11
2681.400067519123
 21
11929.01307328564
 31
0.0
  0
LINE
  5
49D
  8
DEFAULT
 10
2681.400067519123
 20
11929.01307328564
 30
0.0
 11
2681.400067519121
 21
11925.51307328564
 31
0.0
  0
ARC
  5
49E
  8
DEFAULT
 10
2681.400067519121
 20
11922.26307328564
 30
0.0
 40
3.25
 50
270.0
 51
90.0
  0
LINE
  5
49F
  8
DEFAULT
 10
2681.400067519121
 20
11919.01307328564
 30
0.0
 11
2673.400067519126
 21
11919.01307328564
 31
0.0
  0
LINE
  5
4A0
  8
DEFAULT
 10
2673.400067519126
 20
11919.01307328564
 30
0.0
 11
2673.400067519126
 21
11889.01307328564
 31
0.0
  0
LINE
  5
4A1
  8
DEFAULT
 10
2673.400067519126
 20
11889.01307328564
 30
0.0
 11
2681.400067519121
 21
11889.01307328564
 31
0.0
  0
ARC
  5
4A2
  8
DEFAULT
 10
2681.400067519121
 20
11885.76307328564
 30
0.0
 40
3.25
 50
270.0
 51
90.0
  0
ENDSEC
  0
EOF
