0
SECTION
2
HEADER
9
$INSUNITS
70
4
9
$ACADVER
1
AC1014
9
$HANDSEED
5
FFFF
0
ENDSEC
0
SECTION
2
TABLES
0
TABLE
2
VPORT
5
8
100
AcDbSymbolTable
0
ENDTAB
0
TABLE
2
LTYPE
5
5
100
AcDbSymbolTable
0
LTYPE
5
14
100
AcDbSymbolTableRecord
100
AcDbLinetypeTableRecord
2
BYBLOCK
70
0
0
LTYPE
5
15
100
AcDbSymbolTableRecord
100
AcDbLinetypeTableRecord
2
BYLAYER
70
0
0
ENDTAB
0
TABLE
2
LAYER
5
2
100
AcDbSymbolTable
70
2
0
LAYER
5
50
100
AcDbSymbolTableRecord
100
AcDbLayerTableRecord
2
0
70
0
6
CONTINUOUS
0
ENDTAB
0
TABLE
2
STYLE
5
3
100
AcDbSymbolTable
70
1
0
STYLE
5
11
100
AcDbSymbolTableRecord
100
AcDbTextStyleTableRecord
2
STANDARD
70
0
0
ENDTAB
0
TABLE
2
VIEW
5
6
100
AcDbSymbolTable
70
0
0
ENDTAB
0
TABLE
2
UCS
5
7
100
AcDbSymbolTable
70
0
0
ENDTAB
0
TABLE
2
APPID
5
9
100
AcDbSymbolTable
70
2
0
APPID
5
12
100
AcDbSymbolTableRecord
100
AcDbRegAppTableRecord
2
ACAD
70
0
0
ENDTAB
0
TABLE
2
DIMSTYLE
5
A
100
AcDbSymbolTable
70
1
0
ENDTAB
0
TABLE
2
BLOCK_RECORD
5
1
100
AcDbSymbolTable
70
1
0
BLOCK_RECORD
5
1F
100
AcDbSymbolTableRecord
100
AcDbBlockTableRecord
2
*MODEL_SPACE
0
BLOCK_RECORD
5
1B
100
AcDbSymbolTableRecord
100
AcDbBlockTableRecord
2
*PAPER_SPACE
0
ENDTAB
0
ENDSEC
0
SECTION
2
BLOCKS
0
BLOCK
5
20
100
AcDbEntity
100
AcDbBlockBegin
2
*MODEL_SPACE
0
ENDBLK
5
21
100
AcDbEntity
100
AcDbBlockEnd
0
BLOCK
5
1C
100
AcDbEntity
100
AcDbBlockBegin
2
*PAPER_SPACE
0
ENDBLK
5
1D
100
AcDbEntity
100
AcDbBlockEnd
0
ENDSEC
0
SECTION
2
ENTITIES
0
LINE
5
100
100
AcDbEntity
8
0
100
AcDbLine
10
-28.636534520444812
20
3.0068572427454017
30
0
11
-28.636534520444812
21
18.006857242745401
31
0
0
LINE
5
101
100
AcDbEntity
8
0
100
AcDbLine
10
-28.636534520444812
20
18.006857242745401
30
0
11
-8.6365345204448136
21
8.4502883431522662
31
0
0
LINE
5
102
100
AcDbEntity
8
0
100
AcDbLine
10
-28.636534520444812
20
3.0068572427454017
30
0
11
-8.6365345204448118
21
3.0068572427454137
31
0
0
LINE
5
103
100
AcDbEntity
8
0
100
AcDbLine
10
-8.6365345204448118
20
3.0068572427454137
30
0
11
-8.6365345204447941
21
-2.7931427572545746
31
0
0
LINE
5
104
100
AcDbEntity
8
0
100
AcDbLine
10
-8.6365345204447941
20
-2.7931427572545746
30
0
11
-28.636534520444812
21
-2.7931427572546008
31
0
0
LINE
5
105
100
AcDbEntity
8
0
100
AcDbLine
10
-28.636534520444812
20
-2.7931427572546008
30
0
11
-28.636534520444812
21
-17.7931427572546
31
0
0
LINE
5
106
100
AcDbEntity
8
0
100
AcDbLine
10
-28.636534520444812
20
-17.7931427572546
30
0
11
-8.4502883431522626
21
-8.6365345204448154
31
0
0
LINE
5
107
100
AcDbEntity
8
0
100
AcDbLine
10
-3.0068572427454141
20
-8.6365345204448118
30
0
11
2.7931427572545742
21
-8.6365345204447941
31
0
0
LINE
5
108
100
AcDbEntity
8
0
100
AcDbLine
10
-3.0068572427454034
20
-28.636534520444812
30
0
11
-3.0068572427454141
21
-8.6365345204448118
31
0
0
LINE
5
109
100
AcDbEntity
8
0
100
AcDbLine
10
2.7931427572545742
20
-8.6365345204447941
30
0
11
2.7931427572546004
21
-28.636534520444812
31
0
0
LINE
5
110
100
AcDbEntity
8
0
100
AcDbLine
10
-3.0068572427454034
20
-28.636534520444812
30
0
11
-18.006857242745401
21
-28.636534520444812
31
0
0
LINE
5
111
100
AcDbEntity
8
0
100
AcDbLine
10
17.7931427572546
20
-28.636534520444812
30
0
11
8.6365345204448154
21
-8.4502883431522626
31
0
0
LINE
5
112
100
AcDbEntity
8
0
100
AcDbLine
10
2.7931427572546004
20
-28.636534520444812
30
0
11
17.7931427572546
21
-28.636534520444812
31
0
0
LINE
5
113
100
AcDbEntity
8
0
100
AcDbLine
10
-18.006857242745401
20
-28.636534520444812
30
0
11
-8.4502883431522662
21
-8.6365345204448136
31
0
0
LINE
5
114
100
AcDbEntity
8
0
100
AcDbLine
10
8.6365345204448118
20
-3.0068572427454141
30
0
11
8.6365345204447941
21
2.7931427572545737
31
0
0
LINE
5
115
100
AcDbEntity
8
0
100
AcDbLine
10
28.636534520444812
20
-3.0068572427454043
30
0
11
8.6365345204448118
21
-3.0068572427454141
31
0
0
LINE
5
116
100
AcDbEntity
8
0
100
AcDbLine
10
8.6365345204447941
20
2.7931427572545737
30
0
11
28.636534520444812
21
2.7931427572545973
31
0
0
LINE
5
117
100
AcDbEntity
8
0
100
AcDbLine
10
28.636534520444812
20
-3.0068572427454043
30
0
11
28.636534520444812
21
-18.006857242745401
31
0
0
LINE
5
118
100
AcDbEntity
8
0
100
AcDbLine
10
28.636534520444812
20
17.793142757254596
30
0
11
8.4502883431522662
21
8.6365345204448136
31
0
0
LINE
5
119
100
AcDbEntity
8
0
100
AcDbLine
10
28.636534520444812
20
2.7931427572545973
30
0
11
28.636534520444812
21
17.793142757254596
31
0
0
LINE
5
120
100
AcDbEntity
8
0
100
AcDbLine
10
28.636534520444812
20
-18.006857242745401
30
0
11
8.6365345204448136
21
-8.450288343152268
31
0
0
LINE
5
121
100
AcDbEntity
8
0
100
AcDbLine
10
3.006857242745415
20
8.6365345204448118
30
0
11
-2.7931427572545724
21
8.6365345204447941
31
0
0
LINE
5
122
100
AcDbEntity
8
0
100
AcDbLine
10
3.0068572427454066
20
28.636534520444812
30
0
11
3.006857242745415
21
8.6365345204448118
31
0
0
LINE
5
123
100
AcDbEntity
8
0
100
AcDbLine
10
-2.7931427572545724
20
8.6365345204447941
30
0
11
-2.7931427572545964
21
28.636534520444812
31
0
0
LINE
5
124
100
AcDbEntity
8
0
100
AcDbLine
10
3.0068572427454066
20
28.636534520444812
30
0
11
18.006857242745408
21
28.636534520444812
31
0
0
LINE
5
125
100
AcDbEntity
8
0
100
AcDbLine
10
-17.793142757254596
20
28.636534520444812
30
0
11
-8.6365345204448136
21
8.4502883431522662
31
0
0
LINE
5
126
100
AcDbEntity
8
0
100
AcDbLine
10
-2.7931427572545964
20
28.636534520444812
30
0
11
-17.793142757254596
21
28.636534520444812
31
0
0
LINE
5
127
100
AcDbEntity
8
0
100
AcDbLine
10
18.006857242745408
20
28.636534520444812
30
0
11
8.450288343152268
21
8.6365345204448136
31
0
0
ENDSEC
0
SECTION
2
OBJECTS
0
DICTIONARY
5
C
100
AcDbDictionary
3
ACAD_GROUP
350
D
3
ACAD_MLINESTYLE
350
17
0
DICTIONARY
5
D
100
AcDbDictionary
0
DICTIONARY
5
1A
330
C
100
AcDbDictionary
0
DICTIONARY
5
17
100
AcDbDictionary
0
ENDSEC
0
EOF
