  0
SECTION
  2
BLOCKS
  0
ENDSEC
  0
SECTION
  2
ENTITIES
  0
LINE
  8
0
 10
-0.399994
 20
67.292
 11
-1.75607
 21
67.292
  0
LINE
  8
0
 10
-1.75607
 20
67.292
 11
-2.29999
 21
67.4076
  0
LINE
  8
0
 10
-2.29999
 20
67.4076
 11
-2.29999
 21
57.6
  0
LINE
  8
0
 10
-2.29999
 20
57.6
 11
-3.09999
 21
57.6
  0
LINE
  8
0
 10
-3.09999
 20
57.6
 11
-3.09999
 21
67.5777
  0
LINE
  8
0
 10
-3.09999
 20
67.5777
 11
-4.79999
 21
67.939
  0
LINE
  8
0
 10
-4.79999
 20
67.939
 11
-4.79999
 21
59.8
  0
LINE
  8
0
 10
-4.79999
 20
59.8
 11
-5.59999
 21
59.8
  0
LINE
  8
0
 10
-5.59999
 20
59.8
 11
-5.59999
 21
68.2041
  0
LINE
  8
0
 10
-5.59999
 20
68.2041
 11
-7.5
 21
69.0501
  0
LINE
  8
0
 10
-7.5
 20
69.0501
 11
-7.5
 21
57.6
  0
LINE
  8
0
 10
-7.5
 20
57.6
 11
-8.29999
 21
57.6
  0
LINE
  8
0
 10
-8.29999
 20
57.6
 11
-8.29999
 21
69.4062
  0
LINE
  8
0
 10
-8.29999
 20
69.4062
 11
-8.39999
 21
69.4508
  0
LINE
  8
0
 10
-8.39999
 20
69.4508
 11
-9.15596
 21
70
  0
LINE
  8
0
 10
-9.15596
 20
70
 11
-10
 21
70
  0
LINE
  8
0
 10
-10
 20
70
 11
-10
 21
59.8
  0
LINE
  8
0
 10
-10
 20
59.8
 11
-10.8
 21
59.8
  0
LINE
  8
0
 10
-10.8
 20
59.8
 11
-10.8
 21
70
  0
LINE
  8
0
 10
-10.8
 20
70
 11
-17.5
 21
70
  0
LINE
  8
0
 10
-17.5
 20
70
 11
-24.2079
 21
64.6337
  0
LINE
  8
0
 10
-24.2079
 20
64.6337
 11
-21
 21
59.5
  0
LINE
  8
0
 10
-21
 20
59.5
 11
-23.5441
 21
57.9102
  0
LINE
  8
0
 10
-23.5441
 20
57.9102
 11
-26.5664
 21
62.7469
  0
LINE
  8
0
 10
-26.5664
 20
62.7469
 11
-35
 21
56
  0
LINE
  8
0
 10
-35
 20
56
 11
-22.1798
 21
14.9754
  0
LINE
  8
0
 10
-22.1798
 20
14.9754
 11
-19.4158
 21
19.3988
  0
LINE
  8
0
 10
-19.4158
 20
19.3988
 11
-16.8717
 21
17.809
  0
LINE
  8
0
 10
-16.8717
 20
17.809
 11
-20.3648
 21
12.2189
  0
LINE
  8
0
 10
-20.3648
 20
12.2189
 11
-13.5
 21
8.10001
  0
LINE
  8
0
 10
-13.5
 20
8.10001
 11
-13.5
 21
12.2
  0
LINE
  8
0
 10
-13.5
 20
12.2
 11
-12.7
 21
12.2
  0
LINE
  8
0
 10
-12.7
 20
12.2
 11
-12.7
 21
7.62
  0
LINE
  8
0
 10
-12.7
 20
7.62
 11
-10.8
 21
6.48
  0
LINE
  8
0
 10
-10.8
 20
6.48
 11
-10.8
 21
14.4
  0
LINE
  8
0
 10
-10.8
 20
14.4
 11
-10
 21
14.4
  0
LINE
  8
0
 10
-10
 20
14.4
 11
-10
 21
6
  0
LINE
  8
0
 10
-10
 20
6
 11
-8.29999
 21
4.98
  0
LINE
  8
0
 10
-8.29999
 20
4.98
 11
-8.29999
 21
12.2
  0
LINE
  8
0
 10
-8.29999
 20
12.2
 11
-7.5
 21
12.2
  0
LINE
  8
0
 10
-7.5
 20
12.2
 11
-7.5
 21
4.5
  0
LINE
  8
0
 10
-7.5
 20
4.5
 11
-5.59999
 21
3.36
  0
LINE
  8
0
 10
-5.59999
 20
3.36
 11
-5.59999
 21
14.4
  0
LINE
  8
0
 10
-5.59999
 20
14.4
 11
-4.79999
 21
14.4
  0
LINE
  8
0
 10
-4.79999
 20
14.4
 11
-4.79999
 21
2.87999
  0
LINE
  8
0
 10
-4.79999
 20
2.87999
 11
-3.09999
 21
1.86
  0
LINE
  8
0
 10
-3.09999
 20
1.86
 11
-3.09999
 21
12.2
  0
LINE
  8
0
 10
-3.09999
 20
12.2
 11
-2.29999
 21
12.2
  0
LINE
  8
0
 10
-2.29999
 20
12.2
 11
-2.29999
 21
1.37999
  0
LINE
  8
0
 10
-2.29999
 20
1.37999
 11
0
 21
0
  0
LINE
  8
0
 10
0
 20
0
 11
2.29999
 21
1.37999
  0
LINE
  8
0
 10
2.29999
 20
1.37999
 11
2.29999
 21
12.2
  0
LINE
  8
0
 10
2.29999
 20
12.2
 11
3.09999
 21
12.2
  0
LINE
  8
0
 10
3.09999
 20
12.2
 11
3.09999
 21
1.86
  0
LINE
  8
0
 10
3.09999
 20
1.86
 11
4.79999
 21
2.87999
  0
LINE
  8
0
 10
4.79999
 20
2.87999
 11
4.79999
 21
14.4
  0
LINE
  8
0
 10
4.79999
 20
14.4
 11
5.59999
 21
14.4
  0
LINE
  8
0
 10
5.59999
 20
14.4
 11
5.59999
 21
3.36
  0
LINE
  8
0
 10
5.59999
 20
3.36
 11
7.5
 21
4.5
  0
LINE
  8
0
 10
7.5
 20
4.5
 11
7.5
 21
12.2
  0
LINE
  8
0
 10
7.5
 20
12.2
 11
8.29999
 21
12.2
  0
LINE
  8
0
 10
8.29999
 20
12.2
 11
8.29999
 21
4.98
  0
LINE
  8
0
 10
8.29999
 20
4.98
 11
10
 21
6
  0
LINE
  8
0
 10
10
 20
6
 11
10
 21
14.4
  0
LINE
  8
0
 10
10
 20
14.4
 11
10.8
 21
14.4
  0
LINE
  8
0
 10
10.8
 20
14.4
 11
10.8
 21
6.48
  0
LINE
  8
0
 10
10.8
 20
6.48
 11
12.7
 21
7.62
  0
LINE
  8
0
 10
12.7
 20
7.62
 11
12.7
 21
12.2
  0
LINE
  8
0
 10
12.7
 20
12.2
 11
13.5
 21
12.2
  0
LINE
  8
0
 10
13.5
 20
12.2
 11
13.5
 21
8.10001
  0
LINE
  8
0
 10
13.5
 20
8.10001
 11
20.3648
 21
12.2189
  0
LINE
  8
0
 10
20.3648
 20
12.2189
 11
16.8717
 21
17.809
  0
LINE
  8
0
 10
16.8717
 20
17.809
 11
19.4158
 21
19.3988
  0
LINE
  8
0
 10
19.4158
 20
19.3988
 11
22.1798
 21
14.9754
  0
LINE
  8
0
 10
22.1798
 20
14.9754
 11
35
 21
56
  0
LINE
  8
0
 10
35
 20
56
 11
26.5664
 21
62.7469
  0
LINE
  8
0
 10
26.5664
 20
62.7469
 11
23.5441
 21
57.9102
  0
LINE
  8
0
 10
23.5441
 20
57.9102
 11
21
 21
59.5
  0
LINE
  8
0
 10
21
 20
59.5
 11
24.2079
 21
64.6337
  0
LINE
  8
0
 10
24.2079
 20
64.6337
 11
17.5
 21
70
  0
LINE
  8
0
 10
17.5
 20
70
 11
10.8
 21
70
  0
LINE
  8
0
 10
10.8
 20
70
 11
10.8
 21
59.8
  0
LINE
  8
0
 10
10.8
 20
59.8
 11
10
 21
59.8
  0
LINE
  8
0
 10
10
 20
59.8
 11
10
 21
70
  0
LINE
  8
0
 10
10
 20
70
 11
9.15596
 21
70
  0
LINE
  8
0
 10
9.15596
 20
70
 11
8.39999
 21
69.4508
  0
LINE
  8
0
 10
8.39999
 20
69.4508
 11
8.29999
 21
69.4062
  0
LINE
  8
0
 10
8.29999
 20
69.4062
 11
8.29999
 21
57.6
  0
LINE
  8
0
 10
8.29999
 20
57.6
 11
7.5
 21
57.6
  0
LINE
  8
0
 10
7.5
 20
57.6
 11
7.5
 21
69.0501
  0
LINE
  8
0
 10
7.5
 20
69.0501
 11
5.59999
 21
68.2041
  0
LINE
  8
0
 10
5.59999
 20
68.2041
 11
5.59999
 21
59.8
  0
LINE
  8
0
 10
5.59999
 20
59.8
 11
4.79999
 21
59.8
  0
LINE
  8
0
 10
4.79999
 20
59.8
 11
4.79999
 21
67.939
  0
LINE
  8
0
 10
4.79999
 20
67.939
 11
3.09999
 21
67.5777
  0
LINE
  8
0
 10
3.09999
 20
67.5777
 11
3.09999
 21
57.6
  0
LINE
  8
0
 10
3.09999
 20
57.6
 11
2.29999
 21
57.6
  0
LINE
  8
0
 10
2.29999
 20
57.6
 11
2.29999
 21
67.4076
  0
LINE
  8
0
 10
2.29999
 20
67.4076
 11
1.75607
 21
67.292
  0
LINE
  8
0
 10
1.75607
 20
67.292
 11
0.399994
 21
67.292
  0
LINE
  8
0
 10
0.399994
 20
67.292
 11
0.399994
 21
59.8
  0
LINE
  8
0
 10
0.399994
 20
59.8
 11
-0.399994
 21
59.8
  0
LINE
  8
0
 10
-0.399994
 20
59.8
 11
-0.399994
 21
67.292
  0
LINE
  8
0
 10
12.7
 20
57.6
 11
12.7
 21
69.8
  0
LINE
  8
0
 10
12.7
 20
69.8
 11
13.5
 21
69.8
  0
LINE
  8
0
 10
13.5
 20
69.8
 11
13.5
 21
57.6
  0
LINE
  8
0
 10
13.5
 20
57.6
 11
12.7
 21
57.6
  0
LINE
  8
0
 10
-13.5
 20
57.6
 11
-13.5
 21
69.8
  0
LINE
  8
0
 10
-13.5
 20
69.8
 11
-12.7
 21
69.8
  0
LINE
  8
0
 10
-12.7
 20
69.8
 11
-12.7
 21
57.6
  0
LINE
  8
0
 10
-12.7
 20
57.6
 11
-13.5
 21
57.6
  0
LINE
  8
0
 10
0.399994
 20
49.7533
 11
2.29999
 21
50.0067
  0
LINE
  8
0
 10
2.29999
 20
50.0067
 11
2.29999
 21
55.4
  0
LINE
  8
0
 10
2.29999
 20
55.4
 11
3.09999
 21
55.4
  0
LINE
  8
0
 10
3.09999
 20
55.4
 11
3.09999
 21
50.1133
  0
LINE
  8
0
 10
3.09999
 20
50.1133
 11
4.79999
 21
50.34
  0
LINE
  8
0
 10
4.79999
 20
50.34
 11
4.79999
 21
57.6
  0
LINE
  8
0
 10
4.79999
 20
57.6
 11
5.59999
 21
57.6
  0
LINE
  8
0
 10
5.59999
 20
57.6
 11
5.59999
 21
50.4467
  0
LINE
  8
0
 10
5.59999
 20
50.4467
 11
7.5
 21
50.7
  0
LINE
  8
0
 10
7.5
 20
50.7
 11
7.5
 21
55.4
  0
LINE
  8
0
 10
7.5
 20
55.4
 11
8.29999
 21
55.4
  0
LINE
  8
0
 10
8.29999
 20
55.4
 11
8.29999
 21
50.8067
  0
LINE
  8
0
 10
8.29999
 20
50.8067
 11
10
 21
51.0333
  0
LINE
  8
0
 10
10
 20
51.0333
 11
10
 21
57.6
  0
LINE
  8
0
 10
10
 20
57.6
 11
10.8
 21
57.6
  0
LINE
  8
0
 10
10.8
 20
57.6
 11
10.8
 21
51.14
  0
LINE
  8
0
 10
10.8
 20
51.14
 11
12.7
 21
51.3933
  0
LINE
  8
0
 10
12.7
 20
51.3933
 11
12.7
 21
55.4
  0
LINE
  8
0
 10
12.7
 20
55.4
 11
13.5
 21
55.4
  0
LINE
  8
0
 10
13.5
 20
55.4
 11
13.5
 21
51.5
  0
LINE
  8
0
 10
13.5
 20
51.5
 11
21
 21
52.5
  0
LINE
  8
0
 10
21
 20
52.5
 11
13.5
 21
51.25
  0
LINE
  8
0
 10
13.5
 20
51.25
 11
13.5
 21
43.2
  0
LINE
  8
0
 10
13.5
 20
43.2
 11
12.7
 21
43.2
  0
LINE
  8
0
 10
12.7
 20
43.2
 11
12.7
 21
51.1167
  0
LINE
  8
0
 10
12.7
 20
51.1167
 11
10.8
 21
50.8
  0
LINE
  8
0
 10
10.8
 20
50.8
 11
10.8
 21
45.4
  0
LINE
  8
0
 10
10.8
 20
45.4
 11
10
 21
45.4
  0
LINE
  8
0
 10
10
 20
45.4
 11
10
 21
50.6667
  0
LINE
  8
0
 10
10
 20
50.6667
 11
8.29999
 21
50.3833
  0
LINE
  8
0
 10
8.29999
 20
50.3833
 11
8.29999
 21
43.2
  0
LINE
  8
0
 10
8.29999
 20
43.2
 11
7.5
 21
43.2
  0
LINE
  8
0
 10
7.5
 20
43.2
 11
7.5
 21
50.25
  0
LINE
  8
0
 10
7.5
 20
50.25
 11
5.59999
 21
49.9333
  0
LINE
  8
0
 10
5.59999
 20
49.9333
 11
5.59999
 21
45.4
  0
LINE
  8
0
 10
5.59999
 20
45.4
 11
4.79999
 21
45.4
  0
LINE
  8
0
 10
4.79999
 20
45.4
 11
4.79999
 21
49.8
  0
LINE
  8
0
 10
4.79999
 20
49.8
 11
3.09999
 21
49.5167
  0
LINE
  8
0
 10
3.09999
 20
49.5167
 11
3.09999
 21
43.2
  0
LINE
  8
0
 10
3.09999
 20
43.2
 11
2.29999
 21
43.2
  0
LINE
  8
0
 10
2.29999
 20
43.2
 11
2.29999
 21
49.3833
  0
LINE
  8
0
 10
2.29999
 20
49.3833
 11
0.399994
 21
49.0667
  0
LINE
  8
0
 10
0.399994
 20
49.0667
 11
0.399994
 21
45.4
  0
LINE
  8
0
 10
0.399994
 20
45.4
 11
-0.399994
 21
45.4
  0
LINE
  8
0
 10
-0.399994
 20
45.4
 11
-0.399994
 21
49.0667
  0
LINE
  8
0
 10
-0.399994
 20
49.0667
 11
-2.29999
 21
49.3833
  0
LINE
  8
0
 10
-2.29999
 20
49.3833
 11
-2.29999
 21
43.2
  0
LINE
  8
0
 10
-2.29999
 20
43.2
 11
-3.09999
 21
43.2
  0
LINE
  8
0
 10
-3.09999
 20
43.2
 11
-3.09999
 21
49.5167
  0
LINE
  8
0
 10
-3.09999
 20
49.5167
 11
-4.79999
 21
49.8
  0
LINE
  8
0
 10
-4.79999
 20
49.8
 11
-4.79999
 21
45.4
  0
LINE
  8
0
 10
-4.79999
 20
45.4
 11
-5.59999
 21
45.4
  0
LINE
  8
0
 10
-5.59999
 20
45.4
 11
-5.59999
 21
49.9333
  0
LINE
  8
0
 10
-5.59999
 20
49.9333
 11
-7.5
 21
50.25
  0
LINE
  8
0
 10
-7.5
 20
50.25
 11
-7.5
 21
43.2
  0
LINE
  8
0
 10
-7.5
 20
43.2
 11
-8.29999
 21
43.2
  0
LINE
  8
0
 10
-8.29999
 20
43.2
 11
-8.29999
 21
50.3833
  0
LINE
  8
0
 10
-8.29999
 20
50.3833
 11
-10
 21
50.6667
  0
LINE
  8
0
 10
-10
 20
50.6667
 11
-10
 21
45.4
  0
LINE
  8
0
 10
-10
 20
45.4
 11
-10.8
 21
45.4
  0
LINE
  8
0
 10
-10.8
 20
45.4
 11
-10.8
 21
50.8
  0
LINE
  8
0
 10
-10.8
 20
50.8
 11
-12.7
 21
51.1167
  0
LINE
  8
0
 10
-12.7
 20
51.1167
 11
-12.7
 21
43.2
  0
LINE
  8
0
 10
-12.7
 20
43.2
 11
-13.5
 21
43.2
  0
LINE
  8
0
 10
-13.5
 20
43.2
 11
-13.5
 21
51.25
  0
LINE
  8
0
 10
-13.5
 20
51.25
 11
-21
 21
52.5
  0
LINE
  8
0
 10
-21
 20
52.5
 11
-13.5
 21
51.5
  0
LINE
  8
0
 10
-13.5
 20
51.5
 11
-13.5
 21
55.4
  0
LINE
  8
0
 10
-13.5
 20
55.4
 11
-12.7
 21
55.4
  0
LINE
  8
0
 10
-12.7
 20
55.4
 11
-12.7
 21
51.3933
  0
LINE
  8
0
 10
-12.7
 20
51.3933
 11
-10.8
 21
51.14
  0
LINE
  8
0
 10
-10.8
 20
51.14
 11
-10.8
 21
57.6
  0
LINE
  8
0
 10
-10.8
 20
57.6
 11
-10
 21
57.6
  0
LINE
  8
0
 10
-10
 20
57.6
 11
-10
 21
51.0333
  0
LINE
  8
0
 10
-10
 20
51.0333
 11
-8.29999
 21
50.8067
  0
LINE
  8
0
 10
-8.29999
 20
50.8067
 11
-8.29999
 21
55.4
  0
LINE
  8
0
 10
-8.29999
 20
55.4
 11
-7.5
 21
55.4
  0
LINE
  8
0
 10
-7.5
 20
55.4
 11
-7.5
 21
50.7
  0
LINE
  8
0
 10
-7.5
 20
50.7
 11
-5.59999
 21
50.4467
  0
LINE
  8
0
 10
-5.59999
 20
50.4467
 11
-5.59999
 21
57.6
  0
LINE
  8
0
 10
-5.59999
 20
57.6
 11
-4.79999
 21
57.6
  0
LINE
  8
0
 10
-4.79999
 20
57.6
 11
-4.79999
 21
50.34
  0
LINE
  8
0
 10
-4.79999
 20
50.34
 11
-3.09999
 21
50.1133
  0
LINE
  8
0
 10
-3.09999
 20
50.1133
 11
-3.09999
 21
55.4
  0
LINE
  8
0
 10
-3.09999
 20
55.4
 11
-2.29999
 21
55.4
  0
LINE
  8
0
 10
-2.29999
 20
55.4
 11
-2.29999
 21
50.0067
  0
LINE
  8
0
 10
-2.29999
 20
50.0067
 11
-0.399994
 21
49.7533
  0
LINE
  8
0
 10
-0.399994
 20
49.7533
 11
-0.399994
 21
57.6
  0
LINE
  8
0
 10
-0.399994
 20
57.6
 11
0.399994
 21
57.6
  0
LINE
  8
0
 10
0.399994
 20
57.6
 11
0.399994
 21
49.7533
  0
LINE
  8
0
 10
0.399994
 20
31
 11
-0.399994
 21
31
  0
LINE
  8
0
 10
-0.399994
 20
31
 11
-0.399994
 21
43.2
  0
LINE
  8
0
 10
-0.399994
 20
43.2
 11
0.399994
 21
43.2
  0
LINE
  8
0
 10
0.399994
 20
43.2
 11
0.399994
 21
31
  0
LINE
  8
0
 10
4.79999
 20
31
 11
4.79999
 21
43.2
  0
LINE
  8
0
 10
4.79999
 20
43.2
 11
5.59999
 21
43.2
  0
LINE
  8
0
 10
5.59999
 20
43.2
 11
5.59999
 21
31
  0
LINE
  8
0
 10
5.59999
 20
31
 11
4.79999
 21
31
  0
LINE
  8
0
 10
-5.59999
 20
31
 11
-5.59999
 21
43.2
  0
LINE
  8
0
 10
-5.59999
 20
43.2
 11
-4.79999
 21
43.2
  0
LINE
  8
0
 10
-4.79999
 20
43.2
 11
-4.79999
 21
31
  0
LINE
  8
0
 10
-4.79999
 20
31
 11
-5.59999
 21
31
  0
LINE
  8
0
 10
-10.8
 20
31
 11
-10.8
 21
43.2
  0
LINE
  8
0
 10
-10.8
 20
43.2
 11
-10
 21
43.2
  0
LINE
  8
0
 10
-10
 20
43.2
 11
-10
 21
31
  0
LINE
  8
0
 10
-10
 20
31
 11
-10.8
 21
31
  0
LINE
  8
0
 10
10
 20
31
 11
10
 21
43.2
  0
LINE
  8
0
 10
10
 20
43.2
 11
10.8
 21
43.2
  0
LINE
  8
0
 10
10.8
 20
43.2
 11
10.8
 21
31
  0
LINE
  8
0
 10
10.8
 20
31
 11
10
 21
31
  0
LINE
  8
0
 10
7.5
 20
28.8
 11
7.5
 21
41
  0
LINE
  8
0
 10
7.5
 20
41
 11
8.29999
 21
41
  0
LINE
  8
0
 10
8.29999
 20
41
 11
8.29999
 21
28.8
  0
LINE
  8
0
 10
8.29999
 20
28.8
 11
7.5
 21
28.8
  0
LINE
  8
0
 10
12.7
 20
28.8
 11
12.7
 21
41
  0
LINE
  8
0
 10
12.7
 20
41
 11
13.5
 21
41
  0
LINE
  8
0
 10
13.5
 20
41
 11
13.5
 21
28.8
  0
LINE
  8
0
 10
13.5
 20
28.8
 11
12.7
 21
28.8
  0
LINE
  8
0
 10
2.29999
 20
28.8
 11
2.29999
 21
41
  0
LINE
  8
0
 10
2.29999
 20
41
 11
3.09999
 21
41
  0
LINE
  8
0
 10
3.09999
 20
41
 11
3.09999
 21
28.8
  0
LINE
  8
0
 10
3.09999
 20
28.8
 11
2.29999
 21
28.8
  0
LINE
  8
0
 10
-13.5
 20
28.8
 11
-13.5
 21
41
  0
LINE
  8
0
 10
-13.5
 20
41
 11
-12.7
 21
41
  0
LINE
  8
0
 10
-12.7
 20
41
 11
-12.7
 21
28.8
  0
LINE
  8
0
 10
-12.7
 20
28.8
 11
-13.5
 21
28.8
  0
LINE
  8
0
 10
-3.09999
 20
28.8
 11
-3.09999
 21
41
  0
LINE
  8
0
 10
-3.09999
 20
41
 11
-2.29999
 21
41
  0
LINE
  8
0
 10
-2.29999
 20
41
 11
-2.29999
 21
28.8
  0
LINE
  8
0
 10
-2.29999
 20
28.8
 11
-3.09999
 21
28.8
  0
LINE
  8
0
 10
-8.29999
 20
28.8
 11
-8.29999
 21
41
  0
LINE
  8
0
 10
-8.29999
 20
41
 11
-7.5
 21
41
  0
LINE
  8
0
 10
-7.5
 20
41
 11
-7.5
 21
28.8
  0
LINE
  8
0
 10
-7.5
 20
28.8
 11
-8.29999
 21
28.8
  0
LINE
  8
0
 10
0.399994
 20
16.6
 11
-0.399994
 21
16.6
  0
LINE
  8
0
 10
-0.399994
 20
16.6
 11
-0.399994
 21
28.8
  0
LINE
  8
0
 10
-0.399994
 20
28.8
 11
0.399994
 21
28.8
  0
LINE
  8
0
 10
0.399994
 20
28.8
 11
0.399994
 21
16.6
  0
LINE
  8
0
 10
4.79999
 20
16.6
 11
4.79999
 21
28.8
  0
LINE
  8
0
 10
4.79999
 20
28.8
 11
5.59999
 21
28.8
  0
LINE
  8
0
 10
5.59999
 20
28.8
 11
5.59999
 21
16.6
  0
LINE
  8
0
 10
5.59999
 20
16.6
 11
4.79999
 21
16.6
  0
LINE
  8
0
 10
-5.59999
 20
16.6
 11
-5.59999
 21
28.8
  0
LINE
  8
0
 10
-5.59999
 20
28.8
 11
-4.79999
 21
28.8
  0
LINE
  8
0
 10
-4.79999
 20
28.8
 11
-4.79999
 21
16.6
  0
LINE
  8
0
 10
-4.79999
 20
16.6
 11
-5.59999
 21
16.6
  0
LINE
  8
0
 10
-10.8
 20
16.6
 11
-10.8
 21
28.8
  0
LINE
  8
0
 10
-10.8
 20
28.8
 11
-10
 21
28.8
  0
LINE
  8
0
 10
-10
 20
28.8
 11
-10
 21
16.6
  0
LINE
  8
0
 10
-10
 20
16.6
 11
-10.8
 21
16.6
  0
LINE
  8
0
 10
10
 20
16.6
 11
10
 21
28.8
  0
LINE
  8
0
 10
10
 20
28.8
 11
10.8
 21
28.8
  0
LINE
  8
0
 10
10.8
 20
28.8
 11
10.8
 21
16.6
  0
LINE
  8
0
 10
10.8
 20
16.6
 11
10
 21
16.6
  0
LINE
  8
0
 10
7.5
 20
14.4
 11
7.5
 21
26.6
  0
LINE
  8
0
 10
7.5
 20
26.6
 11
8.29999
 21
26.6
  0
LINE
  8
0
 10
8.29999
 20
26.6
 11
8.29999
 21
14.4
  0
LINE
  8
0
 10
8.29999
 20
14.4
 11
7.5
 21
14.4
  0
LINE
  8
0
 10
-8.29999
 20
14.4
 11
-8.29999
 21
26.6
  0
LINE
  8
0
 10
-8.29999
 20
26.6
 11
-7.5
 21
26.6
  0
LINE
  8
0
 10
-7.5
 20
26.6
 11
-7.5
 21
14.4
  0
LINE
  8
0
 10
-7.5
 20
14.4
 11
-8.29999
 21
14.4
  0
LINE
  8
0
 10
-13.5
 20
14.4
 11
-13.5
 21
26.6
  0
LINE
  8
0
 10
-13.5
 20
26.6
 11
-12.7
 21
26.6
  0
LINE
  8
0
 10
-12.7
 20
26.6
 11
-12.7
 21
14.4
  0
LINE
  8
0
 10
-12.7
 20
14.4
 11
-13.5
 21
14.4
  0
LINE
  8
0
 10
-3.09999
 20
14.4
 11
-3.09999
 21
26.6
  0
LINE
  8
0
 10
-3.09999
 20
26.6
 11
-2.29999
 21
26.6
  0
LINE
  8
0
 10
-2.29999
 20
26.6
 11
-2.29999
 21
14.4
  0
LINE
  8
0
 10
-2.29999
 20
14.4
 11
-3.09999
 21
14.4
  0
LINE
  8
0
 10
12.7
 20
14.4
 11
12.7
 21
26.6
  0
LINE
  8
0
 10
12.7
 20
26.6
 11
13.5
 21
26.6
  0
LINE
  8
0
 10
13.5
 20
26.6
 11
13.5
 21
14.4
  0
LINE
  8
0
 10
13.5
 20
14.4
 11
12.7
 21
14.4
  0
LINE
  8
0
 10
2.29999
 20
14.4
 11
2.29999
 21
26.6
  0
LINE
  8
0
 10
2.29999
 20
26.6
 11
3.09999
 21
26.6
  0
LINE
  8
0
 10
3.09999
 20
26.6
 11
3.09999
 21
14.4
  0
LINE
  8
0
 10
3.09999
 20
14.4
 11
2.29999
 21
14.4
  0
LINE
  8
0
 10
0.399994
 20
2.2
 11
-0.399994
 21
2.2
  0
LINE
  8
0
 10
-0.399994
 20
2.2
 11
-0.399994
 21
14.4
  0
LINE
  8
0
 10
-0.399994
 20
14.4
 11
0.399994
 21
14.4
  0
LINE
  8
0
 10
0.399994
 20
14.4
 11
0.399994
 21
2.2
  0
ENDSEC
  0
SECTION
  2
OBJECTS
  0
DICTIONARY
  0
ENDSEC
  0
EOF
