  0
SECTION
  2
BLOCKS
  0
ENDSEC
  0
SECTION
  2
ENTITIES
  0
LINE
  8
0
 10
-0.25
 20
67.292
 11
-1.75607
 21
67.292
  0
LINE
  8
0
 10
-1.75607
 20
67.292
 11
-2.0625
 21
67.3572
  0
LINE
  8
0
 10
-2.0625
 20
67.3572
 11
-2.0625
 21
56
  0
LINE
  8
0
 10
-2.0625
 20
56
 11
-2.5625
 21
56
  0
LINE
  8
0
 10
-2.5625
 20
56
 11
-2.5625
 21
67.4634
  0
LINE
  8
0
 10
-2.5625
 20
67.4634
 11
-4.25
 21
67.8221
  0
LINE
  8
0
 10
-4.25
 20
67.8221
 11
-4.25
 21
58
  0
LINE
  8
0
 10
-4.25
 20
58
 11
-4.75
 21
58
  0
LINE
  8
0
 10
-4.75
 20
58
 11
-4.75
 21
67.9284
  0
LINE
  8
0
 10
-4.75
 20
67.9284
 11
-5.19148
 21
68.0222
  0
LINE
  8
0
 10
-5.19148
 20
68.0222
 11
-8.39999
 21
69.4508
  0
LINE
  8
0
 10
-8.39999
 20
69.4508
 11
-8.75
 21
69.705
  0
LINE
  8
0
 10
-8.75
 20
69.705
 11
-8.75
 21
58
  0
LINE
  8
0
 10
-8.75
 20
58
 11
-9.25
 21
58
  0
LINE
  8
0
 10
-9.25
 20
58
 11
-9.25
 21
70
  0
LINE
  8
0
 10
-9.25
 20
70
 11
-17.5
 21
70
  0
LINE
  8
0
 10
-17.5
 20
70
 11
-24.2079
 21
64.6337
  0
LINE
  8
0
 10
-24.2079
 20
64.6337
 11
-21
 21
59.5
  0
LINE
  8
0
 10
-21
 20
59.5
 11
-23.5441
 21
57.9102
  0
LINE
  8
0
 10
-23.5441
 20
57.9102
 11
-26.5664
 21
62.7469
  0
LINE
  8
0
 10
-26.5664
 20
62.7469
 11
-35
 21
56
  0
LINE
  8
0
 10
-35
 20
56
 11
-22.1798
 21
14.9754
  0
LINE
  8
0
 10
-22.1798
 20
14.9754
 11
-19.4158
 21
19.3988
  0
LINE
  8
0
 10
-19.4158
 20
19.3988
 11
-16.8717
 21
17.809
  0
LINE
  8
0
 10
-16.8717
 20
17.809
 11
-20.3648
 21
12.2189
  0
LINE
  8
0
 10
-20.3648
 20
12.2189
 11
-11.5625
 21
6.9375
  0
LINE
  8
0
 10
-11.5625
 20
6.9375
 11
-11.5625
 21
12
  0
LINE
  8
0
 10
-11.5625
 20
12
 11
-11.0625
 21
12
  0
LINE
  8
0
 10
-11.0625
 20
12
 11
-11.0625
 21
6.6375
  0
LINE
  8
0
 10
-11.0625
 20
6.6375
 11
-9.25
 21
5.55
  0
LINE
  8
0
 10
-9.25
 20
5.55
 11
-9.25
 21
14
  0
LINE
  8
0
 10
-9.25
 20
14
 11
-8.75
 21
14
  0
LINE
  8
0
 10
-8.75
 20
14
 11
-8.75
 21
5.25
  0
LINE
  8
0
 10
-8.75
 20
5.25
 11
-7.0625
 21
4.2375
  0
LINE
  8
0
 10
-7.0625
 20
4.2375
 11
-7.0625
 21
12
  0
LINE
  8
0
 10
-7.0625
 20
12
 11
-6.5625
 21
12
  0
LINE
  8
0
 10
-6.5625
 20
12
 11
-6.5625
 21
3.9375
  0
LINE
  8
0
 10
-6.5625
 20
3.9375
 11
-4.75
 21
2.85001
  0
LINE
  8
0
 10
-4.75
 20
2.85001
 11
-4.75
 21
14
  0
LINE
  8
0
 10
-4.75
 20
14
 11
-4.25
 21
14
  0
LINE
  8
0
 10
-4.25
 20
14
 11
-4.25
 21
2.55
  0
LINE
  8
0
 10
-4.25
 20
2.55
 11
-2.5625
 21
1.53751
  0
LINE
  8
0
 10
-2.5625
 20
1.53751
 11
-2.5625
 21
12
  0
LINE
  8
0
 10
-2.5625
 20
12
 11
-2.0625
 21
12
  0
LINE
  8
0
 10
-2.0625
 20
12
 11
-2.0625
 21
1.2375
  0
LINE
  8
0
 10
-2.0625
 20
1.2375
 11
0
 21
0
  0
LINE
  8
0
 10
0
 20
0
 11
2.0625
 21
1.2375
  0
LINE
  8
0
 10
2.0625
 20
1.2375
 11
2.0625
 21
12
  0
LINE
  8
0
 10
2.0625
 20
12
 11
2.5625
 21
12
  0
LINE
  8
0
 10
2.5625
 20
12
 11
2.5625
 21
1.53751
  0
LINE
  8
0
 10
2.5625
 20
1.53751
 11
4.25
 21
2.55
  0
LINE
  8
0
 10
4.25
 20
2.55
 11
4.25
 21
14
  0
LINE
  8
0
 10
4.25
 20
14
 11
4.75
 21
14
  0
LINE
  8
0
 10
4.75
 20
14
 11
4.75
 21
2.85001
  0
LINE
  8
0
 10
4.75
 20
2.85001
 11
6.5625
 21
3.9375
  0
LINE
  8
0
 10
6.5625
 20
3.9375
 11
6.5625
 21
12
  0
LINE
  8
0
 10
6.5625
 20
12
 11
7.0625
 21
12
  0
LINE
  8
0
 10
7.0625
 20
12
 11
7.0625
 21
4.2375
  0
LINE
  8
0
 10
7.0625
 20
4.2375
 11
8.75
 21
5.25
  0
LINE
  8
0
 10
8.75
 20
5.25
 11
8.75
 21
14
  0
LINE
  8
0
 10
8.75
 20
14
 11
9.25
 21
14
  0
LINE
  8
0
 10
9.25
 20
14
 11
9.25
 21
5.55
  0
LINE
  8
0
 10
9.25
 20
5.55
 11
11.0625
 21
6.6375
  0
LINE
  8
0
 10
11.0625
 20
6.6375
 11
11.0625
 21
12
  0
LINE
  8
0
 10
11.0625
 20
12
 11
11.5625
 21
12
  0
LINE
  8
0
 10
11.5625
 20
12
 11
11.5625
 21
6.9375
  0
LINE
  8
0
 10
11.5625
 20
6.9375
 11
20.3648
 21
12.2189
  0
LINE
  8
0
 10
20.3648
 20
12.2189
 11
16.8717
 21
17.809
  0
LINE
  8
0
 10
16.8717
 20
17.809
 11
19.4158
 21
19.3988
  0
LINE
  8
0
 10
19.4158
 20
19.3988
 11
22.1798
 21
14.9754
  0
LINE
  8
0
 10
22.1798
 20
14.9754
 11
35
 21
56
  0
LINE
  8
0
 10
35
 20
56
 11
26.5664
 21
62.7469
  0
LINE
  8
0
 10
26.5664
 20
62.7469
 11
23.5441
 21
57.9102
  0
LINE
  8
0
 10
23.5441
 20
57.9102
 11
21
 21
59.5
  0
LINE
  8
0
 10
21
 20
59.5
 11
24.2079
 21
64.6337
  0
LINE
  8
0
 10
24.2079
 20
64.6337
 11
17.5
 21
70
  0
LINE
  8
0
 10
17.5
 20
70
 11
9.25
 21
70
  0
LINE
  8
0
 10
9.25
 20
70
 11
9.25
 21
58
  0
LINE
  8
0
 10
9.25
 20
58
 11
8.75
 21
58
  0
LINE
  8
0
 10
8.75
 20
58
 11
8.75
 21
69.705
  0
LINE
  8
0
 10
8.75
 20
69.705
 11
8.39999
 21
69.4508
  0
LINE
  8
0
 10
8.39999
 20
69.4508
 11
5.19148
 21
68.0222
  0
LINE
  8
0
 10
5.19148
 20
68.0222
 11
4.75
 21
67.9284
  0
LINE
  8
0
 10
4.75
 20
67.9284
 11
4.75
 21
58
  0
LINE
  8
0
 10
4.75
 20
58
 11
4.25
 21
58
  0
LINE
  8
0
 10
4.25
 20
58
 11
4.25
 21
67.8221
  0
LINE
  8
0
 10
4.25
 20
67.8221
 11
2.5625
 21
67.4634
  0
LINE
  8
0
 10
2.5625
 20
67.4634
 11
2.5625
 21
56
  0
LINE
  8
0
 10
2.5625
 20
56
 11
2.0625
 21
56
  0
LINE
  8
0
 10
2.0625
 20
56
 11
2.0625
 21
67.3572
  0
LINE
  8
0
 10
2.0625
 20
67.3572
 11
1.75607
 21
67.292
  0
LINE
  8
0
 10
1.75607
 20
67.292
 11
0.25
 21
67.292
  0
LINE
  8
0
 10
0.25
 20
67.292
 11
0.25
 21
58
  0
LINE
  8
0
 10
0.25
 20
58
 11
-0.25
 21
58
  0
LINE
  8
0
 10
-0.25
 20
58
 11
-0.25
 21
67.292
  0
LINE
  8
0
 10
6.5625
 20
56
 11
6.5625
 21
68
  0
LINE
  8
0
 10
6.5625
 20
68
 11
7.0625
 21
68
  0
LINE
  8
0
 10
7.0625
 20
68
 11
7.0625
 21
56
  0
LINE
  8
0
 10
7.0625
 20
56
 11
6.5625
 21
56
  0
LINE
  8
0
 10
11.0625
 20
56
 11
11.0625
 21
68
  0
LINE
  8
0
 10
11.0625
 20
68
 11
11.5625
 21
68
  0
LINE
  8
0
 10
11.5625
 20
68
 11
11.5625
 21
56
  0
LINE
  8
0
 10
11.5625
 20
56
 11
11.0625
 21
56
  0
LINE
  8
0
 10
-11.5625
 20
56
 11
-11.5625
 21
68
  0
LINE
  8
0
 10
-11.5625
 20
68
 11
-11.0625
 21
68
  0
LINE
  8
0
 10
-11.0625
 20
68
 11
-11.0625
 21
56
  0
LINE
  8
0
 10
-11.0625
 20
56
 11
-11.5625
 21
56
  0
LINE
  8
0
 10
-7.0625
 20
56
 11
-7.0625
 21
68
  0
LINE
  8
0
 10
-7.0625
 20
68
 11
-6.5625
 21
68
  0
LINE
  8
0
 10
-6.5625
 20
68
 11
-6.5625
 21
56
  0
LINE
  8
0
 10
-6.5625
 20
56
 11
-7.0625
 21
56
  0
LINE
  8
0
 10
0.25
 20
49.7333
 11
2.0625
 21
49.975
  0
LINE
  8
0
 10
2.0625
 20
49.975
 11
2.0625
 21
54
  0
LINE
  8
0
 10
2.0625
 20
54
 11
2.5625
 21
54
  0
LINE
  8
0
 10
2.5625
 20
54
 11
2.5625
 21
50.0417
  0
LINE
  8
0
 10
2.5625
 20
50.0417
 11
4.25
 21
50.2667
  0
LINE
  8
0
 10
4.25
 20
50.2667
 11
4.25
 21
56
  0
LINE
  8
0
 10
4.25
 20
56
 11
4.75
 21
56
  0
LINE
  8
0
 10
4.75
 20
56
 11
4.75
 21
50.3333
  0
LINE
  8
0
 10
4.75
 20
50.3333
 11
6.5625
 21
50.575
  0
LINE
  8
0
 10
6.5625
 20
50.575
 11
6.5625
 21
54
  0
LINE
  8
0
 10
6.5625
 20
54
 11
7.0625
 21
54
  0
LINE
  8
0
 10
7.0625
 20
54
 11
7.0625
 21
50.6417
  0
LINE
  8
0
 10
7.0625
 20
50.6417
 11
8.75
 21
50.8667
  0
LINE
  8
0
 10
8.75
 20
50.8667
 11
8.75
 21
56
  0
LINE
  8
0
 10
8.75
 20
56
 11
9.25
 21
56
  0
LINE
  8
0
 10
9.25
 20
56
 11
9.25
 21
50.9333
  0
LINE
  8
0
 10
9.25
 20
50.9333
 11
11.0625
 21
51.175
  0
LINE
  8
0
 10
11.0625
 20
51.175
 11
11.0625
 21
54
  0
LINE
  8
0
 10
11.0625
 20
54
 11
11.5625
 21
54
  0
LINE
  8
0
 10
11.5625
 20
54
 11
11.5625
 21
51.2417
  0
LINE
  8
0
 10
11.5625
 20
51.2417
 11
21
 21
52.5
  0
LINE
  8
0
 10
21
 20
52.5
 11
11.5625
 21
50.9271
  0
LINE
  8
0
 10
11.5625
 20
50.9271
 11
11.5625
 21
42
  0
LINE
  8
0
 10
11.5625
 20
42
 11
11.0625
 21
42
  0
LINE
  8
0
 10
11.0625
 20
42
 11
11.0625
 21
50.8438
  0
LINE
  8
0
 10
11.0625
 20
50.8438
 11
9.25
 21
50.5417
  0
LINE
  8
0
 10
9.25
 20
50.5417
 11
9.25
 21
44
  0
LINE
  8
0
 10
9.25
 20
44
 11
8.75
 21
44
  0
LINE
  8
0
 10
8.75
 20
44
 11
8.75
 21
50.4583
  0
LINE
  8
0
 10
8.75
 20
50.4583
 11
7.0625
 21
50.1771
  0
LINE
  8
0
 10
7.0625
 20
50.1771
 11
7.0625
 21
42
  0
LINE
  8
0
 10
7.0625
 20
42
 11
6.5625
 21
42
  0
LINE
  8
0
 10
6.5625
 20
42
 11
6.5625
 21
50.0938
  0
LINE
  8
0
 10
6.5625
 20
50.0938
 11
4.75
 21
49.7917
  0
LINE
  8
0
 10
4.75
 20
49.7917
 11
4.75
 21
44
  0
LINE
  8
0
 10
4.75
 20
44
 11
4.25
 21
44
  0
LINE
  8
0
 10
4.25
 20
44
 11
4.25
 21
49.7083
  0
LINE
  8
0
 10
4.25
 20
49.7083
 11
2.5625
 21
49.4271
  0
LINE
  8
0
 10
2.5625
 20
49.4271
 11
2.5625
 21
42
  0
LINE
  8
0
 10
2.5625
 20
42
 11
2.0625
 21
42
  0
LINE
  8
0
 10
2.0625
 20
42
 11
2.0625
 21
49.3438
  0
LINE
  8
0
 10
2.0625
 20
49.3438
 11
0.25
 21
49.0417
  0
LINE
  8
0
 10
0.25
 20
49.0417
 11
0.25
 21
44
  0
LINE
  8
0
 10
0.25
 20
44
 11
-0.25
 21
44
  0
LINE
  8
0
 10
-0.25
 20
44
 11
-0.25
 21
49.0417
  0
LINE
  8
0
 10
-0.25
 20
49.0417
 11
-2.0625
 21
49.3438
  0
LINE
  8
0
 10
-2.0625
 20
49.3438
 11
-2.0625
 21
42
  0
LINE
  8
0
 10
-2.0625
 20
42
 11
-2.5625
 21
42
  0
LINE
  8
0
 10
-2.5625
 20
42
 11
-2.5625
 21
49.4271
  0
LINE
  8
0
 10
-2.5625
 20
49.4271
 11
-4.25
 21
49.7083
  0
LINE
  8
0
 10
-4.25
 20
49.7083
 11
-4.25
 21
44
  0
LINE
  8
0
 10
-4.25
 20
44
 11
-4.75
 21
44
  0
LINE
  8
0
 10
-4.75
 20
44
 11
-4.75
 21
49.7917
  0
LINE
  8
0
 10
-4.75
 20
49.7917
 11
-6.5625
 21
50.0938
  0
LINE
  8
0
 10
-6.5625
 20
50.0938
 11
-6.5625
 21
42
  0
LINE
  8
0
 10
-6.5625
 20
42
 11
-7.0625
 21
42
  0
LINE
  8
0
 10
-7.0625
 20
42
 11
-7.0625
 21
50.1771
  0
LINE
  8
0
 10
-7.0625
 20
50.1771
 11
-8.75
 21
50.4583
  0
LINE
  8
0
 10
-8.75
 20
50.4583
 11
-8.75
 21
44
  0
LINE
  8
0
 10
-8.75
 20
44
 11
-9.25
 21
44
  0
LINE
  8
0
 10
-9.25
 20
44
 11
-9.25
 21
50.5417
  0
LINE
  8
0
 10
-9.25
 20
50.5417
 11
-11.0625
 21
50.8438
  0
LINE
  8
0
 10
-11.0625
 20
50.8438
 11
-11.0625
 21
42
  0
LINE
  8
0
 10
-11.0625
 20
42
 11
-11.5625
 21
42
  0
LINE
  8
0
 10
-11.5625
 20
42
 11
-11.5625
 21
50.9271
  0
LINE
  8
0
 10
-11.5625
 20
50.9271
 11
-21
 21
52.5
  0
LINE
  8
0
 10
-21
 20
52.5
 11
-11.5625
 21
51.2417
  0
LINE
  8
0
 10
-11.5625
 20
51.2417
 11
-11.5625
 21
54
  0
LINE
  8
0
 10
-11.5625
 20
54
 11
-11.0625
 21
54
  0
LINE
  8
0
 10
-11.0625
 20
54
 11
-11.0625
 21
51.175
  0
LINE
  8
0
 10
-11.0625
 20
51.175
 11
-9.25
 21
50.9333
  0
LINE
  8
0
 10
-9.25
 20
50.9333
 11
-9.25
 21
56
  0
LINE
  8
0
 10
-9.25
 20
56
 11
-8.75
 21
56
  0
LINE
  8
0
 10
-8.75
 20
56
 11
-8.75
 21
50.8667
  0
LINE
  8
0
 10
-8.75
 20
50.8667
 11
-7.0625
 21
50.6417
  0
LINE
  8
0
 10
-7.0625
 20
50.6417
 11
-7.0625
 21
54
  0
LINE
  8
0
 10
-7.0625
 20
54
 11
-6.5625
 21
54
  0
LINE
  8
0
 10
-6.5625
 20
54
 11
-6.5625
 21
50.575
  0
LINE
  8
0
 10
-6.5625
 20
50.575
 11
-4.75
 21
50.3333
  0
LINE
  8
0
 10
-4.75
 20
50.3333
 11
-4.75
 21
56
  0
LINE
  8
0
 10
-4.75
 20
56
 11
-4.25
 21
56
  0
LINE
  8
0
 10
-4.25
 20
56
 11
-4.25
 21
50.2667
  0
LINE
  8
0
 10
-4.25
 20
50.2667
 11
-2.5625
 21
50.0417
  0
LINE
  8
0
 10
-2.5625
 20
50.0417
 11
-2.5625
 21
54
  0
LINE
  8
0
 10
-2.5625
 20
54
 11
-2.0625
 21
54
  0
LINE
  8
0
 10
-2.0625
 20
54
 11
-2.0625
 21
49.975
  0
LINE
  8
0
 10
-2.0625
 20
49.975
 11
-0.25
 21
49.7333
  0
LINE
  8
0
 10
-0.25
 20
49.7333
 11
-0.25
 21
56
  0
LINE
  8
0
 10
-0.25
 20
56
 11
0.25
 21
56
  0
LINE
  8
0
 10
0.25
 20
56
 11
0.25
 21
49.7333
  0
LINE
  8
0
 10
0.25
 20
30
 11
-0.25
 21
30
  0
LINE
  8
0
 10
-0.25
 20
30
 11
-0.25
 21
42
  0
LINE
  8
0
 10
-0.25
 20
42
 11
0.25
 21
42
  0
LINE
  8
0
 10
0.25
 20
42
 11
0.25
 21
30
  0
LINE
  8
0
 10
8.75
 20
30
 11
8.75
 21
42
  0
LINE
  8
0
 10
8.75
 20
42
 11
9.25
 21
42
  0
LINE
  8
0
 10
9.25
 20
42
 11
9.25
 21
30
  0
LINE
  8
0
 10
9.25
 20
30
 11
8.75
 21
30
  0
LINE
  8
0
 10
-9.25
 20
30
 11
-9.25
 21
42
  0
LINE
  8
0
 10
-9.25
 20
42
 11
-8.75
 21
42
  0
LINE
  8
0
 10
-8.75
 20
42
 11
-8.75
 21
30
  0
LINE
  8
0
 10
-8.75
 20
30
 11
-9.25
 21
30
  0
LINE
  8
0
 10
-4.75
 20
30
 11
-4.75
 21
42
  0
LINE
  8
0
 10
-4.75
 20
42
 11
-4.25
 21
42
  0
LINE
  8
0
 10
-4.25
 20
42
 11
-4.25
 21
30
  0
LINE
  8
0
 10
-4.25
 20
30
 11
-4.75
 21
30
  0
LINE
  8
0
 10
4.25
 20
30
 11
4.25
 21
42
  0
LINE
  8
0
 10
4.25
 20
42
 11
4.75
 21
42
  0
LINE
  8
0
 10
4.75
 20
42
 11
4.75
 21
30
  0
LINE
  8
0
 10
4.75
 20
30
 11
4.25
 21
30
  0
LINE
  8
0
 10
6.5625
 20
28
 11
6.5625
 21
40
  0
LINE
  8
0
 10
6.5625
 20
40
 11
7.0625
 21
40
  0
LINE
  8
0
 10
7.0625
 20
40
 11
7.0625
 21
28
  0
LINE
  8
0
 10
7.0625
 20
28
 11
6.5625
 21
28
  0
LINE
  8
0
 10
11.0625
 20
28
 11
11.0625
 21
40
  0
LINE
  8
0
 10
11.0625
 20
40
 11
11.5625
 21
40
  0
LINE
  8
0
 10
11.5625
 20
40
 11
11.5625
 21
28
  0
LINE
  8
0
 10
11.5625
 20
28
 11
11.0625
 21
28
  0
LINE
  8
0
 10
2.0625
 20
28
 11
2.0625
 21
40
  0
LINE
  8
0
 10
2.0625
 20
40
 11
2.5625
 21
40
  0
LINE
  8
0
 10
2.5625
 20
40
 11
2.5625
 21
28
  0
LINE
  8
0
 10
2.5625
 20
28
 11
2.0625
 21
28
  0
LINE
  8
0
 10
-11.5625
 20
28
 11
-11.5625
 21
40
  0
LINE
  8
0
 10
-11.5625
 20
40
 11
-11.0625
 21
40
  0
LINE
  8
0
 10
-11.0625
 20
40
 11
-11.0625
 21
28
  0
LINE
  8
0
 10
-11.0625
 20
28
 11
-11.5625
 21
28
  0
LINE
  8
0
 10
-2.5625
 20
28
 11
-2.5625
 21
40
  0
LINE
  8
0
 10
-2.5625
 20
40
 11
-2.0625
 21
40
  0
LINE
  8
0
 10
-2.0625
 20
40
 11
-2.0625
 21
28
  0
LINE
  8
0
 10
-2.0625
 20
28
 11
-2.5625
 21
28
  0
LINE
  8
0
 10
-7.0625
 20
28
 11
-7.0625
 21
40
  0
LINE
  8
0
 10
-7.0625
 20
40
 11
-6.5625
 21
40
  0
LINE
  8
0
 10
-6.5625
 20
40
 11
-6.5625
 21
28
  0
LINE
  8
0
 10
-6.5625
 20
28
 11
-7.0625
 21
28
  0
LINE
  8
0
 10
0.25
 20
16
 11
-0.25
 21
16
  0
LINE
  8
0
 10
-0.25
 20
16
 11
-0.25
 21
28
  0
LINE
  8
0
 10
-0.25
 20
28
 11
0.25
 21
28
  0
LINE
  8
0
 10
0.25
 20
28
 11
0.25
 21
16
  0
LINE
  8
0
 10
4.25
 20
16
 11
4.25
 21
28
  0
LINE
  8
0
 10
4.25
 20
28
 11
4.75
 21
28
  0
LINE
  8
0
 10
4.75
 20
28
 11
4.75
 21
16
  0
LINE
  8
0
 10
4.75
 20
16
 11
4.25
 21
16
  0
LINE
  8
0
 10
-4.75
 20
16
 11
-4.75
 21
28
  0
LINE
  8
0
 10
-4.75
 20
28
 11
-4.25
 21
28
  0
LINE
  8
0
 10
-4.25
 20
28
 11
-4.25
 21
16
  0
LINE
  8
0
 10
-4.25
 20
16
 11
-4.75
 21
16
  0
LINE
  8
0
 10
-9.25
 20
16
 11
-9.25
 21
28
  0
LINE
  8
0
 10
-9.25
 20
28
 11
-8.75
 21
28
  0
LINE
  8
0
 10
-8.75
 20
28
 11
-8.75
 21
16
  0
LINE
  8
0
 10
-8.75
 20
16
 11
-9.25
 21
16
  0
LINE
  8
0
 10
8.75
 20
16
 11
8.75
 21
28
  0
LINE
  8
0
 10
8.75
 20
28
 11
9.25
 21
28
  0
LINE
  8
0
 10
9.25
 20
28
 11
9.25
 21
16
  0
LINE
  8
0
 10
9.25
 20
16
 11
8.75
 21
16
  0
LINE
  8
0
 10
2.0625
 20
14
 11
2.0625
 21
26
  0
LINE
  8
0
 10
2.0625
 20
26
 11
2.5625
 21
26
  0
LINE
  8
0
 10
2.5625
 20
26
 11
2.5625
 21
14
  0
LINE
  8
0
 10
2.5625
 20
14
 11
2.0625
 21
14
  0
LINE
  8
0
 10
-11.5625
 20
14
 11
-11.5625
 21
26
  0
LINE
  8
0
 10
-11.5625
 20
26
 11
-11.0625
 21
26
  0
LINE
  8
0
 10
-11.0625
 20
26
 11
-11.0625
 21
14
  0
LINE
  8
0
 10
-11.0625
 20
14
 11
-11.5625
 21
14
  0
LINE
  8
0
 10
-2.5625
 20
14
 11
-2.5625
 21
26
  0
LINE
  8
0
 10
-2.5625
 20
26
 11
-2.0625
 21
26
  0
LINE
  8
0
 10
-2.0625
 20
26
 11
-2.0625
 21
14
  0
LINE
  8
0
 10
-2.0625
 20
14
 11
-2.5625
 21
14
  0
LINE
  8
0
 10
-7.0625
 20
14
 11
-7.0625
 21
26
  0
LINE
  8
0
 10
-7.0625
 20
26
 11
-6.5625
 21
26
  0
LINE
  8
0
 10
-6.5625
 20
26
 11
-6.5625
 21
14
  0
LINE
  8
0
 10
-6.5625
 20
14
 11
-7.0625
 21
14
  0
LINE
  8
0
 10
11.0625
 20
14
 11
11.0625
 21
26
  0
LINE
  8
0
 10
11.0625
 20
26
 11
11.5625
 21
26
  0
LINE
  8
0
 10
11.5625
 20
26
 11
11.5625
 21
14
  0
LINE
  8
0
 10
11.5625
 20
14
 11
11.0625
 21
14
  0
LINE
  8
0
 10
6.5625
 20
14
 11
6.5625
 21
26
  0
LINE
  8
0
 10
6.5625
 20
26
 11
7.0625
 21
26
  0
LINE
  8
0
 10
7.0625
 20
26
 11
7.0625
 21
14
  0
LINE
  8
0
 10
7.0625
 20
14
 11
6.5625
 21
14
  0
LINE
  8
0
 10
0.25
 20
2
 11
-0.25
 21
2
  0
LINE
  8
0
 10
-0.25
 20
2
 11
-0.25
 21
14
  0
LINE
  8
0
 10
-0.25
 20
14
 11
0.25
 21
14
  0
LINE
  8
0
 10
0.25
 20
14
 11
0.25
 21
2
  0
ENDSEC
  0
SECTION
  2
OBJECTS
  0
DICTIONARY
  0
ENDSEC
  0
EOF
