  0
SECTION
  2
HEADER
  9
$ACADVER
  1
AC1014
  9
$HANDSEED
  5
FFFF
  9
$MEASUREMENT
 70
     1
  0
ENDSEC
  0
SECTION
  2
TABLES
  0
TABLE
  2
VPORT
  5
8
330
0
100
AcDbSymbolTable
 70
     4
  0
VPORT
  5
2E
330
8
100
AcDbSymbolTableRecord
100
AcDbViewportTableRecord
  2
*ACTIVE
 70
     0
 10
0.0
 20
0.0
 11
1.0
 21
1.0
 12
210.0
 22
148.5
 13
0.0
 23
0.0
 14
10.0
 24
10.0
 15
10.0
 25
10.0
 16
0.0
 26
0.0
 36
1.0
 17
0.0
 27
0.0
 37
0.0
 40
341.0
 41
1.24
 42
50.0
 43
0.0
 44
0.0
 50
0.0
 51
0.0
 71
     0
 72
   100
 73
     1
 74
     3
 75
     0
 76
     0
 77
     0
 78
     0
  0
ENDTAB
  0
TABLE
  2
LTYPE
  5
5
330
0
100
AcDbSymbolTable
 70
     1
  0
LTYPE
  5
14
330
5
100
AcDbSymbolTableRecord
100
AcDbLinetypeTableRecord
  2
BYBLOCK
 70
     0
  3

 72
    65
 73
     0
 40
0.0
  0
LTYPE
  5
15
330
5
100
AcDbSymbolTableRecord
100
AcDbLinetypeTableRecord
  2
BYLAYER
 70
     0
  3

 72
    65
 73
     0
 40
0.0
  0
LTYPE
  5
16
330
5
100
AcDbSymbolTableRecord
100
AcDbLinetypeTableRecord
  2
CONTINUOUS
 70
     0
  3
Solid line
 72
    65
 73
     0
 40
0.0
  0
ENDTAB
  0
TABLE
  2
LAYER
  5
2
100
AcDbSymbolTable
 70
3
  0
LAYER
  5
50
100
AcDbSymbolTableRecord
100
AcDbLayerTableRecord
  2
0
 70
0
  6
CONTINUOUS
  0
LAYER
  5
51
100
AcDbSymbolTableRecord
100
AcDbLayerTableRecord
  2
Layer_1
 70
0
  6
CONTINUOUS
  0
LAYER
  5
52
100
AcDbSymbolTableRecord
100
AcDbLayerTableRecord
  2
Layer_2
 70
0
  6
CONTINUOUS
  0
ENDTAB
  0
TABLE
  2
STYLE
  5
3
330
0
100
AcDbSymbolTable
 70
     1
  0
STYLE
  5
11
330
3
100
AcDbSymbolTableRecord
100
AcDbTextStyleTableRecord
  2
STANDARD
 70
     0
 40
0.0
 41
1.0
 50
0.0
 71
     0
 42
2.5
  3
txt
  4

  0
ENDTAB
  0
TABLE
  2
VIEW
  5
6
330
0
100
AcDbSymbolTable
 70
     0
  0
ENDTAB
  0
TABLE
  2
UCS
  5
7
330
0
100
AcDbSymbolTable
 70
     0
  0
ENDTAB
  0
TABLE
  2
APPID
  5
9
330
0
100
AcDbSymbolTable
 70
     2
  0
APPID
  5
12
330
9
100
AcDbSymbolTableRecord
100
AcDbRegAppTableRecord
  2
ACAD
 70
     0
  0
ENDTAB
  0
TABLE
  2
DIMSTYLE
  5
A
330
0
100
AcDbSymbolTable
 70
     1
  0
DIMSTYLE
105
27
330
A
100
AcDbSymbolTableRecord
100
AcDbDimStyleTableRecord
  2
ISO-25
 70
     0
  3

  4

  5

  6

  7

 40
1.0
 41
2.5
 42
0.625
 43
3.75
 44
1.25
 45
0.0
 46
0.0
 47
0.0
 48
0.0
140
2.5
141
2.5
142
0.0
143
0.03937007874016
144
1.0
145
0.0
146
1.0
147
0.625
 71
     0
 72
     0
 73
     0
 74
     0
 75
     0
 76
     0
 77
     1
 78
     8
170
     0
171
     3
172
     1
173
     0
174
     0
175
     0
176
     0
177
     0
178
     0
270
     2
271
     2
272
     2
273
     2
274
     3
340
11
275
     0
280
     0
281
     0
282
     0
283
     0
284
     8
285
     0
286
     0
287
     3
288
     0
  0
ENDTAB
  0
TABLE
  2
BLOCK_RECORD
  5
1
330
0
100
AcDbSymbolTable
 70
     1
  0
BLOCK_RECORD
  5
1F
330
1
100
AcDbSymbolTableRecord
100
AcDbBlockTableRecord
  2
*MODEL_SPACE
  0
BLOCK_RECORD
  5
1B
330
1
100
AcDbSymbolTableRecord
100
AcDbBlockTableRecord
  2
*PAPER_SPACE
  0
ENDTAB
  0
ENDSEC
  0
SECTION
  2
BLOCKS
  0
BLOCK
  5
20
330
1F
100
AcDbEntity
  8
0
100
AcDbBlockBegin
  2
*MODEL_SPACE
 70
     0
 10
0.0
 20
0.0
 30
0.0
  3
*MODEL_SPACE
  1

  0
ENDBLK
  5
21
330
1F
100
AcDbEntity
  8
0
100
AcDbBlockEnd
  0
BLOCK
  5
1C
330
1B
100
AcDbEntity
 67
     1
  8
0
100
AcDbBlockBegin
  2
*PAPER_SPACE
  1

  0
ENDBLK
  5
1D
330
1B
100
AcDbEntity
 67
     1
  8
0
100
AcDbBlockEnd
  0
ENDSEC
  0
SECTION
  2
ENTITIES
  0
SPLINE
  5
100
100
AcDbEntity
  8
Layer_1
 62
1
100
AcDbSpline
 70
8
 71
3
 72
8
 73
4
 74
0
 40
0
 40
0
 40
0
 40
0
 40
1
 40
1
 40
1
 40
1
 10
576.681424
 20
565.765055
 30
0.0
 10
540.359891
 20
589.876262
 30
0.0
 10
482.313963
 20
552.761692
 30
0.0
 10
473.750538
 20
506.755177
 30
0.0
  0
SPLINE
  5
101
100
AcDbEntity
  8
Layer_1
 62
1
100
AcDbSpline
 70
8
 71
3
 72
8
 73
4
 74
0
 40
0
 40
0
 40
0
 40
0
 40
1
 40
1
 40
1
 40
1
 10
473.750538
 20
506.755177
 30
0.0
 10
473.491963
 20
482.342293
 30
0.0
 10
445.293695
 20
471.757492
 30
0.0
 10
444.058751
 20
447.259696
 30
0.0
  0
SPLINE
  5
102
100
AcDbEntity
  8
Layer_1
 62
1
100
AcDbSpline
 70
8
 71
3
 72
8
 73
4
 74
0
 40
0
 40
0
 40
0
 40
0
 40
1
 40
1
 40
1
 40
1
 10
444.058751
 20
447.259696
 30
0.0
 10
442.021002
 20
432.416294
 30
0.0
 10
446.922944
 20
420.289713
 30
0.0
 10
429.754595
 20
413.910599
 30
0.0
  0
SPLINE
  5
103
100
AcDbEntity
  8
Layer_1
 62
1
100
AcDbSpline
 70
8
 71
3
 72
8
 73
4
 74
0
 40
0
 40
0
 40
0
 40
0
 40
1
 40
1
 40
1
 40
1
 10
429.754595
 20
413.910599
 30
0.0
 10
426.416558
 20
399.950389
 30
0.0
 10
433.651596
 20
387.490356
 30
0.0
 10
444.734378
 20
379.455648
 30
0.0
  0
SPLINE
  5
104
100
AcDbEntity
  8
Layer_1
 62
1
100
AcDbSpline
 70
8
 71
3
 72
8
 73
4
 74
0
 40
0
 40
0
 40
0
 40
0
 40
1
 40
1
 40
1
 40
1
 10
444.734378
 20
379.455648
 30
0.0
 10
455.992335
 20
371.668305
 30
0.0
 10
470.147498
 20
368.979497
 30
0.0
 10
482.208126
 20
376.762242
 30
0.0
  0
SPLINE
  5
105
100
AcDbEntity
  8
Layer_1
 62
1
100
AcDbSpline
 70
8
 71
3
 72
8
 73
4
 74
0
 40
0
 40
0
 40
0
 40
0
 40
1
 40
1
 40
1
 40
1
 10
482.208126
 20
376.762242
 30
0.0
 10
482.526682
 20
395.074625
 30
0.0
 10
495.592843
 20
394.475933
 30
0.0
 10
508.918205
 20
401.325282
 30
0.0
  0
SPLINE
  5
106
100
AcDbEntity
  8
Layer_1
 62
1
100
AcDbSpline
 70
8
 71
3
 72
8
 73
4
 74
0
 40
0
 40
0
 40
0
 40
0
 40
1
 40
1
 40
1
 40
1
 10
508.918205
 20
401.325282
 30
0.0
 10
531.617051
 20
410.622029
 30
0.0
 10
532.241532
 20
440.734989
 30
0.0
 10
555.184369
 20
449.082547
 30
0.0
  0
SPLINE
  5
107
100
AcDbEntity
  8
Layer_1
 62
1
100
AcDbSpline
 70
8
 71
3
 72
8
 73
4
 74
0
 40
0
 40
0
 40
0
 40
0
 40
1
 40
1
 40
1
 40
1
 10
555.184369
 20
449.082547
 30
0.0
 10
595.739776
 20
472.431872
 30
0.0
 10
611.482137
 20
539.506448
 30
0.0
 10
576.681424
 20
565.765055
 30
0.0
  0
LWPOLYLINE
  5
108
100
AcDbEntity
  8
Layer_1
 62
1
100
AcDbPolyline
 90
1
 70
1
 10
576.681424
 20
565.765055
 30
0.0
  0
SPLINE
  5
109
100
AcDbEntity
  8
Layer_1
 62
5
100
AcDbSpline
 70
8
 71
3
 72
8
 73
4
 74
0
 40
0
 40
0
 40
0
 40
0
 40
1
 40
1
 40
1
 40
1
 10
587.987127
 20
589.314533
 30
0.0
 10
570.172331
 20
599.629191
 30
0.0
 10
548.915951
 20
601.351826
 30
0.0
 10
529.061121
 20
596.625396
 30
0.0
  0
LWPOLYLINE
  5
10a
100
AcDbEntity
  8
Layer_1
 62
5
100
AcDbPolyline
 90
3
 70
0
 10
594.906895
 20
584.544933
 30
0.0
 10
576.681275
 20
565.764862
 30
0.0
 10
587.987127
 20
589.314533
 30
0.0
  0
SPLINE
  5
10b
100
AcDbEntity
  8
Layer_1
 62
5
100
AcDbSpline
 70
8
 71
3
 72
8
 73
4
 74
0
 40
0
 40
0
 40
0
 40
0
 40
1
 40
1
 40
1
 40
1
 10
519.857637
 20
593.939365
 30
0.0
 10
509.961643
 20
590.506324
 30
0.0
 10
500.632777
 20
585.467246
 30
0.0
 10
492.526512
 20
579.104770
 30
0.0
  0
SPLINE
  5
10c
100
AcDbEntity
  8
Layer_1
 62
5
100
AcDbSpline
 70
8
 71
3
 72
8
 73
4
 74
0
 40
0
 40
0
 40
0
 40
0
 40
1
 40
1
 40
1
 40
1
 10
492.526512
 20
579.104770
 30
0.0
 10
485.881542
 20
574.325676
 30
0.0
 10
479.791853
 20
568.804786
 30
0.0
 10
474.351504
 20
562.702114
 30
0.0
  0
LWPOLYLINE
  5
10d
100
AcDbEntity
  8
Layer_1
 62
5
100
AcDbPolyline
 90
3
 70
0
 10
529.061121
 20
596.625396
 30
0.0
 10
524.522134
 20
566.942140
 30
0.0
 10
519.857637
 20
593.939365
 30
0.0
  0
SPLINE
  5
10e
100
AcDbEntity
  8
Layer_1
 62
5
100
AcDbSpline
 70
8
 71
3
 72
8
 73
4
 74
0
 40
0
 40
0
 40
0
 40
0
 40
1
 40
1
 40
1
 40
1
 10
468.626252
 20
555.751828
 30
0.0
 10
458.619795
 20
542.594957
 30
0.0
 10
451.410070
 20
527.297598
 30
0.0
 10
447.783262
 20
511.171403
 30
0.0
  0
LWPOLYLINE
  5
10f
100
AcDbEntity
  8
Layer_1
 62
5
100
AcDbPolyline
 90
3
 70
0
 10
474.351504
 20
562.702114
 30
0.0
 10
488.760901
 20
538.259512
 30
0.0
 10
468.626252
 20
555.751828
 30
0.0
  0
SPLINE
  5
110
100
AcDbEntity
  8
Layer_1
 62
5
100
AcDbSpline
 70
8
 71
3
 72
8
 73
4
 74
0
 40
0
 40
0
 40
0
 40
0
 40
1
 40
1
 40
1
 40
1
 10
444.650467
 20
501.440314
 30
0.0
 10
436.465338
 20
489.558601
 30
0.0
 10
426.252510
 20
477.831132
 30
0.0
 10
420.981435
 20
464.348324
 30
0.0
  0
LWPOLYLINE
  5
111
100
AcDbEntity
  8
Layer_1
 62
5
100
AcDbPolyline
 90
3
 70
0
 10
447.783262
 20
511.171403
 30
0.0
 10
471.274274
 20
489.414393
 30
0.0
 10
444.650467
 20
501.440314
 30
0.0
  0
SPLINE
  5
112
100
AcDbEntity
  8
Layer_1
 62
5
100
AcDbSpline
 70
8
 71
3
 72
8
 73
4
 74
0
 40
0
 40
0
 40
0
 40
0
 40
1
 40
1
 40
1
 40
1
 10
418.382617
 20
455.614448
 30
0.0
 10
417.807050
 20
452.765110
 30
0.0
 10
417.483068
 20
449.831130
 30
0.0
 10
417.471313
 20
446.795514
 30
0.0
  0
SPLINE
  5
113
100
AcDbEntity
  8
Layer_1
 62
5
100
AcDbSpline
 70
8
 71
3
 72
8
 73
4
 74
0
 40
0
 40
0
 40
0
 40
0
 40
1
 40
1
 40
1
 40
1
 10
417.471313
 20
446.795514
 30
0.0
 10
417.641367
 20
442.433888
 30
0.0
 10
419.281473
 20
435.673495
 30
0.0
 10
413.667744
 20
433.990197
 30
0.0
  0
SPLINE
  5
114
100
AcDbEntity
  8
Layer_1
 62
5
100
AcDbSpline
 70
8
 71
3
 72
8
 73
4
 74
0
 40
0
 40
0
 40
0
 40
0
 40
1
 40
1
 40
1
 40
1
 10
413.667744
 20
433.990197
 30
0.0
 10
409.994371
 20
430.562461
 30
0.0
 10
407.319423
 20
426.512777
 30
0.0
 10
405.517935
 20
422.112487
 30
0.0
  0
LWPOLYLINE
  5
115
100
AcDbEntity
  8
Layer_1
 62
5
100
AcDbPolyline
 90
3
 70
0
 10
420.981435
 20
464.348324
 30
0.0
 10
444.059046
 20
447.259732
 30
0.0
 10
418.382617
 20
455.614448
 30
0.0
  0
SPLINE
  5
116
100
AcDbEntity
  8
Layer_1
 62
5
100
AcDbSpline
 70
8
 71
3
 72
8
 73
4
 74
0
 40
0
 40
0
 40
0
 40
0
 40
1
 40
1
 40
1
 40
1
 10
403.215326
 20
414.003417
 30
0.0
 10
401.208719
 20
402.293633
 30
0.0
 10
404.149558
 20
389.399918
 30
0.0
 10
410.197998
 20
379.431028
 30
0.0
  0
SPLINE
  5
117
100
AcDbEntity
  8
Layer_1
 62
5
100
AcDbSpline
 70
8
 71
3
 72
8
 73
4
 74
0
 40
0
 40
0
 40
0
 40
0
 40
1
 40
1
 40
1
 40
1
 10
410.197998
 20
379.431028
 30
0.0
 10
414.016663
 20
372.395520
 30
0.0
 10
419.320522
 20
366.251110
 30
0.0
 10
425.572051
 20
361.225244
 30
0.0
  0
LWPOLYLINE
  5
118
100
AcDbEntity
  8
Layer_1
 62
5
100
AcDbPolyline
 90
3
 70
0
 10
405.517935
 20
422.112487
 30
0.0
 10
429.754395
 20
413.910680
 30
0.0
 10
403.215326
 20
414.003417
 30
0.0
  0
SPLINE
  5
119
100
AcDbEntity
  8
Layer_1
 62
5
100
AcDbSpline
 70
8
 71
3
 72
8
 73
4
 74
0
 40
0
 40
0
 40
0
 40
0
 40
1
 40
1
 40
1
 40
1
 10
432.308970
 20
356.464819
 30
0.0
 10
449.860063
 20
345.612451
 30
0.0
 10
472.467978
 20
342.675352
 30
0.0
 10
491.155894
 20
351.615633
 30
0.0
  0
LWPOLYLINE
  5
11a
100
AcDbEntity
  8
Layer_1
 62
5
100
AcDbPolyline
 90
3
 70
0
 10
425.572051
 20
361.225244
 30
0.0
 10
443.559141
 20
379.530852
 30
0.0
 10
432.308970
 20
356.464819
 30
0.0
  0
SPLINE
  5
11b
100
AcDbEntity
  8
Layer_1
 62
5
100
AcDbSpline
 70
8
 71
3
 72
8
 73
4
 74
0
 40
0
 40
0
 40
0
 40
0
 40
1
 40
1
 40
1
 40
1
 10
498.448477
 20
356.037447
 30
0.0
 10
503.342174
 20
360.193945
 30
0.0
 10
506.103582
 20
366.401948
 30
0.0
 10
508.033774
 20
372.424139
 30
0.0
  0
SPLINE
  5
11c
100
AcDbEntity
  8
Layer_1
 62
5
100
AcDbSpline
 70
8
 71
3
 72
8
 73
4
 74
0
 40
0
 40
0
 40
0
 40
0
 40
1
 40
1
 40
1
 40
1
 10
508.033774
 20
372.424139
 30
0.0
 10
513.791180
 20
374.607322
 30
0.0
 10
519.618979
 20
377.115853
 30
0.0
 10
525.080210
 20
380.194665
 30
0.0
  0
LWPOLYLINE
  5
11d
100
AcDbEntity
  8
Layer_1
 62
5
100
AcDbPolyline
 90
3
 70
0
 10
491.155894
 20
351.615633
 30
0.0
 10
482.208269
 20
376.762080
 30
0.0
 10
498.448477
 20
356.037447
 30
0.0
  0
SPLINE
  5
11e
100
AcDbEntity
  8
Layer_1
 62
5
100
AcDbSpline
 70
8
 71
3
 72
8
 73
4
 74
0
 40
0
 40
0
 40
0
 40
0
 40
1
 40
1
 40
1
 40
1
 10
532.795010
 20
385.163477
 30
0.0
 10
538.518691
 20
389.401081
 30
0.0
 10
543.479509
 20
394.547306
 30
0.0
 10
547.016691
 20
400.976859
 30
0.0
  0
SPLINE
  5
11f
100
AcDbEntity
  8
Layer_1
 62
5
100
AcDbSpline
 70
8
 71
3
 72
8
 73
4
 74
0
 40
0
 40
0
 40
0
 40
0
 40
1
 40
1
 40
1
 40
1
 10
547.016691
 20
400.976859
 30
0.0
 10
551.195001
 20
407.495028
 30
0.0
 10
555.309273
 20
414.558692
 30
0.0
 10
560.528606
 20
420.435664
 30
0.0
  0
LWPOLYLINE
  5
120
100
AcDbEntity
  8
Layer_1
 62
5
100
AcDbPolyline
 90
3
 70
0
 10
525.080210
 20
380.194665
 30
0.0
 10
508.918133
 20
401.325578
 30
0.0
 10
532.795010
 20
385.163477
 30
0.0
  0
SPLINE
  5
121
100
AcDbEntity
  8
Layer_1
 62
5
100
AcDbSpline
 70
8
 71
3
 72
8
 73
4
 74
0
 40
0
 40
0
 40
0
 40
0
 40
1
 40
1
 40
1
 40
1
 10
566.937843
 20
426.458900
 30
0.0
 10
569.175504
 20
428.164816
 30
0.0
 10
571.610892
 20
429.635745
 30
0.0
 10
574.304541
 20
430.783290
 30
0.0
  0
SPLINE
  5
122
100
AcDbEntity
  8
Layer_1
 62
5
100
AcDbSpline
 70
8
 71
3
 72
8
 73
4
 74
0
 40
0
 40
0
 40
0
 40
0
 40
1
 40
1
 40
1
 40
1
 10
574.304541
 20
430.783290
 30
0.0
 10
585.887203
 20
438.488789
 30
0.0
 10
595.682342
 20
448.668945
 30
0.0
 10
603.303716
 20
460.323783
 30
0.0
  0
LWPOLYLINE
  5
123
100
AcDbEntity
  8
Layer_1
 62
5
100
AcDbPolyline
 90
3
 70
0
 10
560.528606
 20
420.435664
 30
0.0
 10
542.416663
 20
439.391888
 30
0.0
 10
566.937843
 20
426.458900
 30
0.0
  0
SPLINE
  5
124
100
AcDbEntity
  8
Layer_1
 62
5
100
AcDbSpline
 70
8
 71
3
 72
8
 73
4
 74
0
 40
0
 40
0
 40
0
 40
0
 40
1
 40
1
 40
1
 40
1
 10
607.851417
 20
467.926294
 30
0.0
 10
616.968524
 20
484.625112
 30
0.0
 10
621.875018
 20
503.680704
 30
0.0
 10
621.576747
 20
522.564668
 30
0.0
  0
LWPOLYLINE
  5
125
100
AcDbEntity
  8
Layer_1
 62
5
100
AcDbPolyline
 90
3
 70
0
 10
603.303716
 20
460.323783
 30
0.0
 10
580.459246
 20
473.317403
 30
0.0
 10
607.851417
 20
467.926294
 30
0.0
  0
SPLINE
  5
126
100
AcDbEntity
  8
Layer_1
 62
5
100
AcDbSpline
 70
8
 71
3
 72
8
 73
4
 74
0
 40
0
 40
0
 40
0
 40
0
 40
1
 40
1
 40
1
 40
1
 10
621.000353
 20
531.876798
 30
0.0
 10
619.810184
 20
542.809418
 30
0.0
 10
616.798101
 20
553.542420
 30
0.0
 10
611.760321
 20
563.574723
 30
0.0
  0
SPLINE
  5
127
100
AcDbEntity
  8
Layer_1
 62
5
100
AcDbSpline
 70
8
 71
3
 72
8
 73
4
 74
0
 40
0
 40
0
 40
0
 40
0
 40
1
 40
1
 40
1
 40
1
 10
611.760321
 20
563.574723
 30
0.0
 10
607.579179
 20
571.563670
 30
0.0
 10
601.909197
 20
578.846509
 30
0.0
 10
594.906895
 20
584.544933
 30
0.0
  0
LWPOLYLINE
  5
128
100
AcDbEntity
  8
Layer_1
 62
5
100
AcDbPolyline
 90
3
 70
0
 10
621.576747
 20
522.564668
 30
0.0
 10
595.417087
 20
517.795233
 30
0.0
 10
621.000353
 20
531.876798
 30
0.0
  0
LWPOLYLINE
  5
129
100
AcDbEntity
  8
Layer_1
 62
5
100
AcDbPolyline
 90
1
 70
1
 10
594.906895
 20
584.544933
 30
0.0
  0
SPLINE
  5
12a
100
AcDbEntity
  8
Layer_1
 62
5
100
AcDbSpline
 70
8
 71
3
 72
8
 73
4
 74
0
 40
0
 40
0
 40
0
 40
0
 40
1
 40
1
 40
1
 40
1
 10
224.025081
 20
110.439778
 30
0.0
 10
223.842862
 20
110.379273
 30
0.0
 10
223.660271
 20
110.319845
 30
0.0
 10
223.477311
 20
110.261494
 30
0.0
  0
LWPOLYLINE
  5
12b
100
AcDbEntity
  8
Layer_1
 62
5
100
AcDbPolyline
 90
29
 70
0
 10
48.845080
 20
221.759079
 30
0.0
 10
31.520039
 20
185.734920
 30
0.0
 10
33.014522
 20
185.016103
 30
0.0
 10
31.701940
 20
185.016103
 30
0.0
 10
31.701940
 20
185.580409
 30
0.0
 10
6.471956
 20
185.580409
 30
0.0
 10
6.471956
 20
35.015958
 30
0.0
 10
31.701940
 20
35.015958
 30
0.0
 10
31.928799
 20
35.015958
 30
0.0
 10
32.857426
 20
14.535554
 30
0.0
 10
182.903045
 20
21.338756
 30
0.0
 10
181.963052
 20
42.061005
 30
0.0
 10
194.303382
 20
0.165372
 30
0.0
 10
204.620066
 20
42.157641
 30
0.0
 10
206.787374
 20
42.160737
 30
0.0
 10
207.733053
 20
42.157641
 30
0.0
 10
216.627601
 20
0.992195
 30
0.0
 10
231.885153
 20
41.079496
 30
0.0
 10
231.113022
 20
20.774450
 30
0.0
 10
381.158639
 20
13.971248
 30
0.0
 10
382.086744
 20
34.451652
 30
0.0
 10
406.931754
 20
34.451652
 30
0.0
 10
406.931754
 20
185.016103
 30
0.0
 10
381.701749
 20
185.016103
 30
0.0
 10
381.130725
 20
185.016103
 30
0.0
 10
382.230916
 20
185.545270
 30
0.0
 10
364.905893
 20
221.569426
 30
0.0
 10
207.082964
 20
145.668117
 30
0.0
 10
224.025081
 20
110.439778
 30
0.0
  0
SPLINE
  5
12c
100
AcDbEntity
  8
Layer_1
 62
5
100
AcDbSpline
 70
8
 71
3
 72
8
 73
4
 74
0
 40
0
 40
0
 40
0
 40
0
 40
1
 40
1
 40
1
 40
1
 10
190.133610
 20
110.241340
 30
0.0
 10
189.963083
 20
110.298620
 30
0.0
 10
189.792896
 20
110.356844
 30
0.0
 10
189.623049
 20
110.416005
 30
0.0
  0
LWPOLYLINE
  5
12d
100
AcDbEntity
  8
Layer_1
 62
5
100
AcDbPolyline
 90
5
 70
0
 10
223.477311
 20
110.261494
 30
0.0
 10
214.765699
 20
79.198789
 30
0.0
 10
206.276294
 20
48.899349
 30
0.0
 10
197.924867
 20
80.649348
 30
0.0
 10
190.133610
 20
110.241340
 30
0.0
  0
LWPOLYLINE
  5
12e
100
AcDbEntity
  8
Layer_1
 62
5
100
AcDbPolyline
 90
6
 70
0
 10
189.623049
 20
110.416005
 30
0.0
 10
189.923287
 20
111.040257
 30
0.0
 10
189.823037
 20
111.421112
 30
0.0
 10
190.102606
 20
111.412857
 30
0.0
 10
206.668002
 20
145.857783
 30
0.0
 10
48.845080
 20
221.759079
 30
0.0
  0
LWPOLYLINE
  5
12f
100
AcDbEntity
  8
Layer_1
 62
1
100
AcDbPolyline
 90
5
 70
0
 10
31.520126
 20
185.734756
 30
0.0
 10
189.823123
 20
111.420947
 30
0.0
 10
206.276293
 20
48.899347
 30
0.0
 10
224.025173
 20
110.439607
 30
0.0
 10
382.328173
 20
184.753416
 30
0.0
  0
SPLINE
  5
130
100
AcDbEntity
  8
Layer_1
 62
1
100
AcDbSpline
 70
8
 71
3
 72
8
 73
4
 74
0
 40
0
 40
0
 40
0
 40
0
 40
1
 40
1
 40
1
 40
1
 10
371.788251
 20
411.886579
 30
0.0
 10
371.788251
 20
411.886579
 30
0.0
 10
371.788251
 20
569.535355
 30
0.0
 10
371.788251
 20
569.535355
 30
0.0
  0
SPLINE
  5
131
100
AcDbEntity
  8
Layer_1
 62
1
100
AcDbSpline
 70
8
 71
3
 72
8
 73
4
 74
0
 40
0
 40
0
 40
0
 40
0
 40
1
 40
1
 40
1
 40
1
 10
371.788251
 20
569.535355
 30
0.0
 10
320.576796
 20
566.693228
 30
0.0
 10
261.759369
 20
565.185011
 30
0.0
 10
201.759354
 20
565.175413
 30
0.0
  0
SPLINE
  5
132
100
AcDbEntity
  8
Layer_1
 62
1
100
AcDbSpline
 70
8
 71
3
 72
8
 73
4
 74
0
 40
0
 40
0
 40
0
 40
0
 40
1
 40
1
 40
1
 40
1
 10
201.759354
 20
565.175413
 30
0.0
 10
141.747432
 20
565.188434
 30
0.0
 10
82.929150
 20
566.700605
 30
0.0
 10
31.730460
 20
569.546721
 30
0.0
  0
SPLINE
  5
133
100
AcDbEntity
  8
Layer_1
 62
1
100
AcDbSpline
 70
8
 71
3
 72
8
 73
4
 74
0
 40
0
 40
0
 40
0
 40
0
 40
1
 40
1
 40
1
 40
1
 10
31.730460
 20
569.546721
 30
0.0
 10
31.730460
 20
569.546721
 30
0.0
 10
31.730460
 20
411.920686
 30
0.0
 10
31.730460
 20
411.920686
 30
0.0
  0
SPLINE
  5
134
100
AcDbEntity
  8
Layer_1
 62
1
100
AcDbSpline
 70
8
 71
3
 72
8
 73
4
 74
0
 40
0
 40
0
 40
0
 40
0
 40
1
 40
1
 40
1
 40
1
 10
31.730460
 20
411.920686
 30
0.0
 10
74.301093
 20
418.504821
 30
0.0
 10
136.395258
 20
422.295474
 30
0.0
 10
201.759354
 20
422.300415
 30
0.0
  0
SPLINE
  5
135
100
AcDbEntity
  8
Layer_1
 62
1
100
AcDbSpline
 70
8
 71
3
 72
8
 73
4
 74
0
 40
0
 40
0
 40
0
 40
0
 40
1
 40
1
 40
1
 40
1
 10
201.759354
 20
422.300415
 30
0.0
 10
267.164703
 20
422.286938
 30
0.0
 10
329.265721
 20
418.483409
 30
0.0
 10
371.788251
 20
411.886579
 30
0.0
  0
LWPOLYLINE
  5
136
100
AcDbEntity
  8
Layer_1
 62
1
100
AcDbPolyline
 90
8
 70
0
 10
31.702027
 20
185.015936
 30
0.0
 10
31.928887
 20
35.015787
 30
0.0
 10
181.963143
 20
42.060837
 30
0.0
 10
204.620063
 20
42.157637
 30
0.0
 10
207.733053
 20
42.157637
 30
0.0
 10
231.885153
 20
41.079497
 30
0.0
 10
381.919413
 20
34.034447
 30
0.0
 10
382.146273
 20
184.034596
 30
0.0
  0
LWPOLYLINE
  5
137
100
AcDbEntity
  8
Layer_1
 62
1
100
AcDbPolyline
 90
1
 70
1
 10
371.788251
 20
411.886579
 30
0.0
  0
SPLINE
  5
138
100
AcDbEntity
  8
Layer_1
 62
5
100
AcDbSpline
 70
8
 71
3
 72
8
 73
4
 74
0
 40
0
 40
0
 40
0
 40
0
 40
1
 40
1
 40
1
 40
1
 10
396.336105
 20
411.886579
 30
0.0
 10
396.283098
 20
464.430278
 30
0.0
 10
396.325892
 20
516.985721
 30
0.0
 10
396.321632
 20
569.535355
 30
0.0
  0
LWPOLYLINE
  5
139
100
AcDbEntity
  8
Layer_1
 62
5
100
AcDbPolyline
 90
3
 70
0
 10
371.788251
 20
386.831779
 30
0.0
 10
371.788251
 20
411.886579
 30
0.0
 10
396.336105
 20
411.886579
 30
0.0
  0
SPLINE
  5
13a
100
AcDbEntity
  8
Layer_1
 62
5
100
AcDbSpline
 70
8
 71
3
 72
8
 73
4
 74
0
 40
0
 40
0
 40
0
 40
0
 40
1
 40
1
 40
1
 40
1
 10
371.788246
 20
594.063055
 30
0.0
 10
316.501943
 20
591.259996
 30
0.0
 10
261.128605
 20
589.824091
 30
0.0
 10
205.752904
 20
589.756858
 30
0.0
  0
LWPOLYLINE
  5
13b
100
AcDbEntity
  8
Layer_1
 62
5
100
AcDbPolyline
 90
3
 70
0
 10
396.321632
 20
569.535355
 30
0.0
 10
371.788246
 20
569.535355
 30
0.0
 10
371.788246
 20
594.063055
 30
0.0
  0
SPLINE
  5
13c
100
AcDbEntity
  8
Layer_1
 62
5
100
AcDbSpline
 70
8
 71
3
 72
8
 73
4
 74
0
 40
0
 40
0
 40
0
 40
0
 40
1
 40
1
 40
1
 40
1
 10
197.119838
 20
589.756858
 30
0.0
 10
141.960135
 20
589.832111
 30
0.0
 10
86.802634
 20
591.268997
 30
0.0
 10
31.730460
 20
594.081142
 30
0.0
  0
LWPOLYLINE
  5
13d
100
AcDbEntity
  8
Layer_1
 62
5
100
AcDbPolyline
 90
3
 70
0
 10
205.752904
 20
589.756858
 30
0.0
 10
201.345938
 20
566.086985
 30
0.0
 10
197.119838
 20
589.756858
 30
0.0
  0
SPLINE
  5
13e
100
AcDbEntity
  8
Layer_1
 62
5
100
AcDbSpline
 70
8
 71
3
 72
8
 73
4
 74
0
 40
0
 40
0
 40
0
 40
0
 40
1
 40
1
 40
1
 40
1
 10
31.730460
 20
387.069491
 30
0.0
 10
86.501591
 20
394.291846
 30
0.0
 10
141.789135
 20
397.885268
 30
0.0
 10
197.080566
 20
397.995438
 30
0.0
  0
LWPOLYLINE
  5
13f
100
AcDbEntity
  8
Layer_1
 62
5
100
AcDbPolyline
 90
6
 70
0
 10
31.730460
 20
594.081142
 30
0.0
 10
31.730460
 20
569.546721
 30
0.0
 10
7.200702
 20
569.546721
 30
0.0
 10
7.200702
 20
411.920686
 30
0.0
 10
31.730460
 20
411.920686
 30
0.0
 10
31.730460
 20
387.069491
 30
0.0
  0
SPLINE
  5
140
100
AcDbEntity
  8
Layer_1
 62
5
100
AcDbSpline
 70
8
 71
3
 72
8
 73
4
 74
0
 40
0
 40
0
 40
0
 40
0
 40
1
 40
1
 40
1
 40
1
 10
205.796311
 20
397.984069
 30
0.0
 10
261.323007
 20
397.727214
 30
0.0
 10
316.826380
 20
393.961992
 30
0.0
 10
371.788246
 20
386.831779
 30
0.0
  0
LWPOLYLINE
  5
141
100
AcDbEntity
  8
Layer_1
 62
5
100
AcDbPolyline
 90
3
 70
0
 10
197.080566
 20
397.995438
 30
0.0
 10
201.345938
 20
421.885969
 30
0.0
 10
205.796311
 20
397.984069
 30
0.0
  0
SPLINE
  5
142
100
AcDbEntity
  8
Layer_1
 62
5
100
AcDbSpline
 70
8
 71
3
 72
8
 73
4
 74
0
 40
0
 40
0
 40
0
 40
0
 40
1
 40
1
 40
1
 40
1
 10
407.580260
 20
343.762577
 30
0.0
 10
407.580260
 20
343.762577
 30
0.0
 10
565.229040
 20
343.762577
 30
0.0
 10
565.229040
 20
343.762577
 30
0.0
  0
SPLINE
  5
143
100
AcDbEntity
  8
Layer_1
 62
5
100
AcDbSpline
 70
8
 71
3
 72
8
 73
4
 74
0
 40
0
 40
0
 40
0
 40
0
 40
1
 40
1
 40
1
 40
1
 10
565.229040
 20
343.762577
 30
0.0
 10
562.386912
 20
292.551088
 30
0.0
 10
560.878695
 20
233.733620
 30
0.0
 10
560.869100
 20
173.733570
 30
0.0
  0
SPLINE
  5
144
100
AcDbEntity
  8
Layer_1
 62
5
100
AcDbSpline
 70
8
 71
3
 72
8
 73
4
 74
0
 40
0
 40
0
 40
0
 40
0
 40
1
 40
1
 40
1
 40
1
 10
560.869100
 20
173.733570
 30
0.0
 10
560.882121
 20
113.721644
 30
0.0
 10
562.394293
 20
54.903360
 30
0.0
 10
565.240410
 20
3.704670
 30
0.0
  0
LWPOLYLINE
  5
145
100
AcDbEntity
  8
Layer_1
 62
5
100
AcDbPolyline
 90
1
 70
1
 10
371.788246
 20
386.831779
 30
0.0
  0
SPLINE
  5
146
100
AcDbEntity
  8
Layer_1
 62
5
100
AcDbSpline
 70
8
 71
3
 72
8
 73
4
 74
0
 40
0
 40
0
 40
0
 40
0
 40
1
 40
1
 40
1
 40
1
 10
407.614360
 20
3.704670
 30
0.0
 10
414.198495
 20
46.275300
 30
0.0
 10
417.989149
 20
108.369463
 30
0.0
 10
417.994090
 20
173.733560
 30
0.0
  0
SPLINE
  5
147
100
AcDbEntity
  8
Layer_1
 62
5
100
AcDbSpline
 70
8
 71
3
 72
8
 73
4
 74
0
 40
0
 40
0
 40
0
 40
0
 40
1
 40
1
 40
1
 40
1
 10
417.994090
 20
173.733560
 30
0.0
 10
417.980619
 20
239.138944
 30
0.0
 10
414.177092
 20
301.240011
 30
0.0
 10
407.580260
 20
343.762577
 30
0.0
  0
LWPOLYLINE
  5
148
100
AcDbEntity
  8
Layer_1
 62
5
100
AcDbPolyline
 90
2
 70
0
 10
565.240410
 20
3.704670
 30
0.0
 10
407.614360
 20
3.704670
 30
0.0
  0
LWPOLYLINE
  5
149
100
AcDbEntity
  8
Layer_1
 62
5
100
AcDbPolyline
 90
1
 70
1
 10
407.580260
 20
343.762577
 30
0.0
  0
LWPOLYLINE
  5
14a
100
AcDbEntity
  8
Layer_1
 62
5
100
AcDbPolyline
 90
5
 70
0
 10
29.326357
 20
230.369031
 30
0.0
 10
187.629360
 20
304.682845
 30
0.0
 10
204.082530
 20
367.204434
 30
0.0
 10
221.831410
 20
305.664185
 30
0.0
 10
380.134410
 20
231.350371
 30
0.0
  0
SPLINE
  5
14b
100
AcDbEntity
  8
Layer_1
 62
5
100
AcDbSpline
 70
8
 71
3
 72
8
 73
4
 74
0
 40
0
 40
0
 40
0
 40
0
 40
1
 40
1
 40
1
 40
1
 10
312.371310
 20
229.876823
 30
0.0
 10
311.055610
 20
273.452873
 30
0.0
 10
247.219710
 20
299.371954
 30
0.0
 10
204.725910
 20
279.770713
 30
0.0
  0
SPLINE
  5
14c
100
AcDbEntity
  8
Layer_1
 62
5
100
AcDbSpline
 70
8
 71
3
 72
8
 73
4
 74
0
 40
0
 40
0
 40
0
 40
0
 40
1
 40
1
 40
1
 40
1
 10
204.725910
 20
279.770713
 30
0.0
 10
184.653840
 20
265.872233
 30
0.0
 10
159.718630
 20
282.766483
 30
0.0
 10
139.012970
 20
269.615713
 30
0.0
  0
SPLINE
  5
14d
100
AcDbEntity
  8
Layer_1
 62
5
100
AcDbSpline
 70
8
 71
3
 72
8
 73
4
 74
0
 40
0
 40
0
 40
0
 40
0
 40
1
 40
1
 40
1
 40
1
 10
139.012970
 20
269.615713
 30
0.0
 10
125.721990
 20
262.699873
 30
0.0
 10
118.658940
 20
251.690963
 30
0.0
 10
103.530640
 20
262.014713
 30
0.0
  0
SPLINE
  5
14e
100
AcDbEntity
  8
Layer_1
 62
5
100
AcDbSpline
 70
8
 71
3
 72
8
 73
4
 74
0
 40
0
 40
0
 40
0
 40
0
 40
1
 40
1
 40
1
 40
1
 10
103.530640
 20
262.014713
 30
0.0
 10
90.208891
 20
256.670443
 30
0.0
 10
84.222141
 20
243.564833
 30
0.0
 10
84.070581
 20
229.876823
 30
0.0
  0
SPLINE
  5
14f
100
AcDbEntity
  8
Layer_1
 62
5
100
AcDbSpline
 70
8
 71
3
 72
8
 73
4
 74
0
 40
0
 40
0
 40
0
 40
0
 40
1
 40
1
 40
1
 40
1
 10
84.070581
 20
229.876823
 30
0.0
 10
84.222131
 20
216.188823
 30
0.0
 10
90.208891
 20
203.083216
 30
0.0
 10
103.530640
 20
197.738956
 30
0.0
  0
SPLINE
  5
150
100
AcDbEntity
  8
Layer_1
 62
5
100
AcDbSpline
 70
8
 71
3
 72
8
 73
4
 74
0
 40
0
 40
0
 40
0
 40
0
 40
1
 40
1
 40
1
 40
1
 10
103.530640
 20
197.738956
 30
0.0
 10
118.658940
 20
208.062686
 30
0.0
 10
125.721990
 20
197.053766
 30
0.0
 10
139.012970
 20
190.137930
 30
0.0
  0
SPLINE
  5
151
100
AcDbEntity
  8
Layer_1
 62
5
100
AcDbSpline
 70
8
 71
3
 72
8
 73
4
 74
0
 40
0
 40
0
 40
0
 40
0
 40
1
 40
1
 40
1
 40
1
 10
139.012970
 20
190.137930
 30
0.0
 10
159.718630
 20
176.987160
 30
0.0
 10
184.653840
 20
193.881410
 30
0.0
 10
204.725910
 20
179.982940
 30
0.0
  0
SPLINE
  5
152
100
AcDbEntity
  8
Layer_1
 62
5
100
AcDbSpline
 70
8
 71
3
 72
8
 73
4
 74
0
 40
0
 40
0
 40
0
 40
0
 40
1
 40
1
 40
1
 40
1
 10
204.725910
 20
179.982940
 30
0.0
 10
247.219710
 20
160.381690
 30
0.0
 10
311.055610
 20
186.300760
 30
0.0
 10
312.371310
 20
229.876823
 30
0.0
  0
LWPOLYLINE
  5
153
100
AcDbEntity
  8
Layer_1
 62
5
100
AcDbPolyline
 90
8
 70
0
 10
29.508257
 20
231.087851
 30
0.0
 10
29.735117
 20
381.087994
 30
0.0
 10
179.769380
 20
374.042944
 30
0.0
 10
202.426300
 20
373.946144
 30
0.0
 10
205.539290
 20
373.946144
 30
0.0
 10
229.691390
 20
375.024284
 30
0.0
 10
379.725650
 20
382.069331
 30
0.0
 10
379.952510
 20
232.069191
 30
0.0
  0
LWPOLYLINE
  5
154
100
AcDbEntity
  8
Layer_1
 62
5
100
AcDbPolyline
 90
1
 70
1
 10
312.371310
 20
229.876823
 30
0.0
  0
ENDSEC
  0
SECTION
  2
OBJECTS
  0
DICTIONARY
  5
C
330
0
100
AcDbDictionary
  3
ACAD_GROUP
350
D
  3
ACAD_MLINESTYLE
350
17
  0
DICTIONARY
  5
D
330
C
100
AcDbDictionary
  0
DICTIONARY
  5
1A
330
C
100
AcDbDictionary
  0
DICTIONARY
  5
17
330
C
100
AcDbDictionary
  3
STANDARD
350
18
  0
DICTIONARY
  5
19
330
C
100
AcDbDictionary
  0
ENDSEC
  0
EOF
