  0
SECTION
  2
HEADER
  9
$ACADVER
  1
AC1015
  9
$ACADMAINTVER
 70
     6
  9
$DWGCODEPAGE
  3
ANSI_1252
  9
$INSBASE
 10
0.0
 20
0.0
 30
0.0
  9
$EXTMIN
 10
-54.0921454954
 20
-58.1323068956
 30
0.0
  9
$EXTMAX
 10
54.0921454954
 20
58.1323068956
 30
0.0
  9
$LIMMIN
 10
0.0
 20
0.0
  9
$LIMMAX
 10
420.0
 20
297.0
  9
$ORTHOMODE
 70
     0
  9
$REGENMODE
 70
     1
  9
$FILLMODE
 70
     1
  9
$QTEXTMODE
 70
     0
  9
$MIRRTEXT
 70
     1
  9
$LTSCALE
 40
1.0
  9
$ATTMODE
 70
     1
  9
$TEXTSIZE
 40
3.5
  9
$TRACEWID
 40
1.0
  9
$TEXTSTYLE
  7
Standard
  9
$CLAYER
  8
0
  9
$CELTYPE
  6
ByLayer
  9
$CECOLOR
 62
   256
  9
$CELTSCALE
 40
1.0
  9
$DISPSILH
 70
     0
  9
$DIMSCALE
 40
1.0
  9
$DIMASZ
 40
3.302
  9
$DIMEXO
 40
1.0
  9
$DIMDLI
 40
3.75
  9
$DIMRND
 40
0.0
  9
$DIMDLE
 40
0.0
  9
$DIMEXE
 40
1.0
  9
$DIMTP
 40
0.0
  9
$DIMTM
 40
0.0
  9
$DIMTXT
 40
3.5
  9
$DIMCEN
 40
2.5
  9
$DIMTSZ
 40
0.0
  9
$DIMTOL
 70
     0
  9
$DIMLIM
 70
     0
  9
$DIMTIH
 70
     1
  9
$DIMTOH
 70
     1
  9
$DIMSE1
 70
     0
  9
$DIMSE2
 70
     0
  9
$DIMTAD
 70
     1
  9
$DIMZIN
 70
     0
  9
$DIMBLK
  1

  9
$DIMASO
 70
     1
  9
$DIMSHO
 70
     1
  9
$DIMPOST
  1

  9
$DIMAPOST
  1

  9
$DIMALT
 70
     0
  9
$DIMALTD
 70
     3
  9
$DIMALTF
 40
0.0393700787
  9
$DIMLFAC
 40
1.0
  9
$DIMTOFL
 70
     1
  9
$DIMTVP
 40
0.0
  9
$DIMTIX
 70
     0
  9
$DIMSOXD
 70
     0
  9
$DIMSAH
 70
     0
  9
$DIMBLK1
  1

  9
$DIMBLK2
  1

  9
$DIMSTYLE
  2
ISO-25
  9
$DIMCLRD
 70
     0
  9
$DIMCLRE
 70
     0
  9
$DIMCLRT
 70
     0
  9
$DIMTFAC
 40
1.0
  9
$DIMGAP
 40
1.524
  9
$DIMJUST
 70
     0
  9
$DIMSD1
 70
     0
  9
$DIMSD2
 70
     0
  9
$DIMTOLJ
 70
     0
  9
$DIMTZIN
 70
     0
  9
$DIMALTZ
 70
     0
  9
$DIMALTTZ
 70
     0
  9
$DIMUPT
 70
     0
  9
$DIMDEC
 70
     2
  9
$DIMTDEC
 70
     2
  9
$DIMALTU
 70
     2
  9
$DIMALTTD
 70
     3
  9
$DIMTXSTY
  7
Standard
  9
$DIMAUNIT
 70
     0
  9
$DIMADEC
 70
     2
  9
$DIMALTRND
 40
0.0
  9
$DIMAZIN
 70
     0
  9
$DIMDSEP
 70
    44
  9
$DIMATFIT
 70
     3
  9
$DIMFRAC
 70
     0
  9
$DIMLDRBLK
  1

  9
$DIMLUNIT
 70
     2
  9
$DIMLWD
 70
    -2
  9
$DIMLWE
 70
    -2
  9
$DIMTMOVE
 70
     0
  9
$LUNITS
 70
     2
  9
$LUPREC
 70
     2
  9
$SKETCHINC
 40
1.0
  9
$FILLETRAD
 40
10.0
  9
$AUNITS
 70
     0
  9
$AUPREC
 70
     2
  9
$MENU
  1
.
  9
$ELEVATION
 40
0.0
  9
$PELEVATION
 40
0.0
  9
$THICKNESS
 40
0.0
  9
$LIMCHECK
 70
     0
  9
$CHAMFERA
 40
0.0
  9
$CHAMFERB
 40
0.0
  9
$CHAMFERC
 40
0.0
  9
$CHAMFERD
 40
0.0
  9
$SKPOLY
 70
     0
  9
$TDCREATE
 40
2457798.857151829
  9
$TDUCREATE
 40
2457798.627985162
  9
$TDUPDATE
 40
2457798.857200556
  9
$TDUUPDATE
 40
2457798.628033889
  9
$TDINDWG
 40
0.0000000116
  9
$TDUSRTIMER
 40
0.0000000116
  9
$USRTIMER
 70
     1
  9
$ANGBASE
 50
0.0
  9
$ANGDIR
 70
     0
  9
$PDMODE
 70
     0
  9
$PDSIZE
 40
-1.0
  9
$PLINEWID
 40
0.0
  9
$SPLFRAME
 70
     0
  9
$SPLINETYPE
 70
     6
  9
$SPLINESEGS
 70
     8
  9
$HANDSEED
  5
B0
  9
$SURFTAB1
 70
     6
  9
$SURFTAB2
 70
     6
  9
$SURFTYPE
 70
     6
  9
$SURFU
 70
     6
  9
$SURFV
 70
     6
  9
$UCSBASE
  2

  9
$UCSNAME
  2

  9
$UCSORG
 10
0.0
 20
0.0
 30
0.0
  9
$UCSXDIR
 10
1.0
 20
0.0
 30
0.0
  9
$UCSYDIR
 10
0.0
 20
1.0
 30
0.0
  9
$UCSORTHOREF
  2

  9
$UCSORTHOVIEW
 70
     0
  9
$UCSORGTOP
 10
0.0
 20
0.0
 30
0.0
  9
$UCSORGBOTTOM
 10
0.0
 20
0.0
 30
0.0
  9
$UCSORGLEFT
 10
0.0
 20
0.0
 30
0.0
  9
$UCSORGRIGHT
 10
0.0
 20
0.0
 30
0.0
  9
$UCSORGFRONT
 10
0.0
 20
0.0
 30
0.0
  9
$UCSORGBACK
 10
0.0
 20
0.0
 30
0.0
  9
$PUCSBASE
  2

  9
$PUCSNAME
  2

  9
$PUCSORG
 10
0.0
 20
0.0
 30
0.0
  9
$PUCSXDIR
 10
1.0
 20
0.0
 30
0.0
  9
$PUCSYDIR
 10
0.0
 20
1.0
 30
0.0
  9
$PUCSORTHOREF
  2

  9
$PUCSORTHOVIEW
 70
     0
  9
$PUCSORGTOP
 10
0.0
 20
0.0
 30
0.0
  9
$PUCSORGBOTTOM
 10
0.0
 20
0.0
 30
0.0
  9
$PUCSORGLEFT
 10
0.0
 20
0.0
 30
0.0
  9
$PUCSORGRIGHT
 10
0.0
 20
0.0
 30
0.0
  9
$PUCSORGFRONT
 10
0.0
 20
0.0
 30
0.0
  9
$PUCSORGBACK
 10
0.0
 20
0.0
 30
0.0
  9
$USERI1
 70
     0
  9
$USERI2
 70
     0
  9
$USERI3
 70
     0
  9
$USERI4
 70
     0
  9
$USERI5
 70
     0
  9
$USERR1
 40
0.0
  9
$USERR2
 40
0.0
  9
$USERR3
 40
0.0
  9
$USERR4
 40
0.0
  9
$USERR5
 40
0.0
  9
$WORLDVIEW
 70
     1
  9
$SHADEDGE
 70
     3
  9
$SHADEDIF
 70
    70
  9
$TILEMODE
 70
     1
  9
$MAXACTVP
 70
    64
  9
$PINSBASE
 10
0.0
 20
0.0
 30
0.0
  9
$PLIMCHECK
 70
     0
  9
$PEXTMIN
 10
1.0000000000E+20
 20
1.0000000000E+20
 30
1.0000000000E+20
  9
$PEXTMAX
 10
-1.0000000000E+20
 20
-1.0000000000E+20
 30
-1.0000000000E+20
  9
$PLIMMIN
 10
0.0
 20
0.0
  9
$PLIMMAX
 10
420.0
 20
297.0
  9
$UNITMODE
 70
     0
  9
$VISRETAIN
 70
     1
  9
$PLINEGEN
 70
     0
  9
$PSLTSCALE
 70
     1
  9
$TREEDEPTH
 70
  3020
  9
$CMLSTYLE
  2
Standard
  9
$CMLJUST
 70
     0
  9
$CMLSCALE
 40
20.0
  9
$PROXYGRAPHICS
 70
     1
  9
$MEASUREMENT
 70
     1
  9
$CELWEIGHT
370
    -1
  9
$ENDCAPS
280
     0
  9
$JOINSTYLE
280
     0
  9
$LWDISPLAY
290
     1
  9
$INSUNITS
 70
     4
  9
$HYPERLINKBASE
  1

  9
$STYLESHEET
  1

  9
$XEDIT
290
     1
  9
$CEPSNTYPE
380
     0
  9
$PSTYLEMODE
290
     1
  9
$FINGERPRINTGUID
  2
{96BD502E-D964-4E29-BB8E-4FDDC5DF2A21}
  9
$VERSIONGUID
  2
{FAEB1C32-E019-11D5-929B-00C0DF256EC4}
  9
$EXTNAMES
290
     1
  9
$PSVPSCALE
 40
0.0
  9
$OLESTARTUP
290
     0
  0
ENDSEC
  0
SECTION
  2
CLASSES
  0
CLASS
  1
ACDBDICTIONARYWDFLT
  2
AcDbDictionaryWithDefault
  3
ObjectDBX Classes
 90
        0
280
     0
281
     0
  0
CLASS
  1
VISUALSTYLE
  2
AcDbVisualStyle
  3
ObjectDBX Classes
 90
     4095
280
     0
281
     0
  0
CLASS
  1
MATERIAL
  2
AcDbMaterial
  3
ObjectDBX Classes
 90
     1153
280
     0
281
     0
  0
CLASS
  1
SCALE
  2
AcDbScale
  3
ObjectDBX Classes
 90
     1153
280
     0
281
     0
  0
CLASS
  1
TABLESTYLE
  2
AcDbTableStyle
  3
ObjectDBX Classes
 90
     4095
280
     0
281
     0
  0
CLASS
  1
MLEADERSTYLE
  2
AcDbMLeaderStyle
  3
ACDB_MLEADERSTYLE_CLASS
 90
     4095
280
     0
281
     0
  0
CLASS
  1
SUN
  2
AcDbSun
  3
SCENEOE
 90
     1153
280
     0
281
     0
  0
CLASS
  1
ACDBPLACEHOLDER
  2
AcDbPlaceHolder
  3
ObjectDBX Classes
 90
        0
280
     0
281
     0
  0
CLASS
  1
LAYOUT
  2
AcDbLayout
  3
ObjectDBX Classes
 90
        0
280
     0
281
     0
  0
ENDSEC
  0
SECTION
  2
TABLES
  0
TABLE
  2
VPORT
  5
8
330
0
100
AcDbSymbolTable
 70
     1
  0
VPORT
  5
29
330
8
100
AcDbSymbolTableRecord
100
AcDbViewportTableRecord
  2
*Active
 70
     0
 10
0.0
 20
0.0
 11
1.0
 21
1.0
 12
0.0
 22
0.0
 13
0.0
 23
0.0
 14
10.0
 24
10.0
 15
10.0
 25
10.0
 16
0.0
 26
0.0
 36
1.0
 17
0.0
 27
0.0
 37
0.0
 40
118.589906067
 41
0.9305005837
 42
50.0
 43
0.0
 44
0.0
 50
0.0
 51
0.0
 71
     0
 72
   100
 73
     1
 74
     3
 75
     0
 76
     0
 77
     0
 78
     0
281
     0
 65
     1
110
0.0
120
0.0
130
0.0
111
1.0
121
0.0
131
0.0
112
0.0
122
1.0
132
0.0
 79
     0
146
0.0
  0
ENDTAB
  0
TABLE
  2
LTYPE
  5
5
330
0
100
AcDbSymbolTable
 70
     6
  0
LTYPE
  5
14
330
5
100
AcDbSymbolTableRecord
100
AcDbLinetypeTableRecord
  2
ByBlock
 70
     0
  3

 72
    65
 73
     0
 40
0.0
  0
LTYPE
  5
15
330
5
100
AcDbSymbolTableRecord
100
AcDbLinetypeTableRecord
  2
ByLayer
 70
     0
  3

 72
    65
 73
     0
 40
0.0
  0
LTYPE
  5
16
330
5
100
AcDbSymbolTableRecord
100
AcDbLinetypeTableRecord
  2
Continuous
 70
     0
  3
Solid line
 72
    65
 73
     0
 40
0.0
  0
LTYPE
  5
6E
330
5
100
AcDbSymbolTableRecord
100
AcDbLinetypeTableRecord
  2
HIDDEN
 70
     0
  3
Hidden __ __ __ __ __ __ __ __ __ __ __ __ __ __
 72
    65
 73
     2
 40
1.905
 49
1.27
 74
     0
 49
-0.635
 74
     0
  0
LTYPE
  5
6F
330
5
100
AcDbSymbolTableRecord
100
AcDbLinetypeTableRecord
  2
PHANTOM
 70
     0
  3
Phantom ______  __  __  ______  __  __  ______
 72
    65
 73
     6
 40
12.7
 49
6.35
 74
     0
 49
-1.27
 74
     0
 49
1.27
 74
     0
 49
-1.27
 74
     0
 49
1.27
 74
     0
 49
-1.27
 74
     0
  0
LTYPE
  5
70
330
5
100
AcDbSymbolTableRecord
100
AcDbLinetypeTableRecord
  2
CENTER
 70
     0
  3
Center ____ _ ____ _ ____ _ ____ _ ____ _ ____
 72
    65
 73
     4
 40
10.16
 49
6.35
 74
     0
 49
-1.27
 74
     0
 49
1.27
 74
     0
 49
-1.27
 74
     0
  0
LTYPE
  5
71
330
5
100
AcDbSymbolTableRecord
100
AcDbLinetypeTableRecord
  2
CENTERX2
 70
     0
  3
Center (2x) ________  __  ________  __  _____
 72
    65
 73
     4
 40
20.32
 49
12.7
 74
     0
 49
-2.54
 74
     0
 49
2.54
 74
     0
 49
-2.54
 74
     0
  0
LTYPE
  5
72
330
5
100
AcDbSymbolTableRecord
100
AcDbLinetypeTableRecord
  2
DOT2
 70
     0
  3
Dot (.5x) ........................................
 72
    65
 73
     2
 40
0.635
 49
0.0
 74
     0
 49
-0.635
 74
     0
  0
ENDTAB
  0
TABLE
  2
LAYER
  5
2
330
0
100
AcDbSymbolTable
 70
     1
  0
LAYER
  5
10
330
2
100
AcDbSymbolTableRecord
100
AcDbLayerTableRecord
  2
0
 70
     0
 62
     7
  6
Continuous
370
    -3
390
F
  0
ENDTAB
  0
TABLE
  2
STYLE
  5
3
330
0
100
AcDbSymbolTable
 70
     1
  0
STYLE
  5
11
330
3
100
AcDbSymbolTableRecord
100
AcDbTextStyleTableRecord
  2
Standard
 70
     0
 40
0.0
 41
1.0
 50
0.0
 71
     0
 42
3.5
  3
txt
  4

  0
ENDTAB
  0
TABLE
  2
VIEW
  5
6
330
0
100
AcDbSymbolTable
 70
     0
  0
ENDTAB
  0
TABLE
  2
UCS
  5
7
330
0
100
AcDbSymbolTable
 70
     0
  0
ENDTAB
  0
TABLE
  2
APPID
  5
9
330
0
100
AcDbSymbolTable
 70
     1
  0
APPID
  5
12
330
9
100
AcDbSymbolTableRecord
100
AcDbRegAppTableRecord
  2
ACAD
 70
     0
  0
ENDTAB
  0
TABLE
  2
DIMSTYLE
  5
A
330
0
100
AcDbSymbolTable
 70
     1
100
AcDbDimStyleTable
  0
DIMSTYLE
105
27
330
A
100
AcDbSymbolTableRecord
100
AcDbDimStyleTableRecord
  2
ISO-25
 70
     0
 41
2.5
 42
0.625
 43
3.75
 44
1.25
 73
     0
 74
     0
 77
     1
 78
     8
140
2.5
141
2.5
143
0.0393700787
147
0.625
171
     3
172
     1
178
     0
271
     2
272
     2
274
     3
278
    44
283
     0
284
     8
340
11
  0
ENDTAB
  0
TABLE
  2
BLOCK_RECORD
  5
1
330
0
100
AcDbSymbolTable
 70
     1
  0
BLOCK_RECORD
  5
1F
330
1
100
AcDbSymbolTableRecord
100
AcDbBlockTableRecord
  2
*Model_Space
340
22
  0
BLOCK_RECORD
  5
1B
330
1
100
AcDbSymbolTableRecord
100
AcDbBlockTableRecord
  2
*Paper_Space
340
1E
  0
BLOCK_RECORD
  5
23
330
1
100
AcDbSymbolTableRecord
100
AcDbBlockTableRecord
  2
*Paper_Space0
340
26
  0
ENDTAB
  0
ENDSEC
  0
SECTION
  2
BLOCKS
  0
BLOCK
  5
20
330
1F
100
AcDbEntity
  8
0
100
AcDbBlockBegin
  2
*Model_Space
 70
     0
 10
0.0
 20
0.0
 30
0.0
  3
*Model_Space
  1

  0
ENDBLK
  5
21
330
1F
100
AcDbEntity
  8
0
100
AcDbBlockEnd
  0
BLOCK
  5
1C
330
1B
100
AcDbEntity
 67
     1
  8
0
100
AcDbBlockBegin
  2
*Paper_Space
 70
     0
 10
0.0
 20
0.0
 30
0.0
  3
*Paper_Space
  1

  0
ENDBLK
  5
1D
330
1B
100
AcDbEntity
 67
     1
  8
0
100
AcDbBlockEnd
  0
BLOCK
  5
24
330
23
100
AcDbEntity
  8
0
100
AcDbBlockBegin
  2
*Paper_Space0
 70
     0
 10
0.0
 20
0.0
 30
0.0
  3
*Paper_Space0
  1

  0
ENDBLK
  5
25
330
23
100
AcDbEntity
  8
0
100
AcDbBlockEnd
  0
ENDSEC
  0
SECTION
  2
ENTITIES
  0
LWPOLYLINE
  5
73
330
1F
100
AcDbEntity
  8
0
  6
CENTERX2
 62
     7
100
AcDbPolyline
 90
        9
 70
   128
 43
0.0
 10
-15.9704154445
 20
49.3359680192
 10
-16.0416817926
 20
49.3110495175
 10
-16.1129100561
 20
49.2860139461
 10
-16.1841000658
 20
49.2608613647
 10
-16.2552516527
 20
49.2355918328
 10
-16.3263646481
 20
49.2102054105
 10
-16.3974388829
 20
49.1847021581
 10
-16.4684741885
 20
49.159082136
 10
-16.5394703962
 20
49.1333454051
  0
LWPOLYLINE
  5
74
330
1F
100
AcDbEntity
  8
0
  6
CENTERX2
 62
     7
100
AcDbPolyline
 90
        9
 70
   128
 43
0.0
 10
-48.0516595159
 20
10.6952659098
 10
-48.0659344832
 20
10.616990184
 10
-48.0800953369
 20
10.5386892524
 10
-48.0941420435
 20
10.4603633008
 10
-48.1080745696
 20
10.3820125153
 10
-48.1218928821
 20
10.3036370817
 10
-48.1355969482
 20
10.2252371863
 10
-48.1491867354
 20
10.1468130151
 10
-48.1626622114
 20
10.0683647542
  0
LWPOLYLINE
  5
75
330
1F
100
AcDbEntity
  8
0
  6
CENTERX2
 62
     7
100
AcDbPolyline
 90
        9
 70
   128
 43
0.0
 10
32.0812440713
 20
38.6407021094
 10
32.0242526905
 20
38.6940593335
 10
31.9671852809
 20
38.7473246938
 10
31.9100419777
 20
38.8004980639
 10
31.8528229169
 20
38.8535793176
 10
31.7955282341
 20
38.9065683288
 10
31.7381580653
 20
38.9594649718
 10
31.6807125469
 20
39.0122691209
 10
31.6231918152
 20
39.0649806509
  0
LWPOLYLINE
  5
76
330
1F
100
AcDbEntity
  8
0
  6
Continuous
 62
     7
100
AcDbPolyline
 90
        9
 70
   128
 43
0.0
 10
-38.974479684
 20
12.3903971864
 10
-38.7996678685
 20
12.3243145902
 10
-38.6398159495
 20
12.2235383119
 10
-38.5010669465
 20
12.0919411274
 10
-38.3887529059
 20
11.9345802426
 10
-38.3071899935
 20
11.7575029482
 10
-38.259512626
 20
11.5675142251
 10
-38.2475530181
 20
11.3719152336
 10
-38.2717707707
 20
11.1782227331
  0
LWPOLYLINE
  5
77
330
1F
100
AcDbEntity
  8
0
  6
Continuous
 62
     7
100
AcDbPolyline
 90
        9
 70
   128
 43
0.0
 10
-39.8323612051
 20
8.51491006
 10
-39.6493074131
 20
8.486060663
 10
-39.4650462993
 20
8.4955531314
 10
-39.2866589149
 20
8.543022675
 10
-39.121000587
 20
8.6266450657
 10
-38.9744374723
 20
8.743206742
 10
-38.8526019091
 20
8.8882283041
 10
-38.7601759697
 20
9.0561366547
 10
-38.7007115312
 20
9.2404791699
  0
LWPOLYLINE
  5
78
330
1F
100
AcDbEntity
  8
0
  6
Continuous
 62
     7
100
AcDbPolyline
 90
        9
 70
   128
 43
0.0
 10
-46.3119140332
 20
14.3368185597
 10
-46.4867258487
 20
14.4029011558
 10
-46.6465777678
 20
14.5036774341
 10
-46.7853267708
 20
14.6352746186
 10
-46.8976408113
 20
14.7926355034
 10
-46.9792037238
 20
14.9697127979
 10
-47.0268810912
 20
15.1597015209
 10
-47.0388406992
 20
15.3553005124
 10
-47.0146229466
 20
15.5489930129
  0
LWPOLYLINE
  5
79
330
1F
100
AcDbEntity
  8
0
  6
Continuous
 62
     7
100
AcDbPolyline
 90
        9
 70
   128
 43
0.0
 10
-47.1697955543
 20
10.4613314333
 10
-47.3528493462
 20
10.4901808302
 10
-47.5371104601
 20
10.4806883618
 10
-47.7154978445
 20
10.4332188183
 10
-47.8811561724
 20
10.3495964276
 10
-48.0277192871
 20
10.2330347512
 10
-48.1495548503
 20
10.0880131892
 10
-48.2419807897
 20
9.9201048386
 10
-48.3014452282
 20
9.7357623234
  0
LWPOLYLINE
  5
7A
330
1F
100
AcDbEntity
  8
0
  6
Continuous
 62
     7
100
AcDbPolyline
 90
        9
 70
   128
 43
0.0
 10
-13.5252458058
 20
40.7264896078
 10
-13.4546920988
 20
40.5443222834
 10
-13.3522042176
 20
40.379674822
 10
-13.2217207139
 20
40.2388745331
 10
-13.0682559958
 20
40.1273322931
 10
-12.8977076261
 20
40.0493346075
 10
-12.7166296832
 20
40.0078788836
 10
-12.5319808907
 20
40.0045582418
 10
-12.3508571984
 20
40.0395002924
  0
LWPOLYLINE
  5
7B
330
1F
100
AcDbEntity
  8
0
  6
Continuous
 62
     7
100
AcDbPolyline
 90
        9
 70
   128
 43
0.0
 10
-9.9191027728
 20
41.8214079931
 10
-9.8831945794
 20
41.6287213938
 10
-9.8833118313
 20
41.4329203576
 10
-9.9194500226
 20
41.2415294085
 10
-9.990220383
 20
41.0619035933
 10
-10.092903247
 20
40.9009458313
 10
-10.2235525699
 20
40.7648416392
 10
-10.3771475715
 20
40.6588214247
 10
-10.5477856819
 20
40.5869594851
  0
LWPOLYLINE
  5
7C
330
1F
100
AcDbEntity
  8
0
  6
Continuous
 62
     7
100
AcDbPolyline
 90
        9
 70
   128
 43
0.0
 10
-15.708068599
 20
48.4122409014
 10
-15.778622306
 20
48.5944082258
 10
-15.8811101872
 20
48.7590556872
 10
-16.0115936908
 20
48.899855976
 10
-16.165058409
 20
49.0113982161
 10
-16.3356067787
 20
49.0893959017
 10
-16.5166847216
 20
49.1308516255
 10
-16.701333514
 20
49.1341722674
 10
-16.8824572064
 20
49.0992302168
  0
LWPOLYLINE
  5
7D
330
1F
100
AcDbEntity
  8
0
  6
Continuous
 62
     7
100
AcDbPolyline
 90
        9
 70
   128
 43
0.0
 10
-12.101925566
 20
49.5071592867
 10
-12.1378337594
 20
49.699845886
 10
-12.1377165074
 20
49.8956469222
 10
-12.1015783161
 20
50.0870378713
 10
-12.0308079558
 20
50.2666636865
 10
-11.9281250917
 20
50.4276214485
 10
-11.7974757688
 20
50.5637256406
 10
-11.6438807673
 20
50.6697458551
 10
-11.4732426569
 20
50.7416077947
  0
LWPOLYLINE
  5
7E
330
1F
100
AcDbEntity
  8
0
  6
Continuous
 62
     7
100
AcDbPolyline
 90
        9
 70
   128
 43
0.0
 10
31.4617269553
 20
37.9509094681
 10
31.5742270402
 20
38.1042273956
 10
31.6560002729
 20
38.2783673254
 10
31.7039041537
 20
38.4666371577
 10
31.7160977634
 20
38.6618017885
 10
31.6921125084
 20
38.8563611505
 10
31.6328701287
 20
39.0428384364
 10
31.5406472757
 20
39.2140674287
 10
31.4189880218
 20
39.3634678934
  0
LWPOLYLINE
  5
7F
330
1F
100
AcDbEntity
  8
0
  6
Continuous
 62
     7
100
AcDbPolyline
 90
        9
 70
   128
 43
0.0
 10
34.2099884672
 20
35.170340727
 10
34.3488920894
 20
35.2969447302
 10
34.5088612603
 20
35.3919694881
 10
34.6837484547
 20
35.4517632527
 10
34.8668328555
 20
35.4740281831
 10
35.0510786321
 20
35.4579086506
 10
35.2294053224
 20
35.4040241197
 10
35.3949599319
 20
35.3144453427
 10
35.5413802897
 20
35.1926147818
  0
LWPOLYLINE
  5
80
330
1F
100
AcDbEntity
  8
0
  6
Continuous
 62
     7
100
AcDbPolyline
 90
        9
 70
   128
 43
0.0
 10
29.0553769113
 20
29.4310108067
 10
28.9164732892
 20
29.3044068036
 10
28.7565041182
 20
29.2093820457
 10
28.5816169238
 20
29.1495882811
 10
28.398532523
 20
29.1273233506
 10
28.2142867464
 20
29.1434428832
 10
28.0359600561
 20
29.1973274141
 10
27.8704054466
 20
29.2869061911
 10
27.7239850888
 20
29.408736752
  0
LWPOLYLINE
  5
81
330
1F
100
AcDbEntity
  8
0
  6
Continuous
 62
     7
100
AcDbPolyline
 90
        9
 70
   128
 43
0.0
 10
26.3071153993
 20
32.2115795478
 10
26.1946153144
 20
32.0582616203
 10
26.1128420817
 20
31.8841216905
 10
26.0649382009
 20
31.6958518582
 10
26.0527445912
 20
31.5006872274
 10
26.0767298462
 20
31.3061278654
 10
26.1359722259
 20
31.1196505795
 10
26.2281950789
 20
30.9484215871
 10
26.3498543328
 20
30.7990211225
  0
LWPOLYLINE
  5
82
330
1F
100
AcDbEntity
  8
0
  6
Continuous
 62
     7
100
AcDbPolyline
 90
        9
 70
   128
 43
0.0
 10
46.3119140332
 20
-14.3368185597
 10
46.4867258487
 20
-14.4029011558
 10
46.6465777678
 20
-14.5036774341
 10
46.7853267708
 20
-14.6352746186
 10
46.8976408113
 20
-14.7926355034
 10
46.9792037238
 20
-14.9697127979
 10
47.0268810912
 20
-15.1597015209
 10
47.0388406992
 20
-15.3553005124
 10
47.0146229466
 20
-15.5489930129
  0
LWPOLYLINE
  5
83
330
1F
100
AcDbEntity
  8
0
  6
Continuous
 62
     7
100
AcDbPolyline
 90
        9
 70
   128
 43
0.0
 10
38.974479684
 20
-12.3903971864
 10
38.7996678685
 20
-12.3243145902
 10
38.6398159495
 20
-12.2235383119
 10
38.5010669465
 20
-12.0919411274
 10
38.3887529059
 20
-11.9345802426
 10
38.3071899935
 20
-11.7575029482
 10
38.259512626
 20
-11.5675142251
 10
38.2475530181
 20
-11.3719152336
 10
38.2717707707
 20
-11.1782227331
  0
LWPOLYLINE
  5
84
330
1F
100
AcDbEntity
  8
0
  6
Continuous
 62
     7
100
AcDbPolyline
 90
        9
 70
   128
 43
0.0
 10
39.8323612051
 20
-8.51491006
 10
39.6493074131
 20
-8.486060663
 10
39.4650462993
 20
-8.4955531314
 10
39.2866589149
 20
-8.543022675
 10
39.121000587
 20
-8.6266450657
 10
38.9744374723
 20
-8.743206742
 10
38.8526019091
 20
-8.8882283041
 10
38.7601759697
 20
-9.0561366547
 10
38.7007115312
 20
-9.2404791699
  0
LWPOLYLINE
  5
85
330
1F
100
AcDbEntity
  8
0
  6
Continuous
 62
     7
100
AcDbPolyline
 90
        9
 70
   128
 43
0.0
 10
47.1697955543
 20
-10.4613314333
 10
47.3528493462
 20
-10.4901808302
 10
47.5371104601
 20
-10.4806883618
 10
47.7154978445
 20
-10.4332188183
 10
47.8811561724
 20
-10.3495964276
 10
48.0277192871
 20
-10.2330347512
 10
48.1495548503
 20
-10.0880131892
 10
48.2419807897
 20
-9.9201048386
 10
48.3014452282
 20
-9.7357623234
  0
LWPOLYLINE
  5
86
330
1F
100
AcDbEntity
  8
0
  6
Continuous
 62
     7
100
AcDbPolyline
 90
        9
 70
   128
 43
0.0
 10
15.708068599
 20
-48.4122409014
 10
15.778622306
 20
-48.5944082258
 10
15.8811101872
 20
-48.7590556872
 10
16.0115936908
 20
-48.899855976
 10
16.165058409
 20
-49.0113982161
 10
16.3356067787
 20
-49.0893959017
 10
16.5166847216
 20
-49.1308516255
 10
16.701333514
 20
-49.1341722674
 10
16.8824572064
 20
-49.0992302168
  0
LWPOLYLINE
  5
87
330
1F
100
AcDbEntity
  8
0
  6
Continuous
 62
     7
100
AcDbPolyline
 90
        9
 70
   128
 43
0.0
 10
9.9191027728
 20
-41.8214079931
 10
9.8831945794
 20
-41.6287213938
 10
9.8833118313
 20
-41.4329203576
 10
9.9194500226
 20
-41.2415294085
 10
9.990220383
 20
-41.0619035933
 10
10.092903247
 20
-40.9009458313
 10
10.2235525699
 20
-40.7648416392
 10
10.3771475715
 20
-40.6588214247
 10
10.5477856819
 20
-40.5869594851
  0
LWPOLYLINE
  5
88
330
1F
100
AcDbEntity
  8
0
  6
Continuous
 62
     7
100
AcDbPolyline
 90
        9
 70
   128
 43
0.0
 10
13.5252458058
 20
-40.7264896078
 10
13.4546920988
 20
-40.5443222834
 10
13.3522042176
 20
-40.379674822
 10
13.2217207139
 20
-40.2388745331
 10
13.0682559958
 20
-40.1273322931
 10
12.8977076261
 20
-40.0493346075
 10
12.7166296832
 20
-40.0078788836
 10
12.5319808907
 20
-40.0045582418
 10
12.3508571984
 20
-40.0395002924
  0
LWPOLYLINE
  5
89
330
1F
100
AcDbEntity
  8
0
  6
Continuous
 62
     7
100
AcDbPolyline
 90
        9
 70
   128
 43
0.0
 10
12.101925566
 20
-49.5071592867
 10
12.1378337594
 20
-49.699845886
 10
12.1377165074
 20
-49.8956469222
 10
12.1015783161
 20
-50.0870378713
 10
12.0308079558
 20
-50.2666636865
 10
11.9281250917
 20
-50.4276214485
 10
11.7974757688
 20
-50.5637256406
 10
11.6438807673
 20
-50.6697458551
 10
11.4732426569
 20
-50.7416077947
  0
LWPOLYLINE
  5
8A
330
1F
100
AcDbEntity
  8
0
  6
Continuous
 62
     7
100
AcDbPolyline
 90
        9
 70
   128
 43
0.0
 10
-31.4617269553
 20
-37.9509094681
 10
-31.5742270402
 20
-38.1042273956
 10
-31.6560002729
 20
-38.2783673254
 10
-31.7039041537
 20
-38.4666371577
 10
-31.7160977634
 20
-38.6618017885
 10
-31.6921125084
 20
-38.8563611505
 10
-31.6328701287
 20
-39.0428384364
 10
-31.5406472757
 20
-39.2140674287
 10
-31.4189880218
 20
-39.3634678934
  0
LWPOLYLINE
  5
8B
330
1F
100
AcDbEntity
  8
0
  6
Continuous
 62
     7
100
AcDbPolyline
 90
        9
 70
   128
 43
0.0
 10
-26.3071153993
 20
-32.2115795478
 10
-26.1946153144
 20
-32.0582616203
 10
-26.1128420817
 20
-31.8841216905
 10
-26.0649382009
 20
-31.6958518582
 10
-26.0527445912
 20
-31.5006872274
 10
-26.0767298462
 20
-31.3061278654
 10
-26.1359722259
 20
-31.1196505795
 10
-26.2281950789
 20
-30.9484215872
 10
-26.3498543328
 20
-30.7990211225
  0
LWPOLYLINE
  5
8C
330
1F
100
AcDbEntity
  8
0
  6
Continuous
 62
     7
100
AcDbPolyline
 90
        9
 70
   128
 43
0.0
 10
-29.0553769113
 20
-29.4310108067
 10
-28.9164732892
 20
-29.3044068036
 10
-28.7565041182
 20
-29.2093820457
 10
-28.5816169238
 20
-29.1495882811
 10
-28.398532523
 20
-29.1273233506
 10
-28.2142867464
 20
-29.1434428832
 10
-28.0359600561
 20
-29.1973274141
 10
-27.8704054466
 20
-29.2869061911
 10
-27.7239850888
 20
-29.408736752
  0
LWPOLYLINE
  5
8D
330
1F
100
AcDbEntity
  8
0
  6
Continuous
 62
     7
100
AcDbPolyline
 90
        9
 70
   128
 43
0.0
 10
-34.2099884672
 20
-35.170340727
 10
-34.3488920894
 20
-35.2969447302
 10
-34.5088612603
 20
-35.3919694881
 10
-34.6837484547
 20
-35.4517632527
 10
-34.8668328555
 20
-35.4740281831
 10
-35.0510786321
 20
-35.4579086506
 10
-35.2294053224
 20
-35.4040241197
 10
-35.3949599319
 20
-35.3144453427
 10
-35.5413802897
 20
-35.1926147818
  0
LWPOLYLINE
  5
8E
330
1F
100
AcDbEntity
  8
0
  6
Continuous
 62
     7
100
AcDbPolyline
 90
       20
 70
   128
 43
0.0
 10
18.7961598255
 20
1.0119838478
 10
17.3682325713
 20
7.4360199633
 10
14.0581878221
 20
13.0542479341
 10
9.2247202871
 20
17.2578455836
 10
3.3916111727
 20
19.5912878811
 10
-2.8090316385
 20
19.8017101465
 10
-8.7052722851
 20
17.8663098624
 10
-13.6581616033
 20
13.9948176803
 10
-17.1309771837
 20
8.6067698506
 10
-18.7473855717
 20
2.2860449598
 10
-18.3322238373
 20
-4.2824083741
 10
-15.9304811964
 20
-10.3867963122
 10
-11.802423731
 20
-15.3656137021
 10
-6.3953905209
 20
-18.6793284254
 10
-0.2953175131
 20
-19.9688480741
 10
5.8367577295
 20
-19.0944331854
 10
11.3363297056
 20
-16.1508401804
 10
15.6074344567
 20
-11.4570530357
 10
18.1872315102
 20
-5.5217164201
 10
18.7961598255
 20
1.0119838478
  0
LWPOLYLINE
  5
8F
330
1F
100
AcDbEntity
  8
0
  6
CENTERX2
 62
     7
100
AcDbPolyline
 90
        9
 70
   128
 43
0.0
 10
-47.0303181542
 20
15.1837387407
 10
-47.0511419413
 20
15.1072397865
 10
-47.071854024
 20
15.0307049662
 10
-47.0924543533
 20
14.9541344614
 10
-47.1129428802
 20
14.877528454
 10
-47.133319556
 20
14.8008871257
 10
-47.1535843324
 20
14.7242106586
 10
-47.1737371613
 20
14.6474992347
 10
-47.1937779948
 20
14.5707530361
  0
LWPOLYLINE
  5
90
330
1F
100
AcDbEntity
  8
0
  6
CENTERX2
 62
     7
100
AcDbPolyline
 90
        9
 70
   128
 43
0.0
 10
-11.7796119162
 20
50.578561669
 10
-11.8527941825
 20
50.5605220825
 10
-11.9259483089
 20
50.54236246
 10
-11.999074122
 20
50.5240828447
 10
-12.0721714479
 20
50.50568328
 10
-12.1452401133
 20
50.4871638095
 10
-12.2182799446
 20
50.4685244772
 10
-12.2912907685
 20
50.4497653273
 10
-12.3642724115
 20
50.4308864045
  0
LWPOLYLINE
  5
91
330
1F
100
AcDbEntity
  8
0
  6
CENTERX2
 62
     7
100
AcDbPolyline
 90
        9
 70
   128
 43
0.0
 10
35.250706238
 20
35.3948229284
 10
35.1983477588
 20
35.453282296
 10
35.1459057151
 20
35.5116574938
 10
35.0933802313
 20
35.5699483833
 10
35.0407714322
 20
35.628154826
 10
34.9880794427
 20
35.6862766837
 10
34.9353043878
 20
35.7443138185
 10
34.8824463928
 20
35.8022660926
 10
34.8295055833
 20
35.8601333684
  0
LINE
  5
92
330
1F
100
AcDbEntity
  8
0
  6
Continuous
 62
     7
100
AcDbLine
 10
-48.3014452282
 20
9.7357623234
 30
0.0
 11
-54.0921454954
 21
-16.4237757796
 31
0.0
  0
LINE
  5
93
330
1F
100
AcDbEntity
  8
0
  6
Continuous
 62
     7
100
AcDbLine
 10
12.8682228161
 20
58.1323068956
 30
0.0
 11
-11.4732426569
 21
50.7416077947
 31
0.0
  0
LINE
  5
94
330
1F
100
AcDbEntity
  8
0
  6
Continuous
 62
     7
100
AcDbLine
 10
-41.2239226794
 20
41.7085311159
 30
0.0
 11
-47.0146229466
 21
15.5489930129
 31
0.0
  0
LINE
  5
95
330
1F
100
AcDbEntity
  8
0
  6
Continuous
 62
     7
100
AcDbLine
 10
-54.0921454954
 20
-16.4237757796
 30
0.0
 11
-35.5413802897
 21
-35.1926147818
 31
0.0
  0
LINE
  5
96
330
1F
100
AcDbEntity
  8
0
  6
Continuous
 62
     7
100
AcDbLine
 10
-12.8682228161
 20
-58.1323068956
 30
0.0
 11
11.4732426569
 21
-50.7416077947
 31
0.0
  0
LINE
  5
97
330
1F
100
AcDbEntity
  8
0
  6
Continuous
 62
     7
100
AcDbLine
 10
41.2239226794
 20
-41.7085311159
 30
0.0
 11
47.0146229466
 21
-15.5489930129
 31
0.0
  0
LINE
  5
98
330
1F
100
AcDbEntity
  8
0
  6
Continuous
 62
     7
100
AcDbLine
 10
54.0921454954
 20
16.4237757796
 30
0.0
 11
35.5413802897
 21
35.1926147818
 31
0.0
  0
LINE
  5
99
330
1F
100
AcDbEntity
  8
0
  6
Continuous
 62
     7
100
AcDbLine
 10
31.4189880218
 20
39.3634678934
 30
0.0
 11
12.8682228161
 21
58.1323068956
 31
0.0
  0
LINE
  5
9A
330
1F
100
AcDbEntity
  8
0
  6
Continuous
 62
     7
100
AcDbLine
 10
-15.708068599
 20
48.4122409014
 30
0.0
 11
-13.5252458058
 21
40.7264896078
 31
0.0
  0
LINE
  5
9B
330
1F
100
AcDbEntity
  8
0
  6
Continuous
 62
     7
100
AcDbLine
 10
-12.101925566
 20
49.5071592867
 30
0.0
 11
-9.9191027728
 21
41.8214079931
 31
0.0
  0
LINE
  5
9C
330
1F
100
AcDbEntity
  8
0
  6
Continuous
 62
     7
100
AcDbLine
 10
46.3119140332
 20
-14.3368185597
 30
0.0
 11
38.974479684
 21
-12.3903971864
 31
0.0
  0
LINE
  5
9D
330
1F
100
AcDbEntity
  8
0
  6
Continuous
 62
     7
100
AcDbLine
 10
-12.3508571984
 20
40.0395002924
 30
0.0
 11
-10.5477856819
 21
40.5869594851
 31
0.0
  0
LINE
  5
9E
330
1F
100
AcDbEntity
  8
0
  6
Continuous
 62
     7
100
AcDbLine
 10
-47.1697955543
 20
10.4613314333
 30
0.0
 11
-39.8323612051
 21
8.51491006
 31
0.0
  0
LINE
  5
9F
330
1F
100
AcDbEntity
  8
0
  6
Continuous
 62
     7
100
AcDbLine
 10
-46.3119140332
 20
14.3368185597
 30
0.0
 11
-38.974479684
 21
12.3903971864
 31
0.0
  0
LINE
  5
A0
330
1F
100
AcDbEntity
  8
0
  6
Continuous
 62
     7
100
AcDbLine
 10
38.2717707707
 20
-11.1782227331
 30
0.0
 11
38.7007115312
 21
-9.2404791699
 31
0.0
  0
LINE
  5
A1
330
1F
100
AcDbEntity
  8
0
  6
Continuous
 62
     7
100
AcDbLine
 10
-38.7007115312
 20
9.2404791699
 30
0.0
 11
-38.2717707707
 21
11.1782227331
 31
0.0
  0
LINE
  5
A2
330
1F
100
AcDbEntity
  8
0
  6
Continuous
 62
     7
100
AcDbLine
 10
31.4617269553
 20
37.9509094681
 30
0.0
 11
26.3071153993
 21
32.2115795478
 31
0.0
  0
LINE
  5
A3
330
1F
100
AcDbEntity
  8
0
  6
Continuous
 62
     7
100
AcDbLine
 10
34.2099884672
 20
35.170340727
 30
0.0
 11
29.0553769113
 21
29.4310108067
 31
0.0
  0
LINE
  5
A4
330
1F
100
AcDbEntity
  8
0
  6
Continuous
 62
     7
100
AcDbLine
 10
47.1697955543
 20
-10.4613314333
 30
0.0
 11
39.8323612051
 21
-8.51491006
 31
0.0
  0
LINE
  5
A5
330
1F
100
AcDbEntity
  8
0
  6
Continuous
 62
     7
100
AcDbLine
 10
26.3498543328
 20
30.7990211225
 30
0.0
 11
27.7239850888
 21
29.408736752
 31
0.0
  0
LINE
  5
A6
330
1F
100
AcDbEntity
  8
0
  6
Continuous
 62
     7
100
AcDbLine
 10
-16.8824572064
 20
49.0992302168
 30
0.0
 11
-41.2239226794
 21
41.7085311159
 31
0.0
  0
LINE
  5
A7
330
1F
100
AcDbEntity
  8
0
  6
Continuous
 62
     7
100
AcDbLine
 10
15.708068599
 20
-48.4122409014
 30
0.0
 11
13.5252458058
 21
-40.7264896078
 31
0.0
  0
LINE
  5
A8
330
1F
100
AcDbEntity
  8
0
  6
Continuous
 62
     7
100
AcDbLine
 10
10.5477856819
 20
-40.5869594851
 30
0.0
 11
12.3508571984
 21
-40.0395002924
 31
0.0
  0
LINE
  5
A9
330
1F
100
AcDbEntity
  8
0
  6
Continuous
 62
     7
100
AcDbLine
 10
12.101925566
 20
-49.5071592867
 30
0.0
 11
9.9191027728
 21
-41.8214079931
 31
0.0
  0
LINE
  5
AA
330
1F
100
AcDbEntity
  8
0
  6
Continuous
 62
     7
100
AcDbLine
 10
-31.4617269553
 20
-37.9509094681
 30
0.0
 11
-26.3071153993
 21
-32.2115795478
 31
0.0
  0
LINE
  5
AB
330
1F
100
AcDbEntity
  8
0
  6
Continuous
 62
     7
100
AcDbLine
 10
-27.7239850888
 20
-29.408736752
 30
0.0
 11
-26.3498543328
 21
-30.7990211225
 31
0.0
  0
LINE
  5
AC
330
1F
100
AcDbEntity
  8
0
  6
Continuous
 62
     7
100
AcDbLine
 10
-34.2099884672
 20
-35.170340727
 30
0.0
 11
-29.0553769113
 21
-29.4310108067
 31
0.0
  0
LINE
  5
AD
330
1F
100
AcDbEntity
  8
0
  6
Continuous
 62
     7
100
AcDbLine
 10
-31.4189880218
 20
-39.3634678934
 30
0.0
 11
-12.8682228161
 21
-58.1323068956
 31
0.0
  0
LINE
  5
AE
330
1F
100
AcDbEntity
  8
0
  6
Continuous
 62
     7
100
AcDbLine
 10
16.8824572064
 20
-49.0992302168
 30
0.0
 11
41.2239226794
 21
-41.7085311159
 31
0.0
  0
LINE
  5
AF
330
1F
100
AcDbEntity
  8
0
  6
Continuous
 62
     7
100
AcDbLine
 10
48.3014452282
 20
-9.7357623234
 30
0.0
 11
54.0921454954
 21
16.4237757796
 31
0.0
  0
ENDSEC
  0
SECTION
  2
OBJECTS
  0
DICTIONARY
  5
C
330
0
100
AcDbDictionary
281
     1
  3
ACAD_GROUP
350
D
  3
ACAD_LAYOUT
350
1A
  3
ACAD_MLINESTYLE
350
17
  3
ACAD_PLOTSETTINGS
350
19
  3
ACAD_PLOTSTYLENAME
350
E
  3
ACAD_SCALELIST
350
47
  0
DICTIONARY
  5
D
102
{ACAD_REACTORS
330
C
102
}
330
C
100
AcDbDictionary
281
     1
  0
DICTIONARY
  5
1A
102
{ACAD_REACTORS
330
C
102
}
330
C
100
AcDbDictionary
281
     1
  3
Layout1
350
1E
  3
Layout2
350
26
  3
Model
350
22
  0
DICTIONARY
  5
17
102
{ACAD_REACTORS
330
C
102
}
330
C
100
AcDbDictionary
281
     1
  3
Standard
350
18
  0
DICTIONARY
  5
19
102
{ACAD_REACTORS
330
C
102
}
330
C
100
AcDbDictionary
281
     1
  0
ACDBDICTIONARYWDFLT
  5
E
102
{ACAD_REACTORS
330
C
102
}
330
C
100
AcDbDictionary
281
     1
  3
Normal
350
F
100
AcDbDictionaryWithDefault
340
F
  0
DICTIONARY
  5
47
102
{ACAD_REACTORS
330
C
102
}
330
C
100
AcDbDictionary
281
     1
  3
A0
350
48
  3
A1
350
49
  3
A2
350
4A
  3
A3
350
4B
  3
A4
350
4C
  3
A5
350
4D
  3
A6
350
4E
  3
A7
350
4F
  3
A8
350
50
  3
A9
350
51
  3
B0
350
52
  3
B1
350
53
  3
B2
350
54
  3
B3
350
55
  3
B4
350
56
  3
B5
350
57
  3
B6
350
58
  3
B7
350
59
  3
B8
350
5A
  3
B9
350
5B
  3
C0
350
5C
  3
C1
350
5D
  3
C2
350
5E
  3
C3
350
5F
  3
C4
350
60
  3
C5
350
61
  3
C6
350
62
  3
C7
350
63
  3
C8
350
64
  3
C9
350
65
  3
D0
350
66
  3
D1
350
67
  3
D2
350
68
  0
LAYOUT
  5
1E
102
{ACAD_REACTORS
330
1A
102
}
330
1A
100
AcDbPlotSettings
  1

  2
none_device
  4

  6

 40
0.0
 41
0.0
 42
0.0
 43
0.0
 44
0.0
 45
0.0
 46
0.0
 47
0.0
 48
0.0
 49
0.0
140
0.0
141
0.0
142
1.0
143
1.0
 70
   688
 72
     1
 73
     0
 74
     5
  7

 75
    16
147
1.0
148
0.0
149
0.0
100
AcDbLayout
  1
Layout1
 70
     1
 71
     1
 10
0.0
 20
0.0
 11
420.0
 21
297.0
 12
0.0
 22
0.0
 32
0.0
 14
1.0000000000E+20
 24
1.0000000000E+20
 34
1.0000000000E+20
 15
-1.0000000000E+20
 25
-1.0000000000E+20
 35
-1.0000000000E+20
146
0.0
 13
0.0
 23
0.0
 33
0.0
 16
1.0
 26
0.0
 36
0.0
 17
0.0
 27
1.0
 37
0.0
 76
     0
330
1B
  0
LAYOUT
  5
26
102
{ACAD_REACTORS
330
1A
102
}
330
1A
100
AcDbPlotSettings
  1

  2
none_device
  4

  6

 40
0.0
 41
0.0
 42
0.0
 43
0.0
 44
0.0
 45
0.0
 46
0.0
 47
0.0
 48
0.0
 49
0.0
140
0.0
141
0.0
142
1.0
143
1.0
 70
   688
 72
     1
 73
     0
 74
     5
  7

 75
    16
147
1.0
148
0.0
149
0.0
100
AcDbLayout
  1
Layout2
 70
     1
 71
     2
 10
0.0
 20
0.0
 11
0.0
 21
0.0
 12
0.0
 22
0.0
 32
0.0
 14
0.0
 24
0.0
 34
0.0
 15
0.0
 25
0.0
 35
0.0
146
0.0
 13
0.0
 23
0.0
 33
0.0
 16
1.0
 26
0.0
 36
0.0
 17
0.0
 27
1.0
 37
0.0
 76
     0
330
23
  0
LAYOUT
  5
22
102
{ACAD_REACTORS
330
1A
102
}
330
1A
100
AcDbPlotSettings
  1

  2
none_device
  4
ANSI_A_(11.00_x_8.50_Inches)
  6

 40
6.35
 41
19.05
 42
6.35000508
 43
19.05000254
 44
279.4
 45
215.9
 46
133.34999746
 47
88.89999873
 48
0.0
 49
0.0
140
0.0
141
0.0
142
0.0723779981
143
1.0
 70
  1696
 72
     0
 73
     0
 74
     0
  7

 75
     0
147
0.0179189148
148
-1300.4909072572
149
0.0
100
AcDbLayout
  1
Model
 70
     1
 71
     0
 10
0.0
 20
0.0
 11
420.0
 21
297.0
 12
0.0
 22
0.0
 32
0.0
 14
-54.0921454954
 24
-58.1323068956
 34
0.0
 15
54.0921454954
 25
58.1323068956
 35
0.0
146
0.0
 13
0.0
 23
0.0
 33
0.0
 16
1.0
 26
0.0
 36
0.0
 17
0.0
 27
1.0
 37
0.0
 76
     0
330
1F
331
29
  0
MLINESTYLE
  5
18
102
{ACAD_REACTORS
330
17
102
}
330
17
100
AcDbMlineStyle
  2
Standard
 70
     0
  3

 62
   256
 51
90.0
 52
90.0
 71
     2
 49
0.5
 62
   256
  6
BYLAYER
 49
-0.5
 62
   256
  6
BYLAYER
  0
ACDBPLACEHOLDER
  5
F
102
{ACAD_REACTORS
330
E
102
}
330
E
  0
SCALE
  5
48
102
{ACAD_REACTORS
330
47
102
}
330
47
100
AcDbScale
 70
     0
300
1:1
140
1.0
141
1.0
290
     1
  0
SCALE
  5
49
102
{ACAD_REACTORS
330
47
102
}
330
47
100
AcDbScale
 70
     0
300
1:2
140
1.0
141
2.0
290
     0
  0
SCALE
  5
4A
102
{ACAD_REACTORS
330
47
102
}
330
47
100
AcDbScale
 70
     0
300
1:4
140
1.0
141
4.0
290
     0
  0
SCALE
  5
4B
102
{ACAD_REACTORS
330
47
102
}
330
47
100
AcDbScale
 70
     0
300
1:5
140
1.0
141
5.0
290
     0
  0
SCALE
  5
4C
102
{ACAD_REACTORS
330
47
102
}
330
47
100
AcDbScale
 70
     0
300
1:8
140
1.0
141
8.0
290
     0
  0
SCALE
  5
4D
102
{ACAD_REACTORS
330
47
102
}
330
47
100
AcDbScale
 70
     0
300
1:10
140
1.0
141
10.0
290
     0
  0
SCALE
  5
4E
102
{ACAD_REACTORS
330
47
102
}
330
47
100
AcDbScale
 70
     0
300
1:16
140
1.0
141
16.0
290
     0
  0
SCALE
  5
4F
102
{ACAD_REACTORS
330
47
102
}
330
47
100
AcDbScale
 70
     0
300
1:20
140
1.0
141
20.0
290
     0
  0
SCALE
  5
50
102
{ACAD_REACTORS
330
47
102
}
330
47
100
AcDbScale
 70
     0
300
1:30
140
1.0
141
30.0
290
     0
  0
SCALE
  5
51
102
{ACAD_REACTORS
330
47
102
}
330
47
100
AcDbScale
 70
     0
300
1:40
140
1.0
141
40.0
290
     0
  0
SCALE
  5
52
102
{ACAD_REACTORS
330
47
102
}
330
47
100
AcDbScale
 70
     0
300
1:50
140
1.0
141
50.0
290
     0
  0
SCALE
  5
53
102
{ACAD_REACTORS
330
47
102
}
330
47
100
AcDbScale
 70
     0
300
1:100
140
1.0
141
100.0
290
     0
  0
SCALE
  5
54
102
{ACAD_REACTORS
330
47
102
}
330
47
100
AcDbScale
 70
     0
300
2:1
140
2.0
141
1.0
290
     0
  0
SCALE
  5
55
102
{ACAD_REACTORS
330
47
102
}
330
47
100
AcDbScale
 70
     0
300
4:1
140
4.0
141
1.0
290
     0
  0
SCALE
  5
56
102
{ACAD_REACTORS
330
47
102
}
330
47
100
AcDbScale
 70
     0
300
8:1
140
8.0
141
1.0
290
     0
  0
SCALE
  5
57
102
{ACAD_REACTORS
330
47
102
}
330
47
100
AcDbScale
 70
     0
300
10:1
140
10.0
141
1.0
290
     0
  0
SCALE
  5
58
102
{ACAD_REACTORS
330
47
102
}
330
47
100
AcDbScale
 70
     0
300
100:1
140
100.0
141
1.0
290
     0
  0
SCALE
  5
59
102
{ACAD_REACTORS
330
47
102
}
330
47
100
AcDbScale
 70
     0
300
1/128" = 1'-0"
140
0.0078125
141
12.0
290
     0
  0
SCALE
  5
5A
102
{ACAD_REACTORS
330
47
102
}
330
47
100
AcDbScale
 70
     0
300
1/64" = 1'-0"
140
0.015625
141
12.0
290
     0
  0
SCALE
  5
5B
102
{ACAD_REACTORS
330
47
102
}
330
47
100
AcDbScale
 70
     0
300
1/32" = 1'-0"
140
0.03125
141
12.0
290
     0
  0
SCALE
  5
5C
102
{ACAD_REACTORS
330
47
102
}
330
47
100
AcDbScale
 70
     0
300
1/16" = 1'-0"
140
0.0625
141
12.0
290
     0
  0
SCALE
  5
5D
102
{ACAD_REACTORS
330
47
102
}
330
47
100
AcDbScale
 70
     0
300
3/32" = 1'-0"
140
0.09375
141
12.0
290
     0
  0
SCALE
  5
5E
102
{ACAD_REACTORS
330
47
102
}
330
47
100
AcDbScale
 70
     0
300
1/8" = 1'-0"
140
0.125
141
12.0
290
     0
  0
SCALE
  5
5F
102
{ACAD_REACTORS
330
47
102
}
330
47
100
AcDbScale
 70
     0
300
3/16" = 1'-0"
140
0.1875
141
12.0
290
     0
  0
SCALE
  5
60
102
{ACAD_REACTORS
330
47
102
}
330
47
100
AcDbScale
 70
     0
300
1/4" = 1'-0"
140
0.25
141
12.0
290
     0
  0
SCALE
  5
61
102
{ACAD_REACTORS
330
47
102
}
330
47
100
AcDbScale
 70
     0
300
3/8" = 1'-0"
140
0.375
141
12.0
290
     0
  0
SCALE
  5
62
102
{ACAD_REACTORS
330
47
102
}
330
47
100
AcDbScale
 70
     0
300
1/2" = 1'-0"
140
0.5
141
12.0
290
     0
  0
SCALE
  5
63
102
{ACAD_REACTORS
330
47
102
}
330
47
100
AcDbScale
 70
     0
300
3/4" = 1'-0"
140
0.75
141
12.0
290
     0
  0
SCALE
  5
64
102
{ACAD_REACTORS
330
47
102
}
330
47
100
AcDbScale
 70
     0
300
1" = 1'-0"
140
1.0
141
12.0
290
     0
  0
SCALE
  5
65
102
{ACAD_REACTORS
330
47
102
}
330
47
100
AcDbScale
 70
     0
300
1-1/2" = 1'-0"
140
1.5
141
12.0
290
     0
  0
SCALE
  5
66
102
{ACAD_REACTORS
330
47
102
}
330
47
100
AcDbScale
 70
     0
300
3" = 1'-0"
140
3.0
141
12.0
290
     0
  0
SCALE
  5
67
102
{ACAD_REACTORS
330
47
102
}
330
47
100
AcDbScale
 70
     0
300
6" = 1'-0"
140
6.0
141
12.0
290
     0
  0
SCALE
  5
68
102
{ACAD_REACTORS
330
47
102
}
330
47
100
AcDbScale
 70
     0
300
1'-0" = 1'-0"
140
12.0
141
12.0
290
     0
  0
ENDSEC
  0
EOF
