  0
SECTION
  2
HEADER
  9
$ACADVER
  1
AC1014
  9
$HANDSEED
  5
FFFF
  9
$MEASUREMENT
 70
     1
  0
ENDSEC
  0
SECTION
  2
TABLES
  0
TABLE
  2
VPORT
  5
8
330
0
100
AcDbSymbolTable
 70
     4
  0
VPORT
  5
2E
330
8
100
AcDbSymbolTableRecord
100
AcDbViewportTableRecord
  2
*ACTIVE
 70
     0
 10
0.0
 20
0.0
 11
1.0
 21
1.0
 12
210.0
 22
148.5
 13
0.0
 23
0.0
 14
10.0
 24
10.0
 15
10.0
 25
10.0
 16
0.0
 26
0.0
 36
1.0
 17
0.0
 27
0.0
 37
0.0
 40
341.0
 41
1.24
 42
50.0
 43
0.0
 44
0.0
 50
0.0
 51
0.0
 71
     0
 72
   100
 73
     1
 74
     3
 75
     0
 76
     0
 77
     0
 78
     0
  0
ENDTAB
  0
TABLE
  2
LTYPE
  5
5
330
0
100
AcDbSymbolTable
 70
     1
  0
LTYPE
  5
14
330
5
100
AcDbSymbolTableRecord
100
AcDbLinetypeTableRecord
  2
BYBLOCK
 70
     0
  3

 72
    65
 73
     0
 40
0.0
  0
LTYPE
  5
15
330
5
100
AcDbSymbolTableRecord
100
AcDbLinetypeTableRecord
  2
BYLAYER
 70
     0
  3

 72
    65
 73
     0
 40
0.0
  0
LTYPE
  5
16
330
5
100
AcDbSymbolTableRecord
100
AcDbLinetypeTableRecord
  2
CONTINUOUS
 70
     0
  3
Solid line
 72
    65
 73
     0
 40
0.0
  0
ENDTAB
  0
TABLE
  2
LAYER
  5
2
100
AcDbSymbolTable
 70
3
  0
LAYER
  5
50
100
AcDbSymbolTableRecord
100
AcDbLayerTableRecord
  2
0
 70
0
  6
CONTINUOUS
  0
LAYER
  5
51
100
AcDbSymbolTableRecord
100
AcDbLayerTableRecord
  2
shape
 70
0
  6
CONTINUOUS
  0
LAYER
  5
52
100
AcDbSymbolTableRecord
100
AcDbLayerTableRecord
  2
path
 70
0
  6
CONTINUOUS
  0
ENDTAB
  0
TABLE
  2
STYLE
  5
3
330
0
100
AcDbSymbolTable
 70
     1
  0
STYLE
  5
11
330
3
100
AcDbSymbolTableRecord
100
AcDbTextStyleTableRecord
  2
STANDARD
 70
     0
 40
0.0
 41
1.0
 50
0.0
 71
     0
 42
2.5
  3
txt
  4

  0
ENDTAB
  0
TABLE
  2
VIEW
  5
6
330
0
100
AcDbSymbolTable
 70
     0
  0
ENDTAB
  0
TABLE
  2
UCS
  5
7
330
0
100
AcDbSymbolTable
 70
     0
  0
ENDTAB
  0
TABLE
  2
APPID
  5
9
330
0
100
AcDbSymbolTable
 70
     2
  0
APPID
  5
12
330
9
100
AcDbSymbolTableRecord
100
AcDbRegAppTableRecord
  2
ACAD
 70
     0
  0
ENDTAB
  0
TABLE
  2
DIMSTYLE
  5
A
330
0
100
AcDbSymbolTable
 70
     1
  0
DIMSTYLE
105
27
330
A
100
AcDbSymbolTableRecord
100
AcDbDimStyleTableRecord
  2
ISO-25
 70
     0
  3

  4

  5

  6

  7

 40
1.0
 41
2.5
 42
0.625
 43
3.75
 44
1.25
 45
0.0
 46
0.0
 47
0.0
 48
0.0
140
2.5
141
2.5
142
0.0
143
0.03937007874016
144
1.0
145
0.0
146
1.0
147
0.625
 71
     0
 72
     0
 73
     0
 74
     0
 75
     0
 76
     0
 77
     1
 78
     8
170
     0
171
     3
172
     1
173
     0
174
     0
175
     0
176
     0
177
     0
178
     0
270
     2
271
     2
272
     2
273
     2
274
     3
340
11
275
     0
280
     0
281
     0
282
     0
283
     0
284
     8
285
     0
286
     0
287
     3
288
     0
  0
ENDTAB
  0
TABLE
  2
BLOCK_RECORD
  5
1
330
0
100
AcDbSymbolTable
 70
     1
  0
BLOCK_RECORD
  5
1F
330
1
100
AcDbSymbolTableRecord
100
AcDbBlockTableRecord
  2
*MODEL_SPACE
  0
BLOCK_RECORD
  5
1B
330
1
100
AcDbSymbolTableRecord
100
AcDbBlockTableRecord
  2
*PAPER_SPACE
  0
ENDTAB
  0
ENDSEC
  0
SECTION
  2
BLOCKS
  0
BLOCK
  5
20
330
1F
100
AcDbEntity
  8
0
100
AcDbBlockBegin
  2
*MODEL_SPACE
 70
     0
 10
0.0
 20
0.0
 30
0.0
  3
*MODEL_SPACE
  1

  0
ENDBLK
  5
21
330
1F
100
AcDbEntity
  8
0
100
AcDbBlockEnd
  0
BLOCK
  5
1C
330
1B
100
AcDbEntity
 67
     1
  8
0
100
AcDbBlockBegin
  2
*PAPER_SPACE
  1

  0
ENDBLK
  5
1D
330
1B
100
AcDbEntity
 67
     1
  8
0
100
AcDbBlockEnd
  0
ENDSEC
  0
SECTION
  2
ENTITIES
  0
LWPOLYLINE
  5
100
100
AcDbEntity
  8
shape
 62
5
100
AcDbPolyline
 90
192
 70
1
 10
6.784153
 20
8.567478
 30
0.0
 10
6.708825
 20
7.910944
 30
0.0
 10
6.667557
 20
6.667530
 30
0.0
 10
176.433488
 20
6.667530
 30
0.0
 10
176.380030
 20
7.809231
 30
0.0
 10
176.275543
 20
8.720753
 30
0.0
 10
176.119623
 20
10.077959
 30
0.0
 10
175.909032
 20
10.982030
 30
0.0
 10
175.601647
 20
12.302209
 30
0.0
 10
175.283735
 20
13.192366
 30
0.0
 10
174.833390
 20
14.452884
 30
0.0
 10
174.405321
 20
15.322512
 30
0.0
 10
173.824573
 20
16.502195
 30
0.0
 10
173.283513
 20
17.342986
 30
0.0
 10
172.588558
 20
18.423163
 30
0.0
 10
171.931671
 20
19.226006
 30
0.0
 10
171.141545
 20
20.191046
 30
0.0
 10
170.364782
 20
20.944844
 30
0.0
 10
169.501758
 20
21.782474
 30
0.0
 10
168.603097
 20
22.474757
 30
0.0
 10
167.691475
 20
23.177002
 30
0.0
 10
166.668481
 20
23.793186
 30
0.0
 10
165.733775
 20
24.356197
 30
0.0
 10
164.586048
 20
24.879843
 30
0.0
 10
163.654176
 20
25.304754
 30
0.0
 10
162.382522
 20
25.717476
 30
0.0
 10
161.479809
 20
26.010482
 30
0.0
 10
160.088278
 20
26.292069
 30
0.0
 10
159.239026
 20
26.463863
 30
0.0
 10
157.734505
 20
26.592972
 30
0.0
 10
156.961386
 20
26.659390
 30
0.0
 10
156.406556
 20
26.667461
 30
0.0
 10
156.346215
 20
27.809358
 30
0.0
 10
156.206901
 20
29.022572
 30
0.0
 10
156.085405
 20
30.077883
 30
0.0
 10
155.804749
 20
31.284010
 30
0.0
 10
155.567428
 20
32.302144
 30
0.0
 10
155.141789
 20
33.493692
 30
0.0
 10
154.799171
 20
34.452858
 30
0.0
 10
154.223686
 20
35.621768
 30
0.0
 10
153.789947
 20
36.502124
 30
0.0
 10
153.058543
 20
37.638311
 30
0.0
 10
152.553526
 20
38.423295
 30
0.0
 10
151.659725
 20
39.514688
 30
0.0
 10
151.105703
 20
40.190974
 30
0.0
 10
150.041808
 20
41.223442
 30
0.0
 10
149.465513
 20
41.782324
 30
0.0
 10
148.223828
 20
42.738899
 30
0.0
 10
147.654419
 20
43.177094
 30
0.0
 10
146.227252
 20
44.036472
 30
0.0
 10
145.695910
 20
44.356004
 30
0.0
 10
144.076778
 20
45.094292
 30
0.0
 10
141.799951
 20
45.893735
 30
0.0
 10
139.426332
 20
46.417787
 30
0.0
 10
136.988319
 20
46.653488
 30
0.0
 10
136.324955
 20
46.667656
 30
0.0
 10
136.302265
 20
47.527440
 30
0.0
 10
136.230580
 20
48.349965
 30
0.0
 10
136.030925
 20
50.078037
 30
0.0
 10
135.901732
 20
50.630843
 30
0.0
 10
135.510922
 20
52.302217
 30
0.0
 10
135.304784
 20
52.876082
 30
0.0
 10
134.738615
 20
54.453094
 30
0.0
 10
134.441356
 20
55.054092
 30
0.0
 10
133.725341
 20
56.502321
 30
0.0
 10
133.316305
 20
57.135312
 30
0.0
 10
132.483657
 20
58.423165
 30
0.0
 10
131.936521
 20
59.088151
 30
0.0
 10
131.029354
 20
60.190926
 30
0.0
 10
130.312530
 20
60.883451
 30
0.0
 10
129.382280
 20
61.782521
 30
0.0
 10
128.458508
 20
62.490840
 30
0.0
 10
127.563084
 20
63.176885
 30
0.0
 10
126.388628
 20
63.881154
 30
0.0
 10
125.596071
 20
64.356201
 30
0.0
 10
124.121520
 20
65.025641
 30
0.0
 10
123.506752
 20
65.304677
 30
0.0
 10
121.675813
 20
65.896362
 30
0.0
 10
119.073377
 20
66.463340
 30
0.0
 10
116.755240
 20
66.659352
 30
0.0
 10
116.158696
 20
66.667452
 30
0.0
 10
116.153842
 20
67.176519
 30
0.0
 10
116.127510
 20
68.000664
 30
0.0
 10
116.098351
 20
68.534030
 30
0.0
 10
116.063928
 20
69.044717
 30
0.0
 10
116.007634
 20
69.579297
 30
0.0
 10
115.921372
 20
70.130079
 30
0.0
 10
115.814458
 20
70.748490
 30
0.0
 10
115.681622
 20
71.460051
 30
0.0
 10
115.544735
 20
72.156220
 30
0.0
 10
115.403802
 20
72.817156
 30
0.0
 10
115.201308
 20
73.483356
 30
0.0
 10
114.967227
 20
74.204230
 30
0.0
 10
114.602740
 20
75.328471
 30
0.0
 10
114.045481
 20
76.620374
 30
0.0
 10
113.409247
 20
78.030128
 30
0.0
 10
112.566475
 20
79.449195
 30
0.0
 10
112.069555
 20
80.283466
 30
0.0
 10
111.570208
 20
80.958576
 30
0.0
 10
110.519272
 20
82.379669
 30
0.0
 10
109.887091
 20
83.075841
 30
0.0
 10
109.021234
 20
84.004877
 30
0.0
 10
107.467304
 20
85.413414
 30
0.0
 10
106.853347
 20
85.951236
 30
0.0
 10
105.731132
 20
86.747436
 30
0.0
 10
104.774557
 20
87.426192
 30
0.0
 10
103.824459
 20
87.964014
 30
0.0
 10
102.560501
 20
88.679216
 30
0.0
 10
101.762275
 20
89.028314
 30
0.0
 10
100.233051
 20
89.697350
 30
0.0
 10
99.562395
 20
89.911991
 30
0.0
 10
97.816907
 20
90.470466
 30
0.0
 10
97.244258
 20
90.590343
 30
0.0
 10
95.336374
 20
90.990063
 30
0.0
 10
94.829331
 20
91.042711
 30
0.0
 10
92.816553
 20
91.251279
 30
0.0
 10
90.284179
 20
91.251279
 30
0.0
 10
87.764767
 20
90.990063
 30
0.0
 10
87.224514
 20
90.877072
 30
0.0
 10
85.284231
 20
90.470466
 30
0.0
 10
84.646378
 20
90.266355
 30
0.0
 10
82.986750
 20
89.735419
 30
0.0
 10
91.423403
 20
89.510248
 30
0.0
 10
91.423403
 20
85.263571
 30
0.0
 10
75.462525
 20
85.263571
 30
0.0
 10
74.690218
 20
84.588055
 30
0.0
 10
73.213643
 20
83.075841
 30
0.0
 10
72.581460
 20
82.379669
 30
0.0
 10
71.737875
 20
81.238825
 30
0.0
 10
91.423403
 20
81.013654
 30
0.0
 10
91.423403
 20
76.766977
 30
0.0
 10
69.121672
 20
76.766977
 30
0.0
 10
68.576560
 20
75.558905
 30
0.0
 10
68.361918
 20
74.909309
 30
0.0
 10
67.899830
 20
73.483356
 30
0.0
 10
67.696932
 20
72.817156
 30
0.0
 10
91.423403
 20
72.517061
 30
0.0
 10
91.423403
 20
68.269980
 30
0.0
 10
67.061105
 20
68.269980
 30
0.0
 10
66.955808
 20
67.540599
 30
0.0
 10
66.944886
 20
67.020599
 30
0.0
 10
66.518437
 20
66.661782
 30
0.0
 10
64.045595
 20
66.465364
 30
0.0
 10
62.093565
 20
66.073744
 30
0.0
 10
60.157332
 20
65.486922
 30
0.0
 10
59.594400
 20
65.304677
 30
0.0
 10
58.253091
 20
64.695983
 30
0.0
 10
57.505081
 20
64.356201
 30
0.0
 10
91.423414
 20
64.020064
 30
0.0
 10
91.423414
 20
59.773387
 30
0.0
 10
51.727966
 20
59.773387
 30
0.0
 10
50.617495
 20
58.423165
 30
0.0
 10
50.207652
 20
57.789364
 30
0.0
 10
49.375811
 20
56.502321
 30
0.0
 10
49.075312
 20
55.895247
 30
0.0
 10
91.423414
 20
55.523470
 30
0.0
 10
91.423414
 20
51.276390
 30
0.0
 10
47.382879
 20
51.276390
 30
0.0
 10
47.069824
 20
50.078037
 30
0.0
 10
47.007052
 20
49.533332
 30
0.0
 10
46.808204
 20
47.809309
 30
0.0
 10
46.791186
 20
47.251644
 30
0.0
 10
91.417332
 20
47.026473
 30
0.0
 10
91.417332
 20
42.779393
 30
0.0
 10
34.922686
 20
42.779393
 30
0.0
 10
33.624385
 20
41.782318
 30
0.0
 10
31.980386
 20
40.190969
 30
0.0
 10
30.801189
 20
38.754689
 30
0.0
 10
91.441631
 20
38.529758
 30
0.0
 10
91.441631
 20
34.282799
 30
0.0
 10
28.221920
 20
34.282799
 30
0.0
 10
27.507687
 20
32.302138
 30
0.0
 10
27.030534
 20
30.257935
 30
0.0
 10
91.443251
 20
30.032964
 30
0.0
 10
91.443251
 20
25.786002
 30
0.0
 10
20.911327
 20
25.786002
 30
0.0
 10
19.425516
 20
25.304760
 30
0.0
 10
17.342069
 20
24.356202
 30
0.0
 10
15.380563
 20
23.177007
 30
0.0
 10
14.955329
 20
22.850022
 30
0.0
 10
13.581699
 20
21.791511
 30
0.0
 10
91.428672
 20
21.536167
 30
0.0
 10
91.428672
 20
17.289208
 30
0.0
 10
9.756491
 20
17.289208
 30
0.0
 10
9.285088
 20
16.556145
 30
0.0
 10
8.276553
 20
14.522169
 30
0.0
 10
7.818434
 20
13.264333
 30
0.0
 10
91.430698
 20
13.039402
 30
0.0
 10
91.430698
 20
8.792409
 30
0.0
 10
6.869553
 20
8.792409
 30
0.0
 10
6.784142
 20
8.567478
 30
0.0
 10
6.784153
 20
8.567478
 30
0.0
  0
LWPOLYLINE
  5
101
100
AcDbEntity
  8
shape
 62
5
100
AcDbPolyline
 90
125
 70
1
 10
179.627203
 20
7.574789
 30
0.0
 10
179.608576
 20
6.667530
 30
0.0
 10
348.674154
 20
6.667530
 30
0.0
 10
348.633655
 20
8.567308
 30
0.0
 10
264.275220
 20
8.792409
 30
0.0
 10
264.275220
 20
13.039232
 30
0.0
 10
348.299137
 20
13.039232
 30
0.0
 10
348.359899
 20
13.708071
 30
0.0
 10
348.164291
 20
15.460612
 30
0.0
 10
347.985278
 20
17.064111
 30
0.0
 10
264.269547
 20
17.289203
 30
0.0
 10
264.269547
 20
21.536001
 30
0.0
 10
347.183400
 20
21.536001
 30
0.0
 10
347.058262
 20
23.010877
 30
0.0
 10
346.669473
 20
24.730971
 30
0.0
 10
346.481569
 20
25.560868
 30
0.0
 10
264.281697
 20
25.785997
 30
0.0
 10
264.281697
 20
30.032795
 30
0.0
 10
345.176292
 20
30.032795
 30
0.0
 10
344.732441
 20
32.111991
 30
0.0
 10
344.154929
 20
33.778141
 30
0.0
 10
343.972698
 20
34.282793
 30
0.0
 10
264.281697
 20
34.282793
 30
0.0
 10
264.281697
 20
38.529592
 30
0.0
 10
342.204520
 20
38.529592
 30
0.0
 10
341.410742
 20
40.898635
 30
0.0
 10
340.651818
 20
42.490228
 30
0.0
 10
264.280080
 20
42.779387
 30
0.0
 10
264.280080
 20
47.026467
 30
0.0
 10
338.148986
 20
47.026467
 30
0.0
 10
337.134510
 20
49.262393
 30
0.0
 10
336.203854
 20
50.760027
 30
0.0
 10
335.883109
 20
51.276384
 30
0.0
 10
264.287367
 20
51.276384
 30
0.0
 10
264.287367
 20
55.523061
 30
0.0
 10
332.818994
 20
55.523061
 30
0.0
 10
331.956777
 20
57.099667
 30
0.0
 10
330.865339
 20
58.485124
 30
0.0
 10
330.027816
 20
59.548210
 30
0.0
 10
264.268334
 20
59.772977
 30
0.0
 10
264.268334
 20
64.020058
 30
0.0
 10
325.916403
 20
64.020058
 30
0.0
 10
324.702678
 20
65.569938
 30
0.0
 10
322.641694
 20
67.659661
 30
0.0
 10
322.217288
 20
68.044801
 30
0.0
 10
264.271977
 20
68.269975
 30
0.0
 10
264.271977
 20
72.516649
 30
0.0
 10
316.700972
 20
72.516649
 30
0.0
 10
315.511519
 20
73.775346
 30
0.0
 10
314.081922
 20
74.807652
 30
0.0
 10
311.702648
 20
76.526411
 30
0.0
 10
264.276840
 20
76.766568
 30
0.0
 10
264.276840
 20
81.013648
 30
0.0
 10
303.808666
 20
81.013648
 30
0.0
 10
302.074919
 20
82.154086
 30
0.0
 10
299.443338
 20
83.453685
 30
0.0
 10
297.821378
 20
84.145401
 30
0.0
 10
295.727176
 20
85.038394
 30
0.0
 10
295.199506
 20
85.263565
 30
0.0
 10
264.295063
 20
85.263565
 30
0.0
 10
264.295063
 20
89.510242
 30
0.0
 10
279.437059
 20
89.510242
 30
0.0
 10
277.013628
 20
90.193855
 30
0.0
 10
275.264090
 20
90.413762
 30
0.0
 10
272.351841
 20
90.779869
 30
0.0
 10
270.592990
 20
90.902580
 30
0.0
 10
267.664946
 20
91.106288
 30
0.0
 10
265.901638
 20
91.130982
 30
0.0
 10
262.966711
 20
91.171481
 30
0.0
 10
261.204620
 20
91.098179
 30
0.0
 10
258.272122
 20
90.975469
 30
0.0
 10
255.347721
 20
90.689953
 30
0.0
 10
253.589680
 20
90.518645
 30
0.0
 10
250.691605
 20
90.071542
 30
0.0
 10
248.952193
 20
89.803443
 30
0.0
 10
247.226955
 20
89.438549
 30
0.0
 10
244.355202
 20
88.831071
 30
0.0
 10
242.653050
 20
88.370603
 30
0.0
 10
239.819773
 20
87.604373
 30
0.0
 10
238.145563
 20
87.049947
 30
0.0
 10
235.359265
 20
86.127391
 30
0.0
 10
233.718670
 20
85.481034
 30
0.0
 10
230.987854
 20
84.405392
 30
0.0
 10
229.385326
 20
83.668725
 30
0.0
 10
226.718901
 20
82.442833
 30
0.0
 10
225.159708
 20
81.618281
 30
0.0
 10
222.565372
 20
80.245787
 30
0.0
 10
221.054778
 20
79.335787
 30
0.0
 10
218.540626
 20
77.821546
 30
0.0
 10
217.083087
 20
76.828928
 30
0.0
 10
214.656817
 20
75.177395
 30
0.0
 10
213.256379
 20
74.105399
 30
0.0
 10
210.925687
 20
72.321035
 30
0.0
 10
209.587211
 20
71.173305
 30
0.0
 10
207.358982
 20
69.262180
 30
0.0
 10
206.086518
 20
68.041552
 30
0.0
 10
203.968446
 20
66.009741
 30
0.0
 10
202.765234
 20
64.720268
 30
0.0
 10
200.763392
 20
62.574250
 30
0.0
 10
199.633888
 20
61.219575
 30
0.0
 10
197.754350
 20
58.965427
 30
0.0
 10
196.702197
 20
57.550410
 30
0.0
 10
194.950636
 20
55.195014
 30
0.0
 10
193.978265
 20
53.724106
 30
0.0
 10
192.360350
 20
51.274756
 30
0.0
 10
191.471812
 20
49.752011
 30
0.0
 10
189.992401
 20
47.216804
 30
0.0
 10
189.189718
 20
45.646674
 30
0.0
 10
187.853266
 20
43.033302
 30
0.0
 10
187.139278
 20
41.421057
 30
0.0
 10
185.950242
 20
38.737462
 30
0.0
 10
185.326565
 20
37.087916
 30
0.0
 10
184.288992
 20
34.342399
 30
0.0
 10
183.758055
 20
32.660778
 30
0.0
 10
182.874378
 20
29.861763
 30
0.0
 10
182.437803
 20
28.153412
 30
0.0
 10
181.710855
 20
25.309648
 30
0.0
 10
181.369857
 20
23.579428
 30
0.0
 10
180.802068
 20
20.699779
 30
0.0
 10
180.557861
 20
18.953281
 30
0.0
 10
180.151258
 20
16.046417
 30
0.0
 10
180.003436
 20
14.276523
 30
0.0
 10
179.758015
 20
11.328627
 30
0.0
 10
179.627205
 20
7.574789
 30
0.0
 10
179.627203
 20
7.574789
 30
0.0
  0
LWPOLYLINE
  5
102
100
AcDbEntity
  8
shape
 62
5
100
AcDbPolyline
 90
63
 70
1
 10
351.852089
 20
6.988360
 30
0.0
 10
377.812046
 20
6.667530
 30
0.0
 10
401.226274
 20
6.667530
 30
0.0
 10
401.219501
 20
7.238268
 30
0.0
 10
401.194101
 20
7.928047
 30
0.0
 10
401.161306
 20
8.495201
 30
0.0
 10
376.664954
 20
8.792409
 30
0.0
 10
376.664954
 20
13.039232
 30
0.0
 10
400.271149
 20
13.039232
 30
0.0
 10
400.068655
 20
14.134622
 30
0.0
 10
399.664061
 20
15.350012
 30
0.0
 10
398.923764
 20
17.064111
 30
0.0
 10
376.664954
 20
17.289203
 30
0.0
 10
376.664954
 20
21.536001
 30
0.0
 10
395.977900
 20
21.536001
 30
0.0
 10
395.506900
 20
22.502457
 30
0.0
 10
393.873595
 20
24.275038
 30
0.0
 10
393.308219
 20
24.798038
 30
0.0
 10
392.429012
 20
25.560868
 30
0.0
 10
376.664954
 20
25.785997
 30
0.0
 10
376.664954
 20
30.032795
 30
0.0
 10
383.638806
 20
30.032795
 30
0.0
 10
382.804134
 20
30.549640
 30
0.0
 10
381.605762
 20
30.798461
 30
0.0
 10
380.323598
 20
31.064577
 30
0.0
 10
379.038979
 20
31.196643
 30
0.0
 10
377.804172
 20
31.323524
 30
0.0
 10
375.271792
 20
31.323524
 30
0.0
 10
373.975037
 20
31.190163
 30
0.0
 10
372.752394
 20
31.064577
 30
0.0
 10
371.526082
 20
30.810043
 30
0.0
 10
370.271858
 20
30.549640
 30
0.0
 10
369.164221
 20
30.198434
 30
0.0
 10
367.855302
 20
29.783649
 30
0.0
 10
366.911297
 20
29.374210
 30
0.0
 10
365.528267
 20
28.774507
 30
0.0
 10
364.788760
 20
28.359722
 30
0.0
 10
363.313811
 20
27.532822
 30
0.0
 10
362.815265
 20
27.182105
 30
0.0
 10
361.235413
 20
26.071067
 30
0.0
 10
359.767745
 20
24.798038
 30
0.0
 10
359.380169
 20
24.454932
 30
0.0
 10
357.933159
 20
22.897644
 30
0.0
 10
357.569093
 20
22.502457
 30
0.0
 10
356.678512
 20
21.315650
 30
0.0
 10
356.018790
 20
20.436548
 30
0.0
 10
355.617470
 20
19.771965
 30
0.0
 10
354.874717
 20
18.542916
 30
0.0
 10
354.035191
 20
16.810509
 30
0.0
 10
353.564190
 20
15.787436
 30
0.0
 10
353.056331
 20
14.281264
 30
0.0
 10
352.756244
 20
13.380326
 30
0.0
 10
352.494201
 20
12.287788
 30
0.0
 10
352.319675
 20
11.456643
 30
0.0
 10
352.181978
 20
10.765142
 30
0.0
 10
352.077895
 20
10.209249
 30
0.0
 10
352.004574
 20
9.589743
 30
0.0
 10
351.957612
 20
9.062157
 30
0.0
 10
351.914686
 20
8.495201
 30
0.0
 10
351.873764
 20
7.753380
 30
0.0
 10
351.856266
 20
7.238268
 30
0.0
 10
351.852315
 20
6.988360
 30
0.0
 10
351.852089
 20
6.988360
 30
0.0
  0
LWPOLYLINE
  5
103
100
AcDbEntity
  8
shape
 62
5
100
AcDbPolyline
 90
53
 70
1
 10
351.929023
 20
36.222916
 30
0.0
 10
351.859370
 20
35.118360
 30
0.0
 10
351.849210
 20
34.498569
 30
0.0
 10
395.454406
 20
34.498569
 30
0.0
 10
395.444246
 20
35.118360
 30
0.0
 10
395.365280
 20
36.370978
 30
0.0
 10
373.778752
 20
36.623449
 30
0.0
 10
373.778752
 20
40.870286
 30
0.0
 10
394.319591
 20
40.870286
 30
0.0
 10
394.170972
 20
41.868168
 30
0.0
 10
393.960773
 20
42.380071
 30
0.0
 10
393.261370
 20
43.959513
 30
0.0
 10
392.789156
 20
44.895029
 30
0.0
 10
373.778752
 20
45.120200
 30
0.0
 10
373.778752
 20
49.366877
 30
0.0
 10
389.250005
 20
49.366877
 30
0.0
 10
388.954349
 20
50.005540
 30
0.0
 10
387.157835
 20
51.584983
 30
0.0
 10
386.551988
 20
52.059220
 30
0.0
 10
384.661523
 20
53.294425
 30
0.0
 10
384.022431
 20
53.617200
 30
0.0
 10
373.778752
 20
53.617200
 30
0.0
 10
373.778752
 20
56.263372
 30
0.0
 10
372.510332
 20
56.263372
 30
0.0
 10
370.121321
 20
55.992032
 30
0.0
 10
367.884992
 20
55.482562
 30
0.0
 10
367.385233
 20
55.361875
 30
0.0
 10
365.803378
 20
54.777480
 30
0.0
 10
364.969100
 20
54.469692
 30
0.0
 10
363.880090
 20
53.919319
 30
0.0
 10
362.642065
 20
53.294425
 30
0.0
 10
362.116370
 20
52.950998
 30
0.0
 10
360.751572
 20
52.059220
 30
0.0
 10
359.113413
 20
50.677410
 30
0.0
 10
358.349211
 20
50.005540
 30
0.0
 10
357.851061
 20
49.465288
 30
0.0
 10
357.178808
 20
48.736316
 30
0.0
 10
356.747092
 20
48.225629
 30
0.0
 10
355.798600
 20
46.936156
 30
0.0
 10
355.233647
 20
46.116871
 30
0.0
 10
354.682862
 20
45.228737
 30
0.0
 10
354.281119
 20
44.432941
 30
0.0
 10
354.042190
 20
43.959513
 30
0.0
 10
353.702818
 20
43.193280
 30
0.0
 10
353.226144
 20
42.116831
 30
0.0
 10
352.814664
 20
40.818448
 30
0.0
 10
352.505659
 20
39.637915
 30
0.0
 10
352.355009
 20
39.025213
 30
0.0
 10
352.255384
 20
38.493346
 30
0.0
 10
352.100698
 20
37.663124
 30
0.0
 10
351.938280
 20
36.370978
 30
0.0
 10
351.928966
 20
36.222916
 30
0.0
 10
351.929023
 20
36.222916
 30
0.0
  0
LWPOLYLINE
  5
104
100
AcDbEntity
  8
shape
 62
5
100
AcDbPolyline
 90
35
 70
1
 10
352.253437
 20
61.338244
 30
0.0
 10
351.976831
 20
60.580113
 30
0.0
 10
351.861797
 20
59.812260
 30
0.0
 10
389.081179
 20
59.438053
 30
0.0
 10
404.956998
 20
59.438053
 30
0.0
 10
404.942040
 20
60.437557
 30
0.0
 10
404.011807
 20
62.848841
 30
0.0
 10
403.371925
 20
63.640991
 30
0.0
 10
402.215689
 20
65.073021
 30
0.0
 10
400.232485
 20
66.672713
 30
0.0
 10
399.393749
 20
67.223492
 30
0.0
 10
395.482403
 20
69.086830
 30
0.0
 10
394.973330
 20
69.272719
 30
0.0
 10
390.842895
 20
70.428546
 30
0.0
 10
386.901972
 20
71.193969
 30
0.0
 10
386.282353
 20
71.288330
 30
0.0
 10
381.771200
 20
71.671850
 30
0.0
 10
380.519009
 20
71.693327
 30
0.0
 10
378.260808
 20
71.731396
 30
0.0
 10
378.260808
 20
70.060020
 30
0.0
 10
364.615617
 20
70.060020
 30
0.0
 10
363.667153
 20
69.834849
 30
0.0
 10
362.900920
 20
69.589022
 30
0.0
 10
361.919633
 20
69.272730
 30
0.0
 10
360.427665
 20
68.644193
 30
0.0
 10
358.964879
 20
68.028209
 30
0.0
 10
358.131816
 20
67.585967
 30
0.0
 10
357.449826
 20
67.223503
 30
0.0
 10
356.209346
 20
66.315526
 30
0.0
 10
355.911686
 20
65.810103
 30
0.0
 10
378.302915
 20
65.810103
 30
0.0
 10
378.302915
 20
61.563023
 30
0.0
 10
352.338894
 20
61.563023
 30
0.0
 10
352.253465
 20
61.338255
 30
0.0
 10
352.253437
 20
61.338244
 30
0.0
  0
LWPOLYLINE
  5
105
100
AcDbEntity
  8
shape
 62
5
100
AcDbPolyline
 90
34
 70
1
 10
351.970735
 20
76.544231
 30
0.0
 10
351.887734
 20
75.974009
 30
0.0
 10
351.861769
 20
75.260831
 30
0.0
 10
362.354932
 20
74.923073
 30
0.0
 10
379.724356
 20
74.923073
 30
0.0
 10
379.698391
 20
75.642327
 30
0.0
 10
379.562727
 20
76.822860
 30
0.0
 10
365.913896
 20
77.048031
 30
0.0
 10
365.913896
 20
81.295112
 30
0.0
 10
377.923750
 20
81.295112
 30
0.0
 10
377.427631
 20
82.596737
 30
0.0
 10
376.796667
 20
83.483655
 30
0.0
 10
375.322112
 20
85.086586
 30
0.0
 10
374.802936
 20
85.545028
 30
0.0
 10
365.913896
 20
85.545028
 30
0.0
 10
365.913896
 20
88.804757
 30
0.0
 10
364.520762
 20
88.804757
 30
0.0
 10
363.802704
 20
88.677187
 30
0.0
 10
362.001336
 20
88.356842
 30
0.0
 10
360.556754
 20
87.837652
 30
0.0
 10
359.792552
 20
87.514474
 30
0.0
 10
358.190433
 20
86.540889
 30
0.0
 10
357.104244
 20
85.839454
 30
0.0
 10
356.721946
 20
85.501696
 30
0.0
 10
356.251764
 20
85.086586
 30
0.0
 10
355.498090
 20
84.267705
 30
0.0
 10
354.777209
 20
83.483655
 30
0.0
 10
354.413538
 20
82.972968
 30
0.0
 10
353.558207
 20
81.508539
 30
0.0
 10
352.899303
 20
80.287914
 30
0.0
 10
352.562753
 20
79.361714
 30
0.0
 10
352.277228
 20
78.375573
 30
0.0
 10
351.970650
 20
76.544231
 30
0.0
 10
351.970735
 20
76.544231
 30
0.0
  0
LWPOLYLINE
  5
106
100
AcDbEntity
  8
shape
 62
5
100
AcDbPolyline
 90
179
 70
1
 10
6.778280
 20
96.224898
 30
0.0
 10
6.702346
 20
95.568416
 30
0.0
 10
6.675941
 20
94.738197
 30
0.0
 10
129.341386
 20
94.426358
 30
0.0
 10
174.694480
 20
94.426358
 30
0.0
 10
174.694198
 20
95.067855
 30
0.0
 10
174.609554
 20
96.046703
 30
0.0
 10
174.401393
 20
97.836740
 30
0.0
 10
173.876936
 20
100.060919
 30
0.0
 10
173.689024
 20
100.580919
 30
0.0
 10
173.099366
 20
102.211797
 30
0.0
 10
172.822760
 20
102.767030
 30
0.0
 10
172.077992
 20
104.261021
 30
0.0
 10
171.690016
 20
104.856352
 30
0.0
 10
170.826588
 20
106.182274
 30
0.0
 10
170.300512
 20
106.816481
 30
0.0
 10
169.361350
 20
107.950035
 30
0.0
 10
168.666394
 20
108.616235
 30
0.0
 10
167.700909
 20
109.541221
 30
0.0
 10
166.804272
 20
110.223623
 30
0.0
 10
165.867946
 20
110.935991
 30
0.0
 10
164.735202
 20
111.609887
 30
0.0
 10
163.885544
 20
112.115308
 30
0.0
 10
162.483890
 20
112.746681
 30
0.0
 10
161.780025
 20
113.063783
 30
0.0
 10
160.081112
 20
113.608489
 30
0.0
 10
159.578525
 20
113.769268
 30
0.0
 10
157.559671
 20
114.173038
 30
0.0
 10
155.342378
 20
114.389706
 30
0.0
 10
154.403623
 20
114.426561
 30
0.0
 10
154.354617
 20
115.568212
 30
0.0
 10
154.189788
 20
116.978372
 30
0.0
 10
154.089351
 20
117.836940
 30
0.0
 10
153.750786
 20
119.268159
 30
0.0
 10
153.562871
 20
120.061122
 30
0.0
 10
153.032341
 20
121.522714
 30
0.0
 10
152.782061
 20
122.211997
 30
0.0
 10
152.032837
 20
123.708825
 30
0.0
 10
151.756231
 20
124.261224
 30
0.0
 10
150.754297
 20
125.792474
 30
0.0
 10
149.203204
 20
127.740047
 30
0.0
 10
147.388061
 20
129.515908
 30
0.0
 10
145.497590
 20
130.935788
 30
0.0
 10
143.478332
 20
132.115104
 30
0.0
 10
142.874498
 20
132.382394
 30
0.0
 10
141.333530
 20
133.063580
 30
0.0
 10
140.269632
 20
133.398504
 30
0.0
 10
139.090722
 20
133.769471
 30
0.0
 10
137.474017
 20
134.086573
 30
0.0
 10
136.779875
 20
134.223053
 30
0.0
 10
134.526536
 20
134.410158
 30
0.0
 10
133.821051
 20
134.426357
 30
0.0
 10
133.778933
 20
135.568014
 30
0.0
 10
133.570771
 20
137.316739
 30
0.0
 10
133.509213
 20
137.836742
 30
0.0
 10
133.073448
 20
139.645405
 30
0.0
 10
132.271172
 20
141.959086
 30
0.0
 10
131.152601
 20
144.224170
 30
0.0
 10
129.827491
 20
146.182273
 30
0.0
 10
128.292595
 20
147.950034
 30
0.0
 10
127.708606
 20
148.484210
 30
0.0
 10
126.553589
 20
149.541626
 30
0.0
 10
125.394520
 20
150.383591
 30
0.0
 10
124.633553
 20
150.935990
 30
0.0
 10
122.655604
 20
152.059421
 30
0.0
 10
120.290895
 20
153.063785
 30
0.0
 10
119.024911
 20
153.439612
 30
0.0
 10
117.912416
 20
153.769270
 30
0.0
 10
116.422071
 20
154.045063
 30
0.0
 10
115.424591
 20
154.222852
 30
0.0
 10
114.008764
 20
154.329769
 30
0.0
 10
112.836331
 20
154.418460
 30
0.0
 10
112.157978
 20
154.426560
 30
0.0
 10
112.130857
 20
155.279461
 30
0.0
 10
112.043786
 20
156.499276
 30
0.0
 10
111.991947
 20
157.045602
 30
0.0
 10
111.891106
 20
157.691959
 30
0.0
 10
111.776089
 20
158.425387
 30
0.0
 10
111.457365
 20
159.895888
 30
0.0
 10
111.200201
 20
160.831404
 30
0.0
 10
110.971787
 20
161.500844
 30
0.0
 10
110.569637
 20
162.481315
 30
0.0
 10
110.235119
 20
163.297361
 30
0.0
 10
109.649918
 20
164.530539
 30
0.0
 10
109.380198
 20
164.993843
 30
0.0
 10
108.597359
 20
166.229048
 30
0.0
 10
107.905240
 20
167.284847
 30
0.0
 10
107.463804
 20
167.834410
 30
0.0
 10
106.648569
 20
168.755346
 30
0.0
 10
105.983989
 20
169.506594
 30
0.0
 10
105.451839
 20
169.994198
 30
0.0
 10
104.471775
 20
170.892051
 30
0.0
 10
103.905200
 20
171.371552
 30
0.0
 10
102.565508
 20
172.276695
 30
0.0
 10
101.691144
 20
172.867163
 30
0.0
 10
100.871455
 20
173.295232
 30
0.0
 10
99.363694
 20
174.082525
 30
0.0
 10
97.289764
 20
174.874271
 30
0.0
 10
94.802345
 20
175.500378
 30
0.0
 10
92.448163
 20
175.813431
 30
0.0
 10
90.554048
 20
175.871749
 30
0.0
 10
90.554048
 20
173.022679
 30
0.0
 10
79.968945
 20
173.022679
 30
0.0
 10
77.936728
 20
171.695540
 30
0.0
 10
77.457227
 20
171.371552
 30
0.0
 10
76.890651
 20
170.892051
 30
0.0
 10
75.378437
 20
169.506594
 30
0.0
 10
74.928092
 20
168.997530
 30
0.0
 10
90.554048
 20
168.772762
 30
0.0
 10
90.554048
 20
164.525679
 30
0.0
 10
71.709672
 20
164.525679
 30
0.0
 10
71.127304
 20
163.297361
 30
0.0
 10
70.617427
 20
162.054056
 30
0.0
 10
70.390233
 20
161.500844
 30
0.0
 10
70.161819
 20
160.831404
 30
0.0
 10
70.156541
 20
160.275765
 30
0.0
 10
90.554034
 20
160.275765
 30
0.0
 10
90.554034
 20
156.029088
 30
0.0
 10
69.338066
 20
156.029088
 30
0.0
 10
69.217786
 20
154.853009
 30
0.0
 10
68.742738
 20
154.421297
 30
0.0
 10
67.270209
 20
154.323693
 30
0.0
 10
65.937807
 20
154.222852
 30
0.0
 10
64.940330
 20
154.045063
 30
0.0
 10
63.953382
 20
153.862415
 30
0.0
 10
63.449578
 20
153.769270
 30
0.0
 10
62.287271
 20
153.424626
 30
0.0
 10
61.071503
 20
153.063785
 30
0.0
 10
60.579449
 20
152.858457
 30
0.0
 10
59.058322
 20
152.224250
 30
0.0
 10
58.694645
 20
151.779172
 30
0.0
 10
90.554034
 20
151.779172
 30
0.0
 10
90.554034
 20
147.532089
 30
0.0
 10
52.706939
 20
147.532089
 30
0.0
 10
51.534909
 20
146.182273
 30
0.0
 10
50.408242
 20
144.530743
 30
0.0
 10
49.844500
 20
143.507346
 30
0.0
 10
90.554034
 20
143.282175
 30
0.0
 10
90.554034
 20
139.035498
 30
0.0
 10
48.173126
 20
139.035498
 30
0.0
 10
47.969825
 20
138.320697
 30
0.0
 10
47.649074
 20
136.120007
 30
0.0
 10
47.583468
 20
135.568014
 30
0.0
 10
47.561201
 20
135.010349
 30
0.0
 10
90.549992
 20
134.785581
 30
0.0
 10
90.549992
 20
130.538501
 30
0.0
 10
35.354093
 20
130.538501
 30
0.0
 10
34.897512
 20
130.195073
 30
0.0
 10
34.029021
 20
129.541427
 30
0.0
 10
33.296078
 20
128.846471
 30
0.0
 10
32.351006
 20
127.950238
 30
0.0
 10
31.825658
 20
127.322917
 30
0.0
 10
31.147631
 20
126.513755
 30
0.0
 10
90.557686
 20
126.288584
 30
0.0
 10
90.557686
 20
122.041907
 30
0.0
 10
28.513323
 20
122.041907
 30
0.0
 10
27.786091
 20
120.061125
 30
0.0
 10
27.298975
 20
118.017164
 30
0.0
 10
90.564976
 20
117.791991
 30
0.0
 10
90.564976
 20
113.544910
 30
0.0
 10
21.084353
 20
113.544910
 30
0.0
 10
20.378625
 20
113.320143
 30
0.0
 10
19.575296
 20
113.063786
 30
0.0
 10
17.458964
 20
112.115311
 30
0.0
 10
15.466599
 20
110.935994
 30
0.0
 10
14.985840
 20
110.571911
 30
0.0
 10
13.726741
 20
109.610072
 30
0.0
 10
90.562546
 20
109.294993
 30
0.0
 10
90.562546
 20
105.048317
 30
0.0
 10
9.789392
 20
105.048317
 30
0.0
 10
9.278706
 20
104.261024
 30
0.0
 10
8.500851
 20
102.693731
 30
0.0
 10
8.261828
 20
102.211800
 30
0.0
 10
7.833759
 20
101.023571
 30
0.0
 10
90.555256
 20
100.798400
 30
0.0
 10
90.555256
 20
96.551320
 30
0.0
 10
6.875563
 20
96.551320
 30
0.0
 10
6.778407
 20
96.224901
 30
0.0
 10
6.778280
 20
96.224898
 30
0.0
  0
LWPOLYLINE
  5
107
100
AcDbEntity
  8
shape
 62
5
100
AcDbPolyline
 90
123
 70
1
 10
178.385112
 20
103.345755
 30
0.0
 10
178.177760
 20
100.861575
 30
0.0
 10
178.011717
 20
98.871070
 30
0.0
 10
177.891031
 20
95.579352
 30
0.0
 10
177.869554
 20
94.426358
 30
0.0
 10
338.324754
 20
94.426358
 30
0.0
 10
338.653205
 20
95.005893
 30
0.0
 10
338.611097
 20
96.326549
 30
0.0
 10
258.392388
 20
96.551317
 30
0.0
 10
258.392388
 20
100.798397
 30
0.0
 10
338.272120
 20
100.798397
 30
0.0
 10
338.076907
 20
103.587938
 30
0.0
 10
337.938816
 20
104.823143
 30
0.0
 10
258.395628
 20
105.048314
 30
0.0
 10
258.395628
 20
109.294991
 30
0.0
 10
337.104538
 20
109.294991
 30
0.0
 10
337.114134
 20
109.969290
 30
0.0
 10
336.566566
 20
112.389077
 30
0.0
 10
336.356396
 20
113.320140
 30
0.0
 10
258.391437
 20
113.544907
 30
0.0
 10
258.391437
 20
117.791988
 30
0.0
 10
334.989960
 20
117.791988
 30
0.0
 10
334.902076
 20
118.624233
 30
0.0
 10
334.089700
 20
120.968692
 30
0.0
 10
333.795680
 20
121.816733
 30
0.0
 10
258.391031
 20
122.041498
 30
0.0
 10
258.391031
 20
126.288581
 30
0.0
 10
331.849307
 20
126.288581
 30
0.0
 10
331.743191
 20
126.980294
 30
0.0
 10
330.675657
 20
129.219865
 30
0.0
 10
330.047120
 20
130.538498
 30
0.0
 10
258.396294
 20
130.538498
 30
0.0
 10
258.396294
 20
134.785578
 30
0.0
 10
327.543922
 20
134.785578
 30
0.0
 10
326.367027
 20
137.041753
 30
0.0
 10
325.318120
 20
138.729326
 30
0.0
 10
258.399130
 20
139.035089
 30
0.0
 10
258.399130
 20
143.282172
 30
0.0
 10
321.785008
 20
143.282172
 30
0.0
 10
321.216838
 20
144.336752
 30
0.0
 10
319.987281
 20
145.897565
 30
0.0
 10
318.545549
 20
147.532086
 30
0.0
 10
258.367541
 20
147.532086
 30
0.0
 10
258.367541
 20
151.779169
 30
0.0
 10
314.228790
 20
151.779169
 30
0.0
 10
313.893877
 20
152.429979
 30
0.0
 10
312.056046
 20
154.097306
 30
0.0
 10
310.584342
 20
155.432135
 30
0.0
 10
310.125900
 20
155.803912
 30
0.0
 10
258.365111
 20
156.028679
 30
0.0
 10
258.365111
 20
160.275762
 30
0.0
 10
303.906118
 20
160.275762
 30
0.0
 10
303.490630
 20
160.862181
 30
0.0
 10
301.401706
 20
162.201060
 30
0.0
 10
299.728721
 20
163.273462
 30
0.0
 10
297.910730
 20
164.300505
 30
0.0
 10
258.409660
 20
164.525676
 30
0.0
 10
258.409660
 20
168.772759
 30
0.0
 10
288.118183
 20
168.772759
 30
0.0
 10
287.721689
 20
169.202852
 30
0.0
 10
285.388981
 20
170.048057
 30
0.0
 10
283.520783
 20
170.724789
 30
0.0
 10
281.144322
 20
171.438777
 30
0.0
 10
279.241298
 20
172.011022
 30
0.0
 10
276.829204
 20
172.591771
 30
0.0
 10
275.975089
 20
172.797502
 30
0.0
 10
275.040384
 20
173.022270
 30
0.0
 10
258.371591
 20
173.022270
 30
0.0
 10
258.371591
 20
174.773021
 30
0.0
 10
257.142866
 20
174.790039
 30
0.0
 10
254.663547
 20
174.686768
 30
0.0
 10
252.678308
 20
174.603747
 30
0.0
 10
250.692666
 20
174.409759
 30
0.0
 10
248.211724
 20
174.167172
 30
0.0
 10
246.255644
 20
173.865459
 30
0.0
 10
243.814798
 20
173.489226
 30
0.0
 10
241.387317
 20
172.975300
 30
0.0
 10
239.443387
 20
172.564240
 30
0.0
 10
237.047899
 20
171.916263
 30
0.0
 10
235.129888
 20
171.397477
 30
0.0
 10
232.774493
 20
170.617880
 30
0.0
 10
230.888072
 20
169.993393
 30
0.0
 10
228.579248
 20
169.083390
 30
0.0
 10
226.730896
 20
168.355229
 30
0.0
 10
224.476344
 20
167.318869
 30
0.0
 10
222.670918
 20
166.488650
 30
0.0
 10
220.477517
 20
165.328771
 30
0.0
 10
218.721096
 20
164.399331
 30
0.0
 10
216.595328
 20
163.119171
 30
0.0
 10
214.893579
 20
162.093748
 30
0.0
 10
212.842328
 20
160.697360
 30
0.0
 10
211.199707
 20
159.579196
 30
0.0
 10
209.229455
 20
158.071028
 30
0.0
 10
207.651632
 20
156.863363
 30
0.0
 10
205.768451
 20
155.247878
 30
0.0
 10
204.259880
 20
153.954354
 30
0.0
 10
202.469440
 20
152.236809
 30
0.0
 10
201.035387
 20
150.861075
 30
0.0
 10
199.342547
 20
149.046741
 30
0.0
 10
197.987059
 20
147.593652
 30
0.0
 10
196.398303
 20
145.688198
 30
0.0
 10
195.125840
 20
144.161808
 30
0.0
 10
193.645214
 20
142.170899
 30
0.0
 10
192.459012
 20
140.576473
 30
0.0
 10
191.091374
 20
138.506187
 30
0.0
 10
189.996295
 20
136.848177
 30
0.0
 10
188.745701
 20
134.705399
 30
0.0
 10
187.744171
 20
132.989070
 30
0.0
 10
186.614666
 20
130.779877
 30
0.0
 10
185.709930
 20
129.010496
 30
0.0
 10
184.705162
 20
126.741768
 30
0.0
 10
183.900050
 20
124.925002
 30
0.0
 10
183.022852
 20
122.604032
 30
0.0
 10
182.319797
 20
120.745553
 30
0.0
 10
181.573003
 20
118.379224
 30
0.0
 10
180.974842
 20
116.484300
 30
0.0
 10
180.360478
 20
114.080305
 30
0.0
 10
179.868421
 20
112.155005
 30
0.0
 10
179.388513
 20
109.720638
 30
0.0
 10
179.004183
 20
107.771039
 30
0.0
 10
178.660352
 20
105.313992
 30
0.0
 10
178.384959
 20
103.345763
 30
0.0
 10
178.385112
 20
103.345755
 30
0.0
  0
LWPOLYLINE
  5
108
100
AcDbEntity
  8
shape
 62
5
100
AcDbPolyline
 90
170
 70
1
 10
6.792212
 20
180.946618
 30
0.0
 10
6.702508
 20
180.188488
 30
0.0
 10
6.680032
 20
179.538078
 30
0.0
 10
102.279049
 20
179.046831
 30
0.0
 10
171.208773
 20
179.046831
 30
0.0
 10
171.208491
 20
180.077521
 30
0.0
 10
170.931482
 20
182.457213
 30
0.0
 10
170.393662
 20
184.681392
 30
0.0
 10
169.595840
 20
186.832270
 30
0.0
 10
168.548547
 20
188.881496
 30
0.0
 10
167.265150
 20
190.802343
 30
0.0
 10
166.826144
 20
191.319103
 30
0.0
 10
165.762652
 20
192.570508
 30
0.0
 10
165.085923
 20
193.203095
 30
0.0
 10
164.060096
 20
194.161696
 30
0.0
 10
163.074361
 20
194.893098
 30
0.0
 10
162.180154
 20
195.556464
 30
0.0
 10
160.810493
 20
196.351047
 30
0.0
 10
160.147531
 20
196.735377
 30
0.0
 10
158.318618
 20
197.538869
 30
0.0
 10
156.218362
 20
198.237468
 30
0.0
 10
155.721852
 20
198.389741
 30
0.0
 10
153.354306
 20
198.843326
 30
0.0
 10
152.643154
 20
198.900834
 30
0.0
 10
150.947075
 20
199.038530
 30
0.0
 10
150.340811
 20
199.046630
 30
0.0
 10
150.340528
 20
199.665041
 30
0.0
 10
150.308939
 20
200.188687
 30
0.0
 10
150.098752
 20
201.930126
 30
0.0
 10
150.035170
 20
202.457415
 30
0.0
 10
149.595355
 20
204.255956
 30
0.0
 10
148.784572
 20
206.563966
 30
0.0
 10
147.655878
 20
208.819331
 30
0.0
 10
147.300304
 20
209.360390
 30
0.0
 10
146.302420
 20
210.802543
 30
0.0
 10
144.746060
 20
212.570304
 30
0.0
 10
144.246306
 20
213.021459
 30
0.0
 10
142.982752
 20
214.161896
 30
0.0
 10
141.992968
 20
214.870621
 30
0.0
 10
141.035989
 20
215.556263
 30
0.0
 10
139.381219
 20
216.483273
 30
0.0
 10
138.930470
 20
216.735579
 30
0.0
 10
137.475358
 20
217.352777
 30
0.0
 10
136.672272
 20
217.684055
 30
0.0
 10
134.268278
 20
218.389944
 30
0.0
 10
132.707871
 20
218.675459
 30
0.0
 10
131.790985
 20
218.843122
 30
0.0
 10
130.142288
 20
218.971098
 30
0.0
 10
129.243221
 20
219.038730
 30
0.0
 10
128.574588
 20
219.046830
 30
0.0
 10
128.564880
 20
219.610975
 30
0.0
 10
128.535721
 20
220.188484
 30
0.0
 10
128.403694
 20
221.199328
 30
0.0
 10
128.239675
 20
222.457212
 30
0.0
 10
127.938770
 20
223.595626
 30
0.0
 10
127.651233
 20
224.681391
 30
0.0
 10
127.098831
 20
226.042546
 30
0.0
 10
126.778489
 20
226.832269
 30
0.0
 10
125.838517
 20
228.512958
 30
0.0
 10
124.668921
 20
230.199722
 30
0.0
 10
124.207640
 20
230.802746
 30
0.0
 10
122.486454
 20
232.570507
 30
0.0
 10
121.354520
 20
233.494683
 30
0.0
 10
120.537258
 20
234.161695
 30
0.0
 10
119.138034
 20
235.068052
 30
0.0
 10
118.342644
 20
235.556059
 30
0.0
 10
117.416442
 20
236.000732
 30
0.0
 10
115.885191
 20
236.735779
 30
0.0
 10
114.695749
 20
237.167901
 30
0.0
 10
113.182725
 20
237.684255
 30
0.0
 10
111.010384
 20
238.211548
 30
0.0
 10
110.219448
 20
238.389740
 30
0.0
 10
107.869315
 20
238.720208
 30
0.0
 10
106.915577
 20
238.843325
 30
0.0
 10
105.130400
 20
238.940926
 30
0.0
 10
103.152857
 20
239.038933
 30
0.0
 10
102.233137
 20
239.046214
 30
0.0
 10
101.939522
 20
240.977184
 30
0.0
 10
101.504567
 20
242.723076
 30
0.0
 10
101.316248
 20
243.411955
 30
0.0
 10
100.893445
 20
244.347471
 30
0.0
 10
100.276652
 20
245.711462
 30
0.0
 10
99.948210
 20
246.235515
 30
0.0
 10
99.125682
 20
247.250406
 30
0.0
 10
98.386584
 20
248.162435
 30
0.0
 10
97.987271
 20
248.551219
 30
0.0
 10
97.621163
 20
248.907606
 30
0.0
 10
96.589664
 20
249.641440
 30
0.0
 10
95.204616
 20
250.626768
 30
0.0
 10
93.243270
 20
251.422971
 30
0.0
 10
92.724080
 20
251.624653
 30
0.0
 10
91.162457
 20
251.924342
 30
0.0
 10
90.204665
 20
252.108207
 30
0.0
 10
88.811518
 20
252.108207
 30
0.0
 10
88.811518
 20
249.146143
 30
0.0
 10
80.591124
 20
249.146143
 30
0.0
 10
79.490375
 20
248.162435
 30
0.0
 10
77.928749
 20
246.235515
 30
0.0
 10
77.600308
 20
245.711462
 30
0.0
 10
77.333421
 20
245.121397
 30
0.0
 10
88.811518
 20
244.896226
 30
0.0
 10
88.811518
 20
240.649550
 30
0.0
 10
75.971860
 20
240.649550
 30
0.0
 10
75.765722
 20
239.099673
 30
0.0
 10
74.855316
 20
239.039734
 30
0.0
 10
73.545593
 20
238.980200
 30
0.0
 10
72.746557
 20
238.940917
 30
0.0
 10
72.018395
 20
238.901228
 30
0.0
 10
70.960976
 20
238.843316
 30
0.0
 10
70.453126
 20
238.777708
 30
0.0
 10
68.904056
 20
238.565090
 30
0.0
 10
67.657512
 20
238.389731
 30
0.0
 10
66.866575
 20
238.211539
 30
0.0
 10
65.708316
 20
237.930480
 30
0.0
 10
64.694235
 20
237.684246
 30
0.0
 10
64.085541
 20
237.476491
 30
0.0
 10
63.181210
 20
237.167893
 30
0.0
 10
62.469649
 20
236.909510
 30
0.0
 10
61.991361
 20
236.735771
 30
0.0
 10
88.811518
 20
236.399229
 30
0.0
 10
88.811518
 20
232.152553
 30
0.0
 10
54.983496
 20
232.152553
 30
0.0
 10
53.669317
 20
230.802737
 30
0.0
 10
53.208039
 20
230.199713
 30
0.0
 10
52.423179
 20
229.126097
 30
0.0
 10
51.822988
 20
228.127810
 30
0.0
 10
88.811518
 20
227.902636
 30
0.0
 10
88.811518
 20
223.655962
 30
0.0
 10
49.979902
 20
223.655962
 30
0.0
 10
49.637284
 20
222.457203
 30
0.0
 10
49.504854
 20
221.443120
 30
0.0
 10
49.341238
 20
220.188475
 30
0.0
 10
49.312889
 20
219.630810
 30
0.0
 10
88.808681
 20
219.406042
 30
0.0
 10
88.808681
 20
215.158962
 30
0.0
 10
36.260213
 20
215.158962
 30
0.0
 10
35.042543
 20
214.283384
 30
0.0
 10
33.543652
 20
212.945312
 30
0.0
 10
33.133281
 20
212.570296
 30
0.0
 10
32.157185
 20
211.448081
 30
0.0
 10
31.969594
 20
210.909045
 30
0.0
 10
88.801392
 20
210.909045
 30
0.0
 10
88.801392
 20
206.661965
 30
0.0
 10
29.146401
 20
206.661965
 30
0.0
 10
28.919528
 20
206.064611
 30
0.0
 10
28.394790
 20
204.681586
 30
0.0
 10
28.228826
 20
204.010527
 30
0.0
 10
27.889207
 20
202.637222
 30
0.0
 10
88.814351
 20
202.412455
 30
0.0
 10
88.814351
 20
198.165371
 30
0.0
 10
21.455002
 20
198.165371
 30
0.0
 10
20.728863
 20
197.940200
 30
0.0
 10
19.902288
 20
197.684250
 30
0.0
 10
19.221062
 20
197.387395
 30
0.0
 10
17.724844
 20
196.735368
 30
0.0
 10
15.675092
 20
195.556456
 30
0.0
 10
14.512014
 20
194.700721
 30
0.0
 10
13.868614
 20
194.220003
 30
0.0
 10
88.815971
 20
193.915455
 30
0.0
 10
88.815971
 20
189.668374
 30
0.0
 10
9.858003
 20
189.668374
 30
0.0
 10
9.336099
 20
188.881488
 30
0.0
 10
8.661069
 20
187.550706
 30
0.0
 10
8.296582
 20
186.832261
 30
0.0
 10
7.859198
 20
185.643629
 30
0.0
 10
88.824881
 20
185.418864
 30
0.0
 10
88.824881
 20
181.171781
 30
0.0
 10
6.877716
 20
181.171781
 30
0.0
 10
6.792467
 20
180.946610
 30
0.0
 10
6.792212
 20
180.946618
 30
0.0
  0
LWPOLYLINE
  5
109
100
AcDbEntity
  8
shape
 62
5
100
AcDbPolyline
 90
140
 70
1
 10
174.511832
 20
180.946618
 30
0.0
 10
174.418687
 20
180.188488
 30
0.0
 10
174.398847
 20
179.663221
 30
0.0
 10
174.383861
 20
179.046831
 30
0.0
 10
333.571032
 20
179.046831
 30
0.0
 10
333.571032
 20
180.045525
 30
0.0
 10
333.300493
 20
182.346249
 30
0.0
 10
332.744036
 20
184.665195
 30
0.0
 10
331.912609
 20
186.832270
 30
0.0
 10
330.824022
 20
188.881496
 30
0.0
 10
329.490380
 20
190.802343
 30
0.0
 10
329.040857
 20
191.311004
 30
0.0
 10
327.928365
 20
192.570508
 30
0.0
 10
327.133768
 20
193.284902
 30
0.0
 10
326.159396
 20
194.161696
 30
0.0
 10
324.896226
 20
195.063193
 30
0.0
 10
324.205346
 20
195.556464
 30
0.0
 10
322.342002
 20
196.596467
 30
0.0
 10
321.107195
 20
197.152106
 30
0.0
 10
319.816903
 20
197.684259
 30
0.0
 10
317.412116
 20
198.389741
 30
0.0
 10
316.071194
 20
198.635164
 30
0.0
 10
314.933612
 20
198.843326
 30
0.0
 10
312.532437
 20
199.029620
 30
0.0
 10
311.740691
 20
199.046638
 30
0.0
 10
311.740691
 20
200.171686
 30
0.0
 10
311.664548
 20
200.779570
 30
0.0
 10
311.444245
 20
202.457424
 30
0.0
 10
310.852961
 20
204.681603
 30
0.0
 10
309.974968
 20
206.832074
 30
0.0
 10
309.714956
 20
207.294569
 30
0.0
 10
308.822767
 20
208.881301
 30
0.0
 10
308.253779
 20
209.655228
 30
0.0
 10
307.410584
 20
210.802552
 30
0.0
 10
306.347086
 20
211.939345
 30
0.0
 10
305.757044
 20
212.570313
 30
0.0
 10
303.963352
 20
214.094677
 30
0.0
 10
301.744436
 20
215.556272
 30
0.0
 10
300.734420
 20
216.068982
 30
0.0
 10
299.421437
 20
216.735588
 30
0.0
 10
297.176218
 20
217.598612
 30
0.0
 10
294.247768
 20
218.389952
 30
0.0
 10
291.795567
 20
218.790078
 30
0.0
 10
290.858025
 20
218.882416
 30
0.0
 10
288.484818
 20
219.038739
 30
0.0
 10
287.714521
 20
219.046838
 30
0.0
 10
287.665527
 20
220.188492
 30
0.0
 10
287.501104
 20
221.259274
 30
0.0
 10
287.317236
 20
222.457220
 30
0.0
 10
286.909425
 20
223.766943
 30
0.0
 10
286.624720
 20
224.681399
 30
0.0
 10
285.789229
 20
226.431341
 30
0.0
 10
284.880050
 20
227.922902
 30
0.0
 10
284.200882
 20
228.881504
 30
0.0
 10
283.763889
 20
229.352905
 30
0.0
 10
282.421782
 20
230.802754
 30
0.0
 10
280.482712
 20
232.448209
 30
0.0
 10
280.023457
 20
232.757214
 30
0.0
 10
277.753516
 20
234.161704
 30
0.0
 10
276.648311
 20
234.704787
 30
0.0
 10
274.729894
 20
235.556068
 30
0.0
 10
273.237929
 20
236.074042
 30
0.0
 10
271.093531
 20
236.735788
 30
0.0
 10
270.150725
 20
236.955695
 30
0.0
 10
268.516608
 20
237.286973
 30
0.0
 10
267.310969
 20
237.531587
 30
0.0
 10
266.417975
 20
237.684263
 30
0.0
 10
264.660338
 20
237.897691
 30
0.0
 10
263.537313
 20
238.007848
 30
0.0
 10
262.151859
 20
238.143922
 30
0.0
 10
260.075096
 20
238.297817
 30
0.0
 10
258.382256
 20
238.389748
 30
0.0
 10
257.412721
 20
238.419718
 30
0.0
 10
255.119288
 20
238.455357
 30
0.0
 10
252.839626
 20
238.455357
 30
0.0
 10
250.546193
 20
238.419718
 30
0.0
 10
249.576254
 20
238.389748
 30
0.0
 10
248.417184
 20
238.332243
 30
0.0
 10
246.510514
 20
238.196166
 30
0.0
 10
245.807055
 20
238.143922
 30
0.0
 10
244.639078
 20
238.029311
 30
0.0
 10
243.298576
 20
237.897691
 30
0.0
 10
242.777360
 20
237.834516
 30
0.0
 10
241.540939
 20
237.684263
 30
0.0
 10
240.952901
 20
237.583829
 30
0.0
 10
239.209032
 20
237.239995
 30
0.0
 10
237.807785
 20
236.955695
 30
0.0
 10
236.865383
 20
236.735788
 30
0.0
 10
253.852494
 20
236.399246
 30
0.0
 10
253.852494
 20
232.152570
 30
0.0
 10
227.127915
 20
232.152570
 30
0.0
 10
226.193209
 20
231.359203
 30
0.0
 10
225.537133
 20
230.802754
 30
0.0
 10
224.860403
 20
230.071754
 30
0.0
 10
223.758032
 20
228.881504
 30
0.0
 10
223.224262
 20
228.127827
 30
0.0
 10
253.852494
 20
227.902653
 30
0.0
 10
253.852494
 20
223.655979
 30
0.0
 10
221.030052
 20
223.655979
 30
0.0
 10
220.641669
 20
222.457220
 30
0.0
 10
220.476843
 20
221.384818
 30
0.0
 10
220.293384
 20
220.188492
 30
0.0
 10
220.256125
 20
219.630827
 30
0.0
 10
253.860997
 20
219.406059
 30
0.0
 10
253.860997
 20
215.158979
 30
0.0
 10
205.611044
 20
215.158979
 30
0.0
 10
204.975217
 20
214.738200
 30
0.0
 10
204.104500
 20
214.161905
 30
0.0
 10
203.401445
 20
213.575486
 30
0.0
 10
202.196613
 20
212.570313
 30
0.0
 10
200.828571
 20
211.134233
 30
0.0
 10
253.850470
 20
210.909062
 30
0.0
 10
253.850470
 20
206.661982
 30
0.0
 10
197.924016
 20
206.661982
 30
0.0
 10
197.450589
 20
205.481855
 30
0.0
 10
197.129437
 20
204.681603
 30
0.0
 10
196.806258
 20
203.446398
 30
0.0
 10
196.594857
 20
202.637239
 30
0.0
 10
253.840344
 20
202.412472
 30
0.0
 10
253.840344
 20
198.165388
 30
0.0
 10
189.774497
 20
198.165388
 30
0.0
 10
189.017580
 20
197.940217
 30
0.0
 10
188.155366
 20
197.684267
 30
0.0
 10
187.001968
 20
197.202333
 30
0.0
 10
185.884208
 20
196.735385
 30
0.0
 10
185.175483
 20
196.344575
 30
0.0
 10
183.746290
 20
195.556472
 30
0.0
 10
181.769151
 20
194.161705
 30
0.0
 10
253.856140
 20
193.915472
 30
0.0
 10
253.856140
 20
189.668391
 30
0.0
 10
177.688926
 20
189.668391
 30
0.0
 10
177.148270
 20
188.881505
 30
0.0
 10
176.514060
 20
187.673839
 30
0.0
 10
176.071411
 20
186.832278
 30
0.0
 10
175.642939
 20
185.707634
 30
0.0
 10
253.865860
 20
185.418881
 30
0.0
 10
253.865860
 20
181.171798
 30
0.0
 10
174.598886
 20
181.171798
 30
0.0
 10
174.513838
 20
180.946627
 30
0.0
 10
174.511832
 20
180.946618
 30
0.0
  0
LWPOLYLINE
  5
10a
100
AcDbEntity
  8
shape
 62
5
100
AcDbPolyline
 90
52
 70
1
 10
336.799174
 20
181.324875
 30
0.0
 10
336.746116
 20
179.046831
 30
0.0
 10
412.599068
 20
179.046831
 30
0.0
 10
412.554533
 20
180.946618
 30
0.0
 10
374.798957
 20
181.171789
 30
0.0
 10
374.798957
 20
185.418872
 30
0.0
 10
411.934914
 20
185.418872
 30
0.0
 10
411.623058
 20
187.693674
 30
0.0
 10
411.141136
 20
189.443615
 30
0.0
 10
374.798957
 20
189.668383
 30
0.0
 10
374.798957
 20
193.915463
 30
0.0
 10
409.379448
 20
193.915463
 30
0.0
 10
408.678803
 20
195.885719
 30
0.0
 10
407.439566
 20
198.165380
 30
0.0
 10
374.798957
 20
198.165380
 30
0.0
 10
374.798957
 20
202.412463
 30
0.0
 10
404.286748
 20
202.412463
 30
0.0
 10
403.948985
 20
203.191653
 30
0.0
 10
402.015198
 20
205.361970
 30
0.0
 10
400.664144
 20
206.661973
 30
0.0
 10
374.798957
 20
206.661973
 30
0.0
 10
374.798957
 20
210.909054
 30
0.0
 10
394.821043
 20
210.909054
 30
0.0
 10
392.800953
 20
212.385632
 30
0.0
 10
390.195703
 20
213.675509
 30
0.0
 10
387.499296
 20
214.762084
 30
0.0
 10
386.957429
 20
214.933799
 30
0.0
 10
386.246285
 20
215.158970
 30
0.0
 10
374.798957
 20
215.158970
 30
0.0
 10
374.798957
 20
216.968040
 30
0.0
 10
373.218287
 20
216.968040
 30
0.0
 10
370.319808
 20
216.745703
 30
0.0
 10
367.446842
 20
216.301841
 30
0.0
 10
364.616012
 20
215.639688
 30
0.0
 10
361.844280
 20
214.762084
 30
0.0
 10
359.147900
 20
213.675509
 30
0.0
 10
356.542622
 20
212.385632
 30
0.0
 10
354.043855
 20
210.900144
 30
0.0
 10
351.666189
 20
209.227554
 30
0.0
 10
349.423397
 20
207.377988
 30
0.0
 10
347.328405
 20
205.361970
 30
0.0
 10
345.394590
 20
203.191653
 30
0.0
 10
343.632084
 20
200.879593
 30
0.0
 10
342.051838
 20
198.439556
 30
0.0
 10
340.663135
 20
195.885719
 30
0.0
 10
339.474104
 20
193.233064
 30
0.0
 10
338.491209
 20
190.496982
 30
0.0
 10
337.720940
 20
187.693674
 30
0.0
 10
337.167305
 20
184.839744
 30
0.0
 10
336.834000
 20
181.951792
 30
0.0
 10
336.799174
 20
181.324875
 30
0.0
 10
336.799174
 20
181.324875
 30
0.0
  0
LWPOLYLINE
  5
10b
100
AcDbEntity
  8
shape
 62
5
100
AcDbPolyline
 90
68
 70
1
 10
6.755520
 20
258.991750
 30
0.0
 10
6.667557
 20
255.283300
 30
0.0
 10
136.528257
 20
255.283300
 30
0.0
 10
136.527128
 20
257.156358
 30
0.0
 10
71.744456
 20
257.408258
 30
0.0
 10
71.744456
 20
261.655338
 30
0.0
 10
136.120525
 20
261.655338
 30
0.0
 10
135.737812
 20
265.546438
 30
0.0
 10
71.735546
 20
265.904849
 30
0.0
 10
71.735546
 20
270.151932
 30
0.0
 10
134.669462
 20
270.151932
 30
0.0
 10
133.922668
 20
273.583373
 30
0.0
 10
133.727870
 20
274.176676
 30
0.0
 10
71.727853
 20
274.401848
 30
0.0
 10
71.727853
 20
278.648524
 30
0.0
 10
132.001012
 20
278.648524
 30
0.0
 10
131.104781
 20
281.325883
 30
0.0
 10
130.463284
 20
282.673674
 30
0.0
 10
71.712463
 20
282.898441
 30
0.0
 10
71.712463
 20
287.145522
 30
0.0
 10
127.955209
 20
287.145522
 30
0.0
 10
127.329102
 20
288.649638
 30
0.0
 10
125.564581
 20
291.395438
 30
0.0
 10
71.728257
 20
291.395438
 30
0.0
 10
71.728257
 20
295.642115
 30
0.0
 10
122.209681
 20
295.642115
 30
0.0
 10
120.007372
 20
298.594053
 30
0.0
 10
118.983974
 20
299.667264
 30
0.0
 10
71.708414
 20
299.892031
 30
0.0
 10
71.708414
 20
304.139112
 30
0.0
 10
114.060162
 20
304.139112
 30
0.0
 10
110.935699
 20
306.972795
 30
0.0
 10
108.947221
 20
308.389029
 30
0.0
 10
71.706387
 20
308.389029
 30
0.0
 10
71.706387
 20
312.635705
 30
0.0
 10
101.519386
 20
312.635705
 30
0.0
 10
100.442530
 20
313.483339
 30
0.0
 10
96.693174
 20
315.195617
 30
0.0
 10
92.858773
 20
316.660854
 30
0.0
 10
92.138709
 20
316.885621
 30
0.0
 10
71.739193
 20
316.885621
 30
0.0
 10
71.739193
 20
320.217031
 30
0.0
 10
68.507003
 20
320.165598
 30
0.0
 10
64.398429
 20
319.839179
 30
0.0
 10
60.318201
 20
319.252356
 30
0.0
 10
56.284142
 20
318.408366
 30
0.0
 10
52.311235
 20
317.310046
 30
0.0
 10
48.416086
 20
315.961850
 30
0.0
 10
44.614488
 20
314.369447
 30
0.0
 10
40.921023
 20
312.538913
 30
0.0
 10
37.351439
 20
310.477943
 30
0.0
 10
33.919837
 20
308.195041
 30
0.0
 10
30.639780
 20
305.698711
 30
0.0
 10
27.524715
 20
302.999484
 30
0.0
 10
24.587113
 20
300.107888
 30
0.0
 10
21.838761
 20
297.036074
 30
0.0
 10
19.290835
 20
293.796191
 30
0.0
 10
16.953463
 20
290.401199
 30
0.0
 10
14.836159
 20
286.864867
 30
0.0
 10
12.947428
 20
283.200965
 30
0.0
 10
11.294926
 20
279.424881
 30
0.0
 10
9.885212
 20
275.551601
 30
0.0
 10
8.723876
 20
271.596919
 30
0.0
 10
7.815818
 20
267.576225
 30
0.0
 10
7.164522
 20
263.506121
 30
0.0
 10
6.770308
 20
259.363527
 30
0.0
 10
6.755608
 20
258.991750
 30
0.0
 10
6.755520
 20
258.991750
 30
0.0
  0
LWPOLYLINE
  5
10c
100
AcDbEntity
  8
shape
 62
5
100
AcDbPolyline
 90
123
 70
1
 10
141.917397
 20
263.873038
 30
0.0
 10
141.473532
 20
263.068738
 30
0.0
 10
141.025214
 20
261.950167
 30
0.0
 10
215.466786
 20
261.655338
 30
0.0
 10
215.466786
 20
257.408258
 30
0.0
 10
139.922036
 20
257.408258
 30
0.0
 10
139.738981
 20
256.424953
 30
0.0
 10
139.703342
 20
255.283300
 30
0.0
 10
291.460654
 20
255.283300
 30
0.0
 10
291.460654
 20
256.213956
 30
0.0
 10
291.181621
 20
258.515489
 30
0.0
 10
290.599255
 20
260.868048
 30
0.0
 10
290.366789
 20
261.473096
 30
0.0
 10
289.718411
 20
263.068738
 30
0.0
 10
288.570275
 20
265.117965
 30
0.0
 10
287.163764
 20
267.039216
 30
0.0
 10
286.511323
 20
267.739434
 30
0.0
 10
285.517082
 20
268.806975
 30
0.0
 10
284.336942
 20
269.813364
 30
0.0
 10
283.650916
 20
270.398163
 30
0.0
 10
281.743429
 20
271.689661
 30
0.0
 10
281.105576
 20
272.049693
 30
0.0
 10
279.305416
 20
272.971845
 30
0.0
 10
278.508406
 20
273.281253
 30
0.0
 10
276.860522
 20
273.920725
 30
0.0
 10
274.763100
 20
274.499854
 30
0.0
 10
273.457024
 20
274.772410
 30
0.0
 10
271.603811
 20
275.079793
 30
0.0
 10
270.260880
 20
275.174155
 30
0.0
 10
268.826017
 20
275.274996
 30
0.0
 10
268.169940
 20
275.283096
 30
0.0
 10
268.067883
 20
276.425155
 30
0.0
 10
267.924923
 20
277.427089
 30
0.0
 10
267.744705
 20
278.693883
 30
0.0
 10
267.413023
 20
279.842826
 30
0.0
 10
267.102804
 20
280.918062
 30
0.0
 10
266.479531
 20
282.325386
 30
0.0
 10
266.150279
 20
283.068939
 30
0.0
 10
265.065321
 20
284.846420
 30
0.0
 10
264.203109
 20
285.991314
 30
0.0
 10
263.324289
 20
287.039011
 30
0.0
 10
262.933883
 20
287.405118
 30
0.0
 10
261.438274
 20
288.806772
 30
0.0
 10
259.893658
 20
289.957335
 30
0.0
 10
259.301570
 20
290.398364
 30
0.0
 10
258.319482
 20
290.978708
 30
0.0
 10
256.861939
 20
291.792729
 30
0.0
 10
255.266297
 20
292.489304
 30
0.0
 10
254.161092
 20
292.972046
 30
0.0
 10
253.216260
 20
293.284695
 30
0.0
 10
251.164200
 20
293.920522
 30
0.0
 10
248.714040
 20
294.461177
 30
0.0
 10
247.908118
 20
294.626411
 30
0.0
 10
244.681598
 20
295.038686
 30
0.0
 10
241.021342
 20
295.244824
 30
0.0
 10
240.351090
 20
295.275198
 30
0.0
 10
239.253581
 20
295.283298
 30
0.0
 10
239.247513
 20
295.967723
 30
0.0
 10
239.035709
 20
297.153115
 30
0.0
 10
238.689851
 20
298.693679
 30
0.0
 10
238.135829
 20
299.912280
 30
0.0
 10
237.678601
 20
300.917859
 30
0.0
 10
236.374548
 20
302.787271
 30
0.0
 10
235.788129
 20
303.393939
 30
0.0
 10
233.879029
 20
305.117962
 30
0.0
 10
232.723605
 20
305.916593
 30
0.0
 10
230.795065
 20
307.038807
 30
0.0
 10
229.315250
 20
307.715943
 30
0.0
 10
226.361286
 20
308.806973
 30
0.0
 10
225.828730
 20
308.944263
 30
0.0
 10
222.997883
 20
309.571586
 30
0.0
 10
221.023174
 20
309.864795
 30
0.0
 10
219.996941
 20
310.017070
 30
0.0
 10
217.408681
 20
310.209843
 30
0.0
 10
215.455841
 20
310.236572
 30
0.0
 10
215.455841
 20
308.389029
 30
0.0
 10
203.672793
 20
308.389029
 30
0.0
 10
203.066122
 20
308.165072
 30
0.0
 10
201.850357
 20
307.715943
 30
0.0
 10
201.176057
 20
307.407749
 30
0.0
 10
200.370542
 20
307.038807
 30
0.0
 10
199.442316
 20
306.498962
 30
0.0
 10
198.442001
 20
305.916593
 30
0.0
 10
197.801718
 20
305.473944
 30
0.0
 10
197.286172
 20
305.117962
 30
0.0
 10
196.451497
 20
304.364284
 30
0.0
 10
215.455841
 20
304.139112
 30
0.0
 10
215.455841
 20
299.892436
 30
0.0
 10
193.020462
 20
299.892436
 30
0.0
 10
192.475352
 20
298.693679
 30
0.0
 10
192.293107
 20
297.879659
 30
0.0
 10
191.966689
 20
296.424951
 30
0.0
 10
191.916877
 20
295.867287
 30
0.0
 10
215.453815
 20
295.642115
 30
0.0
 10
215.453815
 20
291.395438
 30
0.0
 10
173.609514
 20
291.395438
 30
0.0
 10
173.026335
 20
291.060110
 30
0.0
 10
171.874962
 20
290.398364
 30
0.0
 10
171.370348
 20
290.032258
 30
0.0
 10
170.015270
 20
289.050573
 30
0.0
 10
168.371029
 20
287.532283
 30
0.0
 10
215.450982
 20
287.145522
 30
0.0
 10
215.450982
 20
282.898846
 30
0.0
 10
164.930272
 20
282.898846
 30
0.0
 10
164.031611
 20
280.918062
 30
0.0
 10
163.652544
 20
279.635879
 30
0.0
 10
163.437497
 20
278.873696
 30
0.0
 10
215.459081
 20
278.648524
 30
0.0
 10
215.459081
 20
274.401848
 30
0.0
 10
156.050158
 20
274.401848
 30
0.0
 10
154.275513
 20
273.920725
 30
0.0
 10
152.390306
 20
273.179602
 30
0.0
 10
151.864232
 20
272.971845
 30
0.0
 10
150.600272
 20
272.313339
 30
0.0
 10
149.600768
 20
271.792932
 30
0.0
 10
148.861264
 20
271.300065
 30
0.0
 10
147.508208
 20
270.398163
 30
0.0
 10
215.465155
 20
270.151932
 30
0.0
 10
215.465155
 20
265.905255
 30
0.0
 10
143.173244
 20
265.905255
 30
0.0
 10
142.605455
 20
265.117965
 30
0.0
 10
141.918196
 20
263.873038
 30
0.0
 10
141.917397
 20
263.873038
 30
0.0
  0
LWPOLYLINE
  5
10d
100
AcDbEntity
  8
shape
 62
5
100
AcDbPolyline
 90
106
 70
1
 10
300.304736
 20
255.283300
 30
0.0
 10
400.522017
 20
255.283300
 30
0.0
 10
400.962622
 20
255.863238
 30
0.0
 10
400.900674
 20
256.969253
 30
0.0
 10
347.912380
 20
257.408258
 30
0.0
 10
347.912380
 20
261.655338
 30
0.0
 10
400.404161
 20
261.655338
 30
0.0
 10
400.444660
 20
262.230417
 30
0.0
 10
400.259973
 20
263.678646
 30
0.0
 10
399.898334
 20
265.556157
 30
0.0
 10
347.914412
 20
265.904849
 30
0.0
 10
347.914412
 20
270.151932
 30
0.0
 10
398.648964
 20
270.151932
 30
0.0
 10
398.178359
 20
272.069942
 30
0.0
 10
397.722739
 20
273.457017
 30
0.0
 10
397.434816
 20
274.176676
 30
0.0
 10
347.915625
 20
274.401848
 30
0.0
 10
347.915625
 20
278.648524
 30
0.0
 10
395.296080
 20
278.648524
 30
0.0
 10
395.020687
 20
279.631424
 30
0.0
 10
394.091245
 20
281.301988
 30
0.0
 10
393.381315
 20
282.578097
 30
0.0
 10
347.926970
 20
282.898441
 30
0.0
 10
347.926970
 20
287.145522
 30
0.0
 10
390.032889
 20
287.145522
 30
0.0
 10
389.559066
 20
288.129636
 30
0.0
 10
388.330327
 20
289.594063
 30
0.0
 10
387.391571
 20
290.712633
 30
0.0
 10
386.740767
 20
291.395438
 30
0.0
 10
347.916444
 20
291.395438
 30
0.0
 10
347.916444
 20
295.642115
 30
0.0
 10
381.977731
 20
295.642115
 30
0.0
 10
381.104168
 20
296.646073
 30
0.0
 10
379.971018
 20
297.566605
 30
0.0
 10
378.413857
 20
298.675860
 30
0.0
 10
377.224403
 20
299.522684
 30
0.0
 10
376.629083
 20
299.892031
 30
0.0
 10
347.922511
 20
299.892031
 30
0.0
 10
347.922511
 20
304.139112
 30
0.0
 10
368.049866
 20
304.139112
 30
0.0
 10
366.534418
 20
304.975812
 30
0.0
 10
365.170438
 20
305.496623
 30
0.0
 10
363.345166
 20
306.064413
 30
0.0
 10
361.950790
 20
306.498152
 30
0.0
 10
360.093119
 20
306.948496
 30
0.0
 10
358.674049
 20
307.292733
 30
0.0
 10
356.791288
 20
307.624821
 30
0.0
 10
355.353592
 20
307.878342
 30
0.0
 10
353.453813
 20
308.090149
 30
0.0
 10
352.792877
 20
308.163857
 30
0.0
 10
352.002344
 20
308.252144
 30
0.0
 10
350.093224
 20
308.342860
 30
0.0
 10
349.128560
 20
308.389029
 30
0.0
 10
348.267161
 20
308.389029
 30
0.0
 10
346.723349
 20
308.382143
 30
0.0
 10
345.263385
 20
308.359060
 30
0.0
 10
343.357510
 20
308.207595
 30
0.0
 10
341.902006
 20
308.091769
 30
0.0
 10
340.009903
 20
307.819619
 30
0.0
 10
338.564502
 20
307.611862
 30
0.0
 10
336.693482
 20
307.220241
 30
0.0
 10
335.264280
 20
306.921362
 30
0.0
 10
333.421595
 20
306.411890
 30
0.0
 10
332.014294
 20
306.022699
 30
0.0
 10
330.207648
 20
305.397402
 30
0.0
 10
328.827864
 20
304.919924
 30
0.0
 10
327.064539
 20
304.181636
 30
0.0
 10
325.717972
 20
303.617491
 30
0.0
 10
324.005279
 20
302.768642
 30
0.0
 10
322.697179
 20
302.120260
 30
0.0
 10
321.041212
 20
301.164090
 30
0.0
 10
319.776828
 20
300.434306
 30
0.0
 10
318.185236
 20
299.375270
 30
0.0
 10
316.969874
 20
298.566514
 30
0.0
 10
315.448357
 20
297.408661
 30
0.0
 10
314.286844
 20
296.524578
 30
0.0
 10
312.841866
 20
295.272768
 30
0.0
 10
311.738292
 20
294.316598
 30
0.0
 10
310.375921
 20
292.975286
 30
0.0
 10
309.335114
 20
291.951078
 30
0.0
 10
308.060626
 20
290.526340
 30
0.0
 10
307.087016
 20
289.438549
 30
0.0
 10
305.905267
 20
287.935648
 30
0.0
 10
305.002974
 20
286.787920
 30
0.0
 10
303.918818
 20
285.213337
 30
0.0
 10
303.091032
 20
284.010530
 30
0.0
 10
302.108955
 20
282.370340
 30
0.0
 10
301.358921
 20
281.117720
 30
0.0
 10
300.482931
 20
279.418401
 30
0.0
 10
299.813895
 20
278.120828
 30
0.0
 10
299.047267
 20
276.369267
 30
0.0
 10
298.462051
 20
275.032005
 30
0.0
 10
297.808001
 20
273.235490
 30
0.0
 10
297.308665
 20
271.863400
 30
0.0
 10
296.770016
 20
270.029221
 30
0.0
 10
296.358959
 20
268.628378
 30
0.0
 10
295.937771
 20
266.763419
 30
0.0
 10
295.615812
 20
265.339086
 30
0.0
 10
295.313693
 20
263.451449
 30
0.0
 10
295.083258
 20
262.009702
 30
0.0
 10
294.901027
 20
260.102222
 30
0.0
 10
294.762118
 20
258.644273
 30
0.0
 10
294.647902
 20
256.440343
 30
0.0
 10
294.635767
 20
255.283300
 30
0.0
 10
300.304736
 20
255.283300
 30
0.0
 10
300.304736
 20
255.283300
 30
0.0
  0
LWPOLYLINE
  5
10e
100
AcDbEntity
  8
shape
 62
5
100
AcDbPolyline
 90
71
 70
1
 10
7.140864
 20
331.313224
 30
0.0
 10
6.780346
 20
327.529852
 30
0.0
 10
6.749162
 20
327.012279
 30
0.0
 10
6.667557
 20
323.406290
 30
0.0
 10
131.533573
 20
323.406290
 30
0.0
 10
131.536818
 20
325.222245
 30
0.0
 10
69.246022
 20
325.530844
 30
0.0
 10
69.246022
 20
329.777924
 30
0.0
 10
131.110369
 20
329.777924
 30
0.0
 10
130.801770
 20
333.088275
 30
0.0
 10
130.676224
 20
333.802670
 30
0.0
 10
69.231036
 20
334.027841
 30
0.0
 10
69.231036
 20
338.274924
 30
0.0
 10
129.596938
 20
338.274924
 30
0.0
 10
129.079772
 20
340.821469
 30
0.0
 10
128.606748
 20
342.299667
 30
0.0
 10
69.217266
 20
342.524434
 30
0.0
 10
69.217266
 20
346.771514
 30
0.0
 10
126.818737
 20
346.771514
 30
0.0
 10
126.392694
 20
348.274416
 30
0.0
 10
125.097955
 20
351.021431
 30
0.0
 10
69.225366
 20
351.021431
 30
0.0
 10
69.225366
 20
355.268512
 30
0.0
 10
122.605269
 20
355.268512
 30
0.0
 10
120.650813
 20
358.667554
 30
0.0
 10
120.204921
 20
359.293257
 30
0.0
 10
69.222533
 20
359.518025
 30
0.0
 10
69.222533
 20
363.765105
 30
0.0
 10
116.458808
 20
363.765105
 30
0.0
 10
115.772356
 20
364.909595
 30
0.0
 10
113.045996
 20
367.786204
 30
0.0
 10
69.207547
 20
368.015022
 30
0.0
 10
69.207547
 20
372.261699
 30
0.0
 10
107.611093
 20
372.261699
 30
0.0
 10
107.074487
 20
372.992293
 30
0.0
 10
103.852828
 20
375.301113
 30
0.0
 10
102.286751
 20
376.286848
 30
0.0
 10
69.242376
 20
376.511612
 30
0.0
 10
69.242376
 20
380.758696
 30
0.0
 10
93.222772
 20
380.758696
 30
0.0
 10
89.705880
 20
382.365677
 30
0.0
 10
85.924938
 20
383.553906
 30
0.0
 10
82.075957
 20
384.499546
 30
0.0
 10
78.175138
 20
385.199764
 30
0.0
 10
74.237870
 20
385.650919
 30
0.0
 10
70.279542
 20
385.851387
 30
0.0
 10
66.316761
 20
385.800359
 30
0.0
 10
62.364914
 20
385.498240
 30
0.0
 10
58.440608
 20
384.946244
 30
0.0
 10
54.558822
 20
384.145992
 30
0.0
 10
50.735761
 20
383.101535
 30
0.0
 10
46.986404
 20
381.816518
 30
0.0
 10
43.326552
 20
380.296608
 30
0.0
 10
39.770214
 20
378.547073
 30
0.0
 10
36.331929
 20
376.576007
 30
0.0
 10
33.025752
 20
374.390707
 30
0.0
 10
29.864679
 20
372.000079
 30
0.0
 10
26.861591
 20
369.413436
 30
0.0
 10
24.028759
 20
366.641717
 30
0.0
 10
21.377239
 20
363.696257
 30
0.0
 10
18.918046
 20
360.588400
 30
0.0
 10
16.660739
 20
357.330698
 30
0.0
 10
14.614753
 20
353.936516
 30
0.0
 10
12.788066
 20
350.419217
 30
0.0
 10
11.188212
 20
346.793384
 30
0.0
 10
9.821387
 20
343.073190
 30
0.0
 10
8.693422
 20
339.274022
 30
0.0
 10
7.808650
 20
335.410865
 30
0.0
 10
7.170636
 20
331.499113
 30
0.0
 10
7.140870
 20
331.313224
 30
0.0
 10
7.140864
 20
331.313224
 30
0.0
  0
LWPOLYLINE
  5
10f
100
AcDbEntity
  8
shape
 62
5
100
AcDbPolyline
 90
102
 70
1
 10
134.856477
 20
325.306076
 30
0.0
 10
134.751993
 20
324.547944
 30
0.0
 10
134.724448
 20
323.947756
 30
0.0
 10
134.711889
 20
323.406290
 30
0.0
 10
276.637386
 20
323.406290
 30
0.0
 10
276.635693
 20
324.496511
 30
0.0
 10
276.409709
 20
326.195020
 30
0.0
 10
276.322638
 20
326.816673
 30
0.0
 10
275.691267
 20
329.040853
 30
0.0
 10
274.754131
 20
331.191324
 30
0.0
 10
274.466589
 20
331.670825
 30
0.0
 10
273.524190
 20
333.240551
 30
0.0
 10
272.872567
 20
334.070769
 30
0.0
 10
272.016429
 20
335.161801
 30
0.0
 10
270.780818
 20
336.399436
 30
0.0
 10
270.251908
 20
336.929562
 30
0.0
 10
268.514520
 20
338.312586
 30
0.0
 10
265.940029
 20
339.915518
 30
0.0
 10
264.495040
 20
340.599944
 30
0.0
 10
263.451394
 20
341.094835
 30
0.0
 10
261.718462
 20
341.716488
 30
0.0
 10
260.765126
 20
342.043310
 30
0.0
 10
259.898862
 20
342.254714
 30
0.0
 10
257.869885
 20
342.749202
 30
0.0
 10
255.773276
 20
343.067924
 30
0.0
 10
254.839786
 20
343.202783
 30
0.0
 10
253.451899
 20
343.287428
 30
0.0
 10
251.645666
 20
343.397988
 30
0.0
 10
250.820710
 20
343.406088
 30
0.0
 10
250.818735
 20
344.093347
 30
0.0
 10
250.718297
 20
344.923162
 30
0.0
 10
250.397955
 20
346.816470
 30
0.0
 10
250.201941
 20
347.388308
 30
0.0
 10
249.636176
 20
349.040649
 30
0.0
 10
249.126705
 20
350.010587
 30
0.0
 10
248.505861
 20
351.191524
 30
0.0
 10
247.351654
 20
352.785142
 30
0.0
 10
247.021590
 20
353.240751
 30
0.0
 10
246.168288
 20
354.142250
 30
0.0
 10
245.129499
 20
355.162001
 30
0.0
 10
244.255138
 20
355.836303
 30
0.0
 10
242.838091
 20
356.929358
 30
0.0
 10
241.239616
 20
357.909423
 30
0.0
 10
240.155470
 20
358.521354
 30
0.0
 10
237.690324
 20
359.624129
 30
0.0
 10
237.039511
 20
359.915721
 30
0.0
 10
233.359816
 20
361.094631
 30
0.0
 10
232.655545
 20
361.264320
 30
0.0
 10
229.045911
 20
362.043513
 30
0.0
 10
228.331516
 20
362.143544
 30
0.0
 10
225.249173
 20
362.559869
 30
0.0
 10
223.619512
 20
362.748998
 30
0.0
 10
221.848917
 20
362.876972
 30
0.0
 10
220.267448
 20
362.972549
 30
0.0
 10
218.594455
 20
363.072986
 30
0.0
 10
215.885101
 20
363.202580
 30
0.0
 10
215.282080
 20
363.213925
 30
0.0
 10
212.393722
 20
363.256854
 30
0.0
 10
211.445653
 20
363.266167
 30
0.0
 10
209.389543
 20
363.285612
 30
0.0
 10
208.078200
 20
363.290890
 30
0.0
 10
206.416140
 20
363.297776
 30
0.0
 10
205.551495
 20
363.296647
 30
0.0
 10
205.551495
 20
359.518538
 30
0.0
 10
173.417529
 20
359.518538
 30
0.0
 10
172.891046
 20
359.293367
 30
0.0
 10
172.396559
 20
359.081966
 30
0.0
 10
171.682571
 20
358.748258
 30
0.0
 10
171.196590
 20
358.521464
 30
0.0
 10
169.953689
 20
357.789253
 30
0.0
 10
168.493717
 20
356.929468
 30
0.0
 10
167.708450
 20
356.347910
 30
0.0
 10
166.689103
 20
355.531052
 30
0.0
 10
205.527602
 20
355.268622
 30
0.0
 10
205.527602
 20
351.021541
 30
0.0
 10
162.713766
 20
351.021541
 30
0.0
 10
161.829276
 20
349.308452
 30
0.0
 10
161.138777
 20
347.366953
 30
0.0
 10
161.101114
 20
346.771625
 30
0.0
 10
205.531246
 20
346.771625
 30
0.0
 10
205.531246
 20
342.524948
 30
0.0
 10
152.525953
 20
342.524948
 30
0.0
 10
151.624456
 20
342.299777
 30
0.0
 10
150.598223
 20
342.043420
 30
0.0
 10
149.374358
 20
341.614138
 30
0.0
 10
147.894542
 20
341.094945
 30
0.0
 10
146.352356
 20
340.380146
 30
0.0
 10
145.649304
 20
340.039959
 30
0.0
 10
143.934595
 20
339.013322
 30
0.0
 10
143.139609
 20
338.521264
 30
0.0
 10
205.560001
 20
338.275034
 30
0.0
 10
205.560001
 20
334.027951
 30
0.0
 10
138.415858
 20
334.027951
 30
0.0
 10
138.005608
 20
333.494585
 30
0.0
 10
136.923893
 20
331.736140
 30
0.0
 10
136.603145
 20
331.191434
 30
0.0
 10
136.094888
 20
330.003208
 30
0.0
 10
205.566075
 20
329.778034
 30
0.0
 10
205.566075
 20
325.530954
 30
0.0
 10
134.941491
 20
325.530954
 30
0.0
 10
134.856443
 20
325.306186
 30
0.0
 10
134.856477
 20
325.306076
 30
0.0
  0
LWPOLYLINE
  5
110
100
AcDbEntity
  8
shape
 62
1
100
AcDbPolyline
 90
2
 70
0
 10
233.114833
 20
336.964391
 30
0.0
 10
238.224534
 20
336.964391
 30
0.0
  0
LWPOLYLINE
  5
111
100
AcDbEntity
  8
shape
 62
5
100
AcDbPolyline
 90
59
 70
1
 10
134.932615
 20
368.372623
 30
0.0
 10
134.764139
 20
367.614492
 30
0.0
 10
134.711897
 20
366.472838
 30
0.0
 10
224.233099
 20
366.472838
 30
0.0
 10
224.228245
 20
367.220036
 30
0.0
 10
223.776280
 20
369.553155
 30
0.0
 10
222.974411
 20
371.581726
 30
0.0
 10
222.726154
 20
372.107399
 30
0.0
 10
221.166961
 20
374.258277
 30
0.0
 10
220.045153
 20
375.380895
 30
0.0
 10
219.119354
 20
376.307501
 30
0.0
 10
217.673961
 20
377.414732
 30
0.0
 10
216.493025
 20
378.228348
 30
0.0
 10
214.291119
 20
379.421434
 30
0.0
 10
213.230056
 20
379.996109
 30
0.0
 10
212.676037
 20
380.234646
 30
0.0
 10
209.128366
 20
381.587701
 30
0.0
 10
207.927990
 20
381.950972
 30
0.0
 10
204.002871
 20
382.982065
 30
0.0
 10
203.383648
 20
383.109635
 30
0.0
 10
202.077571
 20
383.336022
 30
0.0
 10
199.003734
 20
383.869792
 30
0.0
 10
196.939117
 20
384.161384
 30
0.0
 10
194.753814
 20
384.395058
 30
0.0
 10
193.185308
 20
384.523845
 30
0.0
 10
190.602718
 20
384.736056
 30
0.0
 10
187.347039
 20
384.921541
 30
0.0
 10
186.522490
 20
384.968520
 30
0.0
 10
182.553633
 20
385.094470
 30
0.0
 10
180.382102
 20
385.109851
 30
0.0
 10
178.468545
 20
385.118769
 30
0.0
 10
177.830288
 20
385.109851
 30
0.0
 10
174.704206
 20
385.050726
 30
0.0
 10
174.092275
 20
385.029672
 30
0.0
 10
170.359118
 20
384.864033
 30
0.0
 10
168.818151
 20
384.756306
 30
0.0
 10
166.276867
 20
384.579327
 30
0.0
 10
164.998733
 20
384.458237
 30
0.0
 10
162.080408
 20
384.182444
 30
0.0
 10
159.305450
 20
383.752348
 30
0.0
 10
157.769340
 20
383.510165
 30
0.0
 10
156.628496
 20
383.293904
 30
0.0
 10
154.983849
 20
382.982065
 30
0.0
 10
154.056433
 20
382.757298
 30
0.0
 10
153.311665
 20
382.576675
 30
0.0
 10
151.641102
 20
382.104461
 30
0.0
 10
149.814212
 20
381.587701
 30
0.0
 10
179.368422
 20
381.341470
 30
0.0
 10
179.368422
 20
377.094387
 30
0.0
 10
140.898863
 20
377.094387
 30
0.0
 10
139.817148
 20
376.307501
 30
0.0
 10
138.662131
 20
375.208776
 30
0.0
 10
138.002004
 20
374.515443
 30
0.0
 10
136.935272
 20
373.069644
 30
0.0
 10
179.353842
 20
372.844471
 30
0.0
 10
179.353842
 20
368.597797
 30
0.0
 10
135.017668
 20
368.597797
 30
0.0
 10
134.932620
 20
368.372623
 30
0.0
 10
134.932615
 20
368.372623
 30
0.0
  0
LWPOLYLINE
  5
112
100
AcDbEntity
  8
shape
 62
5
100
AcDbPolyline
 90
99
 70
1
 10
279.953415
 20
325.133958
 30
0.0
 10
279.865938
 20
324.547944
 30
0.0
 10
279.817339
 20
323.615263
 30
0.0
 10
386.918539
 20
323.406290
 30
0.0
 10
408.990659
 20
323.406290
 30
0.0
 10
408.942060
 20
324.547944
 30
0.0
 10
408.856998
 20
325.097104
 30
0.0
 10
408.593770
 20
326.816673
 30
0.0
 10
408.379140
 20
327.503122
 30
0.0
 10
407.905289
 20
329.040853
 30
0.0
 10
407.455765
 20
329.985682
 30
0.0
 10
406.880681
 20
331.191324
 30
0.0
 10
406.014005
 20
332.516030
 30
0.0
 10
405.536118
 20
333.240551
 30
0.0
 10
403.984234
 20
335.054478
 30
0.0
 10
403.608794
 20
335.421801
 30
0.0
 10
401.877897
 20
336.929562
 30
0.0
 10
400.898642
 20
337.607508
 30
0.0
 10
399.578802
 20
338.521154
 30
0.0
 10
397.374054
 20
339.732060
 30
0.0
 10
396.654387
 20
340.063744
 30
0.0
 10
394.110690
 20
341.094835
 30
0.0
 10
391.771096
 20
341.812876
 30
0.0
 10
390.970036
 20
342.043310
 30
0.0
 10
389.329845
 20
342.379045
 30
0.0
 10
387.522381
 20
342.749202
 30
0.0
 10
386.678396
 20
342.856926
 30
0.0
 10
383.764931
 20
343.202783
 30
0.0
 10
382.002425
 20
343.291071
 30
0.0
 10
379.700508
 20
343.397988
 30
0.0
 10
378.961001
 20
343.403661
 30
0.0
 10
378.551948
 20
344.547744
 30
0.0
 10
378.263602
 20
345.874477
 30
0.0
 10
378.058680
 20
346.816472
 30
0.0
 10
377.284347
 20
348.572894
 30
0.0
 10
377.078212
 20
349.040652
 30
0.0
 10
376.287679
 20
350.209035
 30
0.0
 10
375.546168
 20
351.191527
 30
0.0
 10
374.897368
 20
351.814800
 30
0.0
 10
373.413895
 20
353.240753
 30
0.0
 10
371.773704
 20
354.446802
 30
0.0
 10
370.667703
 20
355.162004
 30
0.0
 10
367.535150
 20
356.754002
 30
0.0
 10
363.516474
 20
358.184815
 30
0.0
 10
362.351320
 20
358.521357
 30
0.0
 10
359.670322
 20
359.135314
 30
0.0
 10
356.514682
 20
359.709179
 30
0.0
 10
355.957406
 20
359.810427
 30
0.0
 10
355.173365
 20
359.915724
 30
0.0
 10
352.342111
 20
360.212173
 30
0.0
 10
351.251097
 20
360.285068
 30
0.0
 10
348.792010
 20
360.449494
 30
0.0
 10
347.082562
 20
360.498496
 30
0.0
 10
345.277553
 20
360.550334
 30
0.0
 10
344.623108
 20
360.544267
 30
0.0
 10
344.623108
 20
359.518437
 30
0.0
 10
331.134240
 20
359.518437
 30
0.0
 10
330.009190
 20
359.293266
 30
0.0
 10
329.334481
 20
359.154356
 30
0.0
 10
327.228172
 20
358.721427
 30
0.0
 10
326.433998
 20
358.521363
 30
0.0
 10
324.703892
 20
357.970990
 30
0.0
 10
323.301416
 20
357.524695
 30
0.0
 10
322.537610
 20
357.237965
 30
0.0
 10
321.716710
 20
356.929367
 30
0.0
 10
320.531321
 20
356.369271
 30
0.0
 10
319.179081
 20
355.729801
 30
0.0
 10
318.829182
 20
355.268520
 30
0.0
 10
344.289380
 20
355.268520
 30
0.0
 10
344.289380
 20
351.021440
 30
0.0
 10
313.158576
 20
351.021440
 30
0.0
 10
312.516661
 20
350.121563
 30
0.0
 10
311.745574
 20
349.040657
 30
0.0
 10
311.461263
 20
348.429127
 30
0.0
 10
310.795472
 20
346.996694
 30
0.0
 10
344.255767
 20
346.771523
 30
0.0
 10
344.255767
 20
342.524846
 30
0.0
 10
300.158545
 20
342.524846
 30
0.0
 10
299.635305
 20
342.421172
 30
0.0
 10
299.060221
 20
342.299675
 30
0.0
 10
298.562889
 20
342.194381
 30
0.0
 10
297.849713
 20
342.043319
 30
0.0
 10
296.558631
 20
341.659392
 30
0.0
 10
294.660066
 20
341.094843
 30
0.0
 10
292.650503
 20
340.264218
 30
0.0
 10
291.815040
 20
339.915527
 30
0.0
 10
290.800536
 20
339.373657
 30
0.0
 10
289.203694
 20
338.521163
 30
0.0
 10
344.254977
 20
338.274932
 30
0.0
 10
344.254977
 20
334.027849
 30
0.0
 10
283.949817
 20
334.027849
 30
0.0
 10
283.258486
 20
333.240559
 30
0.0
 10
281.881145
 20
331.191332
 30
0.0
 10
281.324693
 20
330.003106
 30
0.0
 10
344.274394
 20
329.777932
 30
0.0
 10
344.274394
 20
325.530852
 30
0.0
 10
280.064379
 20
325.530852
 30
0.0
 10
279.953415
 20
325.133967
 30
0.0
 10
279.953415
 20
325.133958
 30
0.0
  0
LWPOLYLINE
  5
113
100
AcDbEntity
  8
shape
 62
5
100
AcDbPolyline
 90
83
 70
1
 10
7.207808
 20
395.721285
 30
0.0
 10
7.013050
 20
394.034522
 30
0.0
 10
6.822910
 20
392.388255
 30
0.0
 10
6.677682
 20
389.392579
 30
0.0
 10
8.855572
 20
389.035382
 30
0.0
 10
94.191495
 20
389.035382
 30
0.0
 10
94.232801
 20
390.935169
 30
0.0
 10
50.619525
 20
391.160340
 30
0.0
 10
50.619525
 20
395.407017
 30
0.0
 10
93.702677
 20
395.407017
 30
0.0
 10
93.454420
 20
397.387799
 30
0.0
 10
93.138935
 20
399.015030
 30
0.0
 10
92.938874
 20
399.656931
 30
0.0
 10
50.619525
 20
399.656931
 30
0.0
 10
50.619525
 20
403.904014
 30
0.0
 10
91.489835
 20
403.904014
 30
0.0
 10
91.115628
 20
405.406509
 30
0.0
 10
90.421079
 20
406.957602
 30
0.0
 10
89.884473
 20
408.152311
 30
0.0
 10
50.619525
 20
408.152311
 30
0.0
 10
50.619525
 20
412.400605
 30
0.0
 10
87.272317
 20
412.400605
 30
0.0
 10
86.316552
 20
414.235190
 30
0.0
 10
85.287485
 20
415.583792
 30
0.0
 10
84.473869
 20
416.648904
 30
0.0
 10
50.619525
 20
416.648904
 30
0.0
 10
50.619525
 20
420.897198
 30
0.0
 10
80.181834
 20
420.897198
 30
0.0
 10
79.632675
 20
421.731470
 30
0.0
 10
78.322952
 20
422.812779
 30
0.0
 10
77.044412
 20
423.869791
 30
0.0
 10
75.655718
 20
424.845806
 30
0.0
 10
75.225219
 20
425.145495
 30
0.0
 10
50.619525
 20
425.145495
 30
0.0
 10
50.619525
 20
429.393792
 30
0.0
 10
66.790590
 20
429.393792
 30
0.0
 10
65.297408
 20
430.256409
 30
0.0
 10
63.678681
 20
430.766693
 30
0.0
 10
62.098428
 20
431.268873
 30
0.0
 10
60.445277
 20
431.653610
 30
0.0
 10
58.831412
 20
432.034297
 30
0.0
 10
57.153559
 20
432.293487
 30
0.0
 10
55.515391
 20
432.544577
 30
0.0
 10
53.822958
 20
432.674173
 30
0.0
 10
52.170211
 20
432.799717
 30
0.0
 10
48.815315
 20
432.799717
 30
0.0
 10
47.122475
 20
432.670123
 30
0.0
 10
45.469731
 20
432.544577
 30
0.0
 10
43.791878
 20
432.285387
 30
0.0
 10
42.154114
 20
432.034297
 30
0.0
 10
40.500966
 20
431.645510
 30
0.0
 10
38.886977
 20
431.268873
 30
0.0
 10
37.268291
 20
430.754543
 30
0.0
 10
35.688242
 20
430.256409
 30
0.0
 10
34.113535
 20
429.620583
 30
0.0
 10
32.576172
 20
429.000955
 30
0.0
 10
31.054802
 20
428.247682
 30
0.0
 10
29.569478
 20
427.514660
 30
0.0
 10
28.110114
 20
426.643940
 30
0.0
 10
26.685376
 20
425.797521
 30
0.0
 10
25.296721
 20
424.821507
 30
0.0
 10
23.941114
 20
423.869791
 30
0.0
 10
22.631229
 20
422.788482
 30
0.0
 10
21.352529
 20
421.731470
 30
0.0
 10
20.129351
 20
420.557010
 30
0.0
 10
18.935131
 20
419.406853
 30
0.0
 10
17.805586
 20
418.139249
 30
0.0
 10
16.702811
 20
416.899994
 30
0.0
 10
15.673581
 20
415.551393
 30
0.0
 10
14.668853
 20
414.235190
 30
0.0
 10
13.745932
 20
412.809643
 30
0.0
 10
12.845001
 20
411.416493
 30
0.0
 10
12.034059
 20
409.926145
 30
0.0
 10
11.242312
 20
408.468199
 30
0.0
 10
10.547803
 20
406.921156
 30
0.0
 10
9.869776
 20
405.406509
 30
0.0
 10
9.295831
 20
403.810056
 30
0.0
 10
8.735656
 20
402.250053
 30
0.0
 10
8.285757
 20
400.613102
 30
0.0
 10
7.846591
 20
399.015030
 30
0.0
 10
7.523413
 20
397.348110
 30
0.0
 10
7.207808
 20
395.721285
 30
0.0
 10
7.207808
 20
395.721285
 30
0.0
  0
LWPOLYLINE
  5
114
100
AcDbEntity
  8
shape
 62
5
100
AcDbPolyline
 90
74
 70
1
 10
97.667482
 20
390.935169
 30
0.0
 10
97.533838
 20
390.177035
 30
0.0
 10
97.492933
 20
389.035382
 30
0.0
 10
209.899857
 20
389.035382
 30
0.0
 10
209.897317
 20
389.728717
 30
0.0
 10
209.547409
 20
392.010405
 30
0.0
 10
208.752829
 20
394.526579
 30
0.0
 10
208.353513
 20
395.329259
 30
0.0
 10
207.508715
 20
396.820820
 30
0.0
 10
205.909023
 20
398.870047
 30
0.0
 10
204.706621
 20
400.048554
 30
0.0
 10
203.949297
 20
400.790891
 30
0.0
 10
202.477582
 20
401.924849
 30
0.0
 10
201.592284
 20
402.559058
 30
0.0
 10
200.665675
 20
403.086348
 30
0.0
 10
198.796670
 20
404.150244
 30
0.0
 10
197.081961
 20
404.924981
 30
0.0
 10
195.592830
 20
405.544205
 30
0.0
 10
192.080391
 20
406.686262
 30
0.0
 10
190.863815
 20
406.969754
 30
0.0
 10
187.738543
 20
407.674427
 30
0.0
 10
184.098537
 20
408.200906
 30
0.0
 10
182.993736
 20
408.362902
 30
0.0
 10
178.804161
 20
408.699040
 30
0.0
 10
176.903970
 20
408.832684
 30
0.0
 10
174.794401
 20
408.893432
 30
0.0
 10
172.436578
 20
408.950130
 30
0.0
 10
170.929627
 20
408.990629
 30
0.0
 10
169.034700
 20
409.027078
 30
0.0
 10
168.193141
 20
409.031114
 30
0.0
 10
166.425784
 20
409.035150
 30
0.0
 10
166.411193
 20
409.577829
 30
0.0
 10
166.233404
 20
410.177210
 30
0.0
 10
165.789946
 20
410.849483
 30
0.0
 10
164.734960
 20
412.445128
 30
0.0
 10
162.858662
 20
413.846375
 30
0.0
 10
161.134236
 20
414.668497
 30
0.0
 10
158.762234
 20
415.405569
 30
0.0
 10
156.917528
 20
415.652612
 30
0.0
 10
154.707522
 20
415.948251
 30
0.0
 10
152.500353
 20
415.851053
 30
0.0
 10
150.660504
 20
415.770056
 30
0.0
 10
149.208631
 20
415.446067
 30
0.0
 10
146.589186
 20
414.862889
 30
0.0
 10
146.104824
 20
414.668497
 30
0.0
 10
144.407125
 20
413.631734
 30
0.0
 10
142.766124
 20
412.627370
 30
0.0
 10
153.583284
 20
412.400576
 30
0.0
 10
153.583284
 20
408.152282
 30
0.0
 10
122.938850
 20
408.152282
 30
0.0
 10
122.224052
 20
408.055085
 30
0.0
 10
121.382087
 20
407.929539
 30
0.0
 10
119.696134
 20
407.674398
 30
0.0
 10
118.724979
 20
407.463807
 30
0.0
 10
117.687406
 20
407.245116
 30
0.0
 10
116.510113
 20
406.965673
 30
0.0
 10
115.483476
 20
406.722683
 30
0.0
 10
114.355189
 20
406.374395
 30
0.0
 10
112.855931
 20
405.904614
 30
0.0
 10
112.232657
 20
405.694020
 30
0.0
 10
110.244992
 20
404.873117
 30
0.0
 10
108.579285
 20
404.150216
 30
0.0
 10
153.547645
 20
403.903986
 30
0.0
 10
153.547645
 20
399.656902
 30
0.0
 10
102.242885
 20
399.656902
 30
0.0
 10
101.598149
 20
399.017026
 30
0.0
 10
100.350388
 20
397.409237
 30
0.0
 10
99.906119
 20
396.820792
 30
0.0
 10
99.274342
 20
395.667799
 30
0.0
 10
153.572755
 20
395.406989
 30
0.0
 10
153.572755
 20
391.160312
 30
0.0
 10
97.752812
 20
391.160312
 30
0.0
 10
97.667360
 20
390.935141
 30
0.0
 10
97.667482
 20
390.935169
 30
0.0
  0
LWPOLYLINE
  5
115
100
AcDbEntity
  8
path
 62
1
100
AcDbPolyline
 90
3
 70
0
 10
100.368734
 20
7.679022
 30
0.0
 10
100.368734
 20
14.152794
 30
0.0
 10
98.929417
 20
12.713193
 30
0.0
  0
LWPOLYLINE
  5
116
100
AcDbEntity
  8
path
 62
1
100
AcDbPolyline
 90
34
 70
0
 10
102.155530
 20
15.811979
 30
0.0
 10
98.957361
 20
15.811979
 30
0.0
 10
101.912539
 20
20.569585
 30
0.0
 10
101.912539
 20
20.569585
 30
0.0
 10
101.916184
 20
20.574039
 30
0.0
 10
101.919828
 20
20.578454
 30
0.0
 10
101.923068
 20
20.582868
 30
0.0
 10
101.925903
 20
20.587485
 30
0.0
 10
101.929143
 20
20.592223
 30
0.0
 10
101.931978
 20
20.597124
 30
0.0
 10
101.935218
 20
20.602348
 30
0.0
 10
101.938053
 20
20.607734
 30
0.0
 10
101.941293
 20
20.613404
 30
0.0
 10
101.941293
 20
20.613404
 30
0.0
 10
102.063193
 20
20.875389
 30
0.0
 10
102.134471
 20
21.147013
 30
0.0
 10
102.156745
 20
21.422119
 30
0.0
 10
102.131636
 20
21.694391
 30
0.0
 10
102.061573
 20
21.957915
 30
0.0
 10
101.946962
 20
22.206454
 30
0.0
 10
101.791043
 20
22.433935
 30
0.0
 10
101.594220
 20
22.634240
 30
0.0
 10
101.359329
 20
22.801135
 30
0.0
 10
101.359329
 20
22.801135
 30
0.0
 10
101.096493
 20
22.921334
 30
0.0
 10
100.824748
 20
22.991599
 30
0.0
 10
100.549358
 20
23.013266
 30
0.0
 10
100.277208
 20
22.987955
 30
0.0
 10
100.013967
 20
22.917244
 30
0.0
 10
99.765711
 20
22.802876
 30
0.0
 10
99.538515
 20
22.646268
 30
0.0
 10
99.338452
 20
22.448960
 30
0.0
 10
99.172003
 20
22.212610
 30
0.0
 10
98.961815
 20
21.809690
 30
0.0
  0
LWPOLYLINE
  5
117
100
AcDbEntity
  8
path
 62
1
100
AcDbPolyline
 90
45
 70
0
 10
98.971940
 20
24.309057
 30
0.0
 10
100.570822
 20
24.309057
 30
0.0
 10
100.570822
 20
24.309057
 30
0.0
 10
100.858767
 20
24.334855
 30
0.0
 10
101.129297
 20
24.409210
 30
0.0
 10
101.378363
 20
24.527547
 30
0.0
 10
101.601510
 20
24.685248
 30
0.0
 10
101.794283
 20
24.877940
 30
0.0
 10
101.951822
 20
25.100844
 30
0.0
 10
102.070078
 20
25.349546
 30
0.0
 10
102.144595
 20
25.619428
 30
0.0
 10
102.170109
 20
25.905914
 30
0.0
 10
102.170109
 20
26.706530
 30
0.0
 10
102.144595
 20
26.992895
 30
0.0
 10
102.070078
 20
27.262777
 30
0.0
 10
101.951822
 20
27.511438
 30
0.0
 10
101.794283
 20
27.734342
 30
0.0
 10
101.601510
 20
27.927034
 30
0.0
 10
101.378363
 20
28.084898
 30
0.0
 10
101.129297
 20
28.203234
 30
0.0
 10
100.858767
 20
28.277752
 30
0.0
 10
100.570822
 20
28.303549
 30
0.0
 10
99.770166
 20
28.303549
 30
0.0
 10
100.570822
 20
28.303549
 30
0.0
 10
100.570822
 20
28.303549
 30
0.0
 10
100.858767
 20
28.329347
 30
0.0
 10
101.129297
 20
28.403824
 30
0.0
 10
101.378363
 20
28.522322
 30
0.0
 10
101.601510
 20
28.680388
 30
0.0
 10
101.794283
 20
28.873364
 30
0.0
 10
101.951822
 20
29.096916
 30
0.0
 10
102.070078
 20
29.346387
 30
0.0
 10
102.144595
 20
29.617200
 30
0.0
 10
102.170109
 20
29.904983
 30
0.0
 10
102.170109
 20
29.904983
 30
0.0
 10
102.144595
 20
30.191307
 30
0.0
 10
102.070078
 20
30.461028
 30
0.0
 10
101.951822
 20
30.709729
 30
0.0
 10
101.794283
 20
30.932633
 30
0.0
 10
101.601510
 20
31.125325
 30
0.0
 10
101.378363
 20
31.283188
 30
0.0
 10
101.129297
 20
31.401687
 30
0.0
 10
100.858767
 20
31.476042
 30
0.0
 10
100.570822
 20
31.501840
 30
0.0
 10
98.971940
 20
31.501840
 30
0.0
  0
LWPOLYLINE
  5
118
100
AcDbEntity
  8
path
 62
1
100
AcDbPolyline
 90
3
 70
0
 10
102.569020
 20
34.406476
 30
0.0
 10
98.570600
 20
34.406476
 30
0.0
 10
100.167457
 20
40.006978
 30
0.0
  0
LWPOLYLINE
  5
119
100
AcDbEntity
  8
path
 62
1
100
AcDbPolyline
 90
2
 70
0
 10
101.370263
 20
32.805528
 30
0.0
 10
101.370263
 20
36.003981
 30
0.0
  0
LWPOLYLINE
  5
11a
100
AcDbEntity
  8
path
 62
1
100
AcDbPolyline
 90
25
 70
0
 10
98.946021
 20
41.302405
 30
0.0
 10
100.545308
 20
41.302405
 30
0.0
 10
100.545308
 20
41.302405
 30
0.0
 10
100.832038
 20
41.327919
 30
0.0
 10
101.102568
 20
41.402436
 30
0.0
 10
101.351634
 20
41.521097
 30
0.0
 10
101.574781
 20
41.679041
 30
0.0
 10
101.767554
 20
41.871814
 30
0.0
 10
101.925498
 20
42.095366
 30
0.0
 10
102.044159
 20
42.344837
 30
0.0
 10
102.118676
 20
42.615772
 30
0.0
 10
102.144190
 20
42.903312
 30
0.0
 10
102.144190
 20
43.699918
 30
0.0
 10
102.118676
 20
43.987457
 30
0.0
 10
102.044159
 20
44.257988
 30
0.0
 10
101.925903
 20
44.506649
 30
0.0
 10
101.767959
 20
44.729796
 30
0.0
 10
101.574781
 20
44.921759
 30
0.0
 10
101.351634
 20
45.079298
 30
0.0
 10
101.102568
 20
45.197149
 30
0.0
 10
100.832443
 20
45.271261
 30
0.0
 10
100.545308
 20
45.296775
 30
0.0
 10
98.946021
 20
45.296775
 30
0.0
 10
98.946021
 20
48.503854
 30
0.0
 10
102.144190
 20
48.503854
 30
0.0
  0
LWPOLYLINE
  5
11b
100
AcDbEntity
  8
path
 62
1
100
AcDbPolyline
 90
42
 70
0
 10
101.354064
 20
57.000447
 30
0.0
 10
101.354064
 20
57.000447
 30
0.0
 10
100.896430
 20
56.828733
 30
0.0
 10
100.475651
 20
56.597486
 30
0.0
 10
100.097394
 20
56.311972
 30
0.0
 10
99.765306
 20
55.978669
 30
0.0
 10
99.484246
 20
55.602842
 30
0.0
 10
99.257860
 20
55.190972
 30
0.0
 10
99.091006
 20
54.748323
 30
0.0
 10
98.987734
 20
54.280565
 30
0.0
 10
98.952096
 20
53.793773
 30
0.0
 10
98.952096
 20
51.400309
 30
0.0
 10
98.978015
 20
51.112365
 30
0.0
 10
99.052532
 20
50.841430
 30
0.0
 10
99.170788
 20
50.592364
 30
0.0
 10
99.328732
 20
50.368812
 30
0.0
 10
99.521505
 20
50.175634
 30
0.0
 10
99.745057
 20
50.017689
 30
0.0
 10
99.994123
 20
49.899434
 30
0.0
 10
100.264248
 20
49.824916
 30
0.0
 10
100.551383
 20
49.798997
 30
0.0
 10
100.551383
 20
49.798997
 30
0.0
 10
100.838922
 20
49.824916
 30
0.0
 10
101.109858
 20
49.899434
 30
0.0
 10
101.358519
 20
50.017689
 30
0.0
 10
101.582071
 20
50.175634
 30
0.0
 10
101.774439
 20
50.368812
 30
0.0
 10
101.932383
 20
50.592364
 30
0.0
 10
102.050639
 20
50.841430
 30
0.0
 10
102.124751
 20
51.112365
 30
0.0
 10
102.150265
 20
51.400309
 30
0.0
 10
102.150265
 20
52.196915
 30
0.0
 10
102.124751
 20
52.484455
 30
0.0
 10
102.050639
 20
52.754580
 30
0.0
 10
101.932383
 20
53.003646
 30
0.0
 10
101.774439
 20
53.226388
 30
0.0
 10
101.582071
 20
53.418756
 30
0.0
 10
101.358519
 20
53.575891
 30
0.0
 10
101.109858
 20
53.693741
 30
0.0
 10
100.838922
 20
53.767854
 30
0.0
 10
100.551383
 20
53.793773
 30
0.0
 10
98.952096
 20
53.793773
 30
0.0
  0
LWPOLYLINE
  5
11c
100
AcDbEntity
  8
path
 62
1
100
AcDbPolyline
 90
2
 70
0
 10
98.752033
 20
48.899120
 30
0.0
 10
102.352758
 20
48.899120
 30
0.0
  0
LWPOLYLINE
  5
11d
100
AcDbEntity
  8
path
 62
1
100
AcDbPolyline
 90
3
 70
0
 10
100.551383
 20
58.295995
 30
0.0
 10
102.152290
 20
65.497444
 30
0.0
 10
98.950071
 20
65.497444
 30
0.0
  0
LWPOLYLINE
  5
11e
100
AcDbEntity
  8
path
 62
1
100
AcDbPolyline
 90
2
 70
0
 10
102.152290
 20
62.290365
 30
0.0
 10
100.551383
 20
62.290365
 30
0.0
  0
LWPOLYLINE
  5
11f
100
AcDbEntity
  8
path
 62
1
100
AcDbPolyline
 90
43
 70
1
 10
98.952096
 20
68.389445
 30
0.0
 10
98.952096
 20
68.389445
 30
0.0
 10
98.978015
 20
68.101905
 30
0.0
 10
99.052532
 20
67.831375
 30
0.0
 10
99.170788
 20
67.582714
 30
0.0
 10
99.328732
 20
67.359972
 30
0.0
 10
99.521505
 20
67.167604
 30
0.0
 10
99.745057
 20
67.010065
 30
0.0
 10
99.994123
 20
66.892214
 30
0.0
 10
100.264248
 20
66.818102
 30
0.0
 10
100.551383
 20
66.792588
 30
0.0
 10
100.551383
 20
66.792588
 30
0.0
 10
100.838517
 20
66.818102
 30
0.0
 10
101.108643
 20
66.892214
 30
0.0
 10
101.357709
 20
67.010065
 30
0.0
 10
101.580856
 20
67.167604
 30
0.0
 10
101.774034
 20
67.359972
 30
0.0
 10
101.931978
 20
67.582714
 30
0.0
 10
102.050234
 20
67.831375
 30
0.0
 10
102.124751
 20
68.101905
 30
0.0
 10
102.150265
 20
68.389445
 30
0.0
 10
102.150265
 20
69.186051
 30
0.0
 10
102.124751
 20
69.473591
 30
0.0
 10
102.050234
 20
69.744526
 30
0.0
 10
101.931978
 20
69.993997
 30
0.0
 10
101.774034
 20
70.217549
 30
0.0
 10
101.581261
 20
70.410322
 30
0.0
 10
101.357709
 20
70.568266
 30
0.0
 10
101.109048
 20
70.686927
 30
0.0
 10
100.838517
 20
70.761039
 30
0.0
 10
100.551383
 20
70.786958
 30
0.0
 10
100.551383
 20
70.786958
 30
0.0
 10
100.264248
 20
70.761039
 30
0.0
 10
99.993718
 20
70.686927
 30
0.0
 10
99.744652
 20
70.568266
 30
0.0
 10
99.521505
 20
70.410322
 30
0.0
 10
99.328732
 20
70.217144
 30
0.0
 10
99.170788
 20
69.993592
 30
0.0
 10
99.052127
 20
69.744121
 30
0.0
 10
98.978015
 20
69.473591
 30
0.0
 10
98.952096
 20
69.186051
 30
0.0
 10
98.952096
 20
68.389445
 30
0.0
 10
98.952096
 20
68.389445
 30
0.0
  0
LWPOLYLINE
  5
120
100
AcDbEntity
  8
path
 62
1
100
AcDbPolyline
 90
42
 70
1
 10
102.150265
 20
72.388270
 30
0.0
 10
102.150265
 20
72.388270
 30
0.0
 10
102.124751
 20
72.674595
 30
0.0
 10
102.050234
 20
72.944720
 30
0.0
 10
101.931978
 20
73.193381
 30
0.0
 10
101.774034
 20
73.416123
 30
0.0
 10
101.581261
 20
73.608896
 30
0.0
 10
101.357709
 20
73.766840
 30
0.0
 10
101.109048
 20
73.885096
 30
0.0
 10
100.838517
 20
73.959613
 30
0.0
 10
100.551383
 20
73.985532
 30
0.0
 10
100.551383
 20
73.985532
 30
0.0
 10
100.264248
 20
73.959613
 30
0.0
 10
99.993718
 20
73.885096
 30
0.0
 10
99.744652
 20
73.766840
 30
0.0
 10
99.521505
 20
73.608896
 30
0.0
 10
99.328732
 20
73.416123
 30
0.0
 10
99.170788
 20
73.193381
 30
0.0
 10
99.052127
 20
72.944720
 30
0.0
 10
98.978015
 20
72.674595
 30
0.0
 10
98.952096
 20
72.388270
 30
0.0
 10
98.952096
 20
72.388270
 30
0.0
 10
98.978015
 20
72.100731
 30
0.0
 10
99.052532
 20
71.829795
 30
0.0
 10
99.170788
 20
71.580324
 30
0.0
 10
99.328732
 20
71.356772
 30
0.0
 10
99.521505
 20
71.163999
 30
0.0
 10
99.745057
 20
71.005650
 30
0.0
 10
99.994123
 20
70.887394
 30
0.0
 10
100.264248
 20
70.812877
 30
0.0
 10
100.551383
 20
70.786958
 30
0.0
 10
100.551383
 20
70.786958
 30
0.0
 10
100.838517
 20
70.812877
 30
0.0
 10
101.108643
 20
70.887394
 30
0.0
 10
101.357709
 20
71.005650
 30
0.0
 10
101.580856
 20
71.163999
 30
0.0
 10
101.774034
 20
71.356772
 30
0.0
 10
101.931978
 20
71.580324
 30
0.0
 10
102.050234
 20
71.829795
 30
0.0
 10
102.124751
 20
72.100731
 30
0.0
 10
102.150265
 20
72.388270
 30
0.0
 10
102.150265
 20
72.388270
 30
0.0
  0
LWPOLYLINE
  5
121
100
AcDbEntity
  8
path
 62
1
100
AcDbPolyline
 90
42
 70
0
 10
99.750727
 20
75.289585
 30
0.0
 10
99.750727
 20
75.289585
 30
0.0
 10
100.207955
 20
75.460084
 30
0.0
 10
100.627520
 20
75.690116
 30
0.0
 10
101.005371
 20
75.974820
 30
0.0
 10
101.337054
 20
76.307313
 30
0.0
 10
101.618114
 20
76.682330
 30
0.0
 10
101.844501
 20
77.093795
 30
0.0
 10
102.011355
 20
77.535634
 30
0.0
 10
102.114626
 20
78.002177
 30
0.0
 10
102.150265
 20
78.487755
 30
0.0
 10
102.150265
 20
80.889723
 30
0.0
 10
102.124346
 20
81.177262
 30
0.0
 10
102.049829
 20
81.448197
 30
0.0
 10
101.931978
 20
81.697668
 30
0.0
 10
101.774034
 20
81.921220
 30
0.0
 10
101.581261
 20
82.113993
 30
0.0
 10
101.358519
 20
82.271938
 30
0.0
 10
101.109048
 20
82.390598
 30
0.0
 10
100.838517
 20
82.465116
 30
0.0
 10
100.550978
 20
82.491035
 30
0.0
 10
100.550978
 20
82.491035
 30
0.0
 10
100.263843
 20
82.465116
 30
0.0
 10
99.993718
 20
82.390598
 30
0.0
 10
99.744247
 20
82.271938
 30
0.0
 10
99.521100
 20
82.113993
 30
0.0
 10
99.328327
 20
81.921220
 30
0.0
 10
99.170383
 20
81.697668
 30
0.0
 10
99.052127
 20
81.448197
 30
0.0
 10
98.977610
 20
81.177262
 30
0.0
 10
98.951691
 20
80.889723
 30
0.0
 10
98.951691
 20
80.088662
 30
0.0
 10
98.977610
 20
79.801122
 30
0.0
 10
99.052127
 20
79.530592
 30
0.0
 10
99.170383
 20
79.281121
 30
0.0
 10
99.328327
 20
79.057569
 30
0.0
 10
99.521100
 20
78.864391
 30
0.0
 10
99.744247
 20
78.706447
 30
0.0
 10
99.993718
 20
78.588191
 30
0.0
 10
100.263843
 20
78.513674
 30
0.0
 10
100.550978
 20
78.487755
 30
0.0
 10
102.150265
 20
78.487755
 30
0.0
  0
LWPOLYLINE
  5
122
100
AcDbEntity
  8
path
 62
1
100
AcDbPolyline
 90
2
 70
0
 10
98.752033
 20
74.389303
 30
0.0
 10
102.352758
 20
74.389303
 30
0.0
  0
LWPOLYLINE
  5
123
100
AcDbEntity
  8
path
 62
1
100
AcDbPolyline
 90
3
 70
0
 10
95.438848
 20
85.446618
 30
0.0
 10
95.438848
 20
89.327592
 30
0.0
 10
94.575824
 20
88.464569
 30
0.0
  0
LWPOLYLINE
  5
124
100
AcDbEntity
  8
path
 62
1
100
AcDbPolyline
 90
62
 70
1
 10
97.517638
 20
85.497646
 30
0.0
 10
97.517638
 20
85.497646
 30
0.0
 10
97.607949
 20
85.464032
 30
0.0
 10
97.700286
 20
85.447023
 30
0.0
 10
97.793028
 20
85.446618
 30
0.0
 10
97.883744
 20
85.462007
 30
0.0
 10
97.970816
 20
85.491976
 30
0.0
 10
98.051408
 20
85.536120
 30
0.0
 10
98.124306
 20
85.594032
 30
0.0
 10
98.186673
 20
85.664500
 30
0.0
 10
98.236892
 20
85.747522
 30
0.0
 10
98.236892
 20
85.747522
 30
0.0
 10
98.386331
 20
86.097429
 30
0.0
 10
98.498512
 20
86.457461
 30
0.0
 10
98.573434
 20
86.824783
 30
0.0
 10
98.610693
 20
87.196559
 30
0.0
 10
98.610693
 20
87.569956
 30
0.0
 10
98.573434
 20
87.941733
 30
0.0
 10
98.498512
 20
88.309459
 30
0.0
 10
98.386331
 20
88.669896
 30
0.0
 10
98.236892
 20
89.020614
 30
0.0
 10
98.236892
 20
89.020614
 30
0.0
 10
98.217857
 20
89.055847
 30
0.0
 10
98.196393
 20
89.089866
 30
0.0
 10
98.172499
 20
89.121860
 30
0.0
 10
98.146175
 20
89.152234
 30
0.0
 10
98.117826
 20
89.180178
 30
0.0
 10
98.087857
 20
89.206097
 30
0.0
 10
98.055863
 20
89.229991
 30
0.0
 10
98.022654
 20
89.250645
 30
0.0
 10
97.987826
 20
89.269275
 30
0.0
 10
97.987826
 20
89.269275
 30
0.0
 10
97.897109
 20
89.303698
 30
0.0
 10
97.803962
 20
89.321113
 30
0.0
 10
97.710816
 20
89.321518
 30
0.0
 10
97.619694
 20
89.306938
 30
0.0
 10
97.532622
 20
89.276969
 30
0.0
 10
97.451625
 20
89.232826
 30
0.0
 10
97.378728
 20
89.174913
 30
0.0
 10
97.316360
 20
89.103636
 30
0.0
 10
97.266547
 20
89.020209
 30
0.0
 10
97.266547
 20
89.020209
 30
0.0
 10
97.117512
 20
88.670301
 30
0.0
 10
97.006141
 20
88.310674
 30
0.0
 10
96.931624
 20
87.943352
 30
0.0
 10
96.894365
 20
87.571576
 30
0.0
 10
96.894365
 20
87.198179
 30
0.0
 10
96.931624
 20
86.826403
 30
0.0
 10
97.006141
 20
86.458676
 30
0.0
 10
97.117512
 20
86.097834
 30
0.0
 10
97.266547
 20
85.747522
 30
0.0
 10
97.266547
 20
85.747522
 30
0.0
 10
97.285581
 20
85.712288
 30
0.0
 10
97.306640
 20
85.678269
 30
0.0
 10
97.330534
 20
85.646276
 30
0.0
 10
97.356453
 20
85.616307
 30
0.0
 10
97.384802
 20
85.588363
 30
0.0
 10
97.415176
 20
85.562444
 30
0.0
 10
97.447575
 20
85.538549
 30
0.0
 10
97.481594
 20
85.517085
 30
0.0
 10
97.517638
 20
85.497646
 30
0.0
 10
97.517638
 20
85.497646
 30
0.0
  0
LWPOLYLINE
  5
125
100
AcDbEntity
  8
path
 62
1
100
AcDbPolyline
 90
3
 70
0
 10
112.917206
 20
34.252541
 30
0.0
 10
106.801927
 20
25.407418
 30
0.0
 10
100.685838
 20
34.252541
 30
0.0
  0
LWPOLYLINE
  5
126
100
AcDbEntity
  8
path
 62
1
100
AcDbPolyline
 90
2
 70
0
 10
106.801927
 20
26.119301
 30
0.0
 10
106.801927
 20
15.914966
 30
0.0
  0
LWPOLYLINE
  5
127
100
AcDbEntity
  8
path
 62
1
100
AcDbPolyline
 90
2
 70
0
 10
129.822104
 20
25.083754
 30
0.0
 10
119.795882
 20
25.083754
 30
0.0
  0
LWPOLYLINE
  5
128
100
AcDbEntity
  8
path
 62
1
100
AcDbPolyline
 90
3
 70
0
 10
140.773718
 20
15.915412
 30
0.0
 10
140.773718
 20
34.252096
 30
0.0
 10
136.697135
 20
30.174379
 30
0.0
  0
LWPOLYLINE
  5
129
100
AcDbEntity
  8
path
 62
1
100
AcDbPolyline
 90
3
 70
0
 10
256.775292
 20
7.679022
 30
0.0
 10
256.775292
 20
14.152794
 30
0.0
 10
255.335974
 20
12.713193
 30
0.0
  0
LWPOLYLINE
  5
12a
100
AcDbEntity
  8
path
 62
1
100
AcDbPolyline
 90
34
 70
0
 10
256.738843
 20
15.811979
 30
0.0
 10
253.540674
 20
15.811979
 30
0.0
 10
256.495852
 20
20.569585
 30
0.0
 10
256.495852
 20
20.569585
 30
0.0
 10
256.499497
 20
20.574039
 30
0.0
 10
256.503142
 20
20.578454
 30
0.0
 10
256.505977
 20
20.582868
 30
0.0
 10
256.509217
 20
20.587485
 30
0.0
 10
256.512457
 20
20.592223
 30
0.0
 10
256.515696
 20
20.597124
 30
0.0
 10
256.518531
 20
20.602348
 30
0.0
 10
256.521366
 20
20.607734
 30
0.0
 10
256.524606
 20
20.613404
 30
0.0
 10
256.524606
 20
20.613404
 30
0.0
 10
256.646507
 20
20.875389
 30
0.0
 10
256.717784
 20
21.147013
 30
0.0
 10
256.740058
 20
21.422119
 30
0.0
 10
256.715354
 20
21.694391
 30
0.0
 10
256.644887
 20
21.957915
 30
0.0
 10
256.530681
 20
22.206454
 30
0.0
 10
256.374357
 20
22.433935
 30
0.0
 10
256.177939
 20
22.634240
 30
0.0
 10
255.942642
 20
22.800973
 30
0.0
 10
255.942642
 20
22.800973
 30
0.0
 10
255.680212
 20
22.921334
 30
0.0
 10
255.408061
 20
22.991599
 30
0.0
 10
255.132671
 20
23.013104
 30
0.0
 10
254.860521
 20
22.987955
 30
0.0
 10
254.597281
 20
22.917244
 30
0.0
 10
254.349025
 20
22.802876
 30
0.0
 10
254.121828
 20
22.646268
 30
0.0
 10
253.921765
 20
22.448960
 30
0.0
 10
253.755316
 20
22.212610
 30
0.0
 10
253.545129
 20
21.809690
 30
0.0
  0
LWPOLYLINE
  5
12b
100
AcDbEntity
  8
path
 62
1
100
AcDbPolyline
 90
45
 70
0
 10
253.553229
 20
24.308895
 30
0.0
 10
255.152111
 20
24.308895
 30
0.0
 10
255.152111
 20
24.308895
 30
0.0
 10
255.439650
 20
24.334693
 30
0.0
 10
255.710586
 20
24.409048
 30
0.0
 10
255.959652
 20
24.527547
 30
0.0
 10
256.182798
 20
24.685248
 30
0.0
 10
256.375571
 20
24.877940
 30
0.0
 10
256.533111
 20
25.100844
 30
0.0
 10
256.651366
 20
25.349546
 30
0.0
 10
256.725479
 20
25.619428
 30
0.0
 10
256.751398
 20
25.905914
 30
0.0
 10
256.751398
 20
26.706530
 30
0.0
 10
256.725479
 20
26.992895
 30
0.0
 10
256.651366
 20
27.262777
 30
0.0
 10
256.533111
 20
27.511276
 30
0.0
 10
256.375571
 20
27.734342
 30
0.0
 10
256.182798
 20
27.927034
 30
0.0
 10
255.959652
 20
28.084898
 30
0.0
 10
255.710586
 20
28.203234
 30
0.0
 10
255.439650
 20
28.277590
 30
0.0
 10
255.152111
 20
28.303387
 30
0.0
 10
254.351455
 20
28.303387
 30
0.0
 10
255.152111
 20
28.303387
 30
0.0
 10
255.152111
 20
28.303387
 30
0.0
 10
255.439650
 20
28.329347
 30
0.0
 10
255.710586
 20
28.403702
 30
0.0
 10
255.959652
 20
28.522160
 30
0.0
 10
256.182798
 20
28.680388
 30
0.0
 10
256.375571
 20
28.873364
 30
0.0
 10
256.533111
 20
29.096916
 30
0.0
 10
256.651366
 20
29.346387
 30
0.0
 10
256.725479
 20
29.617200
 30
0.0
 10
256.751398
 20
29.904821
 30
0.0
 10
256.751398
 20
29.904821
 30
0.0
 10
256.725479
 20
30.191145
 30
0.0
 10
256.651366
 20
30.461028
 30
0.0
 10
256.533111
 20
30.709729
 30
0.0
 10
256.375571
 20
30.932633
 30
0.0
 10
256.182798
 20
31.125325
 30
0.0
 10
255.959652
 20
31.283188
 30
0.0
 10
255.710586
 20
31.401525
 30
0.0
 10
255.439650
 20
31.476042
 30
0.0
 10
255.152111
 20
31.501840
 30
0.0
 10
253.553229
 20
31.501840
 30
0.0
  0
LWPOLYLINE
  5
12c
100
AcDbEntity
  8
path
 62
1
100
AcDbPolyline
 90
3
 70
0
 10
257.151118
 20
34.406476
 30
0.0
 10
253.152698
 20
34.406476
 30
0.0
 10
254.749555
 20
40.006978
 30
0.0
  0
LWPOLYLINE
  5
12d
100
AcDbEntity
  8
path
 62
1
100
AcDbPolyline
 90
2
 70
0
 10
255.952767
 20
32.805528
 30
0.0
 10
255.952767
 20
36.003819
 30
0.0
  0
LWPOLYLINE
  5
12e
100
AcDbEntity
  8
path
 62
1
100
AcDbPolyline
 90
25
 70
0
 10
253.551204
 20
41.302405
 30
0.0
 10
255.150491
 20
41.302405
 30
0.0
 10
255.150491
 20
41.302405
 30
0.0
 10
255.437220
 20
41.327919
 30
0.0
 10
255.707751
 20
41.402436
 30
0.0
 10
255.956817
 20
41.521097
 30
0.0
 10
256.179964
 20
41.679041
 30
0.0
 10
256.372737
 20
41.871814
 30
0.0
 10
256.530681
 20
42.095366
 30
0.0
 10
256.649342
 20
42.344837
 30
0.0
 10
256.723859
 20
42.615367
 30
0.0
 10
256.749373
 20
42.903312
 30
0.0
 10
256.749373
 20
43.699918
 30
0.0
 10
256.723859
 20
43.987457
 30
0.0
 10
256.649342
 20
44.257988
 30
0.0
 10
256.530681
 20
44.506649
 30
0.0
 10
256.373142
 20
44.729391
 30
0.0
 10
256.179964
 20
44.921759
 30
0.0
 10
255.956817
 20
45.079298
 30
0.0
 10
255.707751
 20
45.197149
 30
0.0
 10
255.437625
 20
45.271261
 30
0.0
 10
255.150491
 20
45.296775
 30
0.0
 10
253.551204
 20
45.296775
 30
0.0
 10
253.551204
 20
48.503854
 30
0.0
 10
256.749373
 20
48.503854
 30
0.0
  0
LWPOLYLINE
  5
12f
100
AcDbEntity
  8
path
 62
1
100
AcDbPolyline
 90
42
 70
0
 10
255.960461
 20
57.000447
 30
0.0
 10
255.960461
 20
57.000447
 30
0.0
 10
255.502423
 20
56.828733
 30
0.0
 10
255.082048
 20
56.597486
 30
0.0
 10
254.703792
 20
56.311972
 30
0.0
 10
254.371704
 20
55.978669
 30
0.0
 10
254.090644
 20
55.602842
 30
0.0
 10
253.864257
 20
55.190972
 30
0.0
 10
253.697403
 20
54.747918
 30
0.0
 10
253.593727
 20
54.280160
 30
0.0
 10
253.558493
 20
53.793773
 30
0.0
 10
253.558493
 20
51.399904
 30
0.0
 10
253.584412
 20
51.112365
 30
0.0
 10
253.658525
 20
50.841430
 30
0.0
 10
253.777185
 20
50.591959
 30
0.0
 10
253.935130
 20
50.368812
 30
0.0
 10
254.127903
 20
50.175634
 30
0.0
 10
254.351050
 20
50.017689
 30
0.0
 10
254.600116
 20
49.899434
 30
0.0
 10
254.870646
 20
49.824916
 30
0.0
 10
255.157376
 20
49.798997
 30
0.0
 10
255.157376
 20
49.798997
 30
0.0
 10
255.445320
 20
49.824916
 30
0.0
 10
255.715850
 20
49.899434
 30
0.0
 10
255.964916
 20
50.017689
 30
0.0
 10
256.188063
 20
50.175634
 30
0.0
 10
256.380836
 20
50.368812
 30
0.0
 10
256.538376
 20
50.591959
 30
0.0
 10
256.656631
 20
50.841430
 30
0.0
 10
256.731149
 20
51.112365
 30
0.0
 10
256.756663
 20
51.399904
 30
0.0
 10
256.756663
 20
52.196915
 30
0.0
 10
256.731149
 20
52.484050
 30
0.0
 10
256.656631
 20
52.754580
 30
0.0
 10
256.538376
 20
53.003646
 30
0.0
 10
256.380836
 20
53.226388
 30
0.0
 10
256.188063
 20
53.418756
 30
0.0
 10
255.964916
 20
53.575891
 30
0.0
 10
255.715850
 20
53.693741
 30
0.0
 10
255.445320
 20
53.767854
 30
0.0
 10
255.157376
 20
53.793773
 30
0.0
 10
253.558493
 20
53.793773
 30
0.0
  0
LWPOLYLINE
  5
130
100
AcDbEntity
  8
path
 62
1
100
AcDbPolyline
 90
2
 70
0
 10
253.358026
 20
48.899120
 30
0.0
 10
256.958750
 20
48.899120
 30
0.0
  0
LWPOLYLINE
  5
131
100
AcDbEntity
  8
path
 62
1
100
AcDbPolyline
 90
3
 70
0
 10
255.138746
 20
58.295995
 30
0.0
 10
256.739653
 20
65.497444
 30
0.0
 10
253.537434
 20
65.497444
 30
0.0
  0
LWPOLYLINE
  5
132
100
AcDbEntity
  8
path
 62
1
100
AcDbPolyline
 90
2
 70
0
 10
256.739653
 20
62.290365
 30
0.0
 10
255.138746
 20
62.290365
 30
0.0
  0
LWPOLYLINE
  5
133
100
AcDbEntity
  8
path
 62
1
100
AcDbPolyline
 90
43
 70
1
 10
253.543104
 20
68.389445
 30
0.0
 10
253.543104
 20
68.389445
 30
0.0
 10
253.569023
 20
68.101905
 30
0.0
 10
253.643135
 20
67.831375
 30
0.0
 10
253.761796
 20
67.582714
 30
0.0
 10
253.919740
 20
67.359567
 30
0.0
 10
254.112513
 20
67.167604
 30
0.0
 10
254.336065
 20
67.010065
 30
0.0
 10
254.584726
 20
66.892214
 30
0.0
 10
254.855256
 20
66.818102
 30
0.0
 10
255.142391
 20
66.792183
 30
0.0
 10
255.142391
 20
66.792183
 30
0.0
 10
255.429121
 20
66.818102
 30
0.0
 10
255.699651
 20
66.892214
 30
0.0
 10
255.948717
 20
67.010065
 30
0.0
 10
256.171864
 20
67.167604
 30
0.0
 10
256.364637
 20
67.359567
 30
0.0
 10
256.522581
 20
67.582714
 30
0.0
 10
256.641242
 20
67.831375
 30
0.0
 10
256.715759
 20
68.101905
 30
0.0
 10
256.741273
 20
68.389445
 30
0.0
 10
256.741273
 20
69.186051
 30
0.0
 10
256.715759
 20
69.473591
 30
0.0
 10
256.641242
 20
69.744526
 30
0.0
 10
256.522986
 20
69.993592
 30
0.0
 10
256.365042
 20
70.217144
 30
0.0
 10
256.171864
 20
70.410322
 30
0.0
 10
255.948717
 20
70.568266
 30
0.0
 10
255.699651
 20
70.686522
 30
0.0
 10
255.429526
 20
70.761039
 30
0.0
 10
255.142391
 20
70.786958
 30
0.0
 10
255.142391
 20
70.786958
 30
0.0
 10
254.855256
 20
70.761039
 30
0.0
 10
254.584726
 20
70.686522
 30
0.0
 10
254.335660
 20
70.568266
 30
0.0
 10
254.112513
 20
70.410322
 30
0.0
 10
253.919335
 20
70.217144
 30
0.0
 10
253.761796
 20
69.993592
 30
0.0
 10
253.643135
 20
69.744121
 30
0.0
 10
253.569023
 20
69.473591
 30
0.0
 10
253.543104
 20
69.186051
 30
0.0
 10
253.543104
 20
68.389445
 30
0.0
 10
253.543104
 20
68.389445
 30
0.0
  0
LWPOLYLINE
  5
134
100
AcDbEntity
  8
path
 62
1
100
AcDbPolyline
 90
42
 70
1
 10
256.741273
 20
72.388270
 30
0.0
 10
256.741273
 20
72.388270
 30
0.0
 10
256.715759
 20
72.674595
 30
0.0
 10
256.641242
 20
72.944315
 30
0.0
 10
256.522986
 20
73.192976
 30
0.0
 10
256.365042
 20
73.416123
 30
0.0
 10
256.171864
 20
73.608896
 30
0.0
 10
255.948717
 20
73.766435
 30
0.0
 10
255.699651
 20
73.885096
 30
0.0
 10
255.429526
 20
73.959613
 30
0.0
 10
255.142391
 20
73.985127
 30
0.0
 10
255.142391
 20
73.985127
 30
0.0
 10
254.855256
 20
73.959613
 30
0.0
 10
254.584726
 20
73.885096
 30
0.0
 10
254.335660
 20
73.766435
 30
0.0
 10
254.112513
 20
73.608896
 30
0.0
 10
253.919335
 20
73.416123
 30
0.0
 10
253.761796
 20
73.192976
 30
0.0
 10
253.643135
 20
72.944315
 30
0.0
 10
253.569023
 20
72.674595
 30
0.0
 10
253.543104
 20
72.388270
 30
0.0
 10
253.543104
 20
72.388270
 30
0.0
 10
253.569023
 20
72.100731
 30
0.0
 10
253.643135
 20
71.829795
 30
0.0
 10
253.761796
 20
71.580324
 30
0.0
 10
253.919740
 20
71.356772
 30
0.0
 10
254.112513
 20
71.163999
 30
0.0
 10
254.336065
 20
71.005650
 30
0.0
 10
254.584726
 20
70.886989
 30
0.0
 10
254.855256
 20
70.812877
 30
0.0
 10
255.142391
 20
70.786958
 30
0.0
 10
255.142391
 20
70.786958
 30
0.0
 10
255.429121
 20
70.812877
 30
0.0
 10
255.699651
 20
70.886989
 30
0.0
 10
255.948717
 20
71.005650
 30
0.0
 10
256.171864
 20
71.163999
 30
0.0
 10
256.364637
 20
71.356772
 30
0.0
 10
256.522581
 20
71.580324
 30
0.0
 10
256.641242
 20
71.829795
 30
0.0
 10
256.715759
 20
72.100731
 30
0.0
 10
256.741273
 20
72.388270
 30
0.0
 10
256.741273
 20
72.388270
 30
0.0
  0
LWPOLYLINE
  5
135
100
AcDbEntity
  8
path
 62
1
100
AcDbPolyline
 90
42
 70
0
 10
254.346595
 20
75.289585
 30
0.0
 10
254.346595
 20
75.289585
 30
0.0
 10
254.803823
 20
75.459679
 30
0.0
 10
255.223793
 20
75.690116
 30
0.0
 10
255.601644
 20
75.974415
 30
0.0
 10
255.933327
 20
76.307313
 30
0.0
 10
256.213982
 20
76.681925
 30
0.0
 10
256.440369
 20
77.093390
 30
0.0
 10
256.607223
 20
77.535634
 30
0.0
 10
256.710494
 20
78.002177
 30
0.0
 10
256.746133
 20
78.487755
 30
0.0
 10
256.746133
 20
80.889318
 30
0.0
 10
256.720214
 20
81.177262
 30
0.0
 10
256.646102
 20
81.447792
 30
0.0
 10
256.527846
 20
81.697263
 30
0.0
 10
256.370307
 20
81.920815
 30
0.0
 10
256.177534
 20
82.113993
 30
0.0
 10
255.954387
 20
82.271938
 30
0.0
 10
255.704916
 20
82.390598
 30
0.0
 10
255.434386
 20
82.465116
 30
0.0
 10
255.146846
 20
82.490630
 30
0.0
 10
255.146846
 20
82.490630
 30
0.0
 10
254.859711
 20
82.465116
 30
0.0
 10
254.589586
 20
82.390598
 30
0.0
 10
254.340520
 20
82.271938
 30
0.0
 10
254.117373
 20
82.113993
 30
0.0
 10
253.924195
 20
81.920815
 30
0.0
 10
253.766251
 20
81.697263
 30
0.0
 10
253.647995
 20
81.447792
 30
0.0
 10
253.573478
 20
81.177262
 30
0.0
 10
253.547559
 20
80.889318
 30
0.0
 10
253.547559
 20
80.088662
 30
0.0
 10
253.573478
 20
79.801122
 30
0.0
 10
253.647995
 20
79.530187
 30
0.0
 10
253.766251
 20
79.280716
 30
0.0
 10
253.924195
 20
79.057569
 30
0.0
 10
254.117373
 20
78.864391
 30
0.0
 10
254.340520
 20
78.706447
 30
0.0
 10
254.589586
 20
78.587786
 30
0.0
 10
254.859711
 20
78.513674
 30
0.0
 10
255.146846
 20
78.487755
 30
0.0
 10
256.746133
 20
78.487755
 30
0.0
  0
LWPOLYLINE
  5
136
100
AcDbEntity
  8
path
 62
1
100
AcDbPolyline
 90
2
 70
0
 10
253.347901
 20
74.389303
 30
0.0
 10
256.948626
 20
74.389303
 30
0.0
  0
LWPOLYLINE
  5
137
100
AcDbEntity
  8
path
 62
1
100
AcDbPolyline
 90
3
 70
0
 10
256.399871
 20
84.954561
 30
0.0
 10
256.399871
 20
89.819245
 30
0.0
 10
255.318560
 20
88.737529
 30
0.0
  0
LWPOLYLINE
  5
138
100
AcDbEntity
  8
path
 62
1
100
AcDbPolyline
 90
62
 70
1
 10
259.005546
 20
85.018548
 30
0.0
 10
259.005546
 20
85.018548
 30
0.0
 10
259.118537
 20
84.976430
 30
0.0
 10
259.234363
 20
84.955371
 30
0.0
 10
259.350594
 20
84.954966
 30
0.0
 10
259.464800
 20
84.974000
 30
0.0
 10
259.573336
 20
85.011664
 30
0.0
 10
259.674987
 20
85.067147
 30
0.0
 10
259.766109
 20
85.139639
 30
0.0
 10
259.844271
 20
85.228331
 30
0.0
 10
259.907044
 20
85.332007
 30
0.0
 10
259.907044
 20
85.332007
 30
0.0
 10
260.094552
 20
85.770606
 30
0.0
 10
260.235082
 20
86.222165
 30
0.0
 10
260.328633
 20
86.682228
 30
0.0
 10
260.375612
 20
87.148366
 30
0.0
 10
260.375612
 20
87.616124
 30
0.0
 10
260.328633
 20
88.082262
 30
0.0
 10
260.235082
 20
88.543136
 30
0.0
 10
260.094552
 20
88.994694
 30
0.0
 10
259.907044
 20
89.434509
 30
0.0
 10
259.907044
 20
89.434509
 30
0.0
 10
259.883150
 20
89.478652
 30
0.0
 10
259.856016
 20
89.521175
 30
0.0
 10
259.826047
 20
89.561269
 30
0.0
 10
259.793243
 20
89.599338
 30
0.0
 10
259.758009
 20
89.634571
 30
0.0
 10
259.720345
 20
89.666970
 30
0.0
 10
259.680252
 20
89.696534
 30
0.0
 10
259.638538
 20
89.722858
 30
0.0
 10
259.594800
 20
89.745942
 30
0.0
 10
259.594800
 20
89.745942
 30
0.0
 10
259.480999
 20
89.788871
 30
0.0
 10
259.364363
 20
89.810740
 30
0.0
 10
259.247728
 20
89.811955
 30
0.0
 10
259.133522
 20
89.793326
 30
0.0
 10
259.024176
 20
89.755662
 30
0.0
 10
258.922929
 20
89.700179
 30
0.0
 10
258.831808
 20
89.627687
 30
0.0
 10
258.753645
 20
89.538590
 30
0.0
 10
258.690873
 20
89.434104
 30
0.0
 10
258.690873
 20
89.434104
 30
0.0
 10
258.504174
 20
88.995504
 30
0.0
 10
258.364455
 20
88.544351
 30
0.0
 10
258.270903
 20
88.083882
 30
0.0
 10
258.224330
 20
87.618149
 30
0.0
 10
258.224330
 20
87.150391
 30
0.0
 10
258.270903
 20
86.684253
 30
0.0
 10
258.364455
 20
86.223380
 30
0.0
 10
258.504174
 20
85.771416
 30
0.0
 10
258.690873
 20
85.331602
 30
0.0
 10
258.690873
 20
85.331602
 30
0.0
 10
258.714362
 20
85.287459
 30
0.0
 10
258.741091
 20
85.245340
 30
0.0
 10
258.771060
 20
85.205247
 30
0.0
 10
258.803864
 20
85.167583
 30
0.0
 10
258.839097
 20
85.132349
 30
0.0
 10
258.876761
 20
85.099545
 30
0.0
 10
258.917260
 20
85.069981
 30
0.0
 10
258.960188
 20
85.042847
 30
0.0
 10
259.005546
 20
85.018548
 30
0.0
 10
259.005546
 20
85.018548
 30
0.0
  0
LWPOLYLINE
  5
139
100
AcDbEntity
  8
path
 62
1
100
AcDbPolyline
 90
4
 70
0
 10
226.277465
 20
31.863289
 30
0.0
 10
216.138252
 20
31.863289
 30
0.0
 10
226.277465
 20
50.124200
 30
0.0
 10
216.138252
 20
50.124200
 30
0.0
  0
LWPOLYLINE
  5
13a
100
AcDbEntity
  8
path
 62
1
100
AcDbPolyline
 90
2
 70
0
 10
243.111896
 20
40.993806
 30
0.0
 10
233.126982
 20
40.993806
 30
0.0
  0
LWPOLYLINE
  5
13b
100
AcDbEntity
  8
path
 62
1
100
AcDbPolyline
 90
3
 70
0
 10
254.018557
 20
31.863289
 30
0.0
 10
254.018557
 20
50.124200
 30
0.0
 10
249.958579
 20
46.063412
 30
0.0
  0
LWPOLYLINE
  5
13c
100
AcDbEntity
  8
path
 62
1
100
AcDbPolyline
 90
3
 70
0
 10
369.164397
 20
7.679022
 30
0.0
 10
369.164397
 20
14.152794
 30
0.0
 10
367.725484
 20
12.713193
 30
0.0
  0
LWPOLYLINE
  5
13d
100
AcDbEntity
  8
path
 62
1
100
AcDbPolyline
 90
34
 70
0
 10
369.134428
 20
15.811979
 30
0.0
 10
365.935853
 20
15.811979
 30
0.0
 10
368.891437
 20
20.569585
 30
0.0
 10
368.891437
 20
20.569585
 30
0.0
 10
368.894676
 20
20.574039
 30
0.0
 10
368.898321
 20
20.578454
 30
0.0
 10
368.901561
 20
20.582868
 30
0.0
 10
368.904801
 20
20.587485
 30
0.0
 10
368.907636
 20
20.592223
 30
0.0
 10
368.910876
 20
20.597124
 30
0.0
 10
368.913711
 20
20.602348
 30
0.0
 10
368.916951
 20
20.607734
 30
0.0
 10
368.919786
 20
20.613404
 30
0.0
 10
368.919786
 20
20.613404
 30
0.0
 10
369.041686
 20
20.875389
 30
0.0
 10
369.112964
 20
21.147013
 30
0.0
 10
369.135238
 20
21.422119
 30
0.0
 10
369.110534
 20
21.694391
 30
0.0
 10
369.040066
 20
21.957915
 30
0.0
 10
368.925860
 20
22.206454
 30
0.0
 10
368.769536
 20
22.433935
 30
0.0
 10
368.573118
 20
22.634240
 30
0.0
 10
368.338227
 20
22.800973
 30
0.0
 10
368.338227
 20
22.800973
 30
0.0
 10
368.075391
 20
22.921334
 30
0.0
 10
367.803241
 20
22.991599
 30
0.0
 10
367.528256
 20
23.013104
 30
0.0
 10
367.256106
 20
22.987955
 30
0.0
 10
366.992460
 20
22.917244
 30
0.0
 10
366.744204
 20
22.802876
 30
0.0
 10
366.517007
 20
22.646268
 30
0.0
 10
366.317350
 20
22.448960
 30
0.0
 10
366.150496
 20
22.212610
 30
0.0
 10
365.940308
 20
21.809690
 30
0.0
  0
LWPOLYLINE
  5
13e
100
AcDbEntity
  8
path
 62
1
100
AcDbPolyline
 90
45
 70
0
 10
370.689977
 20
25.923450
 30
0.0
 10
371.572035
 20
25.923450
 30
0.0
 10
371.572035
 20
25.923450
 30
0.0
 10
371.730384
 20
25.937706
 30
0.0
 10
371.879823
 20
25.978690
 30
0.0
 10
372.017518
 20
26.044014
 30
0.0
 10
372.140229
 20
26.131005
 30
0.0
 10
372.246740
 20
26.237152
 30
0.0
 10
372.333812
 20
26.360268
 30
0.0
 10
372.399015
 20
26.497396
 30
0.0
 10
372.439918
 20
26.646268
 30
0.0
 10
372.454093
 20
26.804293
 30
0.0
 10
372.454093
 20
27.246011
 30
0.0
 10
372.439918
 20
27.403874
 30
0.0
 10
372.399015
 20
27.552747
 30
0.0
 10
372.333812
 20
27.689915
 30
0.0
 10
372.246740
 20
27.812829
 30
0.0
 10
372.140229
 20
27.919137
 30
0.0
 10
372.017518
 20
28.006128
 30
0.0
 10
371.879823
 20
28.071452
 30
0.0
 10
371.730384
 20
28.112599
 30
0.0
 10
371.572035
 20
28.126854
 30
0.0
 10
371.130196
 20
28.126854
 30
0.0
 10
371.572035
 20
28.126854
 30
0.0
 10
371.572035
 20
28.126854
 30
0.0
 10
371.730384
 20
28.141069
 30
0.0
 10
371.879823
 20
28.182054
 30
0.0
 10
372.017518
 20
28.247378
 30
0.0
 10
372.140229
 20
28.334693
 30
0.0
 10
372.246740
 20
28.441163
 30
0.0
 10
372.333812
 20
28.564400
 30
0.0
 10
372.399015
 20
28.702055
 30
0.0
 10
372.439918
 20
28.851373
 30
0.0
 10
372.454093
 20
29.010046
 30
0.0
 10
372.454093
 20
29.010046
 30
0.0
 10
372.439918
 20
29.168112
 30
0.0
 10
372.399015
 20
29.316944
 30
0.0
 10
372.333812
 20
29.454113
 30
0.0
 10
372.246740
 20
29.577026
 30
0.0
 10
372.140229
 20
29.683334
 30
0.0
 10
372.017518
 20
29.770366
 30
0.0
 10
371.879823
 20
29.835690
 30
0.0
 10
371.730384
 20
29.876674
 30
0.0
 10
371.572035
 20
29.890889
 30
0.0
 10
370.689977
 20
29.890889
 30
0.0
  0
LWPOLYLINE
  5
13f
100
AcDbEntity
  8
path
 62
1
100
AcDbPolyline
 90
4
 70
0
 10
363.344757
 20
12.471011
 30
0.0
 10
360.383504
 20
12.471011
 30
0.0
 10
363.344757
 20
17.804142
 30
0.0
 10
360.383504
 20
17.804142
 30
0.0
  0
LWPOLYLINE
  5
140
100
AcDbEntity
  8
path
 62
1
100
AcDbPolyline
 90
2
 70
0
 10
368.261279
 20
15.137556
 30
0.0
 10
365.345385
 20
15.137556
 30
0.0
  0
LWPOLYLINE
  5
141
100
AcDbEntity
  8
path
 62
1
100
AcDbPolyline
 90
43
 70
1
 10
370.260692
 20
13.653366
 30
0.0
 10
370.260692
 20
13.653366
 30
0.0
 10
370.279726
 20
13.440425
 30
0.0
 10
370.335209
 20
13.240160
 30
0.0
 10
370.422686
 20
13.055851
 30
0.0
 10
370.539727
 20
12.890860
 30
0.0
 10
370.682687
 20
12.748467
 30
0.0
 10
370.847921
 20
12.631872
 30
0.0
 10
371.032594
 20
12.544557
 30
0.0
 10
371.232657
 20
12.489803
 30
0.0
 10
371.445274
 20
12.470687
 30
0.0
 10
371.445274
 20
12.470687
 30
0.0
 10
371.657487
 20
12.489803
 30
0.0
 10
371.857954
 20
12.544557
 30
0.0
 10
372.042223
 20
12.631872
 30
0.0
 10
372.207457
 20
12.748467
 30
0.0
 10
372.350416
 20
12.890860
 30
0.0
 10
372.467457
 20
13.055851
 30
0.0
 10
372.555339
 20
13.240160
 30
0.0
 10
372.610417
 20
13.440425
 30
0.0
 10
372.629451
 20
13.653366
 30
0.0
 10
372.629451
 20
14.243430
 30
0.0
 10
372.610417
 20
14.456371
 30
0.0
 10
372.555339
 20
14.656960
 30
0.0
 10
372.467457
 20
14.841593
 30
0.0
 10
372.350821
 20
15.007232
 30
0.0
 10
372.207862
 20
15.150071
 30
0.0
 10
372.042628
 20
15.267111
 30
0.0
 10
371.857954
 20
15.354791
 30
0.0
 10
371.657891
 20
15.409828
 30
0.0
 10
371.445274
 20
15.428984
 30
0.0
 10
371.445274
 20
15.428984
 30
0.0
 10
371.232657
 20
15.409828
 30
0.0
 10
371.032189
 20
15.354791
 30
0.0
 10
370.847921
 20
15.266990
 30
0.0
 10
370.682282
 20
15.149909
 30
0.0
 10
370.539727
 20
15.007070
 30
0.0
 10
370.422686
 20
14.841593
 30
0.0
 10
370.334804
 20
14.656798
 30
0.0
 10
370.279726
 20
14.456371
 30
0.0
 10
370.260692
 20
14.243430
 30
0.0
 10
370.260692
 20
13.653366
 30
0.0
 10
370.260692
 20
13.653366
 30
0.0
  0
LWPOLYLINE
  5
142
100
AcDbEntity
  8
path
 62
1
100
AcDbPolyline
 90
42
 70
1
 10
372.629451
 20
16.614984
 30
0.0
 10
372.629451
 20
16.614984
 30
0.0
 10
372.610417
 20
16.827115
 30
0.0
 10
372.555339
 20
17.026935
 30
0.0
 10
372.467457
 20
17.211041
 30
0.0
 10
372.350821
 20
17.376073
 30
0.0
 10
372.207862
 20
17.518911
 30
0.0
 10
372.042628
 20
17.635668
 30
0.0
 10
371.857954
 20
17.723469
 30
0.0
 10
371.657891
 20
17.778506
 30
0.0
 10
371.445274
 20
17.797662
 30
0.0
 10
371.445274
 20
17.797662
 30
0.0
 10
371.232657
 20
17.778506
 30
0.0
 10
371.032189
 20
17.723469
 30
0.0
 10
370.847921
 20
17.635668
 30
0.0
 10
370.682282
 20
17.518911
 30
0.0
 10
370.539727
 20
17.376073
 30
0.0
 10
370.422686
 20
17.211041
 30
0.0
 10
370.334804
 20
17.026935
 30
0.0
 10
370.279726
 20
16.827115
 30
0.0
 10
370.260692
 20
16.614984
 30
0.0
 10
370.260692
 20
16.614984
 30
0.0
 10
370.279726
 20
16.401880
 30
0.0
 10
370.335209
 20
16.201291
 30
0.0
 10
370.422686
 20
16.016658
 30
0.0
 10
370.539727
 20
15.851019
 30
0.0
 10
370.682687
 20
15.708019
 30
0.0
 10
370.847921
 20
15.590978
 30
0.0
 10
371.032594
 20
15.503339
 30
0.0
 10
371.232657
 20
15.448099
 30
0.0
 10
371.445274
 20
15.428984
 30
0.0
 10
371.445274
 20
15.428984
 30
0.0
 10
371.657487
 20
15.448099
 30
0.0
 10
371.857954
 20
15.503339
 30
0.0
 10
372.042223
 20
15.590978
 30
0.0
 10
372.207457
 20
15.708019
 30
0.0
 10
372.350416
 20
15.851019
 30
0.0
 10
372.467457
 20
16.016658
 30
0.0
 10
372.555339
 20
16.201291
 30
0.0
 10
372.610417
 20
16.401880
 30
0.0
 10
372.629451
 20
16.614984
 30
0.0
 10
372.629451
 20
16.614984
 30
0.0
  0
LWPOLYLINE
  5
143
100
AcDbEntity
  8
path
 62
1
100
AcDbPolyline
 90
3
 70
0
 10
366.278876
 20
35.510061
 30
0.0
 10
366.278876
 20
41.983995
 30
0.0
 10
364.839558
 20
40.544272
 30
0.0
  0
LWPOLYLINE
  5
144
100
AcDbEntity
  8
path
 62
1
100
AcDbPolyline
 90
34
 70
0
 10
366.248502
 20
43.642815
 30
0.0
 10
363.049928
 20
43.642815
 30
0.0
 10
366.005511
 20
48.400583
 30
0.0
 10
366.005511
 20
48.400583
 30
0.0
 10
366.008751
 20
48.405038
 30
0.0
 10
366.012396
 20
48.409492
 30
0.0
 10
366.015636
 20
48.413947
 30
0.0
 10
366.018470
 20
48.418402
 30
0.0
 10
366.021710
 20
48.423262
 30
0.0
 10
366.024950
 20
48.428122
 30
0.0
 10
366.027785
 20
48.433387
 30
0.0
 10
366.031025
 20
48.438651
 30
0.0
 10
366.033860
 20
48.444321
 30
0.0
 10
366.033860
 20
48.444321
 30
0.0
 10
366.155761
 20
48.706347
 30
0.0
 10
366.227038
 20
48.978092
 30
0.0
 10
366.249312
 20
49.253077
 30
0.0
 10
366.224608
 20
49.525227
 30
0.0
 10
366.154141
 20
49.788873
 30
0.0
 10
366.039935
 20
50.037534
 30
0.0
 10
365.883610
 20
50.265135
 30
0.0
 10
365.687192
 20
50.465198
 30
0.0
 10
365.452301
 20
50.632052
 30
0.0
 10
365.452301
 20
50.632052
 30
0.0
 10
365.189465
 20
50.752333
 30
0.0
 10
364.917315
 20
50.822395
 30
0.0
 10
364.642330
 20
50.844264
 30
0.0
 10
364.369775
 20
50.818750
 30
0.0
 10
364.106535
 20
50.748283
 30
0.0
 10
363.858279
 20
50.634077
 30
0.0
 10
363.631082
 20
50.476943
 30
0.0
 10
363.431019
 20
50.279715
 30
0.0
 10
363.264570
 20
50.043608
 30
0.0
 10
363.054383
 20
49.640648
 30
0.0
  0
LWPOLYLINE
  5
145
100
AcDbEntity
  8
path
 62
1
100
AcDbPolyline
 90
45
 70
0
 10
372.481632
 20
55.342842
 30
0.0
 10
372.658205
 20
55.342842
 30
0.0
 10
372.658205
 20
55.342842
 30
0.0
 10
372.689794
 20
55.345677
 30
0.0
 10
372.719763
 20
55.354181
 30
0.0
 10
372.746897
 20
55.367141
 30
0.0
 10
372.771601
 20
55.384555
 30
0.0
 10
372.793065
 20
55.405614
 30
0.0
 10
372.810480
 20
55.430319
 30
0.0
 10
372.823439
 20
55.457858
 30
0.0
 10
372.831539
 20
55.487826
 30
0.0
 10
372.834779
 20
55.519010
 30
0.0
 10
372.834779
 20
55.607702
 30
0.0
 10
372.831539
 20
55.639291
 30
0.0
 10
372.823439
 20
55.668855
 30
0.0
 10
372.810480
 20
55.696394
 30
0.0
 10
372.793065
 20
55.721098
 30
0.0
 10
372.771601
 20
55.742562
 30
0.0
 10
372.746897
 20
55.759977
 30
0.0
 10
372.719763
 20
55.772936
 30
0.0
 10
372.689794
 20
55.781036
 30
0.0
 10
372.658205
 20
55.783871
 30
0.0
 10
372.569514
 20
55.783871
 30
0.0
 10
372.658205
 20
55.783871
 30
0.0
 10
372.658205
 20
55.783871
 30
0.0
 10
372.689794
 20
55.786706
 30
0.0
 10
372.719763
 20
55.794805
 30
0.0
 10
372.746897
 20
55.808170
 30
0.0
 10
372.771601
 20
55.825584
 30
0.0
 10
372.793065
 20
55.846643
 30
0.0
 10
372.810480
 20
55.871348
 30
0.0
 10
372.823439
 20
55.898887
 30
0.0
 10
372.831539
 20
55.928855
 30
0.0
 10
372.834779
 20
55.960849
 30
0.0
 10
372.834779
 20
55.960849
 30
0.0
 10
372.831539
 20
55.992438
 30
0.0
 10
372.823439
 20
56.022002
 30
0.0
 10
372.810480
 20
56.049541
 30
0.0
 10
372.793065
 20
56.074245
 30
0.0
 10
372.771601
 20
56.095709
 30
0.0
 10
372.746897
 20
56.112719
 30
0.0
 10
372.719763
 20
56.126083
 30
0.0
 10
372.689794
 20
56.134183
 30
0.0
 10
372.658205
 20
56.137018
 30
0.0
 10
372.481632
 20
56.137018
 30
0.0
  0
LWPOLYLINE
  5
146
100
AcDbEntity
  8
path
 62
1
100
AcDbPolyline
 90
4
 70
0
 10
362.001016
 20
39.618921
 30
0.0
 10
359.386025
 20
39.618921
 30
0.0
 10
362.001016
 20
44.328860
 30
0.0
 10
359.386025
 20
44.328860
 30
0.0
  0
LWPOLYLINE
  5
147
100
AcDbEntity
  8
path
 62
1
100
AcDbPolyline
 90
2
 70
0
 10
366.342864
 20
41.973870
 30
0.0
 10
363.767562
 20
41.973870
 30
0.0
  0
LWPOLYLINE
  5
148
100
AcDbEntity
  8
path
 62
1
100
AcDbPolyline
 90
42
 70
0
 10
368.630626
 20
39.618921
 30
0.0
 10
368.630626
 20
39.618921
 30
0.0
 10
368.929910
 20
39.730454
 30
0.0
 10
369.204490
 20
39.881068
 30
0.0
 10
369.451531
 20
40.067118
 30
0.0
 10
369.668603
 20
40.284636
 30
0.0
 10
369.852062
 20
40.529693
 30
0.0
 10
370.000286
 20
40.799008
 30
0.0
 10
370.109228
 20
41.087762
 30
0.0
 10
370.176860
 20
41.393121
 30
0.0
 10
370.199944
 20
41.710630
 30
0.0
 10
370.199944
 20
43.281163
 30
0.0
 10
370.183340
 20
43.469481
 30
0.0
 10
370.134742
 20
43.646460
 30
0.0
 10
370.057389
 20
43.810074
 30
0.0
 10
369.954118
 20
43.956274
 30
0.0
 10
369.828168
 20
44.082224
 30
0.0
 10
369.682373
 20
44.185495
 30
0.0
 10
369.519164
 20
44.263252
 30
0.0
 10
369.342185
 20
44.311851
 30
0.0
 10
369.154272
 20
44.328860
 30
0.0
 10
369.154272
 20
44.328860
 30
0.0
 10
368.966359
 20
44.311851
 30
0.0
 10
368.789785
 20
44.263252
 30
0.0
 10
368.626981
 20
44.185495
 30
0.0
 10
368.480781
 20
44.082224
 30
0.0
 10
368.354426
 20
43.956274
 30
0.0
 10
368.251155
 20
43.810074
 30
0.0
 10
368.173803
 20
43.646460
 30
0.0
 10
368.125204
 20
43.469481
 30
0.0
 10
368.108195
 20
43.281163
 30
0.0
 10
368.108195
 20
42.757922
 30
0.0
 10
368.125204
 20
42.569604
 30
0.0
 10
368.173803
 20
42.392625
 30
0.0
 10
368.251155
 20
42.229416
 30
0.0
 10
368.354426
 20
42.083216
 30
0.0
 10
368.480781
 20
41.957266
 30
0.0
 10
368.626981
 20
41.853590
 30
0.0
 10
368.789785
 20
41.776237
 30
0.0
 10
368.966359
 20
41.727639
 30
0.0
 10
369.154272
 20
41.710630
 30
0.0
 10
370.199944
 20
41.710630
 30
0.0
  0
LWPOLYLINE
  5
149
100
AcDbEntity
  8
path
 62
1
100
AcDbPolyline
 90
2
 70
0
 10
367.977790
 20
39.030275
 30
0.0
 10
370.332374
 20
39.030275
 30
0.0
  0
LWPOLYLINE
  5
14a
100
AcDbEntity
  8
path
 62
1
100
AcDbPolyline
 90
3
 70
0
 10
387.241323
 20
60.449707
 30
0.0
 10
387.241323
 20
66.923398
 30
0.0
 10
385.802005
 20
65.484080
 30
0.0
  0
LWPOLYLINE
  5
14b
100
AcDbEntity
  8
path
 62
1
100
AcDbPolyline
 90
34
 70
0
 10
381.286823
 20
69.398263
 30
0.0
 10
380.412055
 20
69.398263
 30
0.0
 10
381.220406
 20
70.699481
 30
0.0
 10
381.220406
 20
70.699481
 30
0.0
 10
381.221621
 20
70.700696
 30
0.0
 10
381.222431
 20
70.701911
 30
0.0
 10
381.223241
 20
70.703126
 30
0.0
 10
381.224455
 20
70.704341
 30
0.0
 10
381.224860
 20
70.705556
 30
0.0
 10
381.225670
 20
70.706771
 30
0.0
 10
381.226480
 20
70.708391
 30
0.0
 10
381.227290
 20
70.710011
 30
0.0
 10
381.228505
 20
70.711631
 30
0.0
 10
381.228505
 20
70.711631
 30
0.0
 10
381.261714
 20
70.783313
 30
0.0
 10
381.281153
 20
70.857426
 30
0.0
 10
381.287228
 20
70.932753
 30
0.0
 10
381.280343
 20
71.006865
 30
0.0
 10
381.261309
 20
71.079357
 30
0.0
 10
381.230125
 20
71.147395
 30
0.0
 10
381.187197
 20
71.209358
 30
0.0
 10
381.133334
 20
71.264031
 30
0.0
 10
381.069346
 20
71.309794
 30
0.0
 10
381.069346
 20
71.309794
 30
0.0
 10
380.997259
 20
71.342598
 30
0.0
 10
380.923146
 20
71.362037
 30
0.0
 10
380.847819
 20
71.367707
 30
0.0
 10
380.773302
 20
71.360822
 30
0.0
 10
380.701214
 20
71.341788
 30
0.0
 10
380.633177
 20
71.310199
 30
0.0
 10
380.571214
 20
71.267271
 30
0.0
 10
380.516541
 20
71.213408
 30
0.0
 10
380.470778
 20
71.148610
 30
0.0
 10
380.413675
 20
71.038859
 30
0.0
  0
LWPOLYLINE
  5
14c
100
AcDbEntity
  8
path
 62
1
100
AcDbPolyline
 90
3
 70
0
 10
384.339603
 20
66.675547
 30
0.0
 10
383.064304
 20
64.830838
 30
0.0
 10
381.788600
 20
66.675547
 30
0.0
  0
LWPOLYLINE
  5
14d
100
AcDbEntity
  8
path
 62
1
100
AcDbPolyline
 90
2
 70
0
 10
383.064304
 20
64.979063
 30
0.0
 10
383.064304
 20
62.851270
 30
0.0
  0
LWPOLYLINE
  5
14e
100
AcDbEntity
  8
path
 62
1
100
AcDbPolyline
 90
2
 70
0
 10
387.865405
 20
64.763206
 30
0.0
 10
385.774061
 20
64.763206
 30
0.0
  0
LWPOLYLINE
  5
14f
100
AcDbEntity
  8
path
 62
1
100
AcDbPolyline
 90
3
 70
0
 10
390.149118
 20
62.851270
 30
0.0
 10
390.149118
 20
66.675142
 30
0.0
 10
389.299053
 20
65.825078
 30
0.0
  0
LWPOLYLINE
  5
150
100
AcDbEntity
  8
path
 62
1
100
AcDbPolyline
 90
62
 70
1
 10
392.197129
 20
62.901488
 30
0.0
 10
392.197129
 20
62.901488
 30
0.0
 10
392.286225
 20
62.868279
 30
0.0
 10
392.377347
 20
62.852080
 30
0.0
 10
392.468874
 20
62.851675
 30
0.0
 10
392.557971
 20
62.866255
 30
0.0
 10
392.643827
 20
62.895818
 30
0.0
 10
392.723610
 20
62.939557
 30
0.0
 10
392.795292
 20
62.996660
 30
0.0
 10
392.856850
 20
63.066317
 30
0.0
 10
392.905853
 20
63.148124
 30
0.0
 10
392.905853
 20
63.148124
 30
0.0
 10
393.053268
 20
63.492767
 30
0.0
 10
393.163829
 20
63.847534
 30
0.0
 10
393.237536
 20
64.209591
 30
0.0
 10
393.273985
 20
64.575698
 30
0.0
 10
393.273985
 20
64.943424
 30
0.0
 10
393.237536
 20
65.309936
 30
0.0
 10
393.163829
 20
65.671993
 30
0.0
 10
393.053268
 20
66.027165
 30
0.0
 10
392.905853
 20
66.372618
 30
0.0
 10
392.905853
 20
66.372618
 30
0.0
 10
392.887224
 20
66.407446
 30
0.0
 10
392.866164
 20
66.441060
 30
0.0
 10
392.842270
 20
66.472649
 30
0.0
 10
392.816756
 20
66.502213
 30
0.0
 10
392.788812
 20
66.530157
 30
0.0
 10
392.759248
 20
66.555671
 30
0.0
 10
392.728064
 20
66.578755
 30
0.0
 10
392.694856
 20
66.599815
 30
0.0
 10
392.660837
 20
66.617634
 30
0.0
 10
392.660837
 20
66.617634
 30
0.0
 10
392.570930
 20
66.651653
 30
0.0
 10
392.479403
 20
66.668662
 30
0.0
 10
392.387472
 20
66.669472
 30
0.0
 10
392.297970
 20
66.654893
 30
0.0
 10
392.212113
 20
66.625329
 30
0.0
 10
392.132331
 20
66.581590
 30
0.0
 10
392.060648
 20
66.524487
 30
0.0
 10
391.999091
 20
66.454425
 30
0.0
 10
391.950087
 20
66.372618
 30
0.0
 10
391.950087
 20
66.372618
 30
0.0
 10
391.803078
 20
66.027975
 30
0.0
 10
391.693327
 20
65.673208
 30
0.0
 10
391.620024
 20
65.311151
 30
0.0
 10
391.583171
 20
64.945044
 30
0.0
 10
391.583171
 20
64.577318
 30
0.0
 10
391.620024
 20
64.210806
 30
0.0
 10
391.693327
 20
63.848749
 30
0.0
 10
391.803078
 20
63.493172
 30
0.0
 10
391.950087
 20
63.147719
 30
0.0
 10
391.950087
 20
63.147719
 30
0.0
 10
391.968717
 20
63.112891
 30
0.0
 10
391.989776
 20
63.079682
 30
0.0
 10
392.012860
 20
63.048093
 30
0.0
 10
392.038779
 20
63.018529
 30
0.0
 10
392.066318
 20
62.990990
 30
0.0
 10
392.096287
 20
62.965476
 30
0.0
 10
392.128281
 20
62.941987
 30
0.0
 10
392.161895
 20
62.920523
 30
0.0
 10
392.197129
 20
62.901488
 30
0.0
 10
392.197129
 20
62.901488
 30
0.0
  0
LWPOLYLINE
  5
151
100
AcDbEntity
  8
path
 62
1
100
AcDbPolyline
 90
3
 70
0
 10
358.413656
 20
75.934727
 30
0.0
 10
358.413656
 20
82.408418
 30
0.0
 10
356.974338
 20
80.968695
 30
0.0
  0
LWPOLYLINE
  5
152
100
AcDbEntity
  8
path
 62
1
100
AcDbPolyline
 90
34
 70
0
 10
364.300118
 20
86.945469
 30
0.0
 10
363.658216
 20
86.945469
 30
0.0
 10
364.251519
 20
87.900424
 30
0.0
 10
364.251519
 20
87.900424
 30
0.0
 10
364.251924
 20
87.901639
 30
0.0
 10
364.252734
 20
87.902449
 30
0.0
 10
364.253544
 20
87.903259
 30
0.0
 10
364.253949
 20
87.904069
 30
0.0
 10
364.254759
 20
87.905284
 30
0.0
 10
364.255569
 20
87.906094
 30
0.0
 10
364.255974
 20
87.907309
 30
0.0
 10
364.256379
 20
87.908524
 30
0.0
 10
364.257189
 20
87.909334
 30
0.0
 10
364.257189
 20
87.909334
 30
0.0
 10
364.281488
 20
87.961982
 30
0.0
 10
364.296068
 20
88.016655
 30
0.0
 10
364.300523
 20
88.071733
 30
0.0
 10
364.295258
 20
88.126406
 30
0.0
 10
364.281488
 20
88.179459
 30
0.0
 10
364.258404
 20
88.229272
 30
0.0
 10
364.226815
 20
88.275035
 30
0.0
 10
364.187532
 20
88.315129
 30
0.0
 10
364.140553
 20
88.348743
 30
0.0
 10
364.140553
 20
88.348743
 30
0.0
 10
364.087500
 20
88.373042
 30
0.0
 10
364.032827
 20
88.387216
 30
0.0
 10
363.977749
 20
88.391266
 30
0.0
 10
363.923076
 20
88.386406
 30
0.0
 10
363.870023
 20
88.372232
 30
0.0
 10
363.820210
 20
88.349148
 30
0.0
 10
363.774447
 20
88.317559
 30
0.0
 10
363.734353
 20
88.278275
 30
0.0
 10
363.701144
 20
88.230487
 30
0.0
 10
363.658621
 20
88.149490
 30
0.0
  0
LWPOLYLINE
  5
153
100
AcDbEntity
  8
path
 62
1
100
AcDbPolyline
 90
4
 70
0
 10
356.571377
 20
76.438124
 30
0.0
 10
354.899598
 20
76.438124
 30
0.0
 10
356.571377
 20
79.448785
 30
0.0
 10
354.899598
 20
79.448785
 30
0.0
  0
LWPOLYLINE
  5
154
100
AcDbEntity
  8
path
 62
1
100
AcDbPolyline
 90
2
 70
0
 10
359.347147
 20
77.943454
 30
0.0
 10
357.700881
 20
77.943454
 30
0.0
  0
LWPOLYLINE
  5
155
100
AcDbEntity
  8
path
 62
1
100
AcDbPolyline
 90
3
 70
0
 10
361.145282
 20
76.438124
 30
0.0
 10
361.145282
 20
79.448785
 30
0.0
 10
360.475841
 20
78.779344
 30
0.0
  0
LWPOLYLINE
  5
156
100
AcDbEntity
  8
path
 62
1
100
AcDbPolyline
 90
62
 70
1
 10
362.757933
 20
76.477812
 30
0.0
 10
362.757933
 20
76.477812
 30
0.0
 10
362.827996
 20
76.451893
 30
0.0
 10
362.899678
 20
76.438934
 30
0.0
 10
362.971766
 20
76.438124
 30
0.0
 10
363.041828
 20
76.450273
 30
0.0
 10
363.109461
 20
76.473357
 30
0.0
 10
363.172233
 20
76.507781
 30
0.0
 10
363.228526
 20
76.552734
 30
0.0
 10
363.277125
 20
76.607408
 30
0.0
 10
363.316003
 20
76.671800
 30
0.0
 10
363.316003
 20
76.671800
 30
0.0
 10
363.431829
 20
76.943140
 30
0.0
 10
363.518901
 20
77.222580
 30
0.0
 10
363.576814
 20
77.507690
 30
0.0
 10
363.605973
 20
77.796040
 30
0.0
 10
363.605973
 20
78.085604
 30
0.0
 10
363.576814
 20
78.373954
 30
0.0
 10
363.518901
 20
78.659063
 30
0.0
 10
363.431829
 20
78.938908
 30
0.0
 10
363.316003
 20
79.210653
 30
0.0
 10
363.316003
 20
79.210653
 30
0.0
 10
363.301019
 20
79.238192
 30
0.0
 10
363.284414
 20
79.264516
 30
0.0
 10
363.265785
 20
79.289221
 30
0.0
 10
363.245536
 20
79.312710
 30
0.0
 10
363.223667
 20
79.334579
 30
0.0
 10
363.200177
 20
79.354828
 30
0.0
 10
363.175878
 20
79.373052
 30
0.0
 10
363.149554
 20
79.389252
 30
0.0
 10
363.122825
 20
79.403426
 30
0.0
 10
363.122825
 20
79.403426
 30
0.0
 10
363.051953
 20
79.430155
 30
0.0
 10
362.979865
 20
79.443520
 30
0.0
 10
362.907778
 20
79.444330
 30
0.0
 10
362.837311
 20
79.432990
 30
0.0
 10
362.769678
 20
79.409501
 30
0.0
 10
362.706905
 20
79.375077
 30
0.0
 10
362.650207
 20
79.330124
 30
0.0
 10
362.602014
 20
79.275046
 30
0.0
 10
362.563135
 20
79.210653
 30
0.0
 10
362.563135
 20
79.210653
 30
0.0
 10
362.447715
 20
78.939313
 30
0.0
 10
362.361048
 20
78.659873
 30
0.0
 10
362.303540
 20
78.374764
 30
0.0
 10
362.274786
 20
78.086819
 30
0.0
 10
362.274786
 20
77.796849
 30
0.0
 10
362.303540
 20
77.508500
 30
0.0
 10
362.361048
 20
77.223390
 30
0.0
 10
362.447715
 20
76.943545
 30
0.0
 10
362.563135
 20
76.671800
 30
0.0
 10
362.563135
 20
76.671800
 30
0.0
 10
362.577715
 20
76.644261
 30
0.0
 10
362.594319
 20
76.618342
 30
0.0
 10
362.612949
 20
76.593233
 30
0.0
 10
362.632793
 20
76.570149
 30
0.0
 10
362.655067
 20
76.548280
 30
0.0
 10
362.678151
 20
76.528030
 30
0.0
 10
362.703260
 20
76.509401
 30
0.0
 10
362.729989
 20
76.492797
 30
0.0
 10
362.757933
 20
76.477812
 30
0.0
 10
362.757933
 20
76.477812
 30
0.0
  0
LWPOLYLINE
  5
157
100
AcDbEntity
  8
path
 62
1
100
AcDbPolyline
 90
3
 70
0
 10
99.493156
 20
95.438011
 30
0.0
 10
99.493156
 20
101.911702
 30
0.0
 10
98.054243
 20
100.471979
 30
0.0
  0
LWPOLYLINE
  5
158
100
AcDbEntity
  8
path
 62
1
100
AcDbPolyline
 90
34
 70
0
 10
101.289266
 20
103.570927
 30
0.0
 10
98.091097
 20
103.570927
 30
0.0
 10
101.046680
 20
108.328695
 30
0.0
 10
101.046680
 20
108.328695
 30
0.0
 10
101.049920
 20
108.332745
 30
0.0
 10
101.053160
 20
108.337200
 30
0.0
 10
101.056805
 20
108.342060
 30
0.0
 10
101.059639
 20
108.346514
 30
0.0
 10
101.062879
 20
108.351374
 30
0.0
 10
101.066119
 20
108.356234
 30
0.0
 10
101.068954
 20
108.361094
 30
0.0
 10
101.071789
 20
108.366764
 30
0.0
 10
101.075029
 20
108.372434
 30
0.0
 10
101.075029
 20
108.372434
 30
0.0
 10
101.196930
 20
108.634459
 30
0.0
 10
101.268207
 20
108.906204
 30
0.0
 10
101.290481
 20
109.181189
 30
0.0
 10
101.265372
 20
109.453339
 30
0.0
 10
101.194905
 20
109.716985
 30
0.0
 10
101.080699
 20
109.965646
 30
0.0
 10
100.924779
 20
110.192843
 30
0.0
 10
100.728361
 20
110.393310
 30
0.0
 10
100.493065
 20
110.560164
 30
0.0
 10
100.493065
 20
110.560164
 30
0.0
 10
100.230634
 20
110.680445
 30
0.0
 10
99.958484
 20
110.750508
 30
0.0
 10
99.683499
 20
110.771972
 30
0.0
 10
99.410944
 20
110.746863
 30
0.0
 10
99.147704
 20
110.676395
 30
0.0
 10
98.899448
 20
110.561784
 30
0.0
 10
98.672251
 20
110.405055
 30
0.0
 10
98.472188
 20
110.207827
 30
0.0
 10
98.305739
 20
109.971721
 30
0.0
 10
98.095552
 20
109.568760
 30
0.0
  0
LWPOLYLINE
  5
159
100
AcDbEntity
  8
path
 62
1
100
AcDbPolyline
 90
45
 70
0
 10
98.093527
 20
112.067925
 30
0.0
 10
99.692409
 20
112.067925
 30
0.0
 10
99.692409
 20
112.067925
 30
0.0
 10
99.979949
 20
112.093844
 30
0.0
 10
100.250884
 20
112.167956
 30
0.0
 10
100.499950
 20
112.286617
 30
0.0
 10
100.723097
 20
112.444156
 30
0.0
 10
100.915870
 20
112.636929
 30
0.0
 10
101.073409
 20
112.860076
 30
0.0
 10
101.191665
 20
113.108737
 30
0.0
 10
101.265777
 20
113.378457
 30
0.0
 10
101.291696
 20
113.664782
 30
0.0
 10
101.291696
 20
114.465438
 30
0.0
 10
101.265777
 20
114.751763
 30
0.0
 10
101.191665
 20
115.021483
 30
0.0
 10
101.073409
 20
115.270549
 30
0.0
 10
100.915870
 20
115.493291
 30
0.0
 10
100.723097
 20
115.686064
 30
0.0
 10
100.499950
 20
115.844008
 30
0.0
 10
100.250884
 20
115.962264
 30
0.0
 10
99.979949
 20
116.036781
 30
0.0
 10
99.692409
 20
116.062295
 30
0.0
 10
98.891753
 20
116.062295
 30
0.0
 10
99.692409
 20
116.062295
 30
0.0
 10
99.692409
 20
116.062295
 30
0.0
 10
99.979949
 20
116.088214
 30
0.0
 10
100.250884
 20
116.162732
 30
0.0
 10
100.499950
 20
116.281392
 30
0.0
 10
100.723097
 20
116.439337
 30
0.0
 10
100.915870
 20
116.632515
 30
0.0
 10
101.073409
 20
116.856067
 30
0.0
 10
101.191665
 20
117.105538
 30
0.0
 10
101.265777
 20
117.376473
 30
0.0
 10
101.291696
 20
117.664012
 30
0.0
 10
101.291696
 20
117.664012
 30
0.0
 10
101.265777
 20
117.950337
 30
0.0
 10
101.191665
 20
118.220057
 30
0.0
 10
101.073409
 20
118.468718
 30
0.0
 10
100.915870
 20
118.691865
 30
0.0
 10
100.723097
 20
118.884233
 30
0.0
 10
100.499950
 20
119.042178
 30
0.0
 10
100.250884
 20
119.160433
 30
0.0
 10
99.979949
 20
119.234951
 30
0.0
 10
99.692409
 20
119.260870
 30
0.0
 10
98.093527
 20
119.260870
 30
0.0
  0
LWPOLYLINE
  5
15a
100
AcDbEntity
  8
path
 62
1
100
AcDbPolyline
 90
3
 70
0
 10
101.684532
 20
122.165425
 30
0.0
 10
97.686112
 20
122.165425
 30
0.0
 10
99.282969
 20
127.765967
 30
0.0
  0
LWPOLYLINE
  5
15b
100
AcDbEntity
  8
path
 62
1
100
AcDbPolyline
 90
2
 70
0
 10
100.486180
 20
120.564518
 30
0.0
 10
100.486180
 20
123.762687
 30
0.0
  0
LWPOLYLINE
  5
15c
100
AcDbEntity
  8
path
 62
1
100
AcDbPolyline
 90
25
 70
0
 10
98.078542
 20
129.061515
 30
0.0
 10
99.677829
 20
129.061515
 30
0.0
 10
99.677829
 20
129.061515
 30
0.0
 10
99.964559
 20
129.087029
 30
0.0
 10
100.235089
 20
129.161547
 30
0.0
 10
100.484155
 20
129.279802
 30
0.0
 10
100.707302
 20
129.438152
 30
0.0
 10
100.900075
 20
129.630925
 30
0.0
 10
101.058020
 20
129.854476
 30
0.0
 10
101.176680
 20
130.103947
 30
0.0
 10
101.250793
 20
130.374478
 30
0.0
 10
101.276712
 20
130.662422
 30
0.0
 10
101.276712
 20
131.459028
 30
0.0
 10
101.250793
 20
131.746568
 30
0.0
 10
101.176680
 20
132.017098
 30
0.0
 10
101.058020
 20
132.265759
 30
0.0
 10
100.900075
 20
132.488501
 30
0.0
 10
100.707302
 20
132.680869
 30
0.0
 10
100.484155
 20
132.838004
 30
0.0
 10
100.235089
 20
132.956259
 30
0.0
 10
99.964964
 20
133.030372
 30
0.0
 10
99.677829
 20
133.055886
 30
0.0
 10
98.078542
 20
133.055886
 30
0.0
 10
98.078542
 20
136.262965
 30
0.0
 10
101.276712
 20
136.262965
 30
0.0
  0
LWPOLYLINE
  5
15d
100
AcDbEntity
  8
path
 62
1
100
AcDbPolyline
 90
42
 70
0
 10
100.484965
 20
144.759557
 30
0.0
 10
100.484965
 20
144.759557
 30
0.0
 10
100.026522
 20
144.587844
 30
0.0
 10
99.606147
 20
144.356192
 30
0.0
 10
99.227891
 20
144.071082
 30
0.0
 10
98.895803
 20
143.737779
 30
0.0
 10
98.614743
 20
143.361953
 30
0.0
 10
98.388356
 20
142.949678
 30
0.0
 10
98.221502
 20
142.507029
 30
0.0
 10
98.118231
 20
142.039271
 30
0.0
 10
98.082592
 20
141.552478
 30
0.0
 10
98.082592
 20
139.159015
 30
0.0
 10
98.108511
 20
138.871475
 30
0.0
 10
98.183029
 20
138.600540
 30
0.0
 10
98.301284
 20
138.351069
 30
0.0
 10
98.459229
 20
138.127922
 30
0.0
 10
98.652407
 20
137.934744
 30
0.0
 10
98.875554
 20
137.776800
 30
0.0
 10
99.124619
 20
137.658139
 30
0.0
 10
99.394745
 20
137.584027
 30
0.0
 10
99.681879
 20
137.558108
 30
0.0
 10
99.681879
 20
137.558108
 30
0.0
 10
99.969419
 20
137.584027
 30
0.0
 10
100.239949
 20
137.658139
 30
0.0
 10
100.489015
 20
137.776800
 30
0.0
 10
100.712567
 20
137.934744
 30
0.0
 10
100.904935
 20
138.127922
 30
0.0
 10
101.062879
 20
138.351069
 30
0.0
 10
101.181135
 20
138.600540
 30
0.0
 10
101.255247
 20
138.871475
 30
0.0
 10
101.281166
 20
139.159015
 30
0.0
 10
101.281166
 20
139.955621
 30
0.0
 10
101.255247
 20
140.243161
 30
0.0
 10
101.181135
 20
140.513691
 30
0.0
 10
101.062879
 20
140.762757
 30
0.0
 10
100.904935
 20
140.985499
 30
0.0
 10
100.712567
 20
141.177867
 30
0.0
 10
100.489015
 20
141.335001
 30
0.0
 10
100.239949
 20
141.452852
 30
0.0
 10
99.969419
 20
141.526964
 30
0.0
 10
99.681879
 20
141.552478
 30
0.0
 10
98.082592
 20
141.552478
 30
0.0
  0
LWPOLYLINE
  5
15e
100
AcDbEntity
  8
path
 62
1
100
AcDbPolyline
 90
2
 70
0
 10
97.882529
 20
136.657825
 30
0.0
 10
101.483254
 20
136.657825
 30
0.0
  0
LWPOLYLINE
  5
15f
100
AcDbEntity
  8
path
 62
1
100
AcDbPolyline
 90
3
 70
0
 10
99.681879
 20
146.055105
 30
0.0
 10
101.282786
 20
153.256555
 30
0.0
 10
98.080567
 20
153.256555
 30
0.0
  0
LWPOLYLINE
  5
160
100
AcDbEntity
  8
path
 62
1
100
AcDbPolyline
 90
2
 70
0
 10
101.282786
 20
150.049476
 30
0.0
 10
99.681879
 20
150.049476
 30
0.0
  0
LWPOLYLINE
  5
161
100
AcDbEntity
  8
path
 62
1
100
AcDbPolyline
 90
43
 70
1
 10
98.082592
 20
156.148555
 30
0.0
 10
98.082592
 20
156.148555
 30
0.0
 10
98.108511
 20
155.860611
 30
0.0
 10
98.183029
 20
155.590486
 30
0.0
 10
98.301284
 20
155.341420
 30
0.0
 10
98.459229
 20
155.118678
 30
0.0
 10
98.652407
 20
154.926310
 30
0.0
 10
98.875554
 20
154.769175
 30
0.0
 10
99.124619
 20
154.651325
 30
0.0
 10
99.394745
 20
154.577212
 30
0.0
 10
99.681879
 20
154.551698
 30
0.0
 10
99.681879
 20
154.551698
 30
0.0
 10
99.969014
 20
154.577212
 30
0.0
 10
100.239139
 20
154.651325
 30
0.0
 10
100.488205
 20
154.769175
 30
0.0
 10
100.711352
 20
154.926310
 30
0.0
 10
100.904125
 20
155.118678
 30
0.0
 10
101.062474
 20
155.341420
 30
0.0
 10
101.180730
 20
155.590486
 30
0.0
 10
101.255247
 20
155.860611
 30
0.0
 10
101.281166
 20
156.148555
 30
0.0
 10
101.281166
 20
156.945162
 30
0.0
 10
101.255247
 20
157.232701
 30
0.0
 10
101.180730
 20
157.503636
 30
0.0
 10
101.062474
 20
157.753107
 30
0.0
 10
100.904530
 20
157.976254
 30
0.0
 10
100.711757
 20
158.169432
 30
0.0
 10
100.488610
 20
158.327377
 30
0.0
 10
100.239544
 20
158.445632
 30
0.0
 10
99.969014
 20
158.520150
 30
0.0
 10
99.681879
 20
158.546069
 30
0.0
 10
99.681879
 20
158.546069
 30
0.0
 10
99.394745
 20
158.520150
 30
0.0
 10
99.124215
 20
158.445632
 30
0.0
 10
98.875149
 20
158.327377
 30
0.0
 10
98.652002
 20
158.169027
 30
0.0
 10
98.459229
 20
157.976254
 30
0.0
 10
98.301284
 20
157.752702
 30
0.0
 10
98.183029
 20
157.503231
 30
0.0
 10
98.108511
 20
157.232701
 30
0.0
 10
98.082592
 20
156.945162
 30
0.0
 10
98.082592
 20
156.148555
 30
0.0
 10
98.082592
 20
156.148555
 30
0.0
  0
LWPOLYLINE
  5
162
100
AcDbEntity
  8
path
 62
1
100
AcDbPolyline
 90
42
 70
1
 10
101.281166
 20
160.147381
 30
0.0
 10
101.281166
 20
160.147381
 30
0.0
 10
101.255247
 20
160.433705
 30
0.0
 10
101.180730
 20
160.703426
 30
0.0
 10
101.062474
 20
160.952087
 30
0.0
 10
100.904530
 20
161.175234
 30
0.0
 10
100.711757
 20
161.368007
 30
0.0
 10
100.488610
 20
161.525546
 30
0.0
 10
100.239544
 20
161.644207
 30
0.0
 10
99.969014
 20
161.718724
 30
0.0
 10
99.681879
 20
161.744238
 30
0.0
 10
99.681879
 20
161.744238
 30
0.0
 10
99.394745
 20
161.718724
 30
0.0
 10
99.124215
 20
161.644207
 30
0.0
 10
98.875149
 20
161.525546
 30
0.0
 10
98.652002
 20
161.368007
 30
0.0
 10
98.459229
 20
161.175234
 30
0.0
 10
98.301284
 20
160.952087
 30
0.0
 10
98.183029
 20
160.703426
 30
0.0
 10
98.108511
 20
160.433705
 30
0.0
 10
98.082592
 20
160.147381
 30
0.0
 10
98.082592
 20
160.147381
 30
0.0
 10
98.108511
 20
159.859841
 30
0.0
 10
98.183029
 20
159.588906
 30
0.0
 10
98.301284
 20
159.339435
 30
0.0
 10
98.459229
 20
159.115883
 30
0.0
 10
98.652407
 20
158.922705
 30
0.0
 10
98.875554
 20
158.764761
 30
0.0
 10
99.124619
 20
158.646505
 30
0.0
 10
99.394745
 20
158.571988
 30
0.0
 10
99.681879
 20
158.546069
 30
0.0
 10
99.681879
 20
158.546069
 30
0.0
 10
99.969014
 20
158.571988
 30
0.0
 10
100.239139
 20
158.646505
 30
0.0
 10
100.488205
 20
158.764761
 30
0.0
 10
100.711352
 20
158.922705
 30
0.0
 10
100.904125
 20
159.115883
 30
0.0
 10
101.062474
 20
159.339435
 30
0.0
 10
101.180730
 20
159.588906
 30
0.0
 10
101.255247
 20
159.859841
 30
0.0
 10
101.281166
 20
160.147381
 30
0.0
 10
101.281166
 20
160.147381
 30
0.0
  0
LWPOLYLINE
  5
163
100
AcDbEntity
  8
path
 62
1
100
AcDbPolyline
 90
42
 70
0
 10
98.881223
 20
163.048696
 30
0.0
 10
98.881223
 20
163.048696
 30
0.0
 10
99.338452
 20
163.218790
 30
0.0
 10
99.758017
 20
163.449226
 30
0.0
 10
100.136273
 20
163.733526
 30
0.0
 10
100.467551
 20
164.066424
 30
0.0
 10
100.748611
 20
164.441440
 30
0.0
 10
100.974998
 20
164.852501
 30
0.0
 10
101.141852
 20
165.294745
 30
0.0
 10
101.245123
 20
165.761288
 30
0.0
 10
101.280357
 20
166.246865
 30
0.0
 10
101.280357
 20
168.648428
 30
0.0
 10
101.254842
 20
168.936373
 30
0.0
 10
101.180730
 20
169.207308
 30
0.0
 10
101.062474
 20
169.456374
 30
0.0
 10
100.904530
 20
169.679926
 30
0.0
 10
100.711757
 20
169.873104
 30
0.0
 10
100.488610
 20
170.031048
 30
0.0
 10
100.239544
 20
170.149709
 30
0.0
 10
99.969014
 20
170.224226
 30
0.0
 10
99.681474
 20
170.250145
 30
0.0
 10
99.681474
 20
170.250145
 30
0.0
 10
99.394340
 20
170.224226
 30
0.0
 10
99.124215
 20
170.149709
 30
0.0
 10
98.875149
 20
170.031048
 30
0.0
 10
98.651597
 20
169.873104
 30
0.0
 10
98.458824
 20
169.679926
 30
0.0
 10
98.300879
 20
169.456374
 30
0.0
 10
98.182624
 20
169.207308
 30
0.0
 10
98.108106
 20
168.936373
 30
0.0
 10
98.082187
 20
168.648428
 30
0.0
 10
98.082187
 20
167.847772
 30
0.0
 10
98.108106
 20
167.560233
 30
0.0
 10
98.182624
 20
167.289297
 30
0.0
 10
98.300879
 20
167.039826
 30
0.0
 10
98.458824
 20
166.816275
 30
0.0
 10
98.651597
 20
166.623501
 30
0.0
 10
98.875149
 20
166.465557
 30
0.0
 10
99.124215
 20
166.346896
 30
0.0
 10
99.394340
 20
166.272784
 30
0.0
 10
99.681474
 20
166.246865
 30
0.0
 10
101.280357
 20
166.246865
 30
0.0
  0
LWPOLYLINE
  5
164
100
AcDbEntity
  8
path
 62
1
100
AcDbPolyline
 90
2
 70
0
 10
97.882529
 20
162.148413
 30
0.0
 10
101.483254
 20
162.148413
 30
0.0
  0
LWPOLYLINE
  5
165
100
AcDbEntity
  8
path
 62
1
100
AcDbPolyline
 90
3
 70
0
 10
93.432955
 20
171.972143
 30
0.0
 10
93.432955
 20
174.719159
 30
0.0
 10
92.822237
 20
174.108441
 30
0.0
  0
LWPOLYLINE
  5
166
100
AcDbEntity
  8
path
 62
1
100
AcDbPolyline
 90
62
 70
1
 10
94.903862
 20
172.008592
 30
0.0
 10
94.903862
 20
172.008592
 30
0.0
 10
94.967850
 20
171.984698
 30
0.0
 10
95.033457
 20
171.972548
 30
0.0
 10
95.099065
 20
171.972548
 30
0.0
 10
95.163053
 20
171.983078
 30
0.0
 10
95.224611
 20
172.004542
 30
0.0
 10
95.282118
 20
172.035726
 30
0.0
 10
95.333552
 20
172.076629
 30
0.0
 10
95.377695
 20
172.126847
 30
0.0
 10
95.412929
 20
172.185165
 30
0.0
 10
95.412929
 20
172.185165
 30
0.0
 10
95.518630
 20
172.433016
 30
0.0
 10
95.598412
 20
172.687752
 30
0.0
 10
95.651060
 20
172.947753
 30
0.0
 10
95.677384
 20
173.210993
 30
0.0
 10
95.677384
 20
173.475044
 30
0.0
 10
95.651060
 20
173.738284
 30
0.0
 10
95.598412
 20
173.998285
 30
0.0
 10
95.518630
 20
174.253425
 30
0.0
 10
95.412929
 20
174.501682
 30
0.0
 10
95.412929
 20
174.501682
 30
0.0
 10
95.399564
 20
174.526791
 30
0.0
 10
95.384175
 20
174.550685
 30
0.0
 10
95.367570
 20
174.573364
 30
0.0
 10
95.348941
 20
174.594828
 30
0.0
 10
95.329097
 20
174.614672
 30
0.0
 10
95.307633
 20
174.633302
 30
0.0
 10
95.284953
 20
174.649906
 30
0.0
 10
95.261464
 20
174.664486
 30
0.0
 10
95.236760
 20
174.677445
 30
0.0
 10
95.236760
 20
174.677445
 30
0.0
 10
95.172367
 20
174.702149
 30
0.0
 10
95.106355
 20
174.714299
 30
0.0
 10
95.040747
 20
174.715109
 30
0.0
 10
94.976355
 20
174.704174
 30
0.0
 10
94.914797
 20
174.683115
 30
0.0
 10
94.857289
 20
174.651931
 30
0.0
 10
94.805856
 20
174.611028
 30
0.0
 10
94.761712
 20
174.560404
 30
0.0
 10
94.726074
 20
174.501682
 30
0.0
 10
94.726074
 20
174.501682
 30
0.0
 10
94.620777
 20
174.253830
 30
0.0
 10
94.541805
 20
173.999095
 30
0.0
 10
94.489157
 20
173.739499
 30
0.0
 10
94.462833
 20
173.476259
 30
0.0
 10
94.462833
 20
173.212208
 30
0.0
 10
94.489157
 20
172.948968
 30
0.0
 10
94.541805
 20
172.688562
 30
0.0
 10
94.620777
 20
172.433421
 30
0.0
 10
94.726074
 20
172.185165
 30
0.0
 10
94.726074
 20
172.185165
 30
0.0
 10
94.739843
 20
172.160056
 30
0.0
 10
94.754828
 20
172.136567
 30
0.0
 10
94.771837
 20
172.113888
 30
0.0
 10
94.790061
 20
172.092829
 30
0.0
 10
94.809906
 20
172.072579
 30
0.0
 10
94.831370
 20
172.054355
 30
0.0
 10
94.854049
 20
172.037346
 30
0.0
 10
94.878348
 20
172.021956
 30
0.0
 10
94.903862
 20
172.008592
 30
0.0
 10
94.903862
 20
172.008592
 30
0.0
  0
LWPOLYLINE
  5
167
100
AcDbEntity
  8
path
 62
1
100
AcDbPolyline
 90
3
 70
0
 10
107.813175
 20
122.819476
 30
0.0
 10
103.777901
 20
116.982827
 30
0.0
 10
99.742222
 20
122.819476
 30
0.0
  0
LWPOLYLINE
  5
168
100
AcDbEntity
  8
path
 62
1
100
AcDbPolyline
 90
2
 70
0
 10
103.777901
 20
117.452610
 30
0.0
 10
103.777901
 20
110.719324
 30
0.0
  0
LWPOLYLINE
  5
169
100
AcDbEntity
  8
path
 62
1
100
AcDbPolyline
 90
2
 70
0
 10
118.967282
 20
116.769400
 30
0.0
 10
112.351846
 20
116.769400
 30
0.0
  0
LWPOLYLINE
  5
16a
100
AcDbEntity
  8
path
 62
1
100
AcDbPolyline
 90
34
 70
0
 10
128.878083
 20
110.719729
 30
0.0
 10
123.504333
 20
110.719729
 30
0.0
 10
128.469453
 20
118.713329
 30
0.0
 10
128.469453
 20
118.713329
 30
0.0
 10
128.475528
 20
118.720619
 30
0.0
 10
128.481198
 20
118.727909
 30
0.0
 10
128.486867
 20
118.735604
 30
0.0
 10
128.492132
 20
118.743298
 30
0.0
 10
128.497397
 20
118.750993
 30
0.0
 10
128.502257
 20
118.759498
 30
0.0
 10
128.507522
 20
118.768002
 30
0.0
 10
128.512381
 20
118.777317
 30
0.0
 10
128.517241
 20
118.786632
 30
0.0
 10
128.517241
 20
118.786632
 30
0.0
 10
128.722569
 20
119.226851
 30
0.0
 10
128.842040
 20
119.683269
 30
0.0
 10
128.879703
 20
120.145358
 30
0.0
 10
128.837585
 20
120.602991
 30
0.0
 10
128.719329
 20
121.045640
 30
0.0
 10
128.527366
 20
121.463180
 30
0.0
 10
128.264935
 20
121.845486
 30
0.0
 10
127.934872
 20
122.182029
 30
0.0
 10
127.540012
 20
122.462279
 30
0.0
 10
127.540012
 20
122.462279
 30
0.0
 10
127.098983
 20
122.664367
 30
0.0
 10
126.641754
 20
122.782217
 30
0.0
 10
126.179261
 20
122.818666
 30
0.0
 10
125.722032
 20
122.776143
 30
0.0
 10
125.279383
 20
122.657482
 30
0.0
 10
124.862249
 20
122.465114
 30
0.0
 10
124.480752
 20
122.202278
 30
0.0
 10
124.144614
 20
121.870595
 30
0.0
 10
123.864770
 20
121.473710
 30
0.0
 10
123.512027
 20
120.796574
 30
0.0
  0
LWPOLYLINE
  5
16b
100
AcDbEntity
  8
path
 62
1
100
AcDbPolyline
 90
3
 70
0
 10
250.892070
 20
95.438011
 30
0.0
 10
250.892070
 20
101.911702
 30
0.0
 10
249.452752
 20
100.471979
 30
0.0
  0
LWPOLYLINE
  5
16c
100
AcDbEntity
  8
path
 62
1
100
AcDbPolyline
 90
34
 70
0
 10
250.864936
 20
103.570927
 30
0.0
 10
247.666766
 20
103.570927
 30
0.0
 10
250.621945
 20
108.328695
 30
0.0
 10
250.621945
 20
108.328695
 30
0.0
 10
250.625589
 20
108.332745
 30
0.0
 10
250.628829
 20
108.337200
 30
0.0
 10
250.632069
 20
108.342060
 30
0.0
 10
250.635309
 20
108.346514
 30
0.0
 10
250.638549
 20
108.351374
 30
0.0
 10
250.641384
 20
108.356234
 30
0.0
 10
250.644624
 20
108.361094
 30
0.0
 10
250.647459
 20
108.366764
 30
0.0
 10
250.650699
 20
108.372434
 30
0.0
 10
250.650699
 20
108.372434
 30
0.0
 10
250.772599
 20
108.634459
 30
0.0
 10
250.843877
 20
108.905799
 30
0.0
 10
250.866151
 20
109.181189
 30
0.0
 10
250.841042
 20
109.453339
 30
0.0
 10
250.770574
 20
109.716985
 30
0.0
 10
250.656368
 20
109.965646
 30
0.0
 10
250.500044
 20
110.192843
 30
0.0
 10
250.303626
 20
110.393310
 30
0.0
 10
250.068735
 20
110.560164
 30
0.0
 10
250.068735
 20
110.560164
 30
0.0
 10
249.805899
 20
110.680445
 30
0.0
 10
249.534154
 20
110.750508
 30
0.0
 10
249.258764
 20
110.771972
 30
0.0
 10
248.986614
 20
110.746863
 30
0.0
 10
248.723373
 20
110.676395
 30
0.0
 10
248.475117
 20
110.561784
 30
0.0
 10
248.247920
 20
110.405055
 30
0.0
 10
248.047858
 20
110.207827
 30
0.0
 10
247.881004
 20
109.971721
 30
0.0
 10
247.671221
 20
109.568760
 30
0.0
  0
LWPOLYLINE
  5
16d
100
AcDbEntity
  8
path
 62
1
100
AcDbPolyline
 90
45
 70
0
 10
247.662717
 20
112.067925
 30
0.0
 10
249.262004
 20
112.067925
 30
0.0
 10
249.262004
 20
112.067925
 30
0.0
 10
249.549543
 20
112.093844
 30
0.0
 10
249.820074
 20
112.167956
 30
0.0
 10
250.069140
 20
112.286617
 30
0.0
 10
250.292691
 20
112.444156
 30
0.0
 10
250.485060
 20
112.636929
 30
0.0
 10
250.643004
 20
112.859671
 30
0.0
 10
250.761260
 20
113.108332
 30
0.0
 10
250.835372
 20
113.378457
 30
0.0
 10
250.860886
 20
113.664782
 30
0.0
 10
250.860886
 20
114.465438
 30
0.0
 10
250.835372
 20
114.751763
 30
0.0
 10
250.761260
 20
115.021483
 30
0.0
 10
250.643004
 20
115.270549
 30
0.0
 10
250.485060
 20
115.493291
 30
0.0
 10
250.292691
 20
115.686064
 30
0.0
 10
250.069140
 20
115.844008
 30
0.0
 10
249.820074
 20
115.962264
 30
0.0
 10
249.549543
 20
116.036781
 30
0.0
 10
249.262004
 20
116.062295
 30
0.0
 10
248.461348
 20
116.062295
 30
0.0
 10
249.262004
 20
116.062295
 30
0.0
 10
249.262004
 20
116.062295
 30
0.0
 10
249.549543
 20
116.088214
 30
0.0
 10
249.820074
 20
116.162732
 30
0.0
 10
250.069140
 20
116.281392
 30
0.0
 10
250.292691
 20
116.439337
 30
0.0
 10
250.485060
 20
116.632110
 30
0.0
 10
250.643004
 20
116.855662
 30
0.0
 10
250.761260
 20
117.105133
 30
0.0
 10
250.835372
 20
117.376068
 30
0.0
 10
250.860886
 20
117.664012
 30
0.0
 10
250.860886
 20
117.664012
 30
0.0
 10
250.835372
 20
117.950337
 30
0.0
 10
250.761260
 20
118.220057
 30
0.0
 10
250.643004
 20
118.468718
 30
0.0
 10
250.485060
 20
118.691865
 30
0.0
 10
250.292691
 20
118.884233
 30
0.0
 10
250.069140
 20
119.042178
 30
0.0
 10
249.820074
 20
119.160433
 30
0.0
 10
249.549543
 20
119.234951
 30
0.0
 10
249.262004
 20
119.260870
 30
0.0
 10
247.662717
 20
119.260870
 30
0.0
  0
LWPOLYLINE
  5
16e
100
AcDbEntity
  8
path
 62
1
100
AcDbPolyline
 90
3
 70
0
 10
251.260606
 20
122.165425
 30
0.0
 10
247.262186
 20
122.165425
 30
0.0
 10
248.859043
 20
127.765967
 30
0.0
  0
LWPOLYLINE
  5
16f
100
AcDbEntity
  8
path
 62
1
100
AcDbPolyline
 90
2
 70
0
 10
250.061850
 20
120.564518
 30
0.0
 10
250.061850
 20
123.762687
 30
0.0
  0
LWPOLYLINE
  5
170
100
AcDbEntity
  8
path
 62
1
100
AcDbPolyline
 90
25
 70
0
 10
247.667576
 20
129.061110
 30
0.0
 10
249.266459
 20
129.061110
 30
0.0
 10
249.266459
 20
129.061110
 30
0.0
 10
249.553593
 20
129.087029
 30
0.0
 10
249.823718
 20
129.161547
 30
0.0
 10
250.073189
 20
129.279802
 30
0.0
 10
250.296336
 20
129.437747
 30
0.0
 10
250.489109
 20
129.630925
 30
0.0
 10
250.647054
 20
129.854476
 30
0.0
 10
250.765309
 20
130.103542
 30
0.0
 10
250.839827
 20
130.374478
 30
0.0
 10
250.865746
 20
130.662017
 30
0.0
 10
250.865746
 20
131.459028
 30
0.0
 10
250.839827
 20
131.746568
 30
0.0
 10
250.765714
 20
132.016693
 30
0.0
 10
250.647054
 20
132.265759
 30
0.0
 10
250.489109
 20
132.488501
 30
0.0
 10
250.296336
 20
132.680869
 30
0.0
 10
250.073189
 20
132.838004
 30
0.0
 10
249.824123
 20
132.955854
 30
0.0
 10
249.553593
 20
133.029967
 30
0.0
 10
249.266459
 20
133.055886
 30
0.0
 10
247.667576
 20
133.055886
 30
0.0
 10
247.667576
 20
136.262560
 30
0.0
 10
250.865746
 20
136.262560
 30
0.0
  0
LWPOLYLINE
  5
171
100
AcDbEntity
  8
path
 62
1
100
AcDbPolyline
 90
42
 70
0
 10
250.072784
 20
144.759557
 30
0.0
 10
250.072784
 20
144.759557
 30
0.0
 10
249.614746
 20
144.587844
 30
0.0
 10
249.194371
 20
144.356192
 30
0.0
 10
248.815710
 20
144.071082
 30
0.0
 10
248.484027
 20
143.737374
 30
0.0
 10
248.202562
 20
143.361953
 30
0.0
 10
247.976175
 20
142.949678
 30
0.0
 10
247.809321
 20
142.507029
 30
0.0
 10
247.706050
 20
142.039271
 30
0.0
 10
247.670816
 20
141.552478
 30
0.0
 10
247.670816
 20
139.159015
 30
0.0
 10
247.696330
 20
138.871475
 30
0.0
 10
247.770848
 20
138.600540
 30
0.0
 10
247.889508
 20
138.351069
 30
0.0
 10
248.047048
 20
138.127517
 30
0.0
 10
248.240226
 20
137.934744
 30
0.0
 10
248.463373
 20
137.776800
 30
0.0
 10
248.712439
 20
137.658139
 30
0.0
 10
248.982969
 20
137.583622
 30
0.0
 10
249.269698
 20
137.558108
 30
0.0
 10
249.269698
 20
137.558108
 30
0.0
 10
249.557238
 20
137.583622
 30
0.0
 10
249.828173
 20
137.658139
 30
0.0
 10
250.077239
 20
137.776800
 30
0.0
 10
250.300386
 20
137.934744
 30
0.0
 10
250.493159
 20
138.127517
 30
0.0
 10
250.650699
 20
138.351069
 30
0.0
 10
250.768954
 20
138.600540
 30
0.0
 10
250.843067
 20
138.871475
 30
0.0
 10
250.868986
 20
139.159015
 30
0.0
 10
250.868986
 20
139.955621
 30
0.0
 10
250.843067
 20
140.243161
 30
0.0
 10
250.768954
 20
140.513691
 30
0.0
 10
250.650699
 20
140.762352
 30
0.0
 10
250.493159
 20
140.985499
 30
0.0
 10
250.300386
 20
141.177462
 30
0.0
 10
250.077239
 20
141.335001
 30
0.0
 10
249.828173
 20
141.452852
 30
0.0
 10
249.557238
 20
141.526964
 30
0.0
 10
249.269698
 20
141.552478
 30
0.0
 10
247.670816
 20
141.552478
 30
0.0
  0
LWPOLYLINE
  5
172
100
AcDbEntity
  8
path
 62
1
100
AcDbPolyline
 90
2
 70
0
 10
247.470349
 20
136.657825
 30
0.0
 10
251.071073
 20
136.657825
 30
0.0
  0
LWPOLYLINE
  5
173
100
AcDbEntity
  8
path
 62
1
100
AcDbPolyline
 90
3
 70
0
 10
249.238110
 20
146.054700
 30
0.0
 10
250.839017
 20
153.256150
 30
0.0
 10
247.636798
 20
153.256150
 30
0.0
  0
LWPOLYLINE
  5
174
100
AcDbEntity
  8
path
 62
1
100
AcDbPolyline
 90
2
 70
0
 10
250.839017
 20
150.049071
 30
0.0
 10
249.238110
 20
150.049071
 30
0.0
  0
LWPOLYLINE
  5
175
100
AcDbEntity
  8
path
 62
1
100
AcDbPolyline
 90
43
 70
1
 10
247.636393
 20
156.148150
 30
0.0
 10
247.636393
 20
156.148150
 30
0.0
 10
247.662312
 20
155.860611
 30
0.0
 10
247.736829
 20
155.590486
 30
0.0
 10
247.855085
 20
155.341420
 30
0.0
 10
248.013029
 20
155.118678
 30
0.0
 10
248.206207
 20
154.926310
 30
0.0
 10
248.429354
 20
154.768770
 30
0.0
 10
248.678420
 20
154.650920
 30
0.0
 10
248.948545
 20
154.577212
 30
0.0
 10
249.235680
 20
154.551293
 30
0.0
 10
249.235680
 20
154.551293
 30
0.0
 10
249.522814
 20
154.577212
 30
0.0
 10
249.792940
 20
154.650920
 30
0.0
 10
250.042006
 20
154.768770
 30
0.0
 10
250.265152
 20
154.926310
 30
0.0
 10
250.458330
 20
155.118678
 30
0.0
 10
250.616275
 20
155.341420
 30
0.0
 10
250.734531
 20
155.590486
 30
0.0
 10
250.809048
 20
155.860611
 30
0.0
 10
250.834967
 20
156.148150
 30
0.0
 10
250.834967
 20
156.944757
 30
0.0
 10
250.809048
 20
157.232701
 30
0.0
 10
250.734531
 20
157.503231
 30
0.0
 10
250.616275
 20
157.752702
 30
0.0
 10
250.458330
 20
157.976254
 30
0.0
 10
250.265557
 20
158.169027
 30
0.0
 10
250.042411
 20
158.327377
 30
0.0
 10
249.793345
 20
158.445632
 30
0.0
 10
249.522814
 20
158.520150
 30
0.0
 10
249.235680
 20
158.546069
 30
0.0
 10
249.235680
 20
158.546069
 30
0.0
 10
248.948545
 20
158.520150
 30
0.0
 10
248.678420
 20
158.445632
 30
0.0
 10
248.428949
 20
158.326972
 30
0.0
 10
248.205802
 20
158.169027
 30
0.0
 10
248.013029
 20
157.976254
 30
0.0
 10
247.855085
 20
157.752702
 30
0.0
 10
247.736829
 20
157.503231
 30
0.0
 10
247.662312
 20
157.232701
 30
0.0
 10
247.636393
 20
156.944757
 30
0.0
 10
247.636393
 20
156.148150
 30
0.0
 10
247.636393
 20
156.148150
 30
0.0
  0
LWPOLYLINE
  5
176
100
AcDbEntity
  8
path
 62
1
100
AcDbPolyline
 90
42
 70
1
 10
250.834967
 20
160.147381
 30
0.0
 10
250.834967
 20
160.147381
 30
0.0
 10
250.809048
 20
160.433705
 30
0.0
 10
250.734531
 20
160.703426
 30
0.0
 10
250.616275
 20
160.952087
 30
0.0
 10
250.458330
 20
161.175234
 30
0.0
 10
250.265557
 20
161.368007
 30
0.0
 10
250.042411
 20
161.525546
 30
0.0
 10
249.793345
 20
161.644207
 30
0.0
 10
249.522814
 20
161.718319
 30
0.0
 10
249.235680
 20
161.744238
 30
0.0
 10
249.235680
 20
161.744238
 30
0.0
 10
248.948545
 20
161.718319
 30
0.0
 10
248.678420
 20
161.644207
 30
0.0
 10
248.428949
 20
161.525546
 30
0.0
 10
248.205802
 20
161.368007
 30
0.0
 10
248.013029
 20
161.175234
 30
0.0
 10
247.855085
 20
160.952087
 30
0.0
 10
247.736829
 20
160.703426
 30
0.0
 10
247.662312
 20
160.433705
 30
0.0
 10
247.636393
 20
160.147381
 30
0.0
 10
247.636393
 20
160.147381
 30
0.0
 10
247.662312
 20
159.859436
 30
0.0
 10
247.736829
 20
159.588906
 30
0.0
 10
247.855085
 20
159.339435
 30
0.0
 10
248.013029
 20
159.115883
 30
0.0
 10
248.206207
 20
158.922705
 30
0.0
 10
248.429354
 20
158.764761
 30
0.0
 10
248.678420
 20
158.646100
 30
0.0
 10
248.948545
 20
158.571583
 30
0.0
 10
249.235680
 20
158.546069
 30
0.0
 10
249.235680
 20
158.546069
 30
0.0
 10
249.522814
 20
158.571583
 30
0.0
 10
249.792940
 20
158.646100
 30
0.0
 10
250.042006
 20
158.764761
 30
0.0
 10
250.265152
 20
158.922705
 30
0.0
 10
250.458330
 20
159.115883
 30
0.0
 10
250.616275
 20
159.339435
 30
0.0
 10
250.734531
 20
159.588906
 30
0.0
 10
250.809048
 20
159.859436
 30
0.0
 10
250.834967
 20
160.147381
 30
0.0
 10
250.834967
 20
160.147381
 30
0.0
  0
LWPOLYLINE
  5
177
100
AcDbEntity
  8
path
 62
1
100
AcDbPolyline
 90
42
 70
0
 10
248.479572
 20
163.048291
 30
0.0
 10
248.479572
 20
163.048291
 30
0.0
 10
248.936801
 20
163.218790
 30
0.0
 10
249.356770
 20
163.449226
 30
0.0
 10
249.734622
 20
163.733526
 30
0.0
 10
250.066305
 20
164.066019
 30
0.0
 10
250.347365
 20
164.441035
 30
0.0
 10
250.573346
 20
164.852501
 30
0.0
 10
250.740200
 20
165.294340
 30
0.0
 10
250.843472
 20
165.761288
 30
0.0
 10
250.879110
 20
166.246865
 30
0.0
 10
250.879110
 20
168.648428
 30
0.0
 10
250.853191
 20
168.935968
 30
0.0
 10
250.779079
 20
169.206903
 30
0.0
 10
250.660823
 20
169.456374
 30
0.0
 10
250.502879
 20
169.679926
 30
0.0
 10
250.310511
 20
169.873104
 30
0.0
 10
250.086959
 20
170.031048
 30
0.0
 10
249.837893
 20
170.149709
 30
0.0
 10
249.567363
 20
170.223821
 30
0.0
 10
249.279823
 20
170.249740
 30
0.0
 10
249.279823
 20
170.249740
 30
0.0
 10
248.992689
 20
170.223821
 30
0.0
 10
248.722563
 20
170.149709
 30
0.0
 10
248.473497
 20
170.031048
 30
0.0
 10
248.250350
 20
169.873104
 30
0.0
 10
248.057172
 20
169.679926
 30
0.0
 10
247.899228
 20
169.456374
 30
0.0
 10
247.780972
 20
169.206903
 30
0.0
 10
247.706455
 20
168.935968
 30
0.0
 10
247.680536
 20
168.648428
 30
0.0
 10
247.680536
 20
167.847772
 30
0.0
 10
247.706455
 20
167.559828
 30
0.0
 10
247.780972
 20
167.289297
 30
0.0
 10
247.899228
 20
167.039826
 30
0.0
 10
248.057172
 20
166.816275
 30
0.0
 10
248.250350
 20
166.623096
 30
0.0
 10
248.473497
 20
166.465557
 30
0.0
 10
248.722563
 20
166.346896
 30
0.0
 10
248.992689
 20
166.272379
 30
0.0
 10
249.279823
 20
166.246865
 30
0.0
 10
250.879110
 20
166.246865
 30
0.0
  0
LWPOLYLINE
  5
178
100
AcDbEntity
  8
path
 62
1
100
AcDbPolyline
 90
2
 70
0
 10
247.480878
 20
162.148008
 30
0.0
 10
251.081603
 20
162.148008
 30
0.0
  0
LWPOLYLINE
  5
179
100
AcDbEntity
  8
path
 62
1
100
AcDbPolyline
 90
3
 70
0
 10
257.379125
 20
174.874673
 30
0.0
 10
257.379125
 20
175.416948
 30
0.0
 10
257.258440
 20
175.296263
 30
0.0
  0
LWPOLYLINE
  5
17a
100
AcDbEntity
  8
path
 62
1
100
AcDbPolyline
 90
62
 70
1
 10
257.669095
 20
174.881963
 30
0.0
 10
257.669095
 20
174.881963
 30
0.0
 10
257.682054
 20
174.877103
 30
0.0
 10
257.695014
 20
174.874673
 30
0.0
 10
257.707973
 20
174.874673
 30
0.0
 10
257.720528
 20
174.877103
 30
0.0
 10
257.732677
 20
174.881153
 30
0.0
 10
257.744017
 20
174.887228
 30
0.0
 10
257.754142
 20
174.895327
 30
0.0
 10
257.762646
 20
174.905047
 30
0.0
 10
257.769936
 20
174.916792
 30
0.0
 10
257.769936
 20
174.916792
 30
0.0
 10
257.790590
 20
174.965795
 30
0.0
 10
257.806385
 20
175.016013
 30
0.0
 10
257.816914
 20
175.067446
 30
0.0
 10
257.822179
 20
175.119284
 30
0.0
 10
257.822179
 20
175.171527
 30
0.0
 10
257.816914
 20
175.223365
 30
0.0
 10
257.806385
 20
175.274799
 30
0.0
 10
257.790590
 20
175.325017
 30
0.0
 10
257.769936
 20
175.374020
 30
0.0
 10
257.769936
 20
175.374020
 30
0.0
 10
257.767101
 20
175.378880
 30
0.0
 10
257.764266
 20
175.383740
 30
0.0
 10
257.761026
 20
175.388194
 30
0.0
 10
257.757381
 20
175.392649
 30
0.0
 10
257.753332
 20
175.396294
 30
0.0
 10
257.748877
 20
175.399939
 30
0.0
 10
257.744422
 20
175.403584
 30
0.0
 10
257.739967
 20
175.406419
 30
0.0
 10
257.735107
 20
175.408849
 30
0.0
 10
257.735107
 20
175.408849
 30
0.0
 10
257.722148
 20
175.413709
 30
0.0
 10
257.709188
 20
175.416138
 30
0.0
 10
257.696229
 20
175.416138
 30
0.0
 10
257.683674
 20
175.414114
 30
0.0
 10
257.671525
 20
175.410064
 30
0.0
 10
257.660185
 20
175.403584
 30
0.0
 10
257.650060
 20
175.395484
 30
0.0
 10
257.641151
 20
175.385765
 30
0.0
 10
257.634266
 20
175.374020
 30
0.0
 10
257.634266
 20
175.374020
 30
0.0
 10
257.613207
 20
175.325422
 30
0.0
 10
257.597817
 20
175.274799
 30
0.0
 10
257.587288
 20
175.223365
 30
0.0
 10
257.582428
 20
175.171527
 30
0.0
 10
257.582428
 20
175.119284
 30
0.0
 10
257.587288
 20
175.067446
 30
0.0
 10
257.597817
 20
175.016013
 30
0.0
 10
257.613207
 20
174.965795
 30
0.0
 10
257.634266
 20
174.916792
 30
0.0
 10
257.634266
 20
174.916792
 30
0.0
 10
257.636696
 20
174.911932
 30
0.0
 10
257.639936
 20
174.907072
 30
0.0
 10
257.643176
 20
174.902617
 30
0.0
 10
257.646820
 20
174.898567
 30
0.0
 10
257.650870
 20
174.894517
 30
0.0
 10
257.654920
 20
174.890872
 30
0.0
 10
257.659375
 20
174.887633
 30
0.0
 10
257.664235
 20
174.884393
 30
0.0
 10
257.669095
 20
174.881963
 30
0.0
 10
257.669095
 20
174.881963
 30
0.0
  0
LWPOLYLINE
  5
17b
100
AcDbEntity
  8
path
 62
1
100
AcDbPolyline
 90
4
 70
0
 10
215.299932
 20
113.362663
 30
0.0
 10
205.657231
 20
113.362663
 30
0.0
 10
215.299932
 20
130.728840
 30
0.0
 10
205.657231
 20
130.728840
 30
0.0
  0
LWPOLYLINE
  5
17c
100
AcDbEntity
  8
path
 62
1
100
AcDbPolyline
 90
2
 70
0
 10
231.309813
 20
122.045954
 30
0.0
 10
221.814122
 20
122.045954
 30
0.0
  0
LWPOLYLINE
  5
17d
100
AcDbEntity
  8
path
 62
1
100
AcDbPolyline
 90
34
 70
0
 10
245.534519
 20
113.362663
 30
0.0
 10
237.821978
 20
113.362663
 30
0.0
 10
244.948505
 20
124.835898
 30
0.0
 10
244.948505
 20
124.835898
 30
0.0
 10
244.957009
 20
124.846428
 30
0.0
 10
244.965514
 20
124.856957
 30
0.0
 10
244.973209
 20
124.867892
 30
0.0
 10
244.980904
 20
124.878826
 30
0.0
 10
244.988193
 20
124.890166
 30
0.0
 10
244.995483
 20
124.902316
 30
0.0
 10
245.002773
 20
124.914870
 30
0.0
 10
245.010063
 20
124.927830
 30
0.0
 10
245.017352
 20
124.941599
 30
0.0
 10
245.017352
 20
124.941599
 30
0.0
 10
245.311372
 20
125.573376
 30
0.0
 10
245.483490
 20
126.228238
 30
0.0
 10
245.537353
 20
126.891604
 30
0.0
 10
245.477011
 20
127.548085
 30
0.0
 10
245.306917
 20
128.183507
 30
0.0
 10
245.031527
 20
128.783290
 30
0.0
 10
244.654890
 20
129.331640
 30
0.0
 10
244.181058
 20
129.814383
 30
0.0
 10
243.614483
 20
130.216938
 30
0.0
 10
243.614483
 20
130.216938
 30
0.0
 10
242.981086
 20
130.506908
 30
0.0
 10
242.325010
 20
130.676192
 30
0.0
 10
241.661239
 20
130.728435
 30
0.0
 10
241.004757
 20
130.667687
 30
0.0
 10
240.369740
 20
130.497188
 30
0.0
 10
239.770767
 20
130.221393
 30
0.0
 10
239.223227
 20
129.843542
 30
0.0
 10
238.740889
 20
129.367684
 30
0.0
 10
238.339144
 20
128.797870
 30
0.0
 10
237.832912
 20
127.826310
 30
0.0
  0
LWPOLYLINE
  5
17e
100
AcDbEntity
  8
path
 62
1
100
AcDbPolyline
 90
3
 70
0
 10
97.762654
 20
180.058486
 30
0.0
 10
97.762654
 20
186.532176
 30
0.0
 10
96.323741
 20
185.092453
 30
0.0
  0
LWPOLYLINE
  5
17f
100
AcDbEntity
  8
path
 62
1
100
AcDbPolyline
 90
34
 70
0
 10
99.542564
 20
188.191401
 30
0.0
 10
96.344395
 20
188.191401
 30
0.0
 10
99.299573
 20
192.948764
 30
0.0
 10
99.299573
 20
192.948764
 30
0.0
 10
99.303218
 20
192.953219
 30
0.0
 10
99.306863
 20
192.957674
 30
0.0
 10
99.310103
 20
192.962129
 30
0.0
 10
99.313343
 20
192.966989
 30
0.0
 10
99.316178
 20
192.971443
 30
0.0
 10
99.319012
 20
192.976303
 30
0.0
 10
99.322252
 20
192.981568
 30
0.0
 10
99.325087
 20
192.987238
 30
0.0
 10
99.328327
 20
192.992908
 30
0.0
 10
99.328327
 20
192.992908
 30
0.0
 10
99.450228
 20
193.254933
 30
0.0
 10
99.521505
 20
193.526273
 30
0.0
 10
99.543779
 20
193.801258
 30
0.0
 10
99.518670
 20
194.073814
 30
0.0
 10
99.448608
 20
194.337459
 30
0.0
 10
99.334402
 20
194.585715
 30
0.0
 10
99.178078
 20
194.813317
 30
0.0
 10
98.981660
 20
195.013380
 30
0.0
 10
98.746363
 20
195.180639
 30
0.0
 10
98.746363
 20
195.180639
 30
0.0
 10
98.483933
 20
195.300514
 30
0.0
 10
98.211783
 20
195.370982
 30
0.0
 10
97.936392
 20
195.392446
 30
0.0
 10
97.664242
 20
195.367337
 30
0.0
 10
97.401002
 20
195.296464
 30
0.0
 10
97.152746
 20
195.182258
 30
0.0
 10
96.925549
 20
195.025529
 30
0.0
 10
96.725486
 20
194.828301
 30
0.0
 10
96.559037
 20
194.591790
 30
0.0
 10
96.348850
 20
194.189234
 30
0.0
  0
LWPOLYLINE
  5
180
100
AcDbEntity
  8
path
 62
1
100
AcDbPolyline
 90
45
 70
0
 10
96.342775
 20
196.688399
 30
0.0
 10
97.942062
 20
196.688399
 30
0.0
 10
97.942062
 20
196.688399
 30
0.0
 10
98.229602
 20
196.714318
 30
0.0
 10
98.500132
 20
196.788430
 30
0.0
 10
98.749198
 20
196.906686
 30
0.0
 10
98.972345
 20
197.064630
 30
0.0
 10
99.165118
 20
197.257403
 30
0.0
 10
99.322657
 20
197.480145
 30
0.0
 10
99.440913
 20
197.728806
 30
0.0
 10
99.515025
 20
197.998932
 30
0.0
 10
99.540944
 20
198.285256
 30
0.0
 10
99.540944
 20
199.085912
 30
0.0
 10
99.515025
 20
199.372237
 30
0.0
 10
99.440913
 20
199.641957
 30
0.0
 10
99.322657
 20
199.890618
 30
0.0
 10
99.165118
 20
200.113765
 30
0.0
 10
98.972345
 20
200.306538
 30
0.0
 10
98.749198
 20
200.464077
 30
0.0
 10
98.500132
 20
200.582738
 30
0.0
 10
98.229602
 20
200.657255
 30
0.0
 10
97.942062
 20
200.682770
 30
0.0
 10
97.141001
 20
200.682770
 30
0.0
 10
97.942062
 20
200.682770
 30
0.0
 10
97.942062
 20
200.682770
 30
0.0
 10
98.229602
 20
200.708689
 30
0.0
 10
98.500132
 20
200.783206
 30
0.0
 10
98.749198
 20
200.901462
 30
0.0
 10
98.972345
 20
201.059811
 30
0.0
 10
99.165118
 20
201.252584
 30
0.0
 10
99.322657
 20
201.476136
 30
0.0
 10
99.440913
 20
201.725607
 30
0.0
 10
99.515025
 20
201.996542
 30
0.0
 10
99.540944
 20
202.284487
 30
0.0
 10
99.540944
 20
202.284487
 30
0.0
 10
99.515025
 20
202.570811
 30
0.0
 10
99.440913
 20
202.840531
 30
0.0
 10
99.322657
 20
203.089192
 30
0.0
 10
99.165118
 20
203.311934
 30
0.0
 10
98.972345
 20
203.504707
 30
0.0
 10
98.749198
 20
203.662652
 30
0.0
 10
98.500132
 20
203.780907
 30
0.0
 10
98.229602
 20
203.855425
 30
0.0
 10
97.942062
 20
203.881344
 30
0.0
 10
96.342775
 20
203.881344
 30
0.0
  0
LWPOLYLINE
  5
181
100
AcDbEntity
  8
path
 62
1
100
AcDbPolyline
 90
3
 70
0
 10
99.928110
 20
206.785899
 30
0.0
 10
95.929690
 20
206.785899
 30
0.0
 10
97.526547
 20
212.386441
 30
0.0
  0
LWPOLYLINE
  5
182
100
AcDbEntity
  8
path
 62
1
100
AcDbPolyline
 90
2
 70
0
 10
98.729759
 20
205.184992
 30
0.0
 10
98.729759
 20
208.383161
 30
0.0
  0
LWPOLYLINE
  5
183
100
AcDbEntity
  8
path
 62
1
100
AcDbPolyline
 90
25
 70
0
 10
96.337105
 20
213.681584
 30
0.0
 10
97.935987
 20
213.681584
 30
0.0
 10
97.935987
 20
213.681584
 30
0.0
 10
98.223122
 20
213.707503
 30
0.0
 10
98.493247
 20
213.782021
 30
0.0
 10
98.742718
 20
213.900276
 30
0.0
 10
98.965865
 20
214.058221
 30
0.0
 10
99.158638
 20
214.251399
 30
0.0
 10
99.316583
 20
214.474951
 30
0.0
 10
99.434838
 20
214.724017
 30
0.0
 10
99.509356
 20
214.994952
 30
0.0
 10
99.535275
 20
215.282491
 30
0.0
 10
99.535275
 20
216.079098
 30
0.0
 10
99.509356
 20
216.367042
 30
0.0
 10
99.435243
 20
216.637167
 30
0.0
 10
99.316583
 20
216.886233
 30
0.0
 10
99.158638
 20
217.108975
 30
0.0
 10
98.965865
 20
217.301343
 30
0.0
 10
98.742718
 20
217.458478
 30
0.0
 10
98.493652
 20
217.576328
 30
0.0
 10
98.223122
 20
217.650441
 30
0.0
 10
97.935987
 20
217.676360
 30
0.0
 10
96.337105
 20
217.676360
 30
0.0
 10
96.337105
 20
220.883034
 30
0.0
 10
99.535275
 20
220.883034
 30
0.0
  0
LWPOLYLINE
  5
184
100
AcDbEntity
  8
path
 62
1
100
AcDbPolyline
 90
42
 70
0
 10
98.741908
 20
229.380031
 30
0.0
 10
98.741908
 20
229.380031
 30
0.0
 10
98.283870
 20
229.207913
 30
0.0
 10
97.863495
 20
228.976666
 30
0.0
 10
97.485239
 20
228.691556
 30
0.0
 10
97.153151
 20
228.358253
 30
0.0
 10
96.871686
 20
227.982427
 30
0.0
 10
96.645704
 20
227.570152
 30
0.0
 10
96.478445
 20
227.127503
 30
0.0
 10
96.375174
 20
226.659745
 30
0.0
 10
96.339940
 20
226.172952
 30
0.0
 10
96.339940
 20
223.779489
 30
0.0
 10
96.365454
 20
223.491949
 30
0.0
 10
96.439972
 20
223.221014
 30
0.0
 10
96.558632
 20
222.971543
 30
0.0
 10
96.716577
 20
222.747991
 30
0.0
 10
96.909350
 20
222.555218
 30
0.0
 10
97.132497
 20
222.397274
 30
0.0
 10
97.381563
 20
222.278613
 30
0.0
 10
97.652093
 20
222.204501
 30
0.0
 10
97.939227
 20
222.178582
 30
0.0
 10
97.939227
 20
222.178582
 30
0.0
 10
98.226767
 20
222.204501
 30
0.0
 10
98.497297
 20
222.278613
 30
0.0
 10
98.746363
 20
222.397274
 30
0.0
 10
98.969510
 20
222.555218
 30
0.0
 10
99.162283
 20
222.747991
 30
0.0
 10
99.319822
 20
222.971543
 30
0.0
 10
99.438483
 20
223.221014
 30
0.0
 10
99.512595
 20
223.491949
 30
0.0
 10
99.538110
 20
223.779489
 30
0.0
 10
99.538110
 20
224.576095
 30
0.0
 10
99.512595
 20
224.863635
 30
0.0
 10
99.438483
 20
225.134165
 30
0.0
 10
99.319822
 20
225.382826
 30
0.0
 10
99.162283
 20
225.605568
 30
0.0
 10
98.969510
 20
225.797936
 30
0.0
 10
98.746363
 20
225.955475
 30
0.0
 10
98.497297
 20
226.073326
 30
0.0
 10
98.226767
 20
226.147438
 30
0.0
 10
97.939227
 20
226.172952
 30
0.0
 10
96.339940
 20
226.172952
 30
0.0
  0
LWPOLYLINE
  5
185
100
AcDbEntity
  8
path
 62
1
100
AcDbPolyline
 90
2
 70
0
 10
96.139472
 20
221.278300
 30
0.0
 10
99.740197
 20
221.278300
 30
0.0
  0
LWPOLYLINE
  5
186
100
AcDbEntity
  8
path
 62
1
100
AcDbPolyline
 90
3
 70
0
 10
97.939227
 20
230.675175
 30
0.0
 10
99.540134
 20
237.876624
 30
0.0
 10
96.337510
 20
237.876624
 30
0.0
  0
LWPOLYLINE
  5
187
100
AcDbEntity
  8
path
 62
1
100
AcDbPolyline
 90
2
 70
0
 10
99.540134
 20
234.669950
 30
0.0
 10
97.939227
 20
234.669950
 30
0.0
  0
LWPOLYLINE
  5
188
100
AcDbEntity
  8
path
 62
1
100
AcDbPolyline
 90
43
 70
1
 10
95.587072
 20
240.972737
 30
0.0
 10
95.587072
 20
240.972737
 30
0.0
 10
95.610157
 20
240.714356
 30
0.0
 10
95.676979
 20
240.471365
 30
0.0
 10
95.783490
 20
240.247813
 30
0.0
 10
95.925235
 20
240.047751
 30
0.0
 10
96.098569
 20
239.874822
 30
0.0
 10
96.299037
 20
239.733482
 30
0.0
 10
96.522589
 20
239.627781
 30
0.0
 10
96.765580
 20
239.561363
 30
0.0
 10
97.023555
 20
239.538279
 30
0.0
 10
97.023555
 20
239.538279
 30
0.0
 10
97.281126
 20
239.561363
 30
0.0
 10
97.524117
 20
239.627781
 30
0.0
 10
97.747669
 20
239.733482
 30
0.0
 10
97.948542
 20
239.874822
 30
0.0
 10
98.121471
 20
240.047751
 30
0.0
 10
98.263621
 20
240.247813
 30
0.0
 10
98.369727
 20
240.471365
 30
0.0
 10
98.436954
 20
240.714356
 30
0.0
 10
98.460039
 20
240.972737
 30
0.0
 10
98.460039
 20
241.688346
 30
0.0
 10
98.436954
 20
241.946727
 30
0.0
 10
98.370132
 20
242.189718
 30
0.0
 10
98.263621
 20
242.414080
 30
0.0
 10
98.121876
 20
242.614548
 30
0.0
 10
97.948542
 20
242.787881
 30
0.0
 10
97.748074
 20
242.930031
 30
0.0
 10
97.524117
 20
243.036138
 30
0.0
 10
97.281126
 20
243.103365
 30
0.0
 10
97.023555
 20
243.126449
 30
0.0
 10
97.023555
 20
243.126449
 30
0.0
 10
96.765580
 20
243.103365
 30
0.0
 10
96.522589
 20
243.036138
 30
0.0
 10
96.299037
 20
242.929626
 30
0.0
 10
96.098164
 20
242.787881
 30
0.0
 10
95.925235
 20
242.614548
 30
0.0
 10
95.783490
 20
242.413675
 30
0.0
 10
95.676979
 20
242.189718
 30
0.0
 10
95.610157
 20
241.946727
 30
0.0
 10
95.587072
 20
241.688346
 30
0.0
 10
95.587072
 20
240.972737
 30
0.0
 10
95.587072
 20
240.972737
 30
0.0
  0
LWPOLYLINE
  5
189
100
AcDbEntity
  8
path
 62
1
100
AcDbPolyline
 90
42
 70
1
 10
98.460039
 20
244.564957
 30
0.0
 10
98.460039
 20
244.564957
 30
0.0
 10
98.436954
 20
244.822123
 30
0.0
 10
98.370132
 20
245.064304
 30
0.0
 10
98.263621
 20
245.287856
 30
0.0
 10
98.121876
 20
245.487919
 30
0.0
 10
97.948542
 20
245.661253
 30
0.0
 10
97.748074
 20
245.802997
 30
0.0
 10
97.524117
 20
245.909104
 30
0.0
 10
97.281126
 20
245.975926
 30
0.0
 10
97.023555
 20
245.999415
 30
0.0
 10
97.023555
 20
245.999415
 30
0.0
 10
96.765580
 20
245.975926
 30
0.0
 10
96.522589
 20
245.909104
 30
0.0
 10
96.299037
 20
245.802997
 30
0.0
 10
96.098164
 20
245.661253
 30
0.0
 10
95.925235
 20
245.487919
 30
0.0
 10
95.783490
 20
245.287856
 30
0.0
 10
95.676979
 20
245.064304
 30
0.0
 10
95.610157
 20
244.822123
 30
0.0
 10
95.587072
 20
244.564957
 30
0.0
 10
95.587072
 20
244.564957
 30
0.0
 10
95.610157
 20
244.306577
 30
0.0
 10
95.676979
 20
244.063180
 30
0.0
 10
95.783490
 20
243.839223
 30
0.0
 10
95.925235
 20
243.638351
 30
0.0
 10
96.098569
 20
243.465017
 30
0.0
 10
96.299037
 20
243.322867
 30
0.0
 10
96.522589
 20
243.216356
 30
0.0
 10
96.765580
 20
243.149533
 30
0.0
 10
97.023555
 20
243.126449
 30
0.0
 10
97.023555
 20
243.126449
 30
0.0
 10
97.281126
 20
243.149533
 30
0.0
 10
97.524117
 20
243.216356
 30
0.0
 10
97.747669
 20
243.322867
 30
0.0
 10
97.948542
 20
243.465017
 30
0.0
 10
98.121471
 20
243.638351
 30
0.0
 10
98.263621
 20
243.839223
 30
0.0
 10
98.369727
 20
244.063180
 30
0.0
 10
98.436954
 20
244.306577
 30
0.0
 10
98.460039
 20
244.564957
 30
0.0
 10
98.460039
 20
244.564957
 30
0.0
  0
LWPOLYLINE
  5
18a
100
AcDbEntity
  8
path
 62
1
100
AcDbPolyline
 90
42
 70
0
 10
92.165756
 20
248.051881
 30
0.0
 10
92.165756
 20
248.051881
 30
0.0
 10
92.345975
 20
248.119109
 30
0.0
 10
92.510804
 20
248.209825
 30
0.0
 10
92.659838
 20
248.321601
 30
0.0
 10
92.790244
 20
248.452817
 30
0.0
 10
92.900805
 20
248.600231
 30
0.0
 10
92.989901
 20
248.762225
 30
0.0
 10
93.055509
 20
248.935964
 30
0.0
 10
93.096413
 20
249.119827
 30
0.0
 10
93.110182
 20
249.310981
 30
0.0
 10
93.110182
 20
250.256216
 30
0.0
 10
93.100057
 20
250.369207
 30
0.0
 10
93.070898
 20
250.476123
 30
0.0
 10
93.024325
 20
250.574130
 30
0.0
 10
92.962362
 20
250.662012
 30
0.0
 10
92.886225
 20
250.738149
 30
0.0
 10
92.798748
 20
250.800517
 30
0.0
 10
92.700337
 20
250.847090
 30
0.0
 10
92.594231
 20
250.876249
 30
0.0
 10
92.480835
 20
250.886374
 30
0.0
 10
92.480835
 20
250.886374
 30
0.0
 10
92.367844
 20
250.876249
 30
0.0
 10
92.261333
 20
250.847090
 30
0.0
 10
92.163326
 20
250.800517
 30
0.0
 10
92.075444
 20
250.738149
 30
0.0
 10
91.999712
 20
250.662012
 30
0.0
 10
91.937344
 20
250.574130
 30
0.0
 10
91.890771
 20
250.476123
 30
0.0
 10
91.861612
 20
250.369207
 30
0.0
 10
91.851488
 20
250.256216
 30
0.0
 10
91.851488
 20
249.941138
 30
0.0
 10
91.861612
 20
249.827742
 30
0.0
 10
91.890771
 20
249.721231
 30
0.0
 10
91.937344
 20
249.622819
 30
0.0
 10
91.999712
 20
249.534937
 30
0.0
 10
92.075444
 20
249.459205
 30
0.0
 10
92.163326
 20
249.396837
 30
0.0
 10
92.261333
 20
249.350264
 30
0.0
 10
92.367844
 20
249.321105
 30
0.0
 10
92.480835
 20
249.310981
 30
0.0
 10
93.110182
 20
249.310981
 30
0.0
  0
LWPOLYLINE
  5
18b
100
AcDbEntity
  8
path
 62
1
100
AcDbPolyline
 90
2
 70
0
 10
91.772515
 20
247.697519
 30
0.0
 10
93.189964
 20
247.697519
 30
0.0
  0
LWPOLYLINE
  5
18c
100
AcDbEntity
  8
path
 62
1
100
AcDbPolyline
 90
3
 70
0
 10
105.715756
 20
206.074744
 30
0.0
 10
101.764314
 20
200.359186
 30
0.0
 10
97.812062
 20
206.074744
 30
0.0
  0
LWPOLYLINE
  5
18d
100
AcDbEntity
  8
path
 62
1
100
AcDbPolyline
 90
2
 70
0
 10
101.764314
 20
200.819250
 30
0.0
 10
101.764314
 20
194.226088
 30
0.0
  0
LWPOLYLINE
  5
18e
100
AcDbEntity
  8
path
 62
1
100
AcDbPolyline
 90
2
 70
0
 10
116.638616
 20
200.150214
 30
0.0
 10
110.160470
 20
200.150214
 30
0.0
  0
LWPOLYLINE
  5
18f
100
AcDbEntity
  8
path
 62
1
100
AcDbPolyline
 90
45
 70
0
 10
121.080495
 20
194.226493
 30
0.0
 10
123.711685
 20
194.226493
 30
0.0
 10
123.711685
 20
194.226493
 30
0.0
 10
124.184708
 20
194.269016
 30
0.0
 10
124.630192
 20
194.391322
 30
0.0
 10
125.040037
 20
194.586120
 30
0.0
 10
125.407359
 20
194.845716
 30
0.0
 10
125.724057
 20
195.162414
 30
0.0
 10
125.983653
 20
195.529331
 30
0.0
 10
126.178046
 20
195.938366
 30
0.0
 10
126.300352
 20
196.382635
 30
0.0
 10
126.342470
 20
196.854038
 30
0.0
 10
126.342470
 20
198.171050
 30
0.0
 10
126.300352
 20
198.642453
 30
0.0
 10
126.178046
 20
199.086317
 30
0.0
 10
125.983653
 20
199.495352
 30
0.0
 10
125.724057
 20
199.862269
 30
0.0
 10
125.407359
 20
200.179373
 30
0.0
 10
125.040037
 20
200.438968
 30
0.0
 10
124.630192
 20
200.633766
 30
0.0
 10
124.184708
 20
200.756072
 30
0.0
 10
123.711685
 20
200.798595
 30
0.0
 10
122.394268
 20
200.798595
 30
0.0
 10
123.711685
 20
200.798595
 30
0.0
 10
123.711685
 20
200.798595
 30
0.0
 10
124.184708
 20
200.841119
 30
0.0
 10
124.630192
 20
200.963424
 30
0.0
 10
125.040037
 20
201.158627
 30
0.0
 10
125.407359
 20
201.418628
 30
0.0
 10
125.724057
 20
201.736136
 30
0.0
 10
125.983653
 20
202.103863
 30
0.0
 10
126.178046
 20
202.514518
 30
0.0
 10
126.300352
 20
202.960002
 30
0.0
 10
126.342470
 20
203.433430
 30
0.0
 10
126.342470
 20
203.433430
 30
0.0
 10
126.300352
 20
203.904428
 30
0.0
 10
126.178046
 20
204.348292
 30
0.0
 10
125.983653
 20
204.757327
 30
0.0
 10
125.724057
 20
205.124244
 30
0.0
 10
125.407359
 20
205.441347
 30
0.0
 10
125.040037
 20
205.700943
 30
0.0
 10
124.630192
 20
205.895741
 30
0.0
 10
124.184708
 20
206.018047
 30
0.0
 10
123.711685
 20
206.060570
 30
0.0
 10
121.080495
 20
206.060570
 30
0.0
  0
LWPOLYLINE
  5
190
100
AcDbEntity
  8
path
 62
1
100
AcDbPolyline
 90
3
 70
0
 10
262.801879
 20
180.058486
 30
0.0
 10
262.801879
 20
186.532176
 30
0.0
 10
261.362966
 20
185.092453
 30
0.0
  0
LWPOLYLINE
  5
191
100
AcDbEntity
  8
path
 62
1
100
AcDbPolyline
 90
34
 70
0
 10
264.581385
 20
188.191401
 30
0.0
 10
261.383215
 20
188.191401
 30
0.0
 10
264.338393
 20
192.948764
 30
0.0
 10
264.338393
 20
192.948764
 30
0.0
 10
264.342038
 20
192.953219
 30
0.0
 10
264.345278
 20
192.957674
 30
0.0
 10
264.348518
 20
192.962129
 30
0.0
 10
264.351758
 20
192.966989
 30
0.0
 10
264.354998
 20
192.971443
 30
0.0
 10
264.357833
 20
192.976303
 30
0.0
 10
264.361073
 20
192.981568
 30
0.0
 10
264.363908
 20
192.987238
 30
0.0
 10
264.366742
 20
192.992908
 30
0.0
 10
264.366742
 20
192.992908
 30
0.0
 10
264.489048
 20
193.254528
 30
0.0
 10
264.560325
 20
193.526273
 30
0.0
 10
264.582600
 20
193.801258
 30
0.0
 10
264.557491
 20
194.073814
 30
0.0
 10
264.487023
 20
194.337459
 30
0.0
 10
264.372817
 20
194.585715
 30
0.0
 10
264.216898
 20
194.813317
 30
0.0
 10
264.020075
 20
195.013380
 30
0.0
 10
263.785183
 20
195.180639
 30
0.0
 10
263.785183
 20
195.180639
 30
0.0
 10
263.522348
 20
195.300514
 30
0.0
 10
263.250603
 20
195.370982
 30
0.0
 10
262.975213
 20
195.392446
 30
0.0
 10
262.703063
 20
195.367337
 30
0.0
 10
262.439822
 20
195.296464
 30
0.0
 10
262.191161
 20
195.182258
 30
0.0
 10
261.963964
 20
195.025529
 30
0.0
 10
261.764307
 20
194.828301
 30
0.0
 10
261.597453
 20
194.591790
 30
0.0
 10
261.387670
 20
194.189234
 30
0.0
  0
LWPOLYLINE
  5
192
100
AcDbEntity
  8
path
 62
1
100
AcDbPolyline
 90
45
 70
0
 10
261.366611
 20
196.688399
 30
0.0
 10
262.965898
 20
196.688399
 30
0.0
 10
262.965898
 20
196.688399
 30
0.0
 10
263.253438
 20
196.714318
 30
0.0
 10
263.524373
 20
196.788430
 30
0.0
 10
263.773439
 20
196.906686
 30
0.0
 10
263.996586
 20
197.064630
 30
0.0
 10
264.189359
 20
197.257403
 30
0.0
 10
264.346898
 20
197.480145
 30
0.0
 10
264.465154
 20
197.728806
 30
0.0
 10
264.539266
 20
197.998932
 30
0.0
 10
264.565185
 20
198.285256
 30
0.0
 10
264.565185
 20
199.085912
 30
0.0
 10
264.539266
 20
199.372237
 30
0.0
 10
264.465154
 20
199.641957
 30
0.0
 10
264.346898
 20
199.890618
 30
0.0
 10
264.189359
 20
200.113765
 30
0.0
 10
263.996586
 20
200.306538
 30
0.0
 10
263.773439
 20
200.464077
 30
0.0
 10
263.524373
 20
200.582738
 30
0.0
 10
263.253438
 20
200.657255
 30
0.0
 10
262.965898
 20
200.682770
 30
0.0
 10
262.165242
 20
200.682770
 30
0.0
 10
262.965898
 20
200.682770
 30
0.0
 10
262.965898
 20
200.682770
 30
0.0
 10
263.253438
 20
200.708689
 30
0.0
 10
263.524373
 20
200.783206
 30
0.0
 10
263.773439
 20
200.901462
 30
0.0
 10
263.996586
 20
201.059811
 30
0.0
 10
264.189359
 20
201.252584
 30
0.0
 10
264.346898
 20
201.476136
 30
0.0
 10
264.465154
 20
201.725607
 30
0.0
 10
264.539266
 20
201.996542
 30
0.0
 10
264.565185
 20
202.284487
 30
0.0
 10
264.565185
 20
202.284487
 30
0.0
 10
264.539266
 20
202.570811
 30
0.0
 10
264.465154
 20
202.840531
 30
0.0
 10
264.346898
 20
203.089192
 30
0.0
 10
264.189359
 20
203.311934
 30
0.0
 10
263.996586
 20
203.504707
 30
0.0
 10
263.773439
 20
203.662652
 30
0.0
 10
263.524373
 20
203.780907
 30
0.0
 10
263.253438
 20
203.855425
 30
0.0
 10
262.965898
 20
203.881344
 30
0.0
 10
261.366611
 20
203.881344
 30
0.0
  0
LWPOLYLINE
  5
193
100
AcDbEntity
  8
path
 62
1
100
AcDbPolyline
 90
3
 70
0
 10
264.975435
 20
206.785899
 30
0.0
 10
260.977015
 20
206.785899
 30
0.0
 10
262.573872
 20
212.386441
 30
0.0
  0
LWPOLYLINE
  5
194
100
AcDbEntity
  8
path
 62
1
100
AcDbPolyline
 90
2
 70
0
 10
263.776679
 20
205.184992
 30
0.0
 10
263.776679
 20
208.383161
 30
0.0
  0
LWPOLYLINE
  5
195
100
AcDbEntity
  8
path
 62
1
100
AcDbPolyline
 90
25
 70
0
 10
261.387670
 20
213.681584
 30
0.0
 10
262.986957
 20
213.681584
 30
0.0
 10
262.986957
 20
213.681584
 30
0.0
 10
263.273687
 20
213.707503
 30
0.0
 10
263.544217
 20
213.782021
 30
0.0
 10
263.793283
 20
213.900276
 30
0.0
 10
264.016430
 20
214.058221
 30
0.0
 10
264.209608
 20
214.251399
 30
0.0
 10
264.367147
 20
214.474951
 30
0.0
 10
264.485808
 20
214.724017
 30
0.0
 10
264.560325
 20
214.994952
 30
0.0
 10
264.585839
 20
215.282491
 30
0.0
 10
264.585839
 20
216.079098
 30
0.0
 10
264.560325
 20
216.367042
 30
0.0
 10
264.485808
 20
216.637167
 30
0.0
 10
264.367552
 20
216.886233
 30
0.0
 10
264.209608
 20
217.108975
 30
0.0
 10
264.016430
 20
217.301343
 30
0.0
 10
263.793283
 20
217.458478
 30
0.0
 10
263.544217
 20
217.576328
 30
0.0
 10
263.274092
 20
217.650441
 30
0.0
 10
262.986957
 20
217.676360
 30
0.0
 10
261.387670
 20
217.676360
 30
0.0
 10
261.387670
 20
220.883034
 30
0.0
 10
264.585839
 20
220.883034
 30
0.0
  0
LWPOLYLINE
  5
196
100
AcDbEntity
  8
path
 62
1
100
AcDbPolyline
 90
42
 70
0
 10
263.781134
 20
229.380031
 30
0.0
 10
263.781134
 20
229.380031
 30
0.0
 10
263.323095
 20
229.207913
 30
0.0
 10
262.902720
 20
228.976666
 30
0.0
 10
262.524464
 20
228.691556
 30
0.0
 10
262.192376
 20
228.358253
 30
0.0
 10
261.911316
 20
227.982427
 30
0.0
 10
261.684929
 20
227.570152
 30
0.0
 10
261.517670
 20
227.127503
 30
0.0
 10
261.414399
 20
226.659745
 30
0.0
 10
261.379165
 20
226.172952
 30
0.0
 10
261.379165
 20
223.779489
 30
0.0
 10
261.405085
 20
223.491949
 30
0.0
 10
261.479602
 20
223.221014
 30
0.0
 10
261.597858
 20
222.971543
 30
0.0
 10
261.755802
 20
222.747991
 30
0.0
 10
261.948575
 20
222.555218
 30
0.0
 10
262.171722
 20
222.397274
 30
0.0
 10
262.421193
 20
222.278613
 30
0.0
 10
262.691318
 20
222.204501
 30
0.0
 10
262.978453
 20
222.178582
 30
0.0
 10
262.978453
 20
222.178582
 30
0.0
 10
263.265992
 20
222.204501
 30
0.0
 10
263.536522
 20
222.278613
 30
0.0
 10
263.785588
 20
222.397274
 30
0.0
 10
264.008735
 20
222.555218
 30
0.0
 10
264.201508
 20
222.747991
 30
0.0
 10
264.359453
 20
222.971543
 30
0.0
 10
264.477303
 20
223.221014
 30
0.0
 10
264.551821
 20
223.491949
 30
0.0
 10
264.577335
 20
223.779489
 30
0.0
 10
264.577335
 20
224.576095
 30
0.0
 10
264.551821
 20
224.863635
 30
0.0
 10
264.477303
 20
225.134165
 30
0.0
 10
264.359453
 20
225.382826
 30
0.0
 10
264.201508
 20
225.605568
 30
0.0
 10
264.008735
 20
225.797936
 30
0.0
 10
263.785588
 20
225.955475
 30
0.0
 10
263.536522
 20
226.073326
 30
0.0
 10
263.265992
 20
226.147438
 30
0.0
 10
262.978453
 20
226.172952
 30
0.0
 10
261.379165
 20
226.172952
 30
0.0
  0
LWPOLYLINE
  5
197
100
AcDbEntity
  8
path
 62
1
100
AcDbPolyline
 90
2
 70
0
 10
261.178698
 20
221.278300
 30
0.0
 10
264.779422
 20
221.278300
 30
0.0
  0
LWPOLYLINE
  5
198
100
AcDbEntity
  8
path
 62
1
100
AcDbPolyline
 90
3
 70
0
 10
261.150754
 20
231.406578
 30
0.0
 10
262.426458
 20
237.145626
 30
0.0
 10
259.874645
 20
237.145626
 30
0.0
  0
LWPOLYLINE
  5
199
100
AcDbEntity
  8
path
 62
1
100
AcDbPolyline
 90
2
 70
0
 10
262.426458
 20
234.589763
 30
0.0
 10
261.150754
 20
234.589763
 30
0.0
  0
LWPOLYLINE
  5
19a
100
AcDbEntity
  8
path
 62
1
100
AcDbPolyline
 90
3
 70
0
 10
274.547264
 20
202.045140
 30
0.0
 10
270.724607
 20
196.515875
 30
0.0
 10
266.901141
 20
202.045140
 30
0.0
  0
LWPOLYLINE
  5
19b
100
AcDbEntity
  8
path
 62
1
100
AcDbPolyline
 90
2
 70
0
 10
270.724607
 20
196.960549
 30
0.0
 10
270.724607
 20
190.581625
 30
0.0
  0
LWPOLYLINE
  5
19c
100
AcDbEntity
  8
path
 62
1
100
AcDbPolyline
 90
2
 70
0
 10
285.114952
 20
196.313383
 30
0.0
 10
278.846994
 20
196.313383
 30
0.0
  0
LWPOLYLINE
  5
19d
100
AcDbEntity
  8
path
 62
1
100
AcDbPolyline
 90
3
 70
0
 10
295.776596
 20
193.130198
 30
0.0
 10
289.412251
 20
193.130198
 30
0.0
 10
291.953940
 20
202.044735
 30
0.0
  0
LWPOLYLINE
  5
19e
100
AcDbEntity
  8
path
 62
1
100
AcDbPolyline
 90
2
 70
0
 10
293.869115
 20
190.582030
 30
0.0
 10
293.869115
 20
195.673101
 30
0.0
  0
LWPOLYLINE
  5
19f
100
AcDbEntity
  8
path
 62
1
100
AcDbPolyline
 90
3
 70
0
 10
367.298629
 20
180.058486
 30
0.0
 10
367.298629
 20
186.532176
 30
0.0
 10
365.859311
 20
185.092453
 30
0.0
  0
LWPOLYLINE
  5
1a0
100
AcDbEntity
  8
path
 62
1
100
AcDbPolyline
 90
34
 70
0
 10
367.268255
 20
188.191401
 30
0.0
 10
364.070086
 20
188.191401
 30
0.0
 10
367.025264
 20
192.948764
 30
0.0
 10
367.025264
 20
192.948764
 30
0.0
 10
367.028909
 20
192.953219
 30
0.0
 10
367.032149
 20
192.957674
 30
0.0
 10
367.035389
 20
192.962129
 30
0.0
 10
367.038629
 20
192.966989
 30
0.0
 10
367.041868
 20
192.971443
 30
0.0
 10
367.044703
 20
192.976303
 30
0.0
 10
367.047943
 20
192.981568
 30
0.0
 10
367.050778
 20
192.987238
 30
0.0
 10
367.053613
 20
192.992908
 30
0.0
 10
367.053613
 20
192.992908
 30
0.0
 10
367.175919
 20
193.254528
 30
0.0
 10
367.247196
 20
193.526273
 30
0.0
 10
367.269470
 20
193.801258
 30
0.0
 10
367.244361
 20
194.073814
 30
0.0
 10
367.173894
 20
194.337459
 30
0.0
 10
367.059688
 20
194.585715
 30
0.0
 10
366.903768
 20
194.813317
 30
0.0
 10
366.706946
 20
195.013380
 30
0.0
 10
366.472054
 20
195.180639
 30
0.0
 10
366.472054
 20
195.180639
 30
0.0
 10
366.209624
 20
195.300514
 30
0.0
 10
365.937473
 20
195.370982
 30
0.0
 10
365.662083
 20
195.392446
 30
0.0
 10
365.389933
 20
195.367337
 30
0.0
 10
365.126693
 20
195.296464
 30
0.0
 10
364.878032
 20
195.182258
 30
0.0
 10
364.650835
 20
195.025529
 30
0.0
 10
364.451177
 20
194.828301
 30
0.0
 10
364.284323
 20
194.591790
 30
0.0
 10
364.074541
 20
194.188829
 30
0.0
  0
LWPOLYLINE
  5
1a1
100
AcDbEntity
  8
path
 62
1
100
AcDbPolyline
 90
45
 70
0
 10
364.070086
 20
196.688399
 30
0.0
 10
365.669373
 20
196.688399
 30
0.0
 10
365.669373
 20
196.688399
 30
0.0
 10
365.956913
 20
196.713913
 30
0.0
 10
366.227443
 20
196.788430
 30
0.0
 10
366.476509
 20
196.906686
 30
0.0
 10
366.699656
 20
197.064630
 30
0.0
 10
366.892429
 20
197.257403
 30
0.0
 10
367.049968
 20
197.480145
 30
0.0
 10
367.168224
 20
197.728806
 30
0.0
 10
367.242741
 20
197.998932
 30
0.0
 10
367.268255
 20
198.285256
 30
0.0
 10
367.268255
 20
199.085912
 30
0.0
 10
367.242741
 20
199.372237
 30
0.0
 10
367.168224
 20
199.641957
 30
0.0
 10
367.049968
 20
199.890618
 30
0.0
 10
366.892429
 20
200.113765
 30
0.0
 10
366.699656
 20
200.306538
 30
0.0
 10
366.476509
 20
200.464077
 30
0.0
 10
366.227443
 20
200.582738
 30
0.0
 10
365.956913
 20
200.656850
 30
0.0
 10
365.669373
 20
200.682770
 30
0.0
 10
364.868312
 20
200.682770
 30
0.0
 10
365.669373
 20
200.682770
 30
0.0
 10
365.669373
 20
200.682770
 30
0.0
 10
365.956913
 20
200.708689
 30
0.0
 10
366.227443
 20
200.783206
 30
0.0
 10
366.476509
 20
200.901462
 30
0.0
 10
366.699656
 20
201.059811
 30
0.0
 10
366.892429
 20
201.252584
 30
0.0
 10
367.049968
 20
201.476136
 30
0.0
 10
367.168224
 20
201.725607
 30
0.0
 10
367.242741
 20
201.996542
 30
0.0
 10
367.268255
 20
202.284082
 30
0.0
 10
367.268255
 20
202.284082
 30
0.0
 10
367.242741
 20
202.570811
 30
0.0
 10
367.168224
 20
202.840531
 30
0.0
 10
367.049968
 20
203.089192
 30
0.0
 10
366.892429
 20
203.311934
 30
0.0
 10
366.699656
 20
203.504707
 30
0.0
 10
366.476509
 20
203.662652
 30
0.0
 10
366.227443
 20
203.780907
 30
0.0
 10
365.956913
 20
203.855425
 30
0.0
 10
365.669373
 20
203.881344
 30
0.0
 10
364.070086
 20
203.881344
 30
0.0
  0
LWPOLYLINE
  5
1a2
100
AcDbEntity
  8
path
 62
1
100
AcDbPolyline
 90
3
 70
0
 10
367.668381
 20
206.785899
 30
0.0
 10
363.669960
 20
206.785899
 30
0.0
 10
365.266818
 20
212.386441
 30
0.0
  0
LWPOLYLINE
  5
1a3
100
AcDbEntity
  8
path
 62
1
100
AcDbPolyline
 90
2
 70
0
 10
366.469624
 20
205.184992
 30
0.0
 10
366.469624
 20
208.383161
 30
0.0
  0
LWPOLYLINE
  5
1a4
100
AcDbEntity
  8
path
 62
1
100
AcDbPolyline
 90
25
 70
0
 10
373.967118
 20
217.042963
 30
0.0
 10
374.073224
 20
217.042963
 30
0.0
 10
374.073224
 20
217.042963
 30
0.0
 10
374.092258
 20
217.044583
 30
0.0
 10
374.110483
 20
217.049847
 30
0.0
 10
374.127087
 20
217.057542
 30
0.0
 10
374.141667
 20
217.068072
 30
0.0
 10
374.154626
 20
217.080626
 30
0.0
 10
374.165156
 20
217.095611
 30
0.0
 10
374.173256
 20
217.112215
 30
0.0
 10
374.178115
 20
217.130440
 30
0.0
 10
374.179735
 20
217.149474
 30
0.0
 10
374.179735
 20
217.202122
 30
0.0
 10
374.178115
 20
217.221561
 30
0.0
 10
374.173256
 20
217.239381
 30
0.0
 10
374.165156
 20
217.255985
 30
0.0
 10
374.154626
 20
217.270969
 30
0.0
 10
374.142072
 20
217.283524
 30
0.0
 10
374.127087
 20
217.294054
 30
0.0
 10
374.110483
 20
217.301748
 30
0.0
 10
374.092258
 20
217.306608
 30
0.0
 10
374.073224
 20
217.308633
 30
0.0
 10
373.967118
 20
217.308633
 30
0.0
 10
373.967118
 20
217.521655
 30
0.0
 10
374.179735
 20
217.521655
 30
0.0
  0
LWPOLYLINE
  5
1a5
100
AcDbEntity
  8
path
 62
1
100
AcDbPolyline
 90
4
 70
0
 10
354.402681
 20
187.984859
 30
0.0
 10
349.853480
 20
187.984859
 30
0.0
 10
354.402681
 20
196.177307
 30
0.0
 10
349.853480
 20
196.177307
 30
0.0
  0
LWPOLYLINE
  5
1a6
100
AcDbEntity
  8
path
 62
1
100
AcDbPolyline
 90
2
 70
0
 10
361.955252
 20
192.080881
 30
0.0
 10
357.475709
 20
192.080881
 30
0.0
  0
LWPOLYLINE
  5
1a7
100
AcDbEntity
  8
path
 62
1
100
AcDbPolyline
 90
3
 70
0
 10
366.848690
 20
187.984859
 30
0.0
 10
368.669910
 20
196.177307
 30
0.0
 10
365.026661
 20
196.177307
 30
0.0
  0
LWPOLYLINE
  5
1a8
100
AcDbEntity
  8
path
 62
1
100
AcDbPolyline
 90
2
 70
0
 10
368.669910
 20
192.529199
 30
0.0
 10
366.848690
 20
192.529199
 30
0.0
  0
LWPOLYLINE
  5
1a9
100
AcDbEntity
  8
path
 62
1
100
AcDbPolyline
 90
3
 70
0
 10
64.244446
 20
256.294953
 30
0.0
 10
64.244446
 20
262.768644
 30
0.0
 10
62.805128
 20
261.328921
 30
0.0
  0
LWPOLYLINE
  5
1aa
100
AcDbEntity
  8
path
 62
1
100
AcDbPolyline
 90
34
 70
0
 10
64.205163
 20
264.427869
 30
0.0
 10
61.006588
 20
264.427869
 30
0.0
 10
63.962171
 20
269.185637
 30
0.0
 10
63.962171
 20
269.185637
 30
0.0
 10
63.965411
 20
269.189686
 30
0.0
 10
63.969056
 20
269.194141
 30
0.0
 10
63.972296
 20
269.198596
 30
0.0
 10
63.975536
 20
269.203456
 30
0.0
 10
63.978371
 20
269.208316
 30
0.0
 10
63.981611
 20
269.213176
 30
0.0
 10
63.984446
 20
269.218035
 30
0.0
 10
63.987685
 20
269.223300
 30
0.0
 10
63.990520
 20
269.229375
 30
0.0
 10
63.990520
 20
269.229375
 30
0.0
 10
64.112421
 20
269.491401
 30
0.0
 10
64.183698
 20
269.762741
 30
0.0
 10
64.205973
 20
270.037726
 30
0.0
 10
64.181268
 20
270.310281
 30
0.0
 10
64.110801
 20
270.573521
 30
0.0
 10
63.996595
 20
270.822182
 30
0.0
 10
63.840271
 20
271.049784
 30
0.0
 10
63.643853
 20
271.249847
 30
0.0
 10
63.408961
 20
271.416701
 30
0.0
 10
63.408961
 20
271.416701
 30
0.0
 10
63.146126
 20
271.536982
 30
0.0
 10
62.873976
 20
271.607449
 30
0.0
 10
62.598991
 20
271.628913
 30
0.0
 10
62.326436
 20
271.603804
 30
0.0
 10
62.063195
 20
271.532932
 30
0.0
 10
61.814939
 20
271.418726
 30
0.0
 10
61.587742
 20
271.261997
 30
0.0
 10
61.387680
 20
271.064769
 30
0.0
 10
61.221231
 20
270.828257
 30
0.0
 10
61.011043
 20
270.425702
 30
0.0
  0
LWPOLYLINE
  5
1ab
100
AcDbEntity
  8
path
 62
1
100
AcDbPolyline
 90
45
 70
0
 10
60.998894
 20
272.924866
 30
0.0
 10
62.597776
 20
272.924866
 30
0.0
 10
62.597776
 20
272.924866
 30
0.0
 10
62.885720
 20
272.950785
 30
0.0
 10
63.156251
 20
273.024898
 30
0.0
 10
63.405317
 20
273.143153
 30
0.0
 10
63.628463
 20
273.301098
 30
0.0
 10
63.821236
 20
273.493871
 30
0.0
 10
63.979181
 20
273.716613
 30
0.0
 10
64.097032
 20
273.965274
 30
0.0
 10
64.171549
 20
274.234994
 30
0.0
 10
64.197063
 20
274.521724
 30
0.0
 10
64.197063
 20
275.322380
 30
0.0
 10
64.171549
 20
275.608704
 30
0.0
 10
64.097032
 20
275.878425
 30
0.0
 10
63.979181
 20
276.127086
 30
0.0
 10
63.821236
 20
276.350232
 30
0.0
 10
63.628463
 20
276.542601
 30
0.0
 10
63.405317
 20
276.700545
 30
0.0
 10
63.156251
 20
276.819206
 30
0.0
 10
62.885720
 20
276.893723
 30
0.0
 10
62.597776
 20
276.919237
 30
0.0
 10
61.797120
 20
276.919237
 30
0.0
 10
62.597776
 20
276.919237
 30
0.0
 10
62.597776
 20
276.919237
 30
0.0
 10
62.885720
 20
276.945156
 30
0.0
 10
63.156251
 20
277.019673
 30
0.0
 10
63.405317
 20
277.137929
 30
0.0
 10
63.628463
 20
277.296278
 30
0.0
 10
63.821236
 20
277.489051
 30
0.0
 10
63.979181
 20
277.712603
 30
0.0
 10
64.097032
 20
277.962074
 30
0.0
 10
64.171549
 20
278.233009
 30
0.0
 10
64.197063
 20
278.520549
 30
0.0
 10
64.197063
 20
278.520549
 30
0.0
 10
64.171549
 20
278.807279
 30
0.0
 10
64.097032
 20
279.076999
 30
0.0
 10
63.979181
 20
279.325660
 30
0.0
 10
63.821236
 20
279.548402
 30
0.0
 10
63.628463
 20
279.741175
 30
0.0
 10
63.405317
 20
279.899119
 30
0.0
 10
63.156251
 20
280.017375
 30
0.0
 10
62.885720
 20
280.091892
 30
0.0
 10
62.597776
 20
280.117406
 30
0.0
 10
60.998894
 20
280.117406
 30
0.0
  0
LWPOLYLINE
  5
1ac
100
AcDbEntity
  8
path
 62
1
100
AcDbPolyline
 90
3
 70
0
 10
64.582204
 20
283.022366
 30
0.0
 10
60.583784
 20
283.022366
 30
0.0
 10
62.180641
 20
288.622909
 30
0.0
  0
LWPOLYLINE
  5
1ad
100
AcDbEntity
  8
path
 62
1
100
AcDbPolyline
 90
2
 70
0
 10
63.383447
 20
281.421459
 30
0.0
 10
63.383447
 20
284.619628
 30
0.0
  0
LWPOLYLINE
  5
1ae
100
AcDbEntity
  8
path
 62
1
100
AcDbPolyline
 90
25
 70
0
 10
60.999299
 20
289.918052
 30
0.0
 10
62.598586
 20
289.918052
 30
0.0
 10
62.598586
 20
289.918052
 30
0.0
 10
62.885720
 20
289.943971
 30
0.0
 10
63.155846
 20
290.018488
 30
0.0
 10
63.404912
 20
290.136744
 30
0.0
 10
63.628058
 20
290.294688
 30
0.0
 10
63.820831
 20
290.487866
 30
0.0
 10
63.979181
 20
290.711418
 30
0.0
 10
64.097436
 20
290.960484
 30
0.0
 10
64.171954
 20
291.231419
 30
0.0
 10
64.197468
 20
291.518959
 30
0.0
 10
64.197468
 20
292.315565
 30
0.0
 10
64.171954
 20
292.603510
 30
0.0
 10
64.097436
 20
292.873635
 30
0.0
 10
63.979181
 20
293.122701
 30
0.0
 10
63.821236
 20
293.345443
 30
0.0
 10
63.628463
 20
293.537811
 30
0.0
 10
63.404912
 20
293.694945
 30
0.0
 10
63.155846
 20
293.812796
 30
0.0
 10
62.885720
 20
293.886908
 30
0.0
 10
62.598586
 20
293.912422
 30
0.0
 10
60.999299
 20
293.912422
 30
0.0
 10
60.999299
 20
297.119501
 30
0.0
 10
64.197468
 20
297.119501
 30
0.0
  0
LWPOLYLINE
  5
1af
100
AcDbEntity
  8
path
 62
1
100
AcDbPolyline
 90
42
 70
0
 10
63.381827
 20
305.616499
 30
0.0
 10
63.381827
 20
305.616499
 30
0.0
 10
62.923789
 20
305.444380
 30
0.0
 10
62.503414
 20
305.213133
 30
0.0
 10
62.125158
 20
304.928024
 30
0.0
 10
61.793070
 20
304.594316
 30
0.0
 10
61.511605
 20
304.218894
 30
0.0
 10
61.285623
 20
303.806619
 30
0.0
 10
61.118364
 20
303.363970
 30
0.0
 10
61.015093
 20
302.896212
 30
0.0
 10
60.979859
 20
302.409420
 30
0.0
 10
60.979859
 20
300.015956
 30
0.0
 10
61.005373
 20
299.728012
 30
0.0
 10
61.079891
 20
299.457482
 30
0.0
 10
61.198551
 20
299.208011
 30
0.0
 10
61.356496
 20
298.984459
 30
0.0
 10
61.549269
 20
298.791686
 30
0.0
 10
61.772416
 20
298.633336
 30
0.0
 10
62.021482
 20
298.515081
 30
0.0
 10
62.292012
 20
298.440563
 30
0.0
 10
62.578741
 20
298.415049
 30
0.0
 10
62.578741
 20
298.415049
 30
0.0
 10
62.866686
 20
298.440563
 30
0.0
 10
63.137216
 20
298.515081
 30
0.0
 10
63.386282
 20
298.633336
 30
0.0
 10
63.609429
 20
298.791686
 30
0.0
 10
63.802202
 20
298.984459
 30
0.0
 10
63.959741
 20
299.208011
 30
0.0
 10
64.077997
 20
299.457482
 30
0.0
 10
64.152514
 20
299.728012
 30
0.0
 10
64.178029
 20
300.015956
 30
0.0
 10
64.178029
 20
300.812563
 30
0.0
 10
64.152514
 20
301.100102
 30
0.0
 10
64.077997
 20
301.370632
 30
0.0
 10
63.959741
 20
301.619293
 30
0.0
 10
63.802202
 20
301.842035
 30
0.0
 10
63.609429
 20
302.034403
 30
0.0
 10
63.386282
 20
302.191943
 30
0.0
 10
63.137216
 20
302.309793
 30
0.0
 10
62.866686
 20
302.383906
 30
0.0
 10
62.578741
 20
302.409420
 30
0.0
 10
60.979859
 20
302.409420
 30
0.0
  0
LWPOLYLINE
  5
1b0
100
AcDbEntity
  8
path
 62
1
100
AcDbPolyline
 90
2
 70
0
 10
60.779392
 20
297.514767
 30
0.0
 10
64.380116
 20
297.514767
 30
0.0
  0
LWPOLYLINE
  5
1b1
100
AcDbEntity
  8
path
 62
1
100
AcDbPolyline
 90
3
 70
0
 10
62.576716
 20
306.911642
 30
0.0
 10
64.177624
 20
314.113092
 30
0.0
 10
60.974999
 20
314.113092
 30
0.0
  0
LWPOLYLINE
  5
1b2
100
AcDbEntity
  8
path
 62
1
100
AcDbPolyline
 90
2
 70
0
 10
64.177624
 20
310.906013
 30
0.0
 10
62.576716
 20
310.906013
 30
0.0
  0
LWPOLYLINE
  5
1b3
100
AcDbEntity
  8
path
 62
1
100
AcDbPolyline
 90
43
 70
1
 10
69.007884
 20
318.516902
 30
0.0
 10
69.007884
 20
318.516902
 30
0.0
 10
69.014364
 20
318.446435
 30
0.0
 10
69.032588
 20
318.380017
 30
0.0
 10
69.061747
 20
318.318864
 30
0.0
 10
69.100626
 20
318.264191
 30
0.0
 10
69.148009
 20
318.216808
 30
0.0
 10
69.202682
 20
318.178334
 30
0.0
 10
69.263835
 20
318.149176
 30
0.0
 10
69.330252
 20
318.130951
 30
0.0
 10
69.400720
 20
318.124471
 30
0.0
 10
69.400720
 20
318.124471
 30
0.0
 10
69.471187
 20
318.130951
 30
0.0
 10
69.537605
 20
318.149176
 30
0.0
 10
69.598757
 20
318.178334
 30
0.0
 10
69.653836
 20
318.216808
 30
0.0
 10
69.701219
 20
318.264191
 30
0.0
 10
69.740097
 20
318.318864
 30
0.0
 10
69.768851
 20
318.380017
 30
0.0
 10
69.787076
 20
318.446435
 30
0.0
 10
69.793555
 20
318.516902
 30
0.0
 10
69.793555
 20
318.712510
 30
0.0
 10
69.787076
 20
318.783383
 30
0.0
 10
69.768851
 20
318.849800
 30
0.0
 10
69.740097
 20
318.910953
 30
0.0
 10
69.701219
 20
318.966031
 30
0.0
 10
69.653836
 20
319.013414
 30
0.0
 10
69.598757
 20
319.052293
 30
0.0
 10
69.537605
 20
319.081452
 30
0.0
 10
69.471187
 20
319.099676
 30
0.0
 10
69.400720
 20
319.105751
 30
0.0
 10
69.400720
 20
319.105751
 30
0.0
 10
69.330252
 20
319.099676
 30
0.0
 10
69.263835
 20
319.081452
 30
0.0
 10
69.202682
 20
319.052293
 30
0.0
 10
69.148009
 20
319.013414
 30
0.0
 10
69.100626
 20
318.965626
 30
0.0
 10
69.061747
 20
318.910953
 30
0.0
 10
69.032588
 20
318.849800
 30
0.0
 10
69.014364
 20
318.783383
 30
0.0
 10
69.007884
 20
318.712510
 30
0.0
 10
69.007884
 20
318.516902
 30
0.0
 10
69.007884
 20
318.516902
 30
0.0
  0
LWPOLYLINE
  5
1b4
100
AcDbEntity
  8
path
 62
1
100
AcDbPolyline
 90
42
 70
1
 10
69.793555
 20
319.499397
 30
0.0
 10
69.793555
 20
319.499397
 30
0.0
 10
69.787076
 20
319.569459
 30
0.0
 10
69.768851
 20
319.635877
 30
0.0
 10
69.740097
 20
319.697030
 30
0.0
 10
69.701219
 20
319.751703
 30
0.0
 10
69.653836
 20
319.798681
 30
0.0
 10
69.598757
 20
319.837559
 30
0.0
 10
69.537605
 20
319.866718
 30
0.0
 10
69.471187
 20
319.884943
 30
0.0
 10
69.400720
 20
319.891423
 30
0.0
 10
69.400720
 20
319.891423
 30
0.0
 10
69.330252
 20
319.884943
 30
0.0
 10
69.263835
 20
319.866718
 30
0.0
 10
69.202682
 20
319.837559
 30
0.0
 10
69.148009
 20
319.798681
 30
0.0
 10
69.100626
 20
319.751703
 30
0.0
 10
69.061747
 20
319.697030
 30
0.0
 10
69.032588
 20
319.635877
 30
0.0
 10
69.014364
 20
319.569459
 30
0.0
 10
69.007884
 20
319.499397
 30
0.0
 10
69.007884
 20
319.499397
 30
0.0
 10
69.014364
 20
319.428524
 30
0.0
 10
69.032588
 20
319.362107
 30
0.0
 10
69.061747
 20
319.300549
 30
0.0
 10
69.100626
 20
319.245876
 30
0.0
 10
69.148009
 20
319.198493
 30
0.0
 10
69.202682
 20
319.159614
 30
0.0
 10
69.263835
 20
319.130455
 30
0.0
 10
69.330252
 20
319.112231
 30
0.0
 10
69.400720
 20
319.105751
 30
0.0
 10
69.400720
 20
319.105751
 30
0.0
 10
69.471187
 20
319.112231
 30
0.0
 10
69.537605
 20
319.130455
 30
0.0
 10
69.598757
 20
319.159614
 30
0.0
 10
69.653836
 20
319.198493
 30
0.0
 10
69.701219
 20
319.245876
 30
0.0
 10
69.740097
 20
319.300549
 30
0.0
 10
69.768851
 20
319.362107
 30
0.0
 10
69.787076
 20
319.428524
 30
0.0
 10
69.793555
 20
319.499397
 30
0.0
 10
69.793555
 20
319.499397
 30
0.0
  0
LWPOLYLINE
  5
1b5
100
AcDbEntity
  8
path
 62
1
100
AcDbPolyline
 90
4
 70
0
 10
40.958598
 20
272.626797
 30
0.0
 10
33.170690
 20
272.626797
 30
0.0
 10
40.958598
 20
286.653060
 30
0.0
 10
33.170690
 20
286.653060
 30
0.0
  0
LWPOLYLINE
  5
1b6
100
AcDbEntity
  8
path
 62
1
100
AcDbPolyline
 90
2
 70
0
 10
53.889376
 20
279.640333
 30
0.0
 10
46.220168
 20
279.640333
 30
0.0
  0
LWPOLYLINE
  5
1b7
100
AcDbEntity
  8
path
 62
1
100
AcDbPolyline
 90
45
 70
0
 10
59.148111
 20
272.627607
 30
0.0
 10
62.262853
 20
272.627607
 30
0.0
 10
62.262853
 20
272.627607
 30
0.0
 10
62.822948
 20
272.677420
 30
0.0
 10
63.349834
 20
272.822405
 30
0.0
 10
63.835006
 20
273.052842
 30
0.0
 10
64.269960
 20
273.360226
 30
0.0
 10
64.644977
 20
273.735647
 30
0.0
 10
64.952361
 20
274.169791
 30
0.0
 10
65.182797
 20
274.654154
 30
0.0
 10
65.327377
 20
275.179825
 30
0.0
 10
65.377595
 20
275.737895
 30
0.0
 10
65.377595
 20
277.297088
 30
0.0
 10
65.327377
 20
277.854753
 30
0.0
 10
65.182797
 20
278.380424
 30
0.0
 10
64.952361
 20
278.864787
 30
0.0
 10
64.644977
 20
279.298931
 30
0.0
 10
64.269960
 20
279.674352
 30
0.0
 10
63.835006
 20
279.981736
 30
0.0
 10
63.349834
 20
280.212173
 30
0.0
 10
62.822948
 20
280.357158
 30
0.0
 10
62.262853
 20
280.407376
 30
0.0
 10
60.702849
 20
280.407376
 30
0.0
 10
62.262853
 20
280.407376
 30
0.0
 10
62.262853
 20
280.407376
 30
0.0
 10
62.822948
 20
280.457999
 30
0.0
 10
63.349834
 20
280.602579
 30
0.0
 10
63.835006
 20
280.833825
 30
0.0
 10
64.269960
 20
281.141614
 30
0.0
 10
64.644977
 20
281.517441
 30
0.0
 10
64.952361
 20
281.952800
 30
0.0
 10
65.182797
 20
282.438782
 30
0.0
 10
65.327377
 20
282.966478
 30
0.0
 10
65.377595
 20
283.526573
 30
0.0
 10
65.377595
 20
283.526573
 30
0.0
 10
65.327377
 20
284.084238
 30
0.0
 10
65.182797
 20
284.609909
 30
0.0
 10
64.952361
 20
285.094271
 30
0.0
 10
64.644977
 20
285.528415
 30
0.0
 10
64.269960
 20
285.903837
 30
0.0
 10
63.835006
 20
286.211221
 30
0.0
 10
63.349834
 20
286.441657
 30
0.0
 10
62.822948
 20
286.586642
 30
0.0
 10
62.262853
 20
286.636860
 30
0.0
 10
59.148111
 20
286.636860
 30
0.0
  0
LWPOLYLINE
  5
1b8
100
AcDbEntity
  8
path
 62
1
100
AcDbPolyline
 90
3
 70
0
 10
224.404813
 20
256.294953
 30
0.0
 10
224.404813
 20
262.768644
 30
0.0
 10
222.965495
 20
261.328921
 30
0.0
  0
LWPOLYLINE
  5
1b9
100
AcDbEntity
  8
path
 62
1
100
AcDbPolyline
 90
34
 70
0
 10
226.191203
 20
264.427869
 30
0.0
 10
222.993034
 20
264.427869
 30
0.0
 10
225.948212
 20
269.185637
 30
0.0
 10
225.948212
 20
269.185637
 30
0.0
 10
225.951857
 20
269.189686
 30
0.0
 10
225.955097
 20
269.194141
 30
0.0
 10
225.958337
 20
269.199001
 30
0.0
 10
225.961577
 20
269.203456
 30
0.0
 10
225.964411
 20
269.208316
 30
0.0
 10
225.967651
 20
269.213176
 30
0.0
 10
225.970891
 20
269.218035
 30
0.0
 10
225.973726
 20
269.223705
 30
0.0
 10
225.976561
 20
269.229375
 30
0.0
 10
225.976561
 20
269.229375
 30
0.0
 10
226.098867
 20
269.491401
 30
0.0
 10
226.169739
 20
269.762741
 30
0.0
 10
226.192418
 20
270.037726
 30
0.0
 10
226.167309
 20
270.310281
 30
0.0
 10
226.096842
 20
270.573926
 30
0.0
 10
225.982636
 20
270.822182
 30
0.0
 10
225.826311
 20
271.049784
 30
0.0
 10
225.629894
 20
271.249847
 30
0.0
 10
225.395002
 20
271.416701
 30
0.0
 10
225.395002
 20
271.416701
 30
0.0
 10
225.132167
 20
271.536982
 30
0.0
 10
224.860016
 20
271.607449
 30
0.0
 10
224.585031
 20
271.628913
 30
0.0
 10
224.312881
 20
271.603804
 30
0.0
 10
224.049641
 20
271.533337
 30
0.0
 10
223.800980
 20
271.418726
 30
0.0
 10
223.573783
 20
271.261997
 30
0.0
 10
223.374125
 20
271.064769
 30
0.0
 10
223.207271
 20
270.828257
 30
0.0
 10
222.997489
 20
270.425702
 30
0.0
  0
LWPOLYLINE
  5
1ba
100
AcDbEntity
  8
path
 62
1
100
AcDbPolyline
 90
45
 70
0
 10
222.986959
 20
272.924866
 30
0.0
 10
224.586246
 20
272.924866
 30
0.0
 10
224.586246
 20
272.924866
 30
0.0
 10
224.873786
 20
272.950785
 30
0.0
 10
225.144316
 20
273.024898
 30
0.0
 10
225.393382
 20
273.143153
 30
0.0
 10
225.616529
 20
273.301098
 30
0.0
 10
225.809302
 20
273.493871
 30
0.0
 10
225.967246
 20
273.716613
 30
0.0
 10
226.085097
 20
273.965274
 30
0.0
 10
226.159614
 20
274.235399
 30
0.0
 10
226.185128
 20
274.521724
 30
0.0
 10
226.185128
 20
275.322380
 30
0.0
 10
226.159614
 20
275.608704
 30
0.0
 10
226.085097
 20
275.878425
 30
0.0
 10
225.967246
 20
276.127086
 30
0.0
 10
225.809302
 20
276.350232
 30
0.0
 10
225.616529
 20
276.543006
 30
0.0
 10
225.393382
 20
276.700545
 30
0.0
 10
225.144316
 20
276.819206
 30
0.0
 10
224.873786
 20
276.893723
 30
0.0
 10
224.586246
 20
276.919237
 30
0.0
 10
223.785590
 20
276.919237
 30
0.0
 10
224.586246
 20
276.919237
 30
0.0
 10
224.586246
 20
276.919237
 30
0.0
 10
224.873786
 20
276.945156
 30
0.0
 10
225.144316
 20
277.019673
 30
0.0
 10
225.393382
 20
277.137929
 30
0.0
 10
225.616529
 20
277.296278
 30
0.0
 10
225.809302
 20
277.489456
 30
0.0
 10
225.967246
 20
277.713008
 30
0.0
 10
226.085097
 20
277.962479
 30
0.0
 10
226.159614
 20
278.233009
 30
0.0
 10
226.185128
 20
278.520549
 30
0.0
 10
226.185128
 20
278.520549
 30
0.0
 10
226.159614
 20
278.807279
 30
0.0
 10
226.085097
 20
279.076999
 30
0.0
 10
225.967246
 20
279.325660
 30
0.0
 10
225.809302
 20
279.548402
 30
0.0
 10
225.616529
 20
279.741175
 30
0.0
 10
225.393382
 20
279.899119
 30
0.0
 10
225.144316
 20
280.017375
 30
0.0
 10
224.873786
 20
280.091892
 30
0.0
 10
224.586246
 20
280.117406
 30
0.0
 10
222.986959
 20
280.117406
 30
0.0
  0
LWPOLYLINE
  5
1bb
100
AcDbEntity
  8
path
 62
1
100
AcDbPolyline
 90
3
 70
0
 10
226.577154
 20
283.022366
 30
0.0
 10
222.578329
 20
283.022366
 30
0.0
 10
224.175591
 20
288.622909
 30
0.0
  0
LWPOLYLINE
  5
1bc
100
AcDbEntity
  8
path
 62
1
100
AcDbPolyline
 90
2
 70
0
 10
225.378803
 20
281.421459
 30
0.0
 10
225.378803
 20
284.619628
 30
0.0
  0
LWPOLYLINE
  5
1bd
100
AcDbEntity
  8
path
 62
1
100
AcDbPolyline
 90
25
 70
0
 10
222.981289
 20
289.918052
 30
0.0
 10
224.580577
 20
289.918052
 30
0.0
 10
224.580577
 20
289.918052
 30
0.0
 10
224.867711
 20
289.943971
 30
0.0
 10
225.137836
 20
290.018488
 30
0.0
 10
225.386902
 20
290.136744
 30
0.0
 10
225.610454
 20
290.295093
 30
0.0
 10
225.803227
 20
290.487866
 30
0.0
 10
225.961172
 20
290.711418
 30
0.0
 10
226.079427
 20
290.960889
 30
0.0
 10
226.153945
 20
291.231419
 30
0.0
 10
226.179864
 20
291.519364
 30
0.0
 10
226.179864
 20
292.315970
 30
0.0
 10
226.153945
 20
292.603510
 30
0.0
 10
226.079427
 20
292.873635
 30
0.0
 10
225.961172
 20
293.122701
 30
0.0
 10
225.803227
 20
293.345443
 30
0.0
 10
225.610454
 20
293.537811
 30
0.0
 10
225.387307
 20
293.694945
 30
0.0
 10
225.138241
 20
293.813201
 30
0.0
 10
224.867711
 20
293.886908
 30
0.0
 10
224.580577
 20
293.912827
 30
0.0
 10
222.981289
 20
293.912827
 30
0.0
 10
222.981289
 20
297.119501
 30
0.0
 10
226.179864
 20
297.119501
 30
0.0
  0
LWPOLYLINE
  5
1be
100
AcDbEntity
  8
path
 62
1
100
AcDbPolyline
 90
42
 70
0
 10
225.385687
 20
305.616499
 30
0.0
 10
225.385687
 20
305.616499
 30
0.0
 10
224.927649
 20
305.444785
 30
0.0
 10
224.507274
 20
305.213133
 30
0.0
 10
224.129018
 20
304.928024
 30
0.0
 10
223.796930
 20
304.594721
 30
0.0
 10
223.515870
 20
304.218894
 30
0.0
 10
223.289483
 20
303.806619
 30
0.0
 10
223.122224
 20
303.363970
 30
0.0
 10
223.018953
 20
302.896212
 30
0.0
 10
222.983719
 20
302.409420
 30
0.0
 10
222.983719
 20
300.015956
 30
0.0
 10
223.009638
 20
299.728012
 30
0.0
 10
223.083751
 20
299.457482
 30
0.0
 10
223.202411
 20
299.208011
 30
0.0
 10
223.360356
 20
298.984864
 30
0.0
 10
223.553129
 20
298.791686
 30
0.0
 10
223.776276
 20
298.633741
 30
0.0
 10
224.025342
 20
298.515081
 30
0.0
 10
224.295872
 20
298.440968
 30
0.0
 10
224.582601
 20
298.415049
 30
0.0
 10
224.582601
 20
298.415049
 30
0.0
 10
224.870546
 20
298.440968
 30
0.0
 10
225.141076
 20
298.515081
 30
0.0
 10
225.390142
 20
298.633741
 30
0.0
 10
225.613289
 20
298.791686
 30
0.0
 10
225.806062
 20
298.984864
 30
0.0
 10
225.963602
 20
299.208011
 30
0.0
 10
226.081857
 20
299.457482
 30
0.0
 10
226.155970
 20
299.728012
 30
0.0
 10
226.181889
 20
300.015956
 30
0.0
 10
226.181889
 20
300.812563
 30
0.0
 10
226.155970
 20
301.100102
 30
0.0
 10
226.081857
 20
301.370632
 30
0.0
 10
225.963602
 20
301.619293
 30
0.0
 10
225.806062
 20
301.842035
 30
0.0
 10
225.613289
 20
302.034403
 30
0.0
 10
225.390142
 20
302.191943
 30
0.0
 10
225.141076
 20
302.309793
 30
0.0
 10
224.870546
 20
302.383906
 30
0.0
 10
224.582601
 20
302.409420
 30
0.0
 10
222.983719
 20
302.409420
 30
0.0
  0
LWPOLYLINE
  5
1bf
100
AcDbEntity
  8
path
 62
1
100
AcDbPolyline
 90
2
 70
0
 10
222.783252
 20
297.514767
 30
0.0
 10
226.383976
 20
297.514767
 30
0.0
  0
LWPOLYLINE
  5
1c0
100
AcDbEntity
  8
path
 62
1
100
AcDbPolyline
 90
3
 70
0
 10
218.214207
 20
307.659245
 30
0.0
 10
218.682370
 20
309.765169
 30
0.0
 10
217.746044
 20
309.765169
 30
0.0
  0
LWPOLYLINE
  5
1c1
100
AcDbEntity
  8
path
 62
1
100
AcDbPolyline
 90
2
 70
0
 10
218.682370
 20
308.827223
 30
0.0
 10
218.214207
 20
308.827223
 30
0.0
  0
LWPOLYLINE
  5
1c2
100
AcDbEntity
  8
path
 62
1
100
AcDbPolyline
 90
3
 70
0
 10
231.055887
 20
281.109620
 30
0.0
 10
227.411424
 20
275.838331
 30
0.0
 10
223.766556
 20
281.109620
 30
0.0
  0
LWPOLYLINE
  5
1c3
100
AcDbEntity
  8
path
 62
1
100
AcDbPolyline
 90
2
 70
0
 10
227.411424
 20
276.262756
 30
0.0
 10
227.411424
 20
270.181496
 30
0.0
  0
LWPOLYLINE
  5
1c4
100
AcDbEntity
  8
path
 62
1
100
AcDbPolyline
 90
2
 70
0
 10
241.130303
 20
275.645558
 30
0.0
 10
235.155149
 20
275.645558
 30
0.0
  0
LWPOLYLINE
  5
1c5
100
AcDbEntity
  8
path
 62
1
100
AcDbPolyline
 90
25
 70
0
 10
245.227135
 20
270.181901
 30
0.0
 10
247.653807
 20
270.181901
 30
0.0
 10
247.653807
 20
270.181901
 30
0.0
 10
248.089166
 20
270.220779
 30
0.0
 10
248.499416
 20
270.333770
 30
0.0
 10
248.877268
 20
270.513584
 30
0.0
 10
249.216240
 20
270.753335
 30
0.0
 10
249.508640
 20
271.046139
 30
0.0
 10
249.748391
 20
271.385112
 30
0.0
 10
249.928205
 20
271.763773
 30
0.0
 10
250.041196
 20
272.174834
 30
0.0
 10
250.080479
 20
272.611003
 30
0.0
 10
250.080479
 20
273.819884
 30
0.0
 10
250.041196
 20
274.256458
 30
0.0
 10
249.928205
 20
274.666708
 30
0.0
 10
249.748796
 20
275.044155
 30
0.0
 10
249.509045
 20
275.382317
 30
0.0
 10
249.216240
 20
275.674312
 30
0.0
 10
248.877673
 20
275.912848
 30
0.0
 10
248.499821
 20
276.091852
 30
0.0
 10
248.089571
 20
276.204438
 30
0.0
 10
247.653807
 20
276.243316
 30
0.0
 10
245.227135
 20
276.243316
 30
0.0
 10
245.227135
 20
281.109620
 30
0.0
 10
250.080479
 20
281.109620
 30
0.0
  0
LWPOLYLINE
  5
1c6
100
AcDbEntity
  8
path
 62
1
100
AcDbPolyline
 90
3
 70
0
 10
340.412057
 20
256.294953
 30
0.0
 10
340.412057
 20
262.768644
 30
0.0
 10
338.973144
 20
261.328921
 30
0.0
  0
LWPOLYLINE
  5
1c7
100
AcDbEntity
  8
path
 62
1
100
AcDbPolyline
 90
34
 70
0
 10
340.383708
 20
264.427869
 30
0.0
 10
337.185538
 20
264.427869
 30
0.0
 10
340.140717
 20
269.185637
 30
0.0
 10
340.140717
 20
269.185637
 30
0.0
 10
340.144361
 20
269.189686
 30
0.0
 10
340.147601
 20
269.194141
 30
0.0
 10
340.150841
 20
269.198596
 30
0.0
 10
340.154081
 20
269.203456
 30
0.0
 10
340.157321
 20
269.208316
 30
0.0
 10
340.160156
 20
269.213176
 30
0.0
 10
340.163396
 20
269.218035
 30
0.0
 10
340.166231
 20
269.223300
 30
0.0
 10
340.169470
 20
269.229375
 30
0.0
 10
340.169470
 20
269.229375
 30
0.0
 10
340.291371
 20
269.491401
 30
0.0
 10
340.362649
 20
269.762741
 30
0.0
 10
340.384923
 20
270.037726
 30
0.0
 10
340.359814
 20
270.310281
 30
0.0
 10
340.289346
 20
270.573521
 30
0.0
 10
340.175140
 20
270.822182
 30
0.0
 10
340.019221
 20
271.049784
 30
0.0
 10
339.822398
 20
271.249847
 30
0.0
 10
339.587507
 20
271.416701
 30
0.0
 10
339.587507
 20
271.416701
 30
0.0
 10
339.325076
 20
271.536982
 30
0.0
 10
339.052926
 20
271.607449
 30
0.0
 10
338.777536
 20
271.628913
 30
0.0
 10
338.505386
 20
271.603804
 30
0.0
 10
338.242145
 20
271.532932
 30
0.0
 10
337.993889
 20
271.418726
 30
0.0
 10
337.766692
 20
271.261997
 30
0.0
 10
337.566630
 20
271.064769
 30
0.0
 10
337.399776
 20
270.828257
 30
0.0
 10
337.189993
 20
270.425702
 30
0.0
  0
LWPOLYLINE
  5
1c8
100
AcDbEntity
  8
path
 62
1
100
AcDbPolyline
 90
45
 70
0
 10
337.186753
 20
272.924866
 30
0.0
 10
338.786041
 20
272.924866
 30
0.0
 10
338.786041
 20
272.924866
 30
0.0
 10
339.073580
 20
272.950785
 30
0.0
 10
339.344110
 20
273.024898
 30
0.0
 10
339.593176
 20
273.143153
 30
0.0
 10
339.816728
 20
273.301098
 30
0.0
 10
340.009096
 20
273.493871
 30
0.0
 10
340.167041
 20
273.716613
 30
0.0
 10
340.285296
 20
273.965274
 30
0.0
 10
340.359409
 20
274.234994
 30
0.0
 10
340.385328
 20
274.521724
 30
0.0
 10
340.385328
 20
275.322380
 30
0.0
 10
340.359409
 20
275.608704
 30
0.0
 10
340.285296
 20
275.878425
 30
0.0
 10
340.167041
 20
276.127086
 30
0.0
 10
340.009096
 20
276.350232
 30
0.0
 10
339.816728
 20
276.542601
 30
0.0
 10
339.593176
 20
276.700545
 30
0.0
 10
339.344110
 20
276.819206
 30
0.0
 10
339.073580
 20
276.893723
 30
0.0
 10
338.786041
 20
276.919237
 30
0.0
 10
337.985384
 20
276.919237
 30
0.0
 10
338.786041
 20
276.919237
 30
0.0
 10
338.786041
 20
276.919237
 30
0.0
 10
339.073580
 20
276.945156
 30
0.0
 10
339.344110
 20
277.019673
 30
0.0
 10
339.593176
 20
277.137929
 30
0.0
 10
339.816728
 20
277.296278
 30
0.0
 10
340.009096
 20
277.489051
 30
0.0
 10
340.167041
 20
277.712603
 30
0.0
 10
340.285296
 20
277.962074
 30
0.0
 10
340.359409
 20
278.233009
 30
0.0
 10
340.385328
 20
278.520549
 30
0.0
 10
340.385328
 20
278.520549
 30
0.0
 10
340.359409
 20
278.807279
 30
0.0
 10
340.285296
 20
279.076999
 30
0.0
 10
340.167041
 20
279.325660
 30
0.0
 10
340.009096
 20
279.548402
 30
0.0
 10
339.816728
 20
279.741175
 30
0.0
 10
339.593176
 20
279.899119
 30
0.0
 10
339.344110
 20
280.017375
 30
0.0
 10
339.073580
 20
280.091892
 30
0.0
 10
338.786041
 20
280.117406
 30
0.0
 10
337.186753
 20
280.117406
 30
0.0
  0
LWPOLYLINE
  5
1c9
100
AcDbEntity
  8
path
 62
1
100
AcDbPolyline
 90
3
 70
0
 10
340.796793
 20
283.022366
 30
0.0
 10
336.797967
 20
283.022366
 30
0.0
 10
338.394825
 20
288.622909
 30
0.0
  0
LWPOLYLINE
  5
1ca
100
AcDbEntity
  8
path
 62
1
100
AcDbPolyline
 90
2
 70
0
 10
339.598036
 20
281.421459
 30
0.0
 10
339.598036
 20
284.619628
 30
0.0
  0
LWPOLYLINE
  5
1cb
100
AcDbEntity
  8
path
 62
1
100
AcDbPolyline
 90
25
 70
0
 10
337.187563
 20
289.918052
 30
0.0
 10
338.786850
 20
289.918052
 30
0.0
 10
338.786850
 20
289.918052
 30
0.0
 10
339.073985
 20
289.943971
 30
0.0
 10
339.344110
 20
290.018488
 30
0.0
 10
339.593176
 20
290.136744
 30
0.0
 10
339.816323
 20
290.294688
 30
0.0
 10
340.009096
 20
290.487866
 30
0.0
 10
340.167041
 20
290.711418
 30
0.0
 10
340.285701
 20
290.960484
 30
0.0
 10
340.360219
 20
291.231419
 30
0.0
 10
340.385733
 20
291.518959
 30
0.0
 10
340.385733
 20
292.315565
 30
0.0
 10
340.360219
 20
292.603510
 30
0.0
 10
340.285701
 20
292.873635
 30
0.0
 10
340.167446
 20
293.122701
 30
0.0
 10
340.009501
 20
293.345443
 30
0.0
 10
339.816728
 20
293.537811
 30
0.0
 10
339.593176
 20
293.694945
 30
0.0
 10
339.344110
 20
293.812796
 30
0.0
 10
339.073985
 20
293.886908
 30
0.0
 10
338.786850
 20
293.912422
 30
0.0
 10
337.187563
 20
293.912422
 30
0.0
 10
337.187563
 20
297.119501
 30
0.0
 10
340.385733
 20
297.119501
 30
0.0
  0
LWPOLYLINE
  5
1cc
100
AcDbEntity
  8
path
 62
1
100
AcDbPolyline
 90
42
 70
0
 10
339.596011
 20
305.616499
 30
0.0
 10
339.596011
 20
305.616499
 30
0.0
 10
339.137568
 20
305.444380
 30
0.0
 10
338.717598
 20
305.213133
 30
0.0
 10
338.338937
 20
304.928024
 30
0.0
 10
338.007254
 20
304.594316
 30
0.0
 10
337.725789
 20
304.218894
 30
0.0
 10
337.499807
 20
303.806619
 30
0.0
 10
337.332548
 20
303.363970
 30
0.0
 10
337.229277
 20
302.896212
 30
0.0
 10
337.193638
 20
302.409420
 30
0.0
 10
337.193638
 20
300.015956
 30
0.0
 10
337.219557
 20
299.728012
 30
0.0
 10
337.294074
 20
299.457482
 30
0.0
 10
337.412330
 20
299.208011
 30
0.0
 10
337.570679
 20
298.984459
 30
0.0
 10
337.763453
 20
298.791686
 30
0.0
 10
337.986599
 20
298.633336
 30
0.0
 10
338.235665
 20
298.515081
 30
0.0
 10
338.505791
 20
298.440563
 30
0.0
 10
338.792925
 20
298.415049
 30
0.0
 10
338.792925
 20
298.415049
 30
0.0
 10
339.080465
 20
298.440563
 30
0.0
 10
339.350995
 20
298.515081
 30
0.0
 10
339.600466
 20
298.633336
 30
0.0
 10
339.823613
 20
298.791686
 30
0.0
 10
340.016386
 20
298.984459
 30
0.0
 10
340.173925
 20
299.208011
 30
0.0
 10
340.292181
 20
299.457482
 30
0.0
 10
340.366293
 20
299.728012
 30
0.0
 10
340.392212
 20
300.015956
 30
0.0
 10
340.392212
 20
300.812563
 30
0.0
 10
340.366293
 20
301.100102
 30
0.0
 10
340.292181
 20
301.370632
 30
0.0
 10
340.173925
 20
301.619293
 30
0.0
 10
340.016386
 20
301.842035
 30
0.0
 10
339.823613
 20
302.034403
 30
0.0
 10
339.600466
 20
302.191943
 30
0.0
 10
339.350995
 20
302.309793
 30
0.0
 10
339.080465
 20
302.383906
 30
0.0
 10
338.792925
 20
302.409420
 30
0.0
 10
337.193638
 20
302.409420
 30
0.0
  0
LWPOLYLINE
  5
1cd
100
AcDbEntity
  8
path
 62
1
100
AcDbPolyline
 90
2
 70
0
 10
336.993575
 20
297.514767
 30
0.0
 10
340.594300
 20
297.514767
 30
0.0
  0
LWPOLYLINE
  5
1ce
100
AcDbEntity
  8
path
 62
1
100
AcDbPolyline
 90
3
 70
0
 10
344.124962
 20
308.906600
 30
0.0
 10
344.839357
 20
312.118134
 30
0.0
 10
343.410973
 20
312.118134
 30
0.0
  0
LWPOLYLINE
  5
1cf
100
AcDbEntity
  8
path
 62
1
100
AcDbPolyline
 90
2
 70
0
 10
344.839357
 20
310.688130
 30
0.0
 10
344.124962
 20
310.688130
 30
0.0
  0
LWPOLYLINE
  5
1d0
100
AcDbEntity
  8
path
 62
1
100
AcDbPolyline
 90
4
 70
0
 10
319.389672
 20
267.798157
 30
0.0
 10
313.012773
 20
267.798157
 30
0.0
 10
319.389672
 20
279.282326
 30
0.0
 10
313.012773
 20
279.282326
 30
0.0
  0
LWPOLYLINE
  5
1d1
100
AcDbEntity
  8
path
 62
1
100
AcDbPolyline
 90
2
 70
0
 10
329.976799
 20
273.540039
 30
0.0
 10
323.697501
 20
273.540039
 30
0.0
  0
LWPOLYLINE
  5
1d2
100
AcDbEntity
  8
path
 62
1
100
AcDbPolyline
 90
25
 70
0
 10
334.282603
 20
267.798157
 30
0.0
 10
336.832796
 20
267.798157
 30
0.0
 10
336.832796
 20
267.798157
 30
0.0
 10
337.290430
 20
267.839060
 30
0.0
 10
337.721739
 20
267.957721
 30
0.0
 10
338.118625
 20
268.146849
 30
0.0
 10
338.474607
 20
268.398750
 30
0.0
 10
338.782396
 20
268.706539
 30
0.0
 10
339.034297
 20
269.062926
 30
0.0
 10
339.223020
 20
269.460622
 30
0.0
 10
339.341680
 20
269.892336
 30
0.0
 10
339.382989
 20
270.351184
 30
0.0
 10
339.382989
 20
271.621624
 30
0.0
 10
339.341680
 20
272.080067
 30
0.0
 10
339.223425
 20
272.511376
 30
0.0
 10
339.034297
 20
272.908262
 30
0.0
 10
338.782396
 20
273.263839
 30
0.0
 10
338.475012
 20
273.570413
 30
0.0
 10
338.119030
 20
273.821504
 30
0.0
 10
337.721739
 20
274.009417
 30
0.0
 10
337.290430
 20
274.127268
 30
0.0
 10
336.832796
 20
274.168171
 30
0.0
 10
334.282603
 20
274.168171
 30
0.0
 10
334.282603
 20
279.282326
 30
0.0
 10
339.382989
 20
279.282326
 30
0.0
  0
LWPOLYLINE
  5
1d3
100
AcDbEntity
  8
path
 62
1
100
AcDbPolyline
 90
3
 70
0
 10
61.745687
 20
324.417539
 30
0.0
 10
61.745687
 20
330.891230
 30
0.0
 10
60.306369
 20
329.451912
 30
0.0
  0
LWPOLYLINE
  5
1d4
100
AcDbEntity
  8
path
 62
1
100
AcDbPolyline
 90
34
 70
0
 10
61.700733
 20
332.550455
 30
0.0
 10
58.502159
 20
332.550455
 30
0.0
 10
61.457742
 20
337.308223
 30
0.0
 10
61.457742
 20
337.308223
 30
0.0
 10
61.460982
 20
337.312677
 30
0.0
 10
61.464627
 20
337.317132
 30
0.0
 10
61.467867
 20
337.321587
 30
0.0
 10
61.471106
 20
337.326042
 30
0.0
 10
61.473941
 20
337.330902
 30
0.0
 10
61.477181
 20
337.335762
 30
0.0
 10
61.480016
 20
337.341026
 30
0.0
 10
61.483256
 20
337.346291
 30
0.0
 10
61.486091
 20
337.351961
 30
0.0
 10
61.486091
 20
337.351961
 30
0.0
 10
61.607992
 20
337.613986
 30
0.0
 10
61.679269
 20
337.885732
 30
0.0
 10
61.701543
 20
338.160717
 30
0.0
 10
61.676839
 20
338.432867
 30
0.0
 10
61.606372
 20
338.696512
 30
0.0
 10
61.492166
 20
338.945173
 30
0.0
 10
61.335841
 20
339.172370
 30
0.0
 10
61.139423
 20
339.372838
 30
0.0
 10
60.904532
 20
339.539692
 30
0.0
 10
60.904532
 20
339.539692
 30
0.0
 10
60.641696
 20
339.659972
 30
0.0
 10
60.369546
 20
339.730035
 30
0.0
 10
60.094561
 20
339.751904
 30
0.0
 10
59.822006
 20
339.726390
 30
0.0
 10
59.558766
 20
339.655923
 30
0.0
 10
59.310510
 20
339.541312
 30
0.0
 10
59.083313
 20
339.384987
 30
0.0
 10
58.883250
 20
339.187355
 30
0.0
 10
58.716801
 20
338.951248
 30
0.0
 10
58.506614
 20
338.548288
 30
0.0
  0
LWPOLYLINE
  5
1d5
100
AcDbEntity
  8
path
 62
1
100
AcDbPolyline
 90
45
 70
0
 10
58.488389
 20
341.047452
 30
0.0
 10
60.087677
 20
341.047452
 30
0.0
 10
60.087677
 20
341.047452
 30
0.0
 10
60.375216
 20
341.073371
 30
0.0
 10
60.645746
 20
341.147889
 30
0.0
 10
60.895217
 20
341.266144
 30
0.0
 10
61.118364
 20
341.423684
 30
0.0
 10
61.311137
 20
341.616457
 30
0.0
 10
61.468677
 20
341.839604
 30
0.0
 10
61.586932
 20
342.088265
 30
0.0
 10
61.661045
 20
342.357985
 30
0.0
 10
61.686964
 20
342.644310
 30
0.0
 10
61.686964
 20
343.444966
 30
0.0
 10
61.661045
 20
343.731290
 30
0.0
 10
61.586932
 20
344.001415
 30
0.0
 10
61.468677
 20
344.250076
 30
0.0
 10
61.311137
 20
344.472818
 30
0.0
 10
61.118364
 20
344.665591
 30
0.0
 10
60.895217
 20
344.823536
 30
0.0
 10
60.645746
 20
344.941791
 30
0.0
 10
60.375216
 20
345.016309
 30
0.0
 10
60.087677
 20
345.042228
 30
0.0
 10
59.287020
 20
345.042228
 30
0.0
 10
60.087677
 20
345.042228
 30
0.0
 10
60.087677
 20
345.042228
 30
0.0
 10
60.375216
 20
345.067742
 30
0.0
 10
60.645746
 20
345.142259
 30
0.0
 10
60.895217
 20
345.260920
 30
0.0
 10
61.118364
 20
345.418864
 30
0.0
 10
61.311137
 20
345.612042
 30
0.0
 10
61.468677
 20
345.835594
 30
0.0
 10
61.586932
 20
346.085065
 30
0.0
 10
61.661045
 20
346.355595
 30
0.0
 10
61.686964
 20
346.643540
 30
0.0
 10
61.686964
 20
346.643540
 30
0.0
 10
61.661045
 20
346.929864
 30
0.0
 10
61.586932
 20
347.199585
 30
0.0
 10
61.468677
 20
347.448246
 30
0.0
 10
61.311137
 20
347.671393
 30
0.0
 10
61.118364
 20
347.863761
 30
0.0
 10
60.895217
 20
348.021705
 30
0.0
 10
60.645746
 20
348.140366
 30
0.0
 10
60.375216
 20
348.214478
 30
0.0
 10
60.087677
 20
348.240397
 30
0.0
 10
58.488389
 20
348.240397
 30
0.0
  0
LWPOLYLINE
  5
1d6
100
AcDbEntity
  8
path
 62
1
100
AcDbPolyline
 90
3
 70
0
 10
62.094784
 20
351.144952
 30
0.0
 10
58.096364
 20
351.144952
 30
0.0
 10
59.693221
 20
356.745494
 30
0.0
  0
LWPOLYLINE
  5
1d7
100
AcDbEntity
  8
path
 62
1
100
AcDbPolyline
 90
2
 70
0
 10
60.896432
 20
349.544045
 30
0.0
 10
60.896432
 20
352.742214
 30
0.0
  0
LWPOLYLINE
  5
1d8
100
AcDbEntity
  8
path
 62
1
100
AcDbPolyline
 90
25
 70
0
 10
58.493654
 20
358.041043
 30
0.0
 10
60.092941
 20
358.041043
 30
0.0
 10
60.092941
 20
358.041043
 30
0.0
 10
60.380076
 20
358.066557
 30
0.0
 10
60.650201
 20
358.141074
 30
0.0
 10
60.899267
 20
358.259330
 30
0.0
 10
61.122414
 20
358.417679
 30
0.0
 10
61.315592
 20
358.610452
 30
0.0
 10
61.473131
 20
358.834004
 30
0.0
 10
61.591792
 20
359.083475
 30
0.0
 10
61.666309
 20
359.354410
 30
0.0
 10
61.692228
 20
359.641950
 30
0.0
 10
61.692228
 20
360.438556
 30
0.0
 10
61.666309
 20
360.726095
 30
0.0
 10
61.591792
 20
360.996626
 30
0.0
 10
61.473536
 20
361.245287
 30
0.0
 10
61.315592
 20
361.468029
 30
0.0
 10
61.122819
 20
361.660397
 30
0.0
 10
60.899672
 20
361.817936
 30
0.0
 10
60.650201
 20
361.935787
 30
0.0
 10
60.380076
 20
362.009899
 30
0.0
 10
60.092941
 20
362.035413
 30
0.0
 10
58.493654
 20
362.035413
 30
0.0
 10
58.493654
 20
365.242492
 30
0.0
 10
61.692228
 20
365.242492
 30
0.0
  0
LWPOLYLINE
  5
1d9
100
AcDbEntity
  8
path
 62
1
100
AcDbPolyline
 90
42
 70
0
 10
60.880638
 20
373.739085
 30
0.0
 10
60.880638
 20
373.739085
 30
0.0
 10
60.422599
 20
373.567371
 30
0.0
 10
60.002225
 20
373.335719
 30
0.0
 10
59.623968
 20
373.050610
 30
0.0
 10
59.291880
 20
372.717307
 30
0.0
 10
59.010820
 20
372.341480
 30
0.0
 10
58.784434
 20
371.929610
 30
0.0
 10
58.617175
 20
371.486556
 30
0.0
 10
58.513903
 20
371.018798
 30
0.0
 10
58.478670
 20
370.532006
 30
0.0
 10
58.478670
 20
368.138542
 30
0.0
 10
58.504589
 20
367.851003
 30
0.0
 10
58.579106
 20
367.580068
 30
0.0
 10
58.697362
 20
367.330597
 30
0.0
 10
58.855306
 20
367.107450
 30
0.0
 10
59.048079
 20
366.914272
 30
0.0
 10
59.271226
 20
366.756327
 30
0.0
 10
59.520697
 20
366.637667
 30
0.0
 10
59.790822
 20
366.563554
 30
0.0
 10
60.077957
 20
366.537635
 30
0.0
 10
60.077957
 20
366.537635
 30
0.0
 10
60.365496
 20
366.563554
 30
0.0
 10
60.636027
 20
366.637667
 30
0.0
 10
60.885093
 20
366.756327
 30
0.0
 10
61.108240
 20
366.914272
 30
0.0
 10
61.301013
 20
367.107450
 30
0.0
 10
61.458552
 20
367.330597
 30
0.0
 10
61.576808
 20
367.580068
 30
0.0
 10
61.650920
 20
367.851003
 30
0.0
 10
61.676839
 20
368.138542
 30
0.0
 10
61.676839
 20
368.935149
 30
0.0
 10
61.650920
 20
369.222688
 30
0.0
 10
61.576808
 20
369.493218
 30
0.0
 10
61.458552
 20
369.742284
 30
0.0
 10
61.301013
 20
369.965026
 30
0.0
 10
61.108240
 20
370.157394
 30
0.0
 10
60.885093
 20
370.314529
 30
0.0
 10
60.636027
 20
370.432379
 30
0.0
 10
60.365496
 20
370.506492
 30
0.0
 10
60.077957
 20
370.532006
 30
0.0
 10
58.478670
 20
370.532006
 30
0.0
  0
LWPOLYLINE
  5
1da
100
AcDbEntity
  8
path
 62
1
100
AcDbPolyline
 90
2
 70
0
 10
58.278202
 20
365.637353
 30
0.0
 10
61.878927
 20
365.637353
 30
0.0
  0
LWPOLYLINE
  5
1db
100
AcDbEntity
  8
path
 62
1
100
AcDbPolyline
 90
3
 70
0
 10
60.112786
 20
375.034633
 30
0.0
 10
61.714098
 20
382.236082
 30
0.0
 10
58.511474
 20
382.236082
 30
0.0
  0
LWPOLYLINE
  5
1dc
100
AcDbEntity
  8
path
 62
1
100
AcDbPolyline
 90
2
 70
0
 10
61.714098
 20
379.029003
 30
0.0
 10
60.112786
 20
379.029003
 30
0.0
  0
LWPOLYLINE
  5
1dd
100
AcDbEntity
  8
path
 62
1
100
AcDbPolyline
 90
4
 70
0
 10
34.988831
 20
336.181958
 30
0.0
 10
27.500085
 20
336.181958
 30
0.0
 10
34.988831
 20
349.669185
 30
0.0
 10
27.500085
 20
349.669185
 30
0.0
  0
LWPOLYLINE
  5
1de
100
AcDbEntity
  8
path
 62
1
100
AcDbPolyline
 90
2
 70
0
 10
47.422165
 20
342.925774
 30
0.0
 10
40.047827
 20
342.925774
 30
0.0
  0
LWPOLYLINE
  5
1df
100
AcDbEntity
  8
path
 62
1
100
AcDbPolyline
 90
3
 70
0
 10
59.967396
 20
339.180470
 30
0.0
 10
52.478812
 20
339.180470
 30
0.0
 10
55.469629
 20
349.669185
 30
0.0
  0
LWPOLYLINE
  5
1e0
100
AcDbEntity
  8
path
 62
1
100
AcDbPolyline
 90
2
 70
0
 10
57.722967
 20
336.181958
 30
0.0
 10
57.722967
 20
342.172097
 30
0.0
  0
LWPOLYLINE
  5
1e1
100
AcDbEntity
  8
path
 62
1
100
AcDbPolyline
 90
3
 70
0
 10
214.504541
 20
324.417539
 30
0.0
 10
214.504541
 20
330.891230
 30
0.0
 10
213.065223
 20
329.451912
 30
0.0
  0
LWPOLYLINE
  5
1e2
100
AcDbEntity
  8
path
 62
1
100
AcDbPolyline
 90
34
 70
0
 10
216.286882
 20
332.550455
 30
0.0
 10
213.088712
 20
332.550455
 30
0.0
 10
216.043890
 20
337.308223
 30
0.0
 10
216.043890
 20
337.308223
 30
0.0
 10
216.047535
 20
337.312677
 30
0.0
 10
216.050775
 20
337.317132
 30
0.0
 10
216.054015
 20
337.321587
 30
0.0
 10
216.057255
 20
337.326042
 30
0.0
 10
216.060495
 20
337.330902
 30
0.0
 10
216.063330
 20
337.335762
 30
0.0
 10
216.066570
 20
337.341026
 30
0.0
 10
216.069404
 20
337.346291
 30
0.0
 10
216.072239
 20
337.351961
 30
0.0
 10
216.072239
 20
337.351961
 30
0.0
 10
216.194545
 20
337.613986
 30
0.0
 10
216.265822
 20
337.885732
 30
0.0
 10
216.288096
 20
338.160717
 30
0.0
 10
216.262987
 20
338.433272
 30
0.0
 10
216.192520
 20
338.696512
 30
0.0
 10
216.078314
 20
338.945173
 30
0.0
 10
215.922395
 20
339.172370
 30
0.0
 10
215.725572
 20
339.372838
 30
0.0
 10
215.490680
 20
339.539692
 30
0.0
 10
215.490680
 20
339.539692
 30
0.0
 10
215.227845
 20
339.659972
 30
0.0
 10
214.956100
 20
339.730035
 30
0.0
 10
214.680710
 20
339.751904
 30
0.0
 10
214.408559
 20
339.726390
 30
0.0
 10
214.145319
 20
339.655923
 30
0.0
 10
213.896658
 20
339.541312
 30
0.0
 10
213.669866
 20
339.384987
 30
0.0
 10
213.469803
 20
339.187355
 30
0.0
 10
213.302949
 20
338.951248
 30
0.0
 10
213.093167
 20
338.548288
 30
0.0
  0
LWPOLYLINE
  5
1e3
100
AcDbEntity
  8
path
 62
1
100
AcDbPolyline
 90
45
 70
0
 10
213.059958
 20
341.047452
 30
0.0
 10
214.659245
 20
341.047452
 30
0.0
 10
214.659245
 20
341.047452
 30
0.0
 10
214.946785
 20
341.073371
 30
0.0
 10
215.217315
 20
341.147889
 30
0.0
 10
215.466786
 20
341.266144
 30
0.0
 10
215.689528
 20
341.423684
 30
0.0
 10
215.882301
 20
341.616457
 30
0.0
 10
216.040245
 20
341.839604
 30
0.0
 10
216.158501
 20
342.088265
 30
0.0
 10
216.232613
 20
342.357985
 30
0.0
 10
216.258128
 20
342.644310
 30
0.0
 10
216.258128
 20
343.445371
 30
0.0
 10
216.232613
 20
343.731695
 30
0.0
 10
216.158501
 20
344.001415
 30
0.0
 10
216.040245
 20
344.250076
 30
0.0
 10
215.882301
 20
344.472818
 30
0.0
 10
215.689528
 20
344.665591
 30
0.0
 10
215.466786
 20
344.823536
 30
0.0
 10
215.217315
 20
344.941791
 30
0.0
 10
214.946785
 20
345.016309
 30
0.0
 10
214.659245
 20
345.042228
 30
0.0
 10
213.858184
 20
345.042228
 30
0.0
 10
214.659245
 20
345.042228
 30
0.0
 10
214.659245
 20
345.042228
 30
0.0
 10
214.946785
 20
345.067742
 30
0.0
 10
215.217315
 20
345.142259
 30
0.0
 10
215.466786
 20
345.260920
 30
0.0
 10
215.689528
 20
345.418864
 30
0.0
 10
215.882301
 20
345.612042
 30
0.0
 10
216.040245
 20
345.835594
 30
0.0
 10
216.158501
 20
346.085065
 30
0.0
 10
216.232613
 20
346.355595
 30
0.0
 10
216.258128
 20
346.643540
 30
0.0
 10
216.258128
 20
346.643540
 30
0.0
 10
216.232613
 20
346.929864
 30
0.0
 10
216.158501
 20
347.199585
 30
0.0
 10
216.040245
 20
347.448246
 30
0.0
 10
215.882301
 20
347.671393
 30
0.0
 10
215.689528
 20
347.864166
 30
0.0
 10
215.466786
 20
348.021705
 30
0.0
 10
215.217315
 20
348.140366
 30
0.0
 10
214.946785
 20
348.214478
 30
0.0
 10
214.659245
 20
348.240397
 30
0.0
 10
213.059958
 20
348.240397
 30
0.0
  0
LWPOLYLINE
  5
1e4
100
AcDbEntity
  8
path
 62
1
100
AcDbPolyline
 90
3
 70
0
 10
216.654608
 20
351.145357
 30
0.0
 10
212.656188
 20
351.145357
 30
0.0
 10
214.253045
 20
356.745494
 30
0.0
  0
LWPOLYLINE
  5
1e5
100
AcDbEntity
  8
path
 62
1
100
AcDbPolyline
 90
2
 70
0
 10
215.455852
 20
349.544450
 30
0.0
 10
215.455852
 20
352.742619
 30
0.0
  0
LWPOLYLINE
  5
1e6
100
AcDbEntity
  8
path
 62
1
100
AcDbPolyline
 90
25
 70
0
 10
210.119360
 20
357.681011
 30
0.0
 10
211.079175
 20
357.681011
 30
0.0
 10
211.079175
 20
357.681011
 30
0.0
 10
211.251294
 20
357.696400
 30
0.0
 10
211.413288
 20
357.740948
 30
0.0
 10
211.562727
 20
357.812226
 30
0.0
 10
211.696778
 20
357.906992
 30
0.0
 10
211.812603
 20
358.022818
 30
0.0
 10
211.907370
 20
358.156868
 30
0.0
 10
211.978647
 20
358.306308
 30
0.0
 10
212.023196
 20
358.468707
 30
0.0
 10
212.038585
 20
358.641636
 30
0.0
 10
212.038585
 20
359.119519
 30
0.0
 10
212.023196
 20
359.292042
 30
0.0
 10
211.978647
 20
359.454036
 30
0.0
 10
211.907370
 20
359.603476
 30
0.0
 10
211.812603
 20
359.737121
 30
0.0
 10
211.697183
 20
359.852542
 30
0.0
 10
211.563132
 20
359.946904
 30
0.0
 10
211.413693
 20
360.017776
 30
0.0
 10
211.251294
 20
360.062324
 30
0.0
 10
211.079175
 20
360.077714
 30
0.0
 10
210.119360
 20
360.077714
 30
0.0
 10
210.119360
 20
362.001799
 30
0.0
 10
212.038585
 20
362.001799
 30
0.0
  0
LWPOLYLINE
  5
1e7
100
AcDbEntity
  8
path
 62
1
100
AcDbPolyline
 90
3
 70
0
 10
220.145987
 20
348.461924
 30
0.0
 10
216.737630
 20
343.532442
 30
0.0
 10
213.328869
 20
348.461924
 30
0.0
  0
LWPOLYLINE
  5
1e8
100
AcDbEntity
  8
path
 62
1
100
AcDbPolyline
 90
2
 70
0
 10
216.737630
 20
343.928923
 30
0.0
 10
216.737630
 20
338.241714
 30
0.0
  0
LWPOLYLINE
  5
1e9
100
AcDbEntity
  8
path
 62
1
100
AcDbPolyline
 90
2
 70
0
 10
229.567566
 20
343.351819
 30
0.0
 10
223.979578
 20
343.351819
 30
0.0
  0
LWPOLYLINE
  5
1ea
100
AcDbEntity
  8
path
 62
1
100
AcDbPolyline
 90
42
 70
0
 10
236.807894
 20
348.461519
 30
0.0
 10
236.807894
 20
348.461519
 30
0.0
 10
236.157893
 20
348.218123
 30
0.0
 10
235.561349
 20
347.889680
 30
0.0
 10
235.024339
 20
347.484694
 30
0.0
 10
234.553341
 20
347.011672
 30
0.0
 10
234.154025
 20
346.478711
 30
0.0
 10
233.832872
 20
345.893507
 30
0.0
 10
233.595955
 20
345.265375
 30
0.0
 10
233.449351
 20
344.601604
 30
0.0
 10
233.399133
 20
343.910699
 30
0.0
 10
233.399133
 20
340.514087
 30
0.0
 10
233.435581
 20
340.105861
 30
0.0
 10
233.541282
 20
339.721530
 30
0.0
 10
233.709351
 20
339.367573
 30
0.0
 10
233.933713
 20
339.050470
 30
0.0
 10
234.207483
 20
338.776699
 30
0.0
 10
234.524182
 20
338.552338
 30
0.0
 10
234.877734
 20
338.384269
 30
0.0
 10
235.261255
 20
338.278567
 30
0.0
 10
235.668265
 20
338.242119
 30
0.0
 10
235.668265
 20
338.242119
 30
0.0
 10
236.076491
 20
338.278567
 30
0.0
 10
236.460822
 20
338.384269
 30
0.0
 10
236.814374
 20
338.552338
 30
0.0
 10
237.131073
 20
338.776699
 30
0.0
 10
237.404438
 20
339.050470
 30
0.0
 10
237.627990
 20
339.367573
 30
0.0
 10
237.796059
 20
339.721530
 30
0.0
 10
237.901355
 20
340.105861
 30
0.0
 10
237.937803
 20
340.514087
 30
0.0
 10
237.937803
 20
341.644401
 30
0.0
 10
237.901355
 20
342.052626
 30
0.0
 10
237.796059
 20
342.436552
 30
0.0
 10
237.627990
 20
342.789699
 30
0.0
 10
237.404438
 20
343.105588
 30
0.0
 10
237.131073
 20
343.378548
 30
0.0
 10
236.814374
 20
343.601695
 30
0.0
 10
236.460822
 20
343.769359
 30
0.0
 10
236.076491
 20
343.874250
 30
0.0
 10
235.668265
 20
343.910699
 30
0.0
 10
233.399133
 20
343.910699
 30
0.0
  0
LWPOLYLINE
  5
1eb
100
AcDbEntity
  8
path
 62
1
100
AcDbPolyline
 90
3
 70
0
 10
188.292269
 20
367.484491
 30
0.0
 10
188.292269
 20
373.958182
 30
0.0
 10
186.852951
 20
372.518459
 30
0.0
  0
LWPOLYLINE
  5
1ec
100
AcDbEntity
  8
path
 62
1
100
AcDbPolyline
 90
34
 70
0
 10
190.095264
 20
375.617407
 30
0.0
 10
186.897095
 20
375.617407
 30
0.0
 10
189.852273
 20
380.374770
 30
0.0
 10
189.852273
 20
380.374770
 30
0.0
 10
189.855918
 20
380.379225
 30
0.0
 10
189.859157
 20
380.383679
 30
0.0
 10
189.862397
 20
380.388134
 30
0.0
 10
189.865637
 20
380.392589
 30
0.0
 10
189.868877
 20
380.397449
 30
0.0
 10
189.871712
 20
380.402309
 30
0.0
 10
189.874952
 20
380.407574
 30
0.0
 10
189.877787
 20
380.412838
 30
0.0
 10
189.880622
 20
380.418508
 30
0.0
 10
189.880622
 20
380.418508
 30
0.0
 10
190.002927
 20
380.680534
 30
0.0
 10
190.074205
 20
380.952279
 30
0.0
 10
190.096479
 20
381.227264
 30
0.0
 10
190.071370
 20
381.499819
 30
0.0
 10
190.000902
 20
381.763060
 30
0.0
 10
189.886696
 20
382.011721
 30
0.0
 10
189.730777
 20
382.239322
 30
0.0
 10
189.533954
 20
382.439385
 30
0.0
 10
189.299063
 20
382.606239
 30
0.0
 10
189.299063
 20
382.606239
 30
0.0
 10
189.036227
 20
382.726520
 30
0.0
 10
188.764482
 20
382.796987
 30
0.0
 10
188.489092
 20
382.818451
 30
0.0
 10
188.216942
 20
382.793342
 30
0.0
 10
187.953701
 20
382.722470
 30
0.0
 10
187.705040
 20
382.608264
 30
0.0
 10
187.477844
 20
382.451535
 30
0.0
 10
187.278186
 20
382.254307
 30
0.0
 10
187.111332
 20
382.017795
 30
0.0
 10
186.901549
 20
381.614835
 30
0.0
  0
LWPOLYLINE
  5
1ed
100
AcDbEntity
  8
path
 62
1
100
AcDbPolyline
 90
3
 70
0
 10
194.196146
 20
376.221240
 30
0.0
 10
192.046078
 20
373.111762
 30
0.0
 10
189.896011
 20
376.221240
 30
0.0
  0
LWPOLYLINE
  5
1ee
100
AcDbEntity
  8
path
 62
1
100
AcDbPolyline
 90
2
 70
0
 10
192.046078
 20
373.362043
 30
0.0
 10
192.046078
 20
369.774683
 30
0.0
  0
LWPOLYLINE
  5
1ef
100
AcDbEntity
  8
path
 62
1
100
AcDbPolyline
 90
2
 70
0
 10
200.138901
 20
372.997962
 30
0.0
 10
196.614313
 20
372.997962
 30
0.0
  0
LWPOLYLINE
  5
1f0
100
AcDbEntity
  8
path
 62
1
100
AcDbPolyline
 90
42
 70
0
 10
203.270247
 20
369.774683
 30
0.0
 10
203.270247
 20
369.774683
 30
0.0
 10
203.679688
 20
369.927363
 30
0.0
 10
204.055514
 20
370.133500
 30
0.0
 10
204.393677
 20
370.388236
 30
0.0
 10
204.690531
 20
370.685900
 30
0.0
 10
204.942027
 20
371.021633
 30
0.0
 10
205.144520
 20
371.389765
 30
0.0
 10
205.293959
 20
371.785435
 30
0.0
 10
205.386296
 20
372.202975
 30
0.0
 10
205.417885
 20
372.637930
 30
0.0
 10
205.417885
 20
374.787592
 30
0.0
 10
205.395206
 20
375.045163
 30
0.0
 10
205.328788
 20
375.287344
 30
0.0
 10
205.222682
 20
375.510896
 30
0.0
 10
205.081747
 20
375.710958
 30
0.0
 10
204.909223
 20
375.883482
 30
0.0
 10
204.709160
 20
376.025227
 30
0.0
 10
204.486418
 20
376.131333
 30
0.0
 10
204.244237
 20
376.197751
 30
0.0
 10
203.986666
 20
376.220835
 30
0.0
 10
203.986666
 20
376.220835
 30
0.0
 10
203.729906
 20
376.197751
 30
0.0
 10
203.487725
 20
376.131333
 30
0.0
 10
203.264983
 20
376.025227
 30
0.0
 10
203.064920
 20
375.883482
 30
0.0
 10
202.892396
 20
375.710958
 30
0.0
 10
202.751056
 20
375.510896
 30
0.0
 10
202.644950
 20
375.287344
 30
0.0
 10
202.578127
 20
375.045163
 30
0.0
 10
202.555043
 20
374.787592
 30
0.0
 10
202.555043
 20
374.070768
 30
0.0
 10
202.578127
 20
373.813197
 30
0.0
 10
202.644950
 20
373.570611
 30
0.0
 10
202.751056
 20
373.347464
 30
0.0
 10
202.892396
 20
373.147806
 30
0.0
 10
203.064920
 20
372.974877
 30
0.0
 10
203.264983
 20
372.833538
 30
0.0
 10
203.487725
 20
372.727431
 30
0.0
 10
203.729906
 20
372.661014
 30
0.0
 10
203.986666
 20
372.637930
 30
0.0
 10
205.417885
 20
372.637930
 30
0.0
  0
LWPOLYLINE
  5
1f1
100
AcDbEntity
  8
path
 62
1
100
AcDbPolyline
 90
2
 70
0
 10
202.376445
 20
368.969167
 30
0.0
 10
205.599318
 20
368.969167
 30
0.0
  0
LWPOLYLINE
  5
1f2
100
AcDbEntity
  8
path
 62
1
100
AcDbPolyline
 90
3
 70
0
 10
353.212429
 20
324.417539
 30
0.0
 10
353.212429
 20
330.891230
 30
0.0
 10
351.773111
 20
329.451912
 30
0.0
  0
LWPOLYLINE
  5
1f3
100
AcDbEntity
  8
path
 62
1
100
AcDbPolyline
 90
34
 70
0
 10
354.982215
 20
332.550455
 30
0.0
 10
351.784045
 20
332.550455
 30
0.0
 10
354.739223
 20
337.308223
 30
0.0
 10
354.739223
 20
337.308223
 30
0.0
 10
354.742868
 20
337.312677
 30
0.0
 10
354.746108
 20
337.317132
 30
0.0
 10
354.749348
 20
337.321587
 30
0.0
 10
354.752588
 20
337.326042
 30
0.0
 10
354.755423
 20
337.330902
 30
0.0
 10
354.758663
 20
337.335762
 30
0.0
 10
354.761498
 20
337.341026
 30
0.0
 10
354.764738
 20
337.346291
 30
0.0
 10
354.767572
 20
337.351961
 30
0.0
 10
354.767572
 20
337.351961
 30
0.0
 10
354.889473
 20
337.613986
 30
0.0
 10
354.961155
 20
337.885732
 30
0.0
 10
354.983430
 20
338.160717
 30
0.0
 10
354.958321
 20
338.433272
 30
0.0
 10
354.887853
 20
338.696512
 30
0.0
 10
354.773647
 20
338.945173
 30
0.0
 10
354.617323
 20
339.172370
 30
0.0
 10
354.420905
 20
339.372838
 30
0.0
 10
354.186013
 20
339.539692
 30
0.0
 10
354.186013
 20
339.539692
 30
0.0
 10
353.923178
 20
339.659972
 30
0.0
 10
353.651433
 20
339.730035
 30
0.0
 10
353.376043
 20
339.751904
 30
0.0
 10
353.103893
 20
339.726390
 30
0.0
 10
352.840652
 20
339.655923
 30
0.0
 10
352.591991
 20
339.541312
 30
0.0
 10
352.364794
 20
339.384987
 30
0.0
 10
352.165137
 20
339.187355
 30
0.0
 10
351.998283
 20
338.951248
 30
0.0
 10
351.788500
 20
338.548288
 30
0.0
  0
LWPOLYLINE
  5
1f4
100
AcDbEntity
  8
path
 62
1
100
AcDbPolyline
 90
45
 70
0
 10
351.784450
 20
341.047452
 30
0.0
 10
353.383738
 20
341.047452
 30
0.0
 10
353.383738
 20
341.047452
 30
0.0
 10
353.671277
 20
341.073371
 30
0.0
 10
353.941807
 20
341.147889
 30
0.0
 10
354.190873
 20
341.266144
 30
0.0
 10
354.414425
 20
341.423684
 30
0.0
 10
354.606793
 20
341.616457
 30
0.0
 10
354.764738
 20
341.839604
 30
0.0
 10
354.882993
 20
342.088265
 30
0.0
 10
354.957106
 20
342.357985
 30
0.0
 10
354.982620
 20
342.644310
 30
0.0
 10
354.982620
 20
343.445371
 30
0.0
 10
354.957106
 20
343.731695
 30
0.0
 10
354.882993
 20
344.001415
 30
0.0
 10
354.764738
 20
344.250076
 30
0.0
 10
354.606793
 20
344.472818
 30
0.0
 10
354.414425
 20
344.665591
 30
0.0
 10
354.190873
 20
344.823536
 30
0.0
 10
353.941807
 20
344.941791
 30
0.0
 10
353.671277
 20
345.016309
 30
0.0
 10
353.383738
 20
345.042228
 30
0.0
 10
352.583081
 20
345.042228
 30
0.0
 10
353.383738
 20
345.042228
 30
0.0
 10
353.383738
 20
345.042228
 30
0.0
 10
353.671277
 20
345.067742
 30
0.0
 10
353.941807
 20
345.142259
 30
0.0
 10
354.190873
 20
345.260920
 30
0.0
 10
354.414425
 20
345.418864
 30
0.0
 10
354.606793
 20
345.612042
 30
0.0
 10
354.764738
 20
345.835594
 30
0.0
 10
354.882993
 20
346.085065
 30
0.0
 10
354.957106
 20
346.355595
 30
0.0
 10
354.982620
 20
346.643540
 30
0.0
 10
354.982620
 20
346.643540
 30
0.0
 10
354.957106
 20
346.929864
 30
0.0
 10
354.882993
 20
347.199585
 30
0.0
 10
354.764738
 20
347.448246
 30
0.0
 10
354.606793
 20
347.671393
 30
0.0
 10
354.414425
 20
347.864166
 30
0.0
 10
354.190873
 20
348.021705
 30
0.0
 10
353.941807
 20
348.140366
 30
0.0
 10
353.671277
 20
348.214478
 30
0.0
 10
353.383738
 20
348.240397
 30
0.0
 10
351.784450
 20
348.240397
 30
0.0
  0
LWPOLYLINE
  5
1f5
100
AcDbEntity
  8
path
 62
1
100
AcDbPolyline
 90
3
 70
0
 10
355.416764
 20
351.145357
 30
0.0
 10
351.417939
 20
351.145357
 30
0.0
 10
353.014796
 20
356.745494
 30
0.0
  0
LWPOLYLINE
  5
1f6
100
AcDbEntity
  8
path
 62
1
100
AcDbPolyline
 90
2
 70
0
 10
354.218007
 20
349.544450
 30
0.0
 10
354.218007
 20
352.742619
 30
0.0
  0
LWPOLYLINE
  5
1f7
100
AcDbEntity
  8
path
 62
1
100
AcDbPolyline
 90
25
 70
0
 10
346.459298
 20
360.810332
 30
0.0
 10
346.828240
 20
360.810332
 30
0.0
 10
346.828240
 20
360.810332
 30
0.0
 10
346.894657
 20
360.816407
 30
0.0
 10
346.957025
 20
360.833417
 30
0.0
 10
347.014533
 20
360.860551
 30
0.0
 10
347.065966
 20
360.897404
 30
0.0
 10
347.110514
 20
360.941548
 30
0.0
 10
347.146963
 20
360.993386
 30
0.0
 10
347.174502
 20
361.050894
 30
0.0
 10
347.191916
 20
361.113666
 30
0.0
 10
347.197586
 20
361.180084
 30
0.0
 10
347.197586
 20
361.363947
 30
0.0
 10
347.191916
 20
361.430365
 30
0.0
 10
347.174502
 20
361.492733
 30
0.0
 10
347.146963
 20
361.550241
 30
0.0
 10
347.110919
 20
361.601674
 30
0.0
 10
347.065966
 20
361.646222
 30
0.0
 10
347.014533
 20
361.682266
 30
0.0
 10
346.957025
 20
361.709805
 30
0.0
 10
346.894657
 20
361.726814
 30
0.0
 10
346.828240
 20
361.732484
 30
0.0
 10
346.459298
 20
361.732484
 30
0.0
 10
346.459298
 20
362.473202
 30
0.0
 10
347.197586
 20
362.473202
 30
0.0
  0
LWPOLYLINE
  5
1f8
100
AcDbEntity
  8
path
 62
1
100
AcDbPolyline
 90
3
 70
0
 10
365.644669
 20
336.536320
 30
0.0
 10
362.542886
 20
332.049488
 30
0.0
 10
359.439888
 20
336.536320
 30
0.0
  0
LWPOLYLINE
  5
1f9
100
AcDbEntity
  8
path
 62
1
100
AcDbPolyline
 90
2
 70
0
 10
362.542886
 20
332.410330
 30
0.0
 10
362.542886
 20
327.233807
 30
0.0
  0
LWPOLYLINE
  5
1fa
100
AcDbEntity
  8
path
 62
1
100
AcDbPolyline
 90
2
 70
0
 10
374.220234
 20
331.885469
 30
0.0
 10
369.134023
 20
331.885469
 30
0.0
  0
LWPOLYLINE
  5
1fb
100
AcDbEntity
  8
path
 62
1
100
AcDbPolyline
 90
3
 70
0
 10
379.775823
 20
327.234212
 30
0.0
 10
381.843678
 20
336.536320
 30
0.0
 10
377.707158
 20
336.536320
 30
0.0
  0
LWPOLYLINE
  5
1fc
100
AcDbEntity
  8
path
 62
1
100
AcDbPolyline
 90
2
 70
0
 10
381.843678
 20
332.393725
 30
0.0
 10
379.775823
 20
332.393725
 30
0.0
  0
LWPOLYLINE
  5
1fd
100
AcDbEntity
  8
path
 62
1
100
AcDbPolyline
 90
3
 70
0
 10
43.119600
 20
390.047035
 30
0.0
 10
43.119600
 20
396.520726
 30
0.0
 10
41.680282
 20
395.081003
 30
0.0
  0
LWPOLYLINE
  5
1fe
100
AcDbEntity
  8
path
 62
1
100
AcDbPolyline
 90
34
 70
0
 10
43.089226
 20
398.179546
 30
0.0
 10
39.890895
 20
398.179546
 30
0.0
 10
42.846235
 20
402.937314
 30
0.0
 10
42.846235
 20
402.937314
 30
0.0
 10
42.849880
 20
402.941768
 30
0.0
 10
42.853120
 20
402.946223
 30
0.0
 10
42.856360
 20
402.950678
 30
0.0
 10
42.859600
 20
402.955538
 30
0.0
 10
42.862840
 20
402.959993
 30
0.0
 10
42.865674
 20
402.964853
 30
0.0
 10
42.868509
 20
402.970117
 30
0.0
 10
42.871749
 20
402.975787
 30
0.0
 10
42.874584
 20
402.981457
 30
0.0
 10
42.874584
 20
402.981457
 30
0.0
 10
42.996485
 20
403.243078
 30
0.0
 10
43.068167
 20
403.514823
 30
0.0
 10
43.090441
 20
403.789808
 30
0.0
 10
43.065332
 20
404.062363
 30
0.0
 10
42.994865
 20
404.325603
 30
0.0
 10
42.880659
 20
404.574264
 30
0.0
 10
42.724335
 20
404.801866
 30
0.0
 10
42.527917
 20
405.001524
 30
0.0
 10
42.293025
 20
405.167568
 30
0.0
 10
42.293025
 20
405.167568
 30
0.0
 10
42.030190
 20
405.289064
 30
0.0
 10
41.758445
 20
405.357911
 30
0.0
 10
41.483054
 20
405.382210
 30
0.0
 10
41.210904
 20
405.353861
 30
0.0
 10
40.947664
 20
405.285014
 30
0.0
 10
40.699003
 20
405.171618
 30
0.0
 10
40.471968
 20
405.013674
 30
0.0
 10
40.271986
 20
404.816851
 30
0.0
 10
40.105416
 20
404.580339
 30
0.0
 10
39.895309
 20
404.177379
 30
0.0
  0
LWPOLYLINE
  5
1ff
100
AcDbEntity
  8
path
 62
1
100
AcDbPolyline
 90
45
 70
0
 10
39.890895
 20
406.678163
 30
0.0
 10
41.489939
 20
406.678163
 30
0.0
 10
41.489939
 20
406.678163
 30
0.0
 10
41.777884
 20
406.702462
 30
0.0
 10
42.048414
 20
406.775360
 30
0.0
 10
42.297480
 20
406.896855
 30
0.0
 10
42.520627
 20
407.054800
 30
0.0
 10
42.713400
 20
407.245143
 30
0.0
 10
42.870939
 20
407.467885
 30
0.0
 10
42.989195
 20
407.718976
 30
0.0
 10
43.063307
 20
407.986266
 30
0.0
 10
43.089226
 20
408.273806
 30
0.0
 10
43.089226
 20
409.075677
 30
0.0
 10
43.063307
 20
409.359166
 30
0.0
 10
42.989195
 20
409.630507
 30
0.0
 10
42.870939
 20
409.877548
 30
0.0
 10
42.713400
 20
410.100290
 30
0.0
 10
42.520627
 20
410.294682
 30
0.0
 10
42.297480
 20
410.452627
 30
0.0
 10
42.048414
 20
410.570073
 30
0.0
 10
41.777884
 20
410.647020
 30
0.0
 10
41.489939
 20
410.671319
 30
0.0
 10
40.689283
 20
410.671319
 30
0.0
 10
41.489939
 20
410.671319
 30
0.0
 10
41.489939
 20
410.671319
 30
0.0
 10
41.777884
 20
410.695618
 30
0.0
 10
42.048414
 20
410.772565
 30
0.0
 10
42.297480
 20
410.890011
 30
0.0
 10
42.520627
 20
411.047955
 30
0.0
 10
42.713400
 20
411.242348
 30
0.0
 10
42.870939
 20
411.465090
 30
0.0
 10
42.989195
 20
411.716181
 30
0.0
 10
43.063307
 20
411.983471
 30
0.0
 10
43.089226
 20
412.271011
 30
0.0
 10
43.089226
 20
412.271011
 30
0.0
 10
43.063307
 20
412.558551
 30
0.0
 10
42.989195
 20
412.829891
 30
0.0
 10
42.870939
 20
413.076932
 30
0.0
 10
42.713400
 20
413.299674
 30
0.0
 10
42.520627
 20
413.494067
 30
0.0
 10
42.297480
 20
413.652011
 30
0.0
 10
42.048414
 20
413.769457
 30
0.0
 10
41.777884
 20
413.842354
 30
0.0
 10
41.489939
 20
413.870703
 30
0.0
 10
39.890895
 20
413.870703
 30
0.0
  0
LWPOLYLINE
  5
200
100
AcDbEntity
  8
path
 62
1
100
AcDbPolyline
 90
3
 70
0
 10
43.489352
 20
416.774448
 30
0.0
 10
39.490810
 20
416.774448
 30
0.0
 10
41.087789
 20
422.375395
 30
0.0
  0
LWPOLYLINE
  5
201
100
AcDbEntity
  8
path
 62
1
100
AcDbPolyline
 90
2
 70
0
 10
42.290595
 20
415.174756
 30
0.0
 10
42.290595
 20
418.370090
 30
0.0
  0
LWPOLYLINE
  5
202
100
AcDbEntity
  8
path
 62
1
100
AcDbPolyline
 90
25
 70
0
 10
40.912835
 20
424.015586
 30
0.0
 10
42.357823
 20
424.015586
 30
0.0
 10
42.357823
 20
424.015586
 30
0.0
 10
42.617013
 20
424.039885
 30
0.0
 10
42.861220
 20
424.108733
 30
0.0
 10
43.086391
 20
424.214029
 30
0.0
 10
43.288074
 20
424.355774
 30
0.0
 10
43.462218
 20
424.529918
 30
0.0
 10
43.605178
 20
424.732410
 30
0.0
 10
43.712094
 20
424.959202
 30
0.0
 10
43.779321
 20
425.202193
 30
0.0
 10
43.802811
 20
425.465434
 30
0.0
 10
43.802811
 20
426.182258
 30
0.0
 10
43.779321
 20
426.445498
 30
0.0
 10
43.712094
 20
426.688489
 30
0.0
 10
43.605178
 20
426.911231
 30
0.0
 10
43.462623
 20
427.113724
 30
0.0
 10
43.288074
 20
427.287868
 30
0.0
 10
43.086391
 20
427.429613
 30
0.0
 10
42.861625
 20
427.534909
 30
0.0
 10
42.617013
 20
427.603756
 30
0.0
 10
42.357823
 20
427.628056
 30
0.0
 10
40.912835
 20
427.628056
 30
0.0
 10
40.912835
 20
430.523701
 30
0.0
 10
43.802811
 20
430.523701
 30
0.0
  0
LWPOLYLINE
  5
203
100
AcDbEntity
  8
path
 62
1
100
AcDbPolyline
 90
4
 70
0
 10
27.073271
 20
399.336589
 30
0.0
 10
21.816682
 20
399.336589
 30
0.0
 10
27.073271
 20
408.804336
 30
0.0
 10
21.816682
 20
408.804336
 30
0.0
  0
LWPOLYLINE
  5
204
100
AcDbEntity
  8
path
 62
1
100
AcDbPolyline
 90
2
 70
0
 10
35.800867
 20
404.070058
 30
0.0
 10
30.624506
 20
404.070058
 30
0.0
  0
LWPOLYLINE
  5
205
100
AcDbEntity
  8
path
 62
1
100
AcDbPolyline
 90
42
 70
0
 10
42.508072
 20
408.804336
 30
0.0
 10
42.508072
 20
408.804336
 30
0.0
 10
41.905859
 20
408.577545
 30
0.0
 10
41.353459
 20
408.273806
 30
0.0
 10
40.855732
 20
407.897169
 30
0.0
 10
40.419441
 20
407.459785
 30
0.0
 10
40.049568
 20
406.965703
 30
0.0
 10
39.752147
 20
406.423023
 30
0.0
 10
39.532564
 20
405.843893
 30
0.0
 10
39.396691
 20
405.228316
 30
0.0
 10
39.350199
 20
404.587629
 30
0.0
 10
39.350199
 20
401.440893
 30
0.0
 10
39.384177
 20
401.063041
 30
0.0
 10
39.481941
 20
400.707059
 30
0.0
 10
39.637779
 20
400.379021
 30
0.0
 10
39.845334
 20
400.085407
 30
0.0
 10
40.098936
 20
399.831481
 30
0.0
 10
40.392388
 20
399.623723
 30
0.0
 10
40.719657
 20
399.468209
 30
0.0
 10
41.075234
 20
399.370203
 30
0.0
 10
41.452276
 20
399.336589
 30
0.0
 10
41.452276
 20
399.336589
 30
0.0
 10
41.830532
 20
399.370203
 30
0.0
 10
42.186514
 20
399.468209
 30
0.0
 10
42.514147
 20
399.623723
 30
0.0
 10
42.807357
 20
399.831481
 30
0.0
 10
43.060877
 20
400.085407
 30
0.0
 10
43.267825
 20
400.379021
 30
0.0
 10
43.423339
 20
400.707059
 30
0.0
 10
43.520941
 20
401.063041
 30
0.0
 10
43.554555
 20
401.440893
 30
0.0
 10
43.554555
 20
402.488185
 30
0.0
 10
43.520941
 20
402.866441
 30
0.0
 10
43.423339
 20
403.222018
 30
0.0
 10
43.267825
 20
403.549246
 30
0.0
 10
43.060877
 20
403.842051
 30
0.0
 10
42.807357
 20
404.094762
 30
0.0
 10
42.514147
 20
404.301709
 30
0.0
 10
42.186514
 20
404.456819
 30
0.0
 10
41.830532
 20
404.554015
 30
0.0
 10
41.452276
 20
404.587629
 30
0.0
 10
39.350199
 20
404.587629
 30
0.0
  0
LWPOLYLINE
  5
206
100
AcDbEntity
  8
path
 62
1
100
AcDbPolyline
 90
2
 70
0
 10
39.086959
 20
398.153222
 30
0.0
 10
43.820630
 20
398.153222
 30
0.0
  0
LWPOLYLINE
  5
207
100
AcDbEntity
  8
path
 62
1
100
AcDbPolyline
 90
3
 70
0
 10
162.510902
 20
390.047035
 30
0.0
 10
162.510902
 20
396.520726
 30
0.0
 10
161.071989
 20
395.081003
 30
0.0
  0
LWPOLYLINE
  5
208
100
AcDbEntity
  8
path
 62
1
100
AcDbPolyline
 90
34
 70
0
 10
164.274613
 20
398.179951
 30
0.0
 10
161.076444
 20
398.179951
 30
0.0
 10
164.031622
 20
402.937314
 30
0.0
 10
164.031622
 20
402.937314
 30
0.0
 10
164.035267
 20
402.941768
 30
0.0
 10
164.038506
 20
402.946223
 30
0.0
 10
164.041746
 20
402.950678
 30
0.0
 10
164.044986
 20
402.955538
 30
0.0
 10
164.048226
 20
402.959993
 30
0.0
 10
164.051061
 20
402.964853
 30
0.0
 10
164.054301
 20
402.970117
 30
0.0
 10
164.057136
 20
402.975787
 30
0.0
 10
164.059971
 20
402.981457
 30
0.0
 10
164.059971
 20
402.981457
 30
0.0
 10
164.182276
 20
403.243078
 30
0.0
 10
164.253554
 20
403.514823
 30
0.0
 10
164.275828
 20
403.789808
 30
0.0
 10
164.250719
 20
404.062363
 30
0.0
 10
164.180251
 20
404.325603
 30
0.0
 10
164.066045
 20
404.574264
 30
0.0
 10
163.909721
 20
404.801866
 30
0.0
 10
163.713303
 20
405.001524
 30
0.0
 10
163.478412
 20
405.167568
 30
0.0
 10
163.478412
 20
405.167568
 30
0.0
 10
163.215576
 20
405.289064
 30
0.0
 10
162.943831
 20
405.357911
 30
0.0
 10
162.668441
 20
405.382210
 30
0.0
 10
162.396291
 20
405.353861
 30
0.0
 10
162.133050
 20
405.285014
 30
0.0
 10
161.884389
 20
405.171618
 30
0.0
 10
161.657598
 20
405.013674
 30
0.0
 10
161.457535
 20
404.816851
 30
0.0
 10
161.290681
 20
404.580339
 30
0.0
 10
161.080898
 20
404.177379
 30
0.0
  0
LWPOLYLINE
  5
209
100
AcDbEntity
  8
path
 62
1
100
AcDbPolyline
 90
45
 70
0
 10
159.447997
 20
407.488134
 30
0.0
 10
160.687253
 20
407.488134
 30
0.0
 10
160.687253
 20
407.488134
 30
0.0
 10
160.910400
 20
407.508383
 30
0.0
 10
161.120182
 20
407.565081
 30
0.0
 10
161.313360
 20
407.654178
 30
0.0
 10
161.486289
 20
407.779723
 30
0.0
 10
161.635323
 20
407.925518
 30
0.0
 10
161.757629
 20
408.099662
 30
0.0
 10
161.849561
 20
408.294055
 30
0.0
 10
161.907069
 20
408.500597
 30
0.0
 10
161.926913
 20
408.723339
 30
0.0
 10
161.926913
 20
409.342967
 30
0.0
 10
161.907069
 20
409.565709
 30
0.0
 10
161.849561
 20
409.776301
 30
0.0
 10
161.757629
 20
409.970694
 30
0.0
 10
161.635323
 20
410.140788
 30
0.0
 10
161.486289
 20
410.290633
 30
0.0
 10
161.313360
 20
410.412128
 30
0.0
 10
161.120182
 20
410.505275
 30
0.0
 10
160.910400
 20
410.561973
 30
0.0
 10
160.687253
 20
410.582222
 30
0.0
 10
160.066815
 20
410.582222
 30
0.0
 10
160.687253
 20
410.582222
 30
0.0
 10
160.687253
 20
410.582222
 30
0.0
 10
160.910400
 20
410.602471
 30
0.0
 10
161.120182
 20
410.659169
 30
0.0
 10
161.313360
 20
410.752316
 30
0.0
 10
161.486289
 20
410.873812
 30
0.0
 10
161.635323
 20
411.023656
 30
0.0
 10
161.757629
 20
411.197800
 30
0.0
 10
161.849561
 20
411.392193
 30
0.0
 10
161.907069
 20
411.602785
 30
0.0
 10
161.926913
 20
411.825527
 30
0.0
 10
161.926913
 20
411.825527
 30
0.0
 10
161.907069
 20
412.044219
 30
0.0
 10
161.849561
 20
412.254812
 30
0.0
 10
161.757629
 20
412.449205
 30
0.0
 10
161.635323
 20
412.619298
 30
0.0
 10
161.486289
 20
412.769143
 30
0.0
 10
161.313360
 20
412.890639
 30
0.0
 10
161.120182
 20
412.983785
 30
0.0
 10
160.910400
 20
413.040483
 30
0.0
 10
160.687253
 20
413.060732
 30
0.0
 10
159.447997
 20
413.060732
 30
0.0
  0
LWPOLYLINE
  5
20a
100
AcDbEntity
  8
path
 62
1
100
AcDbPolyline
 90
3
 70
0
 10
172.183977
 20
401.269584
 30
0.0
 10
169.484749
 20
397.365120
 30
0.0
 10
166.784712
 20
401.269584
 30
0.0
  0
LWPOLYLINE
  5
20b
100
AcDbEntity
  8
path
 62
1
100
AcDbPolyline
 90
2
 70
0
 10
169.484749
 20
397.679389
 30
0.0
 10
169.484749
 20
393.174737
 30
0.0
  0
LWPOLYLINE
  5
20c
100
AcDbEntity
  8
path
 62
1
100
AcDbPolyline
 90
2
 70
0
 10
179.646237
 20
397.222160
 30
0.0
 10
175.220557
 20
397.222160
 30
0.0
  0
LWPOLYLINE
  5
20d
100
AcDbEntity
  8
path
 62
1
100
AcDbPolyline
 90
43
 70
1
 10
182.680792
 20
394.969632
 30
0.0
 10
182.680792
 20
394.969632
 30
0.0
 10
182.709546
 20
394.646454
 30
0.0
 10
182.793378
 20
394.342714
 30
0.0
 10
182.926618
 20
394.062870
 30
0.0
 10
183.104002
 20
393.812589
 30
0.0
 10
183.320669
 20
393.596326
 30
0.0
 10
183.571760
 20
393.419348
 30
0.0
 10
183.851605
 20
393.286918
 30
0.0
 10
184.155344
 20
393.203896
 30
0.0
 10
184.478117
 20
393.174737
 30
0.0
 10
184.478117
 20
393.174737
 30
0.0
 10
184.800485
 20
393.203896
 30
0.0
 10
185.104224
 20
393.286918
 30
0.0
 10
185.384474
 20
393.419348
 30
0.0
 10
185.635160
 20
393.596326
 30
0.0
 10
185.852232
 20
393.812589
 30
0.0
 10
186.029616
 20
394.062870
 30
0.0
 10
186.162856
 20
394.342714
 30
0.0
 10
186.246283
 20
394.646454
 30
0.0
 10
186.275442
 20
394.969632
 30
0.0
 10
186.275442
 20
395.865054
 30
0.0
 10
186.246283
 20
396.188638
 30
0.0
 10
186.162856
 20
396.492782
 30
0.0
 10
186.029616
 20
396.773032
 30
0.0
 10
185.852232
 20
397.024122
 30
0.0
 10
185.635565
 20
397.241195
 30
0.0
 10
185.384474
 20
397.418578
 30
0.0
 10
185.104629
 20
397.551818
 30
0.0
 10
184.800890
 20
397.635650
 30
0.0
 10
184.478117
 20
397.664404
 30
0.0
 10
184.478117
 20
397.664404
 30
0.0
 10
184.155344
 20
397.635650
 30
0.0
 10
183.851200
 20
397.551818
 30
0.0
 10
183.571355
 20
397.418578
 30
0.0
 10
183.320669
 20
397.240790
 30
0.0
 10
183.104002
 20
397.024122
 30
0.0
 10
182.926213
 20
396.772627
 30
0.0
 10
182.793378
 20
396.492782
 30
0.0
 10
182.709546
 20
396.188233
 30
0.0
 10
182.680792
 20
395.865054
 30
0.0
 10
182.680792
 20
394.969632
 30
0.0
 10
182.680792
 20
394.969632
 30
0.0
  0
LWPOLYLINE
  5
20e
100
AcDbEntity
  8
path
 62
1
100
AcDbPolyline
 90
42
 70
1
 10
186.275442
 20
399.464564
 30
0.0
 10
186.275442
 20
399.464564
 30
0.0
 10
186.246283
 20
399.786528
 30
0.0
 10
186.162856
 20
400.089457
 30
0.0
 10
186.029616
 20
400.368897
 30
0.0
 10
185.852232
 20
400.619582
 30
0.0
 10
185.635565
 20
400.836250
 30
0.0
 10
185.384474
 20
401.013633
 30
0.0
 10
185.104629
 20
401.146468
 30
0.0
 10
184.800890
 20
401.230300
 30
0.0
 10
184.478117
 20
401.259459
 30
0.0
 10
184.478117
 20
401.259459
 30
0.0
 10
184.155344
 20
401.230300
 30
0.0
 10
183.851200
 20
401.146468
 30
0.0
 10
183.571355
 20
401.013633
 30
0.0
 10
183.320669
 20
400.836250
 30
0.0
 10
183.104002
 20
400.619582
 30
0.0
 10
182.926213
 20
400.368897
 30
0.0
 10
182.793378
 20
400.089457
 30
0.0
 10
182.709546
 20
399.786528
 30
0.0
 10
182.680792
 20
399.464564
 30
0.0
 10
182.680792
 20
399.464564
 30
0.0
 10
182.709546
 20
399.140981
 30
0.0
 10
182.793378
 20
398.836837
 30
0.0
 10
182.926618
 20
398.556182
 30
0.0
 10
183.104002
 20
398.305091
 30
0.0
 10
183.320669
 20
398.088019
 30
0.0
 10
183.571760
 20
397.910230
 30
0.0
 10
183.851605
 20
397.777395
 30
0.0
 10
184.155344
 20
397.693563
 30
0.0
 10
184.478117
 20
397.664404
 30
0.0
 10
184.478117
 20
397.664404
 30
0.0
 10
184.800485
 20
397.693563
 30
0.0
 10
185.104224
 20
397.777395
 30
0.0
 10
185.384474
 20
397.910230
 30
0.0
 10
185.635160
 20
398.088019
 30
0.0
 10
185.852232
 20
398.305091
 30
0.0
 10
186.029616
 20
398.556182
 30
0.0
 10
186.162856
 20
398.836837
 30
0.0
 10
186.246283
 20
399.140981
 30
0.0
 10
186.275442
 20
399.464564
 30
0.0
 10
186.275442
 20
399.464564
 30
0.0
  0
ENDSEC
  0
SECTION
  2
OBJECTS
  0
DICTIONARY
  5
C
330
0
100
AcDbDictionary
  3
ACAD_GROUP
350
D
  3
ACAD_MLINESTYLE
350
17
  0
DICTIONARY
  5
D
330
C
100
AcDbDictionary
  0
DICTIONARY
  5
1A
330
C
100
AcDbDictionary
  0
DICTIONARY
  5
17
330
C
100
AcDbDictionary
  3
STANDARD
350
18
  0
DICTIONARY
  5
19
330
C
100
AcDbDictionary
  0
ENDSEC
  0
EOF
