  0
SECTION
  2
HEADER
  9
$ACADVER
  1
AC1009
  9
$FILLMODE
 70
1
  9
$EXTMIN
 10
-2.5400
 20
-39.3700
 30
0.0000
  9
$EXTMAX
 10
100.0000
 20
80.0000
 30
0.0000
  0
ENDSEC
  0
SECTION
  2
TABLES
  0
TABLE
  2
LTYPE
 70
1
  0
LTYPE
  2
CONTINUOUS
 70
64
  3
Solid line
 72
65
 73
0
 40
0
  0
ENDTAB
  0
TABLE
  2
LAYER
 70
255
  0
LAYER
  2
1
 70
64
 62
22
  6
CONTINUOUS
  0
ENDTAB
  0
ENDSEC
  0
SECTION
  2
BLOCKS
  0
BLOCK
  8
0
  2
RECT
 70
64
 10
0.0000
 20
0.0000
 30
0.0000
  3
RECT
  0
SOLID
  8
0
 10
-0.5000
 20
-0.5000
 30
0.0000
 11
0.5000
 21
-0.5000
 31
0.0000
 12
-0.5000
 22
0.5000
 32
0.0000
 13
0.5000
 23
0.5000
 33
0.0000
  0
ENDBLK
  8
0
  0
BLOCK
  8
0
  2
PIE
 70
64
 10
0.0000
 20
0.0000
 30
0.0000
  3
PIE
  0
POLYLINE
  8
0
 66
1
 10
0.0000
 20
0.0000
 30
0.0000
 40
0.5000
 41
0.5000
 70
0
  0
VERTEX
  8
0
 10
0.0000
 20
-0.2500
 30
0.0000
 42
1.0000
  0
VERTEX
  8
0
 10
0.0000
 20
0.2500
 30
0.0000
 42
1.0000
  0
VERTEX
  8
0
 10
0.0000
 20
-0.2500
 30
0.0000
  0
SEQEND
  8
0
  0
ENDBLK
  8
0
  0
BLOCK
  8
0
  2
OCTAGONP
 70
64
 10
0.0000
 20
0.0000
 30
0.0000
  3
OCTAGONP
  0
POLYLINE
  8
0
 66
1
 10
0.0000
 20
0.0000
 30
0.0000
 40
0.5000
 41
0.5000
 70
0
  0
VERTEX
  8
0
 10
-0.2500
 20
-0.1036
 30
0.0000
  0
VERTEX
  8
0
 10
-0.2500
 20
0.1036
 30
0.0000
  0
VERTEX
  8
0
 10
-0.1036
 20
0.2500
 30
0.0000
  0
VERTEX
  8
0
 10
0.1036
 20
0.2500
 30
0.0000
  0
VERTEX
  8
0
 10
0.2500
 20
0.1036
 30
0.0000
  0
VERTEX
  8
0
 10
0.2500
 20
-0.1036
 30
0.0000
  0
VERTEX
  8
0
 10
0.1036
 20
-0.2500
 30
0.0000
  0
VERTEX
  8
0
 10
-0.1036
 20
-0.2500
 30
0.0000
  0
VERTEX
  8
0
 10
-0.2500
 20
-0.1036
 30
0.0000
  0
VERTEX
  8
0
 10
-0.2500
 20
0.1036
 30
0.0000
  0
SEQEND
  8
0
  0
ENDBLK
  8
0
  0
BLOCK
  8
0
  2
SQUAREP
 70
64
 10
0.0000
 20
0.0000
 30
0.0000
  3
SQUAREP
  0
SOLID
  8
0
 10
-0.5000
 20
-0.5000
 30
0.0000
 11
0.5000
 21
-0.5000
 31
0.0000
 12
-0.5000
 22
0.5000
 32
0.0000
 13
0.5000
 23
0.5000
 33
0.0000
  0
ENDBLK
  8
0
  0
BLOCK
  8
0
  2
ROUNDP
 70
64
 10
0.0000
 20
0.0000
 30
0.0000
  3
ROUNDP
  0
POLYLINE
  8
0
 66
1
 10
0.0000
 20
0.0000
 30
0.0000
 40
0.5000
 41
0.5000
 70
0
  0
VERTEX
  8
0
 10
0.0000
 20
-0.2500
 30
0.0000
 42
1.0000
  0
VERTEX
  8
0
 10
0.0000
 20
0.2500
 30
0.0000
 42
1.0000
  0
VERTEX
  8
0
 10
0.0000
 20
-0.2500
 30
0.0000
  0
SEQEND
  8
0
  0
ENDBLK
  8
0
  0
BLOCK
  8
0
  2
ANNULUSP
 70
64
 10
0.0000
 20
0.0000
 30
0.0000
  3
ANNULUSP
  0
POLYLINE
  8
0
 66
1
 10
0.0000
 20
0.0000
 30
0.0000
 40
0.5000
 41
0.5000
 70
0
  0
VERTEX
  8
0
 10
0.0000
 20
-0.2500
 30
0.0000
 42
1.0000
  0
VERTEX
  8
0
 10
0.0000
 20
0.2500
 30
0.0000
 42
1.0000
  0
VERTEX
  8
0
 10
0.0000
 20
-0.2500
 30
0.0000
  0
SEQEND
  8
0
  0
ENDBLK
  8
0
  0
BLOCK
  8
0
  2
THERMALP
 70
64
 10
0.0000
 20
0.0000
 30
0.0000
  3
THERMALP
  0
POLYLINE
  8
0
 66
1
 10
0.0000
 20
0.0000
 30
0.0000
 40
0.1000
 41
0.1000
 70
0
  0
VERTEX
  8
0
 10
-0.2379
 20
0.4500
 30
0.0000
  0
VERTEX
  8
0
 10
0.2379
 20
0.4500
 30
0.0000
  0
SEQEND
  8
0
  0
POLYLINE
  8
0
 66
1
 10
0.0000
 20
0.0000
 30
0.0000
 40
0.0500
 41
0.0500
 70
0
  0
VERTEX
  8
0
 10
0.2379
 20
0.4250
 30
0.0000
 42
1.0000
  0
VERTEX
  8
0
 10
0.2379
 20
0.4750
 30
0.0000
  0
SEQEND
  8
0
  0
POLYLINE
  8
0
 66
1
 10
0.0000
 20
0.0000
 30
0.0000
 40
0.0500
 41
0.0500
 70
0
  0
VERTEX
  8
0
 10
-0.2379
 20
0.4750
 30
0.0000
 42
1.0000
  0
VERTEX
  8
0
 10
-0.2379
 20
0.4250
 30
0.0000
  0
SEQEND
  8
0
  0
POLYLINE
  8
0
 66
1
 10
0.0000
 20
0.0000
 30
0.0000
 40
0.1000
 41
0.1000
 70
0
  0
VERTEX
  8
0
 10
0.4500
 20
0.2379
 30
0.0000
  0
VERTEX
  8
0
 10
0.4500
 20
-0.2379
 30
0.0000
  0
SEQEND
  8
0
  0
POLYLINE
  8
0
 66
1
 10
0.0000
 20
0.0000
 30
0.0000
 40
0.0500
 41
0.0500
 70
0
  0
VERTEX
  8
0
 10
0.4250
 20
-0.2379
 30
0.0000
 42
1.0000
  0
VERTEX
  8
0
 10
0.4750
 20
-0.2379
 30
0.0000
  0
SEQEND
  8
0
  0
POLYLINE
  8
0
 66
1
 10
0.0000
 20
0.0000
 30
0.0000
 40
0.0500
 41
0.0500
 70
0
  0
VERTEX
  8
0
 10
0.4750
 20
0.2379
 30
0.0000
 42
1.0000
  0
VERTEX
  8
0
 10
0.4250
 20
0.2379
 30
0.0000
  0
SEQEND
  8
0
  0
POLYLINE
  8
0
 66
1
 10
0.0000
 20
0.0000
 30
0.0000
 40
0.1000
 41
0.1000
 70
0
  0
VERTEX
  8
0
 10
0.2379
 20
-0.4500
 30
0.0000
  0
VERTEX
  8
0
 10
-0.2379
 20
-0.4500
 30
0.0000
  0
SEQEND
  8
0
  0
POLYLINE
  8
0
 66
1
 10
0.0000
 20
0.0000
 30
0.0000
 40
0.0500
 41
0.0500
 70
0
  0
VERTEX
  8
0
 10
-0.2379
 20
-0.4250
 30
0.0000
 42
1.0000
  0
VERTEX
  8
0
 10
-0.2379
 20
-0.4750
 30
0.0000
  0
SEQEND
  8
0
  0
POLYLINE
  8
0
 66
1
 10
0.0000
 20
0.0000
 30
0.0000
 40
0.0500
 41
0.0500
 70
0
  0
VERTEX
  8
0
 10
0.2379
 20
-0.4750
 30
0.0000
 42
1.0000
  0
VERTEX
  8
0
 10
0.2379
 20
-0.4250
 30
0.0000
  0
SEQEND
  8
0
  0
POLYLINE
  8
0
 66
1
 10
0.0000
 20
0.0000
 30
0.0000
 40
0.1000
 41
0.1000
 70
0
  0
VERTEX
  8
0
 10
-0.4500
 20
-0.2379
 30
0.0000
  0
VERTEX
  8
0
 10
-0.4500
 20
0.2379
 30
0.0000
  0
SEQEND
  8
0
  0
POLYLINE
  8
0
 66
1
 10
0.0000
 20
0.0000
 30
0.0000
 40
0.0500
 41
0.0500
 70
0
  0
VERTEX
  8
0
 10
-0.4250
 20
0.2379
 30
0.0000
 42
1.0000
  0
VERTEX
  8
0
 10
-0.4750
 20
0.2379
 30
0.0000
  0
SEQEND
  8
0
  0
POLYLINE
  8
0
 66
1
 10
0.0000
 20
0.0000
 30
0.0000
 40
0.0500
 41
0.0500
 70
0
  0
VERTEX
  8
0
 10
-0.4750
 20
-0.2379
 30
0.0000
 42
1.0000
  0
VERTEX
  8
0
 10
-0.4250
 20
-0.2379
 30
0.0000
  0
SEQEND
  8
0
  0
ENDBLK
  8
0
  0
BLOCK
  8
0
  2
OCTAGONV
 70
64
 10
0.0000
 20
0.0000
 30
0.0000
  3
OCTAGONV
  0
POLYLINE
  8
0
 66
1
 10
0.0000
 20
0.0000
 30
0.0000
 40
0.5000
 41
0.5000
 70
0
  0
VERTEX
  8
0
 10
-0.2500
 20
-0.1036
 30
0.0000
  0
VERTEX
  8
0
 10
-0.2500
 20
0.1036
 30
0.0000
  0
VERTEX
  8
0
 10
-0.1036
 20
0.2500
 30
0.0000
  0
VERTEX
  8
0
 10
0.1036
 20
0.2500
 30
0.0000
  0
VERTEX
  8
0
 10
0.2500
 20
0.1036
 30
0.0000
  0
VERTEX
  8
0
 10
0.2500
 20
-0.1036
 30
0.0000
  0
VERTEX
  8
0
 10
0.1036
 20
-0.2500
 30
0.0000
  0
VERTEX
  8
0
 10
-0.1036
 20
-0.2500
 30
0.0000
  0
VERTEX
  8
0
 10
-0.2500
 20
-0.1036
 30
0.0000
  0
VERTEX
  8
0
 10
-0.2500
 20
0.1036
 30
0.0000
  0
SEQEND
  8
0
  0
ENDBLK
  8
0
  0
BLOCK
  8
0
  2
SQUAREV
 70
64
 10
0.0000
 20
0.0000
 30
0.0000
  3
SQUAREV
  0
SOLID
  8
0
 10
-0.5000
 20
-0.5000
 30
0.0000
 11
0.5000
 21
-0.5000
 31
0.0000
 12
-0.5000
 22
0.5000
 32
0.0000
 13
0.5000
 23
0.5000
 33
0.0000
  0
ENDBLK
  8
0
  0
BLOCK
  8
0
  2
ROUNDV
 70
64
 10
0.0000
 20
0.0000
 30
0.0000
  3
ROUNDV
  0
POLYLINE
  8
0
 66
1
 10
0.0000
 20
0.0000
 30
0.0000
 40
0.5000
 41
0.5000
 70
0
  0
VERTEX
  8
0
 10
0.0000
 20
-0.2500
 30
0.0000
 42
1.0000
  0
VERTEX
  8
0
 10
0.0000
 20
0.2500
 30
0.0000
 42
1.0000
  0
VERTEX
  8
0
 10
0.0000
 20
-0.2500
 30
0.0000
  0
SEQEND
  8
0
  0
ENDBLK
  8
0
  0
BLOCK
  8
0
  2
ANNULUSV
 70
64
 10
0.0000
 20
0.0000
 30
0.0000
  3
ANNULUSV
  0
POLYLINE
  8
0
 66
1
 10
0.0000
 20
0.0000
 30
0.0000
 40
0.5000
 41
0.5000
 70
0
  0
VERTEX
  8
0
 10
0.0000
 20
-0.2500
 30
0.0000
 42
1.0000
  0
VERTEX
  8
0
 10
0.0000
 20
0.2500
 30
0.0000
 42
1.0000
  0
VERTEX
  8
0
 10
0.0000
 20
-0.2500
 30
0.0000
  0
SEQEND
  8
0
  0
ENDBLK
  8
0
  0
BLOCK
  8
0
  2
THERMALV
 70
64
 10
0.0000
 20
0.0000
 30
0.0000
  3
THERMALV
  0
POLYLINE
  8
0
 66
1
 10
0.0000
 20
0.0000
 30
0.0000
 40
0.1000
 41
0.1000
 70
0
  0
VERTEX
  8
0
 10
-0.2379
 20
0.4500
 30
0.0000
  0
VERTEX
  8
0
 10
0.2379
 20
0.4500
 30
0.0000
  0
SEQEND
  8
0
  0
POLYLINE
  8
0
 66
1
 10
0.0000
 20
0.0000
 30
0.0000
 40
0.0500
 41
0.0500
 70
0
  0
VERTEX
  8
0
 10
0.2379
 20
0.4250
 30
0.0000
 42
1.0000
  0
VERTEX
  8
0
 10
0.2379
 20
0.4750
 30
0.0000
  0
SEQEND
  8
0
  0
POLYLINE
  8
0
 66
1
 10
0.0000
 20
0.0000
 30
0.0000
 40
0.0500
 41
0.0500
 70
0
  0
VERTEX
  8
0
 10
-0.2379
 20
0.4750
 30
0.0000
 42
1.0000
  0
VERTEX
  8
0
 10
-0.2379
 20
0.4250
 30
0.0000
  0
SEQEND
  8
0
  0
POLYLINE
  8
0
 66
1
 10
0.0000
 20
0.0000
 30
0.0000
 40
0.1000
 41
0.1000
 70
0
  0
VERTEX
  8
0
 10
0.4500
 20
0.2379
 30
0.0000
  0
VERTEX
  8
0
 10
0.4500
 20
-0.2379
 30
0.0000
  0
SEQEND
  8
0
  0
POLYLINE
  8
0
 66
1
 10
0.0000
 20
0.0000
 30
0.0000
 40
0.0500
 41
0.0500
 70
0
  0
VERTEX
  8
0
 10
0.4250
 20
-0.2379
 30
0.0000
 42
1.0000
  0
VERTEX
  8
0
 10
0.4750
 20
-0.2379
 30
0.0000
  0
SEQEND
  8
0
  0
POLYLINE
  8
0
 66
1
 10
0.0000
 20
0.0000
 30
0.0000
 40
0.0500
 41
0.0500
 70
0
  0
VERTEX
  8
0
 10
0.4750
 20
0.2379
 30
0.0000
 42
1.0000
  0
VERTEX
  8
0
 10
0.4250
 20
0.2379
 30
0.0000
  0
SEQEND
  8
0
  0
POLYLINE
  8
0
 66
1
 10
0.0000
 20
0.0000
 30
0.0000
 40
0.1000
 41
0.1000
 70
0
  0
VERTEX
  8
0
 10
0.2379
 20
-0.4500
 30
0.0000
  0
VERTEX
  8
0
 10
-0.2379
 20
-0.4500
 30
0.0000
  0
SEQEND
  8
0
  0
POLYLINE
  8
0
 66
1
 10
0.0000
 20
0.0000
 30
0.0000
 40
0.0500
 41
0.0500
 70
0
  0
VERTEX
  8
0
 10
-0.2379
 20
-0.4250
 30
0.0000
 42
1.0000
  0
VERTEX
  8
0
 10
-0.2379
 20
-0.4750
 30
0.0000
  0
SEQEND
  8
0
  0
POLYLINE
  8
0
 66
1
 10
0.0000
 20
0.0000
 30
0.0000
 40
0.0500
 41
0.0500
 70
0
  0
VERTEX
  8
0
 10
0.2379
 20
-0.4750
 30
0.0000
 42
1.0000
  0
VERTEX
  8
0
 10
0.2379
 20
-0.4250
 30
0.0000
  0
SEQEND
  8
0
  0
POLYLINE
  8
0
 66
1
 10
0.0000
 20
0.0000
 30
0.0000
 40
0.1000
 41
0.1000
 70
0
  0
VERTEX
  8
0
 10
-0.4500
 20
-0.2379
 30
0.0000
  0
VERTEX
  8
0
 10
-0.4500
 20
0.2379
 30
0.0000
  0
SEQEND
  8
0
  0
POLYLINE
  8
0
 66
1
 10
0.0000
 20
0.0000
 30
0.0000
 40
0.0500
 41
0.0500
 70
0
  0
VERTEX
  8
0
 10
-0.4250
 20
0.2379
 30
0.0000
 42
1.0000
  0
VERTEX
  8
0
 10
-0.4750
 20
0.2379
 30
0.0000
  0
SEQEND
  8
0
  0
POLYLINE
  8
0
 66
1
 10
0.0000
 20
0.0000
 30
0.0000
 40
0.0500
 41
0.0500
 70
0
  0
VERTEX
  8
0
 10
-0.4750
 20
-0.2379
 30
0.0000
 42
1.0000
  0
VERTEX
  8
0
 10
-0.4250
 20
-0.2379
 30
0.0000
  0
SEQEND
  8
0
  0
ENDBLK
  8
0
  0
ENDSEC
  0
SECTION
  2
ENTITIES
  0
INSERT
  8
1
  2
RECT
 10
52.9590
 20
55.8800
 30
0.0000
 41
1.2700
 42
1.9050
 43
1.0000
 50
0.0000
  0
INSERT
  8
1
  2
RECT
 10
56.2610
 20
55.8800
 30
0.0000
 41
1.2700
 42
1.9050
 43
1.0000
 50
0.0000
  0
INSERT
  8
1
  2
RECT
 10
49.4665
 20
52.0700
 30
0.0000
 41
0.6096
 42
2.2098
 43
1.0000
 50
270.0000
  0
INSERT
  8
1
  2
RECT
 10
49.4665
 20
50.8000
 30
0.0000
 41
0.6096
 42
2.2098
 43
1.0000
 50
270.0000
  0
INSERT
  8
1
  2
RECT
 10
49.4665
 20
49.5300
 30
0.0000
 41
0.6096
 42
2.2098
 43
1.0000
 50
270.0000
  0
INSERT
  8
1
  2
RECT
 10
49.4665
 20
48.2600
 30
0.0000
 41
0.6096
 42
2.2098
 43
1.0000
 50
270.0000
  0
INSERT
  8
1
  2
RECT
 10
49.4665
 20
46.9900
 30
0.0000
 41
0.6096
 42
2.2098
 43
1.0000
 50
270.0000
  0
INSERT
  8
1
  2
RECT
 10
49.4665
 20
45.7200
 30
0.0000
 41
0.6096
 42
2.2098
 43
1.0000
 50
270.0000
  0
INSERT
  8
1
  2
RECT
 10
49.4665
 20
44.4500
 30
0.0000
 41
0.6096
 42
2.2098
 43
1.0000
 50
270.0000
  0
INSERT
  8
1
  2
RECT
 10
54.6735
 20
44.4500
 30
0.0000
 41
0.6096
 42
2.2098
 43
1.0000
 50
270.0000
  0
INSERT
  8
1
  2
RECT
 10
54.6735
 20
45.7200
 30
0.0000
 41
0.6096
 42
2.2098
 43
1.0000
 50
270.0000
  0
INSERT
  8
1
  2
RECT
 10
54.6735
 20
46.9900
 30
0.0000
 41
0.6096
 42
2.2098
 43
1.0000
 50
270.0000
  0
INSERT
  8
1
  2
RECT
 10
54.6735
 20
48.2600
 30
0.0000
 41
0.6096
 42
2.2098
 43
1.0000
 50
270.0000
  0
INSERT
  8
1
  2
RECT
 10
54.6735
 20
49.5300
 30
0.0000
 41
0.6096
 42
2.2098
 43
1.0000
 50
270.0000
  0
INSERT
  8
1
  2
RECT
 10
54.6735
 20
50.8000
 30
0.0000
 41
0.6096
 42
2.2098
 43
1.0000
 50
270.0000
  0
INSERT
  8
1
  2
RECT
 10
54.6735
 20
52.0700
 30
0.0000
 41
0.6096
 42
2.2098
 43
1.0000
 50
270.0000
  0
INSERT
  8
1
  2
RECT
 10
50.8000
 20
35.5600
 30
0.0000
 41
2.5400
 42
1.2700
 43
1.0000
 50
90.0000
  0
INSERT
  8
1
  2
RECT
 10
50.8000
 20
41.0200
 30
0.0000
 41
2.5400
 42
1.2700
 43
1.0000
 50
90.0000
  0
INSERT
  8
1
  2
RECT
 10
53.3400
 20
35.5600
 30
0.0000
 41
2.5400
 42
1.2700
 43
1.0000
 50
90.0000
  0
INSERT
  8
1
  2
RECT
 10
53.3400
 20
41.0200
 30
0.0000
 41
2.5400
 42
1.2700
 43
1.0000
 50
90.0000
  0
INSERT
  8
1
  2
RECT
 10
55.8800
 20
35.5600
 30
0.0000
 41
2.5400
 42
1.2700
 43
1.0000
 50
90.0000
  0
INSERT
  8
1
  2
RECT
 10
55.8800
 20
41.0200
 30
0.0000
 41
2.5400
 42
1.2700
 43
1.0000
 50
90.0000
  0
INSERT
  8
1
  2
RECT
 10
46.6090
 20
55.8800
 30
0.0000
 41
1.2700
 42
1.9050
 43
1.0000
 50
0.0000
  0
INSERT
  8
1
  2
RECT
 10
49.9110
 20
55.8800
 30
0.0000
 41
1.2700
 42
1.9050
 43
1.0000
 50
0.0000
  0
INSERT
  8
1
  2
RECT
 10
38.7090
 20
55.8400
 30
0.0000
 41
1.2700
 42
1.9050
 43
1.0000
 50
0.0000
  0
INSERT
  8
1
  2
RECT
 10
42.0110
 20
55.8400
 30
0.0000
 41
1.2700
 42
1.9050
 43
1.0000
 50
0.0000
  0
INSERT
  8
1
  2
RECT
 10
42.4690
 20
36.1300
 30
0.0000
 41
1.2700
 42
1.9050
 43
1.0000
 50
0.0000
  0
INSERT
  8
1
  2
RECT
 10
45.7710
 20
36.1300
 30
0.0000
 41
1.2700
 42
1.9050
 43
1.0000
 50
0.0000
  0
INSERT
  8
1
  2
RECT
 10
45.0500
 20
49.5000
 30
0.0000
 41
2.6000
 42
0.5000
 43
1.0000
 50
180.0000
  0
INSERT
  8
1
  2
RECT
 10
45.0500
 20
50.5000
 30
0.0000
 41
2.6000
 42
0.5000
 43
1.0000
 50
180.0000
  0
INSERT
  8
1
  2
RECT
 10
45.0500
 20
51.5000
 30
0.0000
 41
2.6000
 42
0.5000
 43
1.0000
 50
180.0000
  0
INSERT
  8
1
  2
RECT
 10
44.9020
 20
41.7140
 30
0.0000
 41
2.2860
 42
1.5240
 43
1.0000
 50
180.0000
  0
INSERT
  8
1
  2
RECT
 10
38.2980
 20
41.7140
 30
0.0000
 41
2.2860
 42
1.5240
 43
1.0000
 50
180.0000
  0
INSERT
  8
1
  2
RECT
 10
44.9020
 20
46.2860
 30
0.0000
 41
2.2860
 42
1.5240
 43
1.0000
 50
180.0000
  0
INSERT
  8
1
  2
RECT
 10
38.2980
 20
46.2860
 30
0.0000
 41
2.2860
 42
1.5240
 43
1.0000
 50
180.0000
  0
INSERT
  8
1
  2
RECT
 10
38.6490
 20
50.8000
 30
0.0000
 41
1.2700
 42
1.9050
 43
1.0000
 50
0.0000
  0
INSERT
  8
1
  2
RECT
 10
41.9510
 20
50.8000
 30
0.0000
 41
1.2700
 42
1.9050
 43
1.0000
 50
0.0000
  0
INSERT
  8
1
  2
RECT
 10
59.6900
 20
55.8800
 30
0.0000
 41
2.5400
 42
1.2700
 43
1.0000
 50
0.0000
  0
INSERT
  8
1
  2
RECT
 10
59.6900
 20
53.3400
 30
0.0000
 41
2.5400
 42
1.2700
 43
1.0000
 50
0.0000
  0
INSERT
  8
1
  2
RECT
 10
59.6900
 20
50.8000
 30
0.0000
 41
2.5400
 42
1.2700
 43
1.0000
 50
0.0000
  0
INSERT
  8
1
  2
RECT
 10
59.6900
 20
48.2600
 30
0.0000
 41
2.5400
 42
1.2700
 43
1.0000
 50
0.0000
  0
INSERT
  8
1
  2
RECT
 10
59.6900
 20
45.7200
 30
0.0000
 41
2.5400
 42
1.2700
 43
1.0000
 50
0.0000
  0
INSERT
  8
1
  2
RECT
 10
59.6900
 20
43.1800
 30
0.0000
 41
2.5400
 42
1.2700
 43
1.0000
 50
0.0000
  0
POLYLINE
  8
1
 66
1
 10
0.0000
 20
0.0000
 30
0.0000
 40
0.2540
 41
0.2540
 70
0
  0
VERTEX
  8
1
 10
45.0500
 20
50.5000
 30
0.0000
  0
VERTEX
  8
1
 10
42.0000
 20
50.5000
 30
0.0000
  0
SEQEND
  8
0
  0
POLYLINE
  8
1
 66
1
 10
0.0000
 20
0.0000
 30
0.0000
 40
0.1270
 41
0.1270
 70
0
  0
VERTEX
  8
1
 10
42.0000
 20
50.5635
 30
0.0000
 42
1.0000
  0
VERTEX
  8
1
 10
42.0000
 20
50.4365
 30
0.0000
  0
SEQEND
  8
0
  0
POLYLINE
  8
1
 66
1
 10
0.0000
 20
0.0000
 30
0.0000
 40
0.1270
 41
0.1270
 70
0
  0
VERTEX
  8
1
 10
45.0500
 20
50.4365
 30
0.0000
 42
1.0000
  0
VERTEX
  8
1
 10
45.0500
 20
50.5635
 30
0.0000
  0
SEQEND
  8
0
  0
POLYLINE
  8
1
 66
1
 10
0.0000
 20
0.0000
 30
0.0000
 40
0.2540
 41
0.2540
 70
0
  0
VERTEX
  8
1
 10
42.0000
 20
50.5000
 30
0.0000
  0
VERTEX
  8
1
 10
41.9510
 20
50.8000
 30
0.0000
  0
SEQEND
  8
0
  0
POLYLINE
  8
1
 66
1
 10
0.0000
 20
0.0000
 30
0.0000
 40
0.1270
 41
0.1270
 70
0
  0
VERTEX
  8
1
 10
42.0137
 20
50.8102
 30
0.0000
 42
1.0000
  0
VERTEX
  8
1
 10
41.8883
 20
50.7898
 30
0.0000
  0
SEQEND
  8
0
  0
POLYLINE
  8
1
 66
1
 10
0.0000
 20
0.0000
 30
0.0000
 40
0.1270
 41
0.1270
 70
0
  0
VERTEX
  8
1
 10
41.9373
 20
50.4898
 30
0.0000
 42
1.0000
  0
VERTEX
  8
1
 10
42.0627
 20
50.5102
 30
0.0000
  0
SEQEND
  8
0
  0
POLYLINE
  8
1
 66
1
 10
0.0000
 20
0.0000
 30
0.0000
 40
0.2540
 41
0.2540
 70
0
  0
VERTEX
  8
1
 10
59.5000
 20
55.9000
 30
0.0000
  0
VERTEX
  8
1
 10
56.5000
 20
55.9000
 30
0.0000
  0
SEQEND
  8
0
  0
POLYLINE
  8
1
 66
1
 10
0.0000
 20
0.0000
 30
0.0000
 40
0.1270
 41
0.1270
 70
0
  0
VERTEX
  8
1
 10
56.5000
 20
55.9635
 30
0.0000
 42
1.0000
  0
VERTEX
  8
1
 10
56.5000
 20
55.8365
 30
0.0000
  0
SEQEND
  8
0
  0
POLYLINE
  8
1
 66
1
 10
0.0000
 20
0.0000
 30
0.0000
 40
0.1270
 41
0.1270
 70
0
  0
VERTEX
  8
1
 10
59.5000
 20
55.8365
 30
0.0000
 42
1.0000
  0
VERTEX
  8
1
 10
59.5000
 20
55.9635
 30
0.0000
  0
SEQEND
  8
0
  0
POLYLINE
  8
1
 66
1
 10
0.0000
 20
0.0000
 30
0.0000
 40
0.2540
 41
0.2540
 70
0
  0
VERTEX
  8
1
 10
56.5000
 20
55.9000
 30
0.0000
  0
VERTEX
  8
1
 10
56.2610
 20
55.8800
 30
0.0000
  0
SEQEND
  8
0
  0
POLYLINE
  8
1
 66
1
 10
0.0000
 20
0.0000
 30
0.0000
 40
0.1270
 41
0.1270
 70
0
  0
VERTEX
  8
1
 10
56.2557
 20
55.9433
 30
0.0000
 42
1.0000
  0
VERTEX
  8
1
 10
56.2663
 20
55.8167
 30
0.0000
  0
SEQEND
  8
0
  0
POLYLINE
  8
1
 66
1
 10
0.0000
 20
0.0000
 30
0.0000
 40
0.1270
 41
0.1270
 70
0
  0
VERTEX
  8
1
 10
56.5053
 20
55.8367
 30
0.0000
 42
1.0000
  0
VERTEX
  8
1
 10
56.4947
 20
55.9633
 30
0.0000
  0
SEQEND
  8
0
  0
POLYLINE
  8
1
 66
1
 10
0.0000
 20
0.0000
 30
0.0000
 40
0.2540
 41
0.2540
 70
0
  0
VERTEX
  8
1
 10
59.5000
 20
55.9000
 30
0.0000
  0
VERTEX
  8
1
 10
59.6900
 20
55.8800
 30
0.0000
  0
SEQEND
  8
0
  0
POLYLINE
  8
1
 66
1
 10
0.0000
 20
0.0000
 30
0.0000
 40
0.1270
 41
0.1270
 70
0
  0
VERTEX
  8
1
 10
59.6834
 20
55.8168
 30
0.0000
 42
1.0000
  0
VERTEX
  8
1
 10
59.6966
 20
55.9432
 30
0.0000
  0
SEQEND
  8
0
  0
POLYLINE
  8
1
 66
1
 10
0.0000
 20
0.0000
 30
0.0000
 40
0.1270
 41
0.1270
 70
0
  0
VERTEX
  8
1
 10
59.5066
 20
55.9632
 30
0.0000
 42
1.0000
  0
VERTEX
  8
1
 10
59.4934
 20
55.8368
 30
0.0000
  0
SEQEND
  8
0
  0
POLYLINE
  8
1
 66
1
 10
0.0000
 20
0.0000
 30
0.0000
 40
0.2540
 41
0.2540
 70
0
  0
VERTEX
  8
1
 10
42.0000
 20
53.2000
 30
0.0000
  0
VERTEX
  8
1
 10
42.0000
 20
51.0000
 30
0.0000
  0
SEQEND
  8
0
  0
POLYLINE
  8
1
 66
1
 10
0.0000
 20
0.0000
 30
0.0000
 40
0.1270
 41
0.1270
 70
0
  0
VERTEX
  8
1
 10
41.9365
 20
51.0000
 30
0.0000
 42
1.0000
  0
VERTEX
  8
1
 10
42.0635
 20
51.0000
 30
0.0000
  0
SEQEND
  8
0
  0
POLYLINE
  8
1
 66
1
 10
0.0000
 20
0.0000
 30
0.0000
 40
0.1270
 41
0.1270
 70
0
  0
VERTEX
  8
1
 10
42.0635
 20
53.2000
 30
0.0000
 42
1.0000
  0
VERTEX
  8
1
 10
41.9365
 20
53.2000
 30
0.0000
  0
SEQEND
  8
0
  0
POLYLINE
  8
1
 66
1
 10
0.0000
 20
0.0000
 30
0.0000
 40
0.2540
 41
0.2540
 70
0
  0
VERTEX
  8
1
 10
44.3000
 20
53.2000
 30
0.0000
  0
VERTEX
  8
1
 10
42.0000
 20
53.2000
 30
0.0000
  0
SEQEND
  8
0
  0
POLYLINE
  8
1
 66
1
 10
0.0000
 20
0.0000
 30
0.0000
 40
0.1270
 41
0.1270
 70
0
  0
VERTEX
  8
1
 10
42.0000
 20
53.2635
 30
0.0000
 42
1.0000
  0
VERTEX
  8
1
 10
42.0000
 20
53.1365
 30
0.0000
  0
SEQEND
  8
0
  0
POLYLINE
  8
1
 66
1
 10
0.0000
 20
0.0000
 30
0.0000
 40
0.1270
 41
0.1270
 70
0
  0
VERTEX
  8
1
 10
44.3000
 20
53.1365
 30
0.0000
 42
1.0000
  0
VERTEX
  8
1
 10
44.3000
 20
53.2635
 30
0.0000
  0
SEQEND
  8
0
  0
POLYLINE
  8
1
 66
1
 10
0.0000
 20
0.0000
 30
0.0000
 40
0.2540
 41
0.2540
 70
0
  0
VERTEX
  8
1
 10
44.3000
 20
58.4000
 30
0.0000
  0
VERTEX
  8
1
 10
44.3000
 20
53.2000
 30
0.0000
  0
SEQEND
  8
0
  0
POLYLINE
  8
1
 66
1
 10
0.0000
 20
0.0000
 30
0.0000
 40
0.1270
 41
0.1270
 70
0
  0
VERTEX
  8
1
 10
44.2365
 20
53.2000
 30
0.0000
 42
1.0000
  0
VERTEX
  8
1
 10
44.3635
 20
53.2000
 30
0.0000
  0
SEQEND
  8
0
  0
POLYLINE
  8
1
 66
1
 10
0.0000
 20
0.0000
 30
0.0000
 40
0.1270
 41
0.1270
 70
0
  0
VERTEX
  8
1
 10
44.3635
 20
58.4000
 30
0.0000
 42
1.0000
  0
VERTEX
  8
1
 10
44.2365
 20
58.4000
 30
0.0000
  0
SEQEND
  8
0
  0
POLYLINE
  8
1
 66
1
 10
0.0000
 20
0.0000
 30
0.0000
 40
0.2540
 41
0.2540
 70
0
  0
VERTEX
  8
1
 10
56.2000
 20
58.4000
 30
0.0000
  0
VERTEX
  8
1
 10
44.3000
 20
58.4000
 30
0.0000
  0
SEQEND
  8
0
  0
POLYLINE
  8
1
 66
1
 10
0.0000
 20
0.0000
 30
0.0000
 40
0.1270
 41
0.1270
 70
0
  0
VERTEX
  8
1
 10
44.3000
 20
58.4635
 30
0.0000
 42
1.0000
  0
VERTEX
  8
1
 10
44.3000
 20
58.3365
 30
0.0000
  0
SEQEND
  8
0
  0
POLYLINE
  8
1
 66
1
 10
0.0000
 20
0.0000
 30
0.0000
 40
0.1270
 41
0.1270
 70
0
  0
VERTEX
  8
1
 10
56.2000
 20
58.3365
 30
0.0000
 42
1.0000
  0
VERTEX
  8
1
 10
56.2000
 20
58.4635
 30
0.0000
  0
SEQEND
  8
0
  0
POLYLINE
  8
1
 66
1
 10
0.0000
 20
0.0000
 30
0.0000
 40
0.2540
 41
0.2540
 70
0
  0
VERTEX
  8
1
 10
56.2000
 20
56.3000
 30
0.0000
  0
VERTEX
  8
1
 10
56.2000
 20
58.4000
 30
0.0000
  0
SEQEND
  8
0
  0
POLYLINE
  8
1
 66
1
 10
0.0000
 20
0.0000
 30
0.0000
 40
0.1270
 41
0.1270
 70
0
  0
VERTEX
  8
1
 10
56.2635
 20
58.4000
 30
0.0000
 42
1.0000
  0
VERTEX
  8
1
 10
56.1365
 20
58.4000
 30
0.0000
  0
SEQEND
  8
0
  0
POLYLINE
  8
1
 66
1
 10
0.0000
 20
0.0000
 30
0.0000
 40
0.1270
 41
0.1270
 70
0
  0
VERTEX
  8
1
 10
56.1365
 20
56.3000
 30
0.0000
 42
1.0000
  0
VERTEX
  8
1
 10
56.2635
 20
56.3000
 30
0.0000
  0
SEQEND
  8
0
  0
POLYLINE
  8
1
 66
1
 10
0.0000
 20
0.0000
 30
0.0000
 40
0.2540
 41
0.2540
 70
0
  0
VERTEX
  8
1
 10
42.0000
 20
51.0000
 30
0.0000
  0
VERTEX
  8
1
 10
41.9510
 20
50.8000
 30
0.0000
  0
SEQEND
  8
0
  0
POLYLINE
  8
1
 66
1
 10
0.0000
 20
0.0000
 30
0.0000
 40
0.1270
 41
0.1270
 70
0
  0
VERTEX
  8
1
 10
41.8893
 20
50.8151
 30
0.0000
 42
1.0000
  0
VERTEX
  8
1
 10
42.0127
 20
50.7849
 30
0.0000
  0
SEQEND
  8
0
  0
POLYLINE
  8
1
 66
1
 10
0.0000
 20
0.0000
 30
0.0000
 40
0.1270
 41
0.1270
 70
0
  0
VERTEX
  8
1
 10
42.0617
 20
50.9849
 30
0.0000
 42
1.0000
  0
VERTEX
  8
1
 10
41.9383
 20
51.0151
 30
0.0000
  0
SEQEND
  8
0
  0
POLYLINE
  8
1
 66
1
 10
0.0000
 20
0.0000
 30
0.0000
 40
0.2540
 41
0.2540
 70
0
  0
VERTEX
  8
1
 10
56.2000
 20
56.3000
 30
0.0000
  0
VERTEX
  8
1
 10
56.2610
 20
55.8800
 30
0.0000
  0
SEQEND
  8
0
  0
POLYLINE
  8
1
 66
1
 10
0.0000
 20
0.0000
 30
0.0000
 40
0.1270
 41
0.1270
 70
0
  0
VERTEX
  8
1
 10
56.1982
 20
55.8709
 30
0.0000
 42
1.0000
  0
VERTEX
  8
1
 10
56.3238
 20
55.8891
 30
0.0000
  0
SEQEND
  8
0
  0
POLYLINE
  8
1
 66
1
 10
0.0000
 20
0.0000
 30
0.0000
 40
0.1270
 41
0.1270
 70
0
  0
VERTEX
  8
1
 10
56.2628
 20
56.3091
 30
0.0000
 42
1.0000
  0
VERTEX
  8
1
 10
56.1372
 20
56.2909
 30
0.0000
  0
SEQEND
  8
0
  0
POLYLINE
  8
1
 66
1
 10
0.0000
 20
0.0000
 30
0.0000
 40
0.2540
 41
0.2540
 70
0
  0
VERTEX
  8
1
 10
49.0000
 20
33.5000
 30
0.0000
  0
VERTEX
  8
1
 10
43.4000
 20
33.5000
 30
0.0000
  0
SEQEND
  8
0
  0
POLYLINE
  8
1
 66
1
 10
0.0000
 20
0.0000
 30
0.0000
 40
0.1270
 41
0.1270
 70
0
  0
VERTEX
  8
1
 10
43.4000
 20
33.5635
 30
0.0000
 42
1.0000
  0
VERTEX
  8
1
 10
43.4000
 20
33.4365
 30
0.0000
  0
SEQEND
  8
0
  0
POLYLINE
  8
1
 66
1
 10
0.0000
 20
0.0000
 30
0.0000
 40
0.1270
 41
0.1270
 70
0
  0
VERTEX
  8
1
 10
49.0000
 20
33.4365
 30
0.0000
 42
1.0000
  0
VERTEX
  8
1
 10
49.0000
 20
33.5635
 30
0.0000
  0
SEQEND
  8
0
  0
POLYLINE
  8
1
 66
1
 10
0.0000
 20
0.0000
 30
0.0000
 40
0.2540
 41
0.2540
 70
0
  0
VERTEX
  8
1
 10
49.0000
 20
35.6000
 30
0.0000
  0
VERTEX
  8
1
 10
49.0000
 20
33.5000
 30
0.0000
  0
SEQEND
  8
0
  0
POLYLINE
  8
1
 66
1
 10
0.0000
 20
0.0000
 30
0.0000
 40
0.1270
 41
0.1270
 70
0
  0
VERTEX
  8
1
 10
48.9365
 20
33.5000
 30
0.0000
 42
1.0000
  0
VERTEX
  8
1
 10
49.0635
 20
33.5000
 30
0.0000
  0
SEQEND
  8
0
  0
POLYLINE
  8
1
 66
1
 10
0.0000
 20
0.0000
 30
0.0000
 40
0.1270
 41
0.1270
 70
0
  0
VERTEX
  8
1
 10
49.0635
 20
35.6000
 30
0.0000
 42
1.0000
  0
VERTEX
  8
1
 10
48.9365
 20
35.6000
 30
0.0000
  0
SEQEND
  8
0
  0
POLYLINE
  8
1
 66
1
 10
0.0000
 20
0.0000
 30
0.0000
 40
0.2540
 41
0.2540
 70
0
  0
VERTEX
  8
1
 10
49.0000
 20
35.6000
 30
0.0000
  0
VERTEX
  8
1
 10
50.8000
 20
35.5600
 30
0.0000
  0
SEQEND
  8
0
  0
POLYLINE
  8
1
 66
1
 10
0.0000
 20
0.0000
 30
0.0000
 40
0.1270
 41
0.1270
 70
0
  0
VERTEX
  8
1
 10
50.7986
 20
35.4965
 30
0.0000
 42
1.0000
  0
VERTEX
  8
1
 10
50.8014
 20
35.6235
 30
0.0000
  0
SEQEND
  8
0
  0
POLYLINE
  8
1
 66
1
 10
0.0000
 20
0.0000
 30
0.0000
 40
0.1270
 41
0.1270
 70
0
  0
VERTEX
  8
1
 10
49.0014
 20
35.6635
 30
0.0000
 42
1.0000
  0
VERTEX
  8
1
 10
48.9986
 20
35.5365
 30
0.0000
  0
SEQEND
  8
0
  0
POLYLINE
  8
1
 66
1
 10
0.0000
 20
0.0000
 30
0.0000
 40
0.2540
 41
0.2540
 70
0
  0
VERTEX
  8
1
 10
53.5000
 20
52.0000
 30
0.0000
  0
VERTEX
  8
1
 10
54.5000
 20
52.0000
 30
0.0000
  0
SEQEND
  8
0
  0
POLYLINE
  8
1
 66
1
 10
0.0000
 20
0.0000
 30
0.0000
 40
0.1270
 41
0.1270
 70
0
  0
VERTEX
  8
1
 10
54.5000
 20
51.9365
 30
0.0000
 42
1.0000
  0
VERTEX
  8
1
 10
54.5000
 20
52.0635
 30
0.0000
  0
SEQEND
  8
0
  0
POLYLINE
  8
1
 66
1
 10
0.0000
 20
0.0000
 30
0.0000
 40
0.1270
 41
0.1270
 70
0
  0
VERTEX
  8
1
 10
53.5000
 20
52.0635
 30
0.0000
 42
1.0000
  0
VERTEX
  8
1
 10
53.5000
 20
51.9365
 30
0.0000
  0
SEQEND
  8
0
  0
POLYLINE
  8
1
 66
1
 10
0.0000
 20
0.0000
 30
0.0000
 40
0.2540
 41
0.2540
 70
0
  0
VERTEX
  8
1
 10
52.0000
 20
50.5000
 30
0.0000
  0
VERTEX
  8
1
 10
53.5000
 20
52.0000
 30
0.0000
  0
SEQEND
  8
0
  0
POLYLINE
  8
1
 66
1
 10
0.0000
 20
0.0000
 30
0.0000
 40
0.1270
 41
0.1270
 70
0
  0
VERTEX
  8
1
 10
53.5449
 20
51.9551
 30
0.0000
 42
1.0000
  0
VERTEX
  8
1
 10
53.4551
 20
52.0449
 30
0.0000
  0
SEQEND
  8
0
  0
POLYLINE
  8
1
 66
1
 10
0.0000
 20
0.0000
 30
0.0000
 40
0.1270
 41
0.1270
 70
0
  0
VERTEX
  8
1
 10
51.9551
 20
50.5449
 30
0.0000
 42
1.0000
  0
VERTEX
  8
1
 10
52.0449
 20
50.4551
 30
0.0000
  0
SEQEND
  8
0
  0
POLYLINE
  8
1
 66
1
 10
0.0000
 20
0.0000
 30
0.0000
 40
0.2540
 41
0.2540
 70
0
  0
VERTEX
  8
1
 10
52.0000
 20
38.6000
 30
0.0000
  0
VERTEX
  8
1
 10
52.0000
 20
50.5000
 30
0.0000
  0
SEQEND
  8
0
  0
POLYLINE
  8
1
 66
1
 10
0.0000
 20
0.0000
 30
0.0000
 40
0.1270
 41
0.1270
 70
0
  0
VERTEX
  8
1
 10
52.0635
 20
50.5000
 30
0.0000
 42
1.0000
  0
VERTEX
  8
1
 10
51.9365
 20
50.5000
 30
0.0000
  0
SEQEND
  8
0
  0
POLYLINE
  8
1
 66
1
 10
0.0000
 20
0.0000
 30
0.0000
 40
0.1270
 41
0.1270
 70
0
  0
VERTEX
  8
1
 10
51.9365
 20
38.6000
 30
0.0000
 42
1.0000
  0
VERTEX
  8
1
 10
52.0635
 20
38.6000
 30
0.0000
  0
SEQEND
  8
0
  0
POLYLINE
  8
1
 66
1
 10
0.0000
 20
0.0000
 30
0.0000
 40
0.2540
 41
0.2540
 70
0
  0
VERTEX
  8
1
 10
54.6000
 20
38.6000
 30
0.0000
  0
VERTEX
  8
1
 10
52.0000
 20
38.6000
 30
0.0000
  0
SEQEND
  8
0
  0
POLYLINE
  8
1
 66
1
 10
0.0000
 20
0.0000
 30
0.0000
 40
0.1270
 41
0.1270
 70
0
  0
VERTEX
  8
1
 10
52.0000
 20
38.6635
 30
0.0000
 42
1.0000
  0
VERTEX
  8
1
 10
52.0000
 20
38.5365
 30
0.0000
  0
SEQEND
  8
0
  0
POLYLINE
  8
1
 66
1
 10
0.0000
 20
0.0000
 30
0.0000
 40
0.1270
 41
0.1270
 70
0
  0
VERTEX
  8
1
 10
54.6000
 20
38.5365
 30
0.0000
 42
1.0000
  0
VERTEX
  8
1
 10
54.6000
 20
38.6635
 30
0.0000
  0
SEQEND
  8
0
  0
POLYLINE
  8
1
 66
1
 10
0.0000
 20
0.0000
 30
0.0000
 40
0.2540
 41
0.2540
 70
0
  0
VERTEX
  8
1
 10
54.6000
 20
34.2000
 30
0.0000
  0
VERTEX
  8
1
 10
54.6000
 20
38.6000
 30
0.0000
  0
SEQEND
  8
0
  0
POLYLINE
  8
1
 66
1
 10
0.0000
 20
0.0000
 30
0.0000
 40
0.1270
 41
0.1270
 70
0
  0
VERTEX
  8
1
 10
54.6635
 20
38.6000
 30
0.0000
 42
1.0000
  0
VERTEX
  8
1
 10
54.5365
 20
38.6000
 30
0.0000
  0
SEQEND
  8
0
  0
POLYLINE
  8
1
 66
1
 10
0.0000
 20
0.0000
 30
0.0000
 40
0.1270
 41
0.1270
 70
0
  0
VERTEX
  8
1
 10
54.5365
 20
34.2000
 30
0.0000
 42
1.0000
  0
VERTEX
  8
1
 10
54.6635
 20
34.2000
 30
0.0000
  0
SEQEND
  8
0
  0
POLYLINE
  8
1
 66
1
 10
0.0000
 20
0.0000
 30
0.0000
 40
0.2540
 41
0.2540
 70
0
  0
VERTEX
  8
1
 10
52.4000
 20
33.5000
 30
0.0000
  0
VERTEX
  8
1
 10
54.1000
 20
33.5000
 30
0.0000
  0
SEQEND
  8
0
  0
POLYLINE
  8
1
 66
1
 10
0.0000
 20
0.0000
 30
0.0000
 40
0.1270
 41
0.1270
 70
0
  0
VERTEX
  8
1
 10
54.1000
 20
33.4365
 30
0.0000
 42
1.0000
  0
VERTEX
  8
1
 10
54.1000
 20
33.5635
 30
0.0000
  0
SEQEND
  8
0
  0
POLYLINE
  8
1
 66
1
 10
0.0000
 20
0.0000
 30
0.0000
 40
0.1270
 41
0.1270
 70
0
  0
VERTEX
  8
1
 10
52.4000
 20
33.5635
 30
0.0000
 42
1.0000
  0
VERTEX
  8
1
 10
52.4000
 20
33.4365
 30
0.0000
  0
SEQEND
  8
0
  0
POLYLINE
  8
1
 66
1
 10
0.0000
 20
0.0000
 30
0.0000
 40
0.2540
 41
0.2540
 70
0
  0
VERTEX
  8
1
 10
54.5000
 20
52.0000
 30
0.0000
  0
VERTEX
  8
1
 10
54.6735
 20
52.0700
 30
0.0000
  0
SEQEND
  8
0
  0
POLYLINE
  8
1
 66
1
 10
0.0000
 20
0.0000
 30
0.0000
 40
0.1270
 41
0.1270
 70
0
  0
VERTEX
  8
1
 10
54.6973
 20
52.0111
 30
0.0000
 42
1.0000
  0
VERTEX
  8
1
 10
54.6497
 20
52.1289
 30
0.0000
  0
SEQEND
  8
0
  0
POLYLINE
  8
1
 66
1
 10
0.0000
 20
0.0000
 30
0.0000
 40
0.1270
 41
0.1270
 70
0
  0
VERTEX
  8
1
 10
54.4762
 20
52.0589
 30
0.0000
 42
1.0000
  0
VERTEX
  8
1
 10
54.5238
 20
51.9411
 30
0.0000
  0
SEQEND
  8
0
  0
POLYLINE
  8
1
 66
1
 10
0.0000
 20
0.0000
 30
0.0000
 40
0.2540
 41
0.2540
 70
0
  0
VERTEX
  8
1
 10
51.0000
 20
35.5000
 30
0.0000
  0
VERTEX
  8
1
 10
50.8000
 20
35.5600
 30
0.0000
  0
SEQEND
  8
0
  0
POLYLINE
  8
1
 66
1
 10
0.0000
 20
0.0000
 30
0.0000
 40
0.1270
 41
0.1270
 70
0
  0
VERTEX
  8
1
 10
50.8182
 20
35.6208
 30
0.0000
 42
1.0000
  0
VERTEX
  8
1
 10
50.7818
 20
35.4992
 30
0.0000
  0
SEQEND
  8
0
  0
POLYLINE
  8
1
 66
1
 10
0.0000
 20
0.0000
 30
0.0000
 40
0.1270
 41
0.1270
 70
0
  0
VERTEX
  8
1
 10
50.9818
 20
35.4392
 30
0.0000
 42
1.0000
  0
VERTEX
  8
1
 10
51.0182
 20
35.5608
 30
0.0000
  0
SEQEND
  8
0
  0
POLYLINE
  8
1
 66
1
 10
0.0000
 20
0.0000
 30
0.0000
 40
0.2540
 41
0.2540
 70
0
  0
VERTEX
  8
1
 10
35.1000
 20
58.4000
 30
0.0000
  0
VERTEX
  8
1
 10
44.3000
 20
58.4000
 30
0.0000
  0
SEQEND
  8
0
  0
POLYLINE
  8
1
 66
1
 10
0.0000
 20
0.0000
 30
0.0000
 40
0.1270
 41
0.1270
 70
0
  0
VERTEX
  8
1
 10
44.3000
 20
58.3365
 30
0.0000
 42
1.0000
  0
VERTEX
  8
1
 10
44.3000
 20
58.4635
 30
0.0000
  0
SEQEND
  8
0
  0
POLYLINE
  8
1
 66
1
 10
0.0000
 20
0.0000
 30
0.0000
 40
0.1270
 41
0.1270
 70
0
  0
VERTEX
  8
1
 10
35.1000
 20
58.4635
 30
0.0000
 42
1.0000
  0
VERTEX
  8
1
 10
35.1000
 20
58.3365
 30
0.0000
  0
SEQEND
  8
0
  0
POLYLINE
  8
1
 66
1
 10
0.0000
 20
0.0000
 30
0.0000
 40
0.2540
 41
0.2540
 70
0
  0
VERTEX
  8
1
 10
35.1000
 20
44.9000
 30
0.0000
  0
VERTEX
  8
1
 10
35.1000
 20
58.4000
 30
0.0000
  0
SEQEND
  8
0
  0
POLYLINE
  8
1
 66
1
 10
0.0000
 20
0.0000
 30
0.0000
 40
0.1270
 41
0.1270
 70
0
  0
VERTEX
  8
1
 10
35.1635
 20
58.4000
 30
0.0000
 42
1.0000
  0
VERTEX
  8
1
 10
35.0365
 20
58.4000
 30
0.0000
  0
SEQEND
  8
0
  0
POLYLINE
  8
1
 66
1
 10
0.0000
 20
0.0000
 30
0.0000
 40
0.1270
 41
0.1270
 70
0
  0
VERTEX
  8
1
 10
35.0365
 20
44.9000
 30
0.0000
 42
1.0000
  0
VERTEX
  8
1
 10
35.1635
 20
44.9000
 30
0.0000
  0
SEQEND
  8
0
  0
POLYLINE
  8
1
 66
1
 10
0.0000
 20
0.0000
 30
0.0000
 40
0.2540
 41
0.2540
 70
0
  0
VERTEX
  8
1
 10
40.3000
 20
43.2000
 30
0.0000
  0
VERTEX
  8
1
 10
38.3000
 20
43.2000
 30
0.0000
  0
SEQEND
  8
0
  0
POLYLINE
  8
1
 66
1
 10
0.0000
 20
0.0000
 30
0.0000
 40
0.1270
 41
0.1270
 70
0
  0
VERTEX
  8
1
 10
38.3000
 20
43.2635
 30
0.0000
 42
1.0000
  0
VERTEX
  8
1
 10
38.3000
 20
43.1365
 30
0.0000
  0
SEQEND
  8
0
  0
POLYLINE
  8
1
 66
1
 10
0.0000
 20
0.0000
 30
0.0000
 40
0.1270
 41
0.1270
 70
0
  0
VERTEX
  8
1
 10
40.3000
 20
43.1365
 30
0.0000
 42
1.0000
  0
VERTEX
  8
1
 10
40.3000
 20
43.2635
 30
0.0000
  0
SEQEND
  8
0
  0
POLYLINE
  8
1
 66
1
 10
0.0000
 20
0.0000
 30
0.0000
 40
0.2540
 41
0.2540
 70
0
  0
VERTEX
  8
1
 10
42.5000
 20
36.4000
 30
0.0000
  0
VERTEX
  8
1
 10
42.5000
 20
38.3000
 30
0.0000
  0
SEQEND
  8
0
  0
POLYLINE
  8
1
 66
1
 10
0.0000
 20
0.0000
 30
0.0000
 40
0.1270
 41
0.1270
 70
0
  0
VERTEX
  8
1
 10
42.5635
 20
38.3000
 30
0.0000
 42
1.0000
  0
VERTEX
  8
1
 10
42.4365
 20
38.3000
 30
0.0000
  0
SEQEND
  8
0
  0
POLYLINE
  8
1
 66
1
 10
0.0000
 20
0.0000
 30
0.0000
 40
0.1270
 41
0.1270
 70
0
  0
VERTEX
  8
1
 10
42.4365
 20
36.4000
 30
0.0000
 42
1.0000
  0
VERTEX
  8
1
 10
42.5635
 20
36.4000
 30
0.0000
  0
SEQEND
  8
0
  0
POLYLINE
  8
1
 66
1
 10
0.0000
 20
0.0000
 30
0.0000
 40
0.2540
 41
0.2540
 70
0
  0
VERTEX
  8
1
 10
42.5000
 20
36.4000
 30
0.0000
  0
VERTEX
  8
1
 10
42.4690
 20
36.1300
 30
0.0000
  0
SEQEND
  8
0
  0
POLYLINE
  8
1
 66
1
 10
0.0000
 20
0.0000
 30
0.0000
 40
0.1270
 41
0.1270
 70
0
  0
VERTEX
  8
1
 10
42.4059
 20
36.1372
 30
0.0000
 42
1.0000
  0
VERTEX
  8
1
 10
42.5321
 20
36.1228
 30
0.0000
  0
SEQEND
  8
0
  0
POLYLINE
  8
1
 66
1
 10
0.0000
 20
0.0000
 30
0.0000
 40
0.1270
 41
0.1270
 70
0
  0
VERTEX
  8
1
 10
42.5631
 20
36.3928
 30
0.0000
 42
1.0000
  0
VERTEX
  8
1
 10
42.4369
 20
36.4072
 30
0.0000
  0
SEQEND
  8
0
  0
POLYLINE
  8
1
 66
1
 10
0.0000
 20
0.0000
 30
0.0000
 40
0.2500
 41
0.2500
 70
0
  0
VERTEX
  8
1
 10
52.4000
 20
33.5000
 30
0.0000
  0
VERTEX
  8
1
 10
50.8000
 20
33.5000
 30
0.0000
  0
SEQEND
  8
0
  0
POLYLINE
  8
1
 66
1
 10
0.0000
 20
0.0000
 30
0.0000
 40
0.1250
 41
0.1250
 70
0
  0
VERTEX
  8
1
 10
50.8000
 20
33.5625
 30
0.0000
 42
1.0000
  0
VERTEX
  8
1
 10
50.8000
 20
33.4375
 30
0.0000
  0
SEQEND
  8
0
  0
POLYLINE
  8
1
 66
1
 10
0.0000
 20
0.0000
 30
0.0000
 40
0.1250
 41
0.1250
 70
0
  0
VERTEX
  8
1
 10
52.4000
 20
33.4375
 30
0.0000
 42
1.0000
  0
VERTEX
  8
1
 10
52.4000
 20
33.5625
 30
0.0000
  0
SEQEND
  8
0
  0
POLYLINE
  8
1
 66
1
 10
0.0000
 20
0.0000
 30
0.0000
 40
0.2500
 41
0.2500
 70
0
  0
VERTEX
  8
1
 10
50.8000
 20
33.5000
 30
0.0000
  0
VERTEX
  8
1
 10
50.8000
 20
35.5600
 30
0.0000
  0
SEQEND
  8
0
  0
POLYLINE
  8
1
 66
1
 10
0.0000
 20
0.0000
 30
0.0000
 40
0.1250
 41
0.1250
 70
0
  0
VERTEX
  8
1
 10
50.8625
 20
35.5600
 30
0.0000
 42
1.0000
  0
VERTEX
  8
1
 10
50.7375
 20
35.5600
 30
0.0000
  0
SEQEND
  8
0
  0
POLYLINE
  8
1
 66
1
 10
0.0000
 20
0.0000
 30
0.0000
 40
0.1250
 41
0.1250
 70
0
  0
VERTEX
  8
1
 10
50.7375
 20
33.5000
 30
0.0000
 42
1.0000
  0
VERTEX
  8
1
 10
50.8625
 20
33.5000
 30
0.0000
  0
SEQEND
  8
0
  0
POLYLINE
  8
1
 66
1
 10
0.0000
 20
0.0000
 30
0.0000
 40
0.2500
 41
0.2500
 70
0
  0
VERTEX
  8
1
 10
38.3000
 20
43.2000
 30
0.0000
  0
VERTEX
  8
1
 10
35.1000
 20
43.2000
 30
0.0000
  0
SEQEND
  8
0
  0
POLYLINE
  8
1
 66
1
 10
0.0000
 20
0.0000
 30
0.0000
 40
0.1250
 41
0.1250
 70
0
  0
VERTEX
  8
1
 10
35.1000
 20
43.2625
 30
0.0000
 42
1.0000
  0
VERTEX
  8
1
 10
35.1000
 20
43.1375
 30
0.0000
  0
SEQEND
  8
0
  0
POLYLINE
  8
1
 66
1
 10
0.0000
 20
0.0000
 30
0.0000
 40
0.1250
 41
0.1250
 70
0
  0
VERTEX
  8
1
 10
38.3000
 20
43.1375
 30
0.0000
 42
1.0000
  0
VERTEX
  8
1
 10
38.3000
 20
43.2625
 30
0.0000
  0
SEQEND
  8
0
  0
POLYLINE
  8
1
 66
1
 10
0.0000
 20
0.0000
 30
0.0000
 40
0.2500
 41
0.2500
 70
0
  0
VERTEX
  8
1
 10
35.1000
 20
44.9000
 30
0.0000
  0
VERTEX
  8
1
 10
35.1000
 20
43.2000
 30
0.0000
  0
SEQEND
  8
0
  0
POLYLINE
  8
1
 66
1
 10
0.0000
 20
0.0000
 30
0.0000
 40
0.1250
 41
0.1250
 70
0
  0
VERTEX
  8
1
 10
35.0375
 20
43.2000
 30
0.0000
 42
1.0000
  0
VERTEX
  8
1
 10
35.1625
 20
43.2000
 30
0.0000
  0
SEQEND
  8
0
  0
POLYLINE
  8
1
 66
1
 10
0.0000
 20
0.0000
 30
0.0000
 40
0.1250
 41
0.1250
 70
0
  0
VERTEX
  8
1
 10
35.1625
 20
44.9000
 30
0.0000
 42
1.0000
  0
VERTEX
  8
1
 10
35.0375
 20
44.9000
 30
0.0000
  0
SEQEND
  8
0
  0
POLYLINE
  8
1
 66
1
 10
0.0000
 20
0.0000
 30
0.0000
 40
0.2500
 41
0.2500
 70
0
  0
VERTEX
  8
1
 10
40.3000
 20
43.2000
 30
0.0000
  0
VERTEX
  8
1
 10
40.7000
 20
42.8000
 30
0.0000
  0
SEQEND
  8
0
  0
POLYLINE
  8
1
 66
1
 10
0.0000
 20
0.0000
 30
0.0000
 40
0.1250
 41
0.1250
 70
0
  0
VERTEX
  8
1
 10
40.6558
 20
42.7558
 30
0.0000
 42
1.0000
  0
VERTEX
  8
1
 10
40.7442
 20
42.8442
 30
0.0000
  0
SEQEND
  8
0
  0
POLYLINE
  8
1
 66
1
 10
0.0000
 20
0.0000
 30
0.0000
 40
0.1250
 41
0.1250
 70
0
  0
VERTEX
  8
1
 10
40.3442
 20
43.2442
 30
0.0000
 42
1.0000
  0
VERTEX
  8
1
 10
40.2558
 20
43.1558
 30
0.0000
  0
SEQEND
  8
0
  0
POLYLINE
  8
1
 66
1
 10
0.0000
 20
0.0000
 30
0.0000
 40
0.2500
 41
0.2500
 70
0
  0
VERTEX
  8
1
 10
40.7000
 20
42.8000
 30
0.0000
  0
VERTEX
  8
1
 10
40.7000
 20
38.3000
 30
0.0000
  0
SEQEND
  8
0
  0
POLYLINE
  8
1
 66
1
 10
0.0000
 20
0.0000
 30
0.0000
 40
0.1250
 41
0.1250
 70
0
  0
VERTEX
  8
1
 10
40.6375
 20
38.3000
 30
0.0000
 42
1.0000
  0
VERTEX
  8
1
 10
40.7625
 20
38.3000
 30
0.0000
  0
SEQEND
  8
0
  0
POLYLINE
  8
1
 66
1
 10
0.0000
 20
0.0000
 30
0.0000
 40
0.1250
 41
0.1250
 70
0
  0
VERTEX
  8
1
 10
40.7625
 20
42.8000
 30
0.0000
 42
1.0000
  0
VERTEX
  8
1
 10
40.6375
 20
42.8000
 30
0.0000
  0
SEQEND
  8
0
  0
POLYLINE
  8
1
 66
1
 10
0.0000
 20
0.0000
 30
0.0000
 40
0.2500
 41
0.2500
 70
0
  0
VERTEX
  8
1
 10
40.7000
 20
38.3000
 30
0.0000
  0
VERTEX
  8
1
 10
42.5000
 20
38.3000
 30
0.0000
  0
SEQEND
  8
0
  0
POLYLINE
  8
1
 66
1
 10
0.0000
 20
0.0000
 30
0.0000
 40
0.1250
 41
0.1250
 70
0
  0
VERTEX
  8
1
 10
42.5000
 20
38.2375
 30
0.0000
 42
1.0000
  0
VERTEX
  8
1
 10
42.5000
 20
38.3625
 30
0.0000
  0
SEQEND
  8
0
  0
POLYLINE
  8
1
 66
1
 10
0.0000
 20
0.0000
 30
0.0000
 40
0.1250
 41
0.1250
 70
0
  0
VERTEX
  8
1
 10
40.7000
 20
38.3625
 30
0.0000
 42
1.0000
  0
VERTEX
  8
1
 10
40.7000
 20
38.2375
 30
0.0000
  0
SEQEND
  8
0
  0
POLYLINE
  8
1
 66
1
 10
0.0000
 20
0.0000
 30
0.0000
 40
0.2500
 41
0.2500
 70
0
  0
VERTEX
  8
1
 10
54.6000
 20
34.2000
 30
0.0000
  0
VERTEX
  8
1
 10
54.6000
 20
33.5000
 30
0.0000
  0
SEQEND
  8
0
  0
POLYLINE
  8
1
 66
1
 10
0.0000
 20
0.0000
 30
0.0000
 40
0.1250
 41
0.1250
 70
0
  0
VERTEX
  8
1
 10
54.5375
 20
33.5000
 30
0.0000
 42
1.0000
  0
VERTEX
  8
1
 10
54.6625
 20
33.5000
 30
0.0000
  0
SEQEND
  8
0
  0
POLYLINE
  8
1
 66
1
 10
0.0000
 20
0.0000
 30
0.0000
 40
0.1250
 41
0.1250
 70
0
  0
VERTEX
  8
1
 10
54.6625
 20
34.2000
 30
0.0000
 42
1.0000
  0
VERTEX
  8
1
 10
54.5375
 20
34.2000
 30
0.0000
  0
SEQEND
  8
0
  0
POLYLINE
  8
1
 66
1
 10
0.0000
 20
0.0000
 30
0.0000
 40
0.2500
 41
0.2500
 70
0
  0
VERTEX
  8
1
 10
54.6000
 20
33.5000
 30
0.0000
  0
VERTEX
  8
1
 10
54.1000
 20
33.5000
 30
0.0000
  0
SEQEND
  8
0
  0
POLYLINE
  8
1
 66
1
 10
0.0000
 20
0.0000
 30
0.0000
 40
0.1250
 41
0.1250
 70
0
  0
VERTEX
  8
1
 10
54.1000
 20
33.5625
 30
0.0000
 42
1.0000
  0
VERTEX
  8
1
 10
54.1000
 20
33.4375
 30
0.0000
  0
SEQEND
  8
0
  0
POLYLINE
  8
1
 66
1
 10
0.0000
 20
0.0000
 30
0.0000
 40
0.1250
 41
0.1250
 70
0
  0
VERTEX
  8
1
 10
54.6000
 20
33.4375
 30
0.0000
 42
1.0000
  0
VERTEX
  8
1
 10
54.6000
 20
33.5625
 30
0.0000
  0
SEQEND
  8
0
  0
POLYLINE
  8
1
 66
1
 10
0.0000
 20
0.0000
 30
0.0000
 40
0.2500
 41
0.2500
 70
0
  0
VERTEX
  8
1
 10
42.4690
 20
36.1300
 30
0.0000
  0
VERTEX
  8
1
 10
42.4690
 20
34.4310
 30
0.0000
  0
SEQEND
  8
0
  0
POLYLINE
  8
1
 66
1
 10
0.0000
 20
0.0000
 30
0.0000
 40
0.1250
 41
0.1250
 70
0
  0
VERTEX
  8
1
 10
42.4065
 20
34.4310
 30
0.0000
 42
1.0000
  0
VERTEX
  8
1
 10
42.5315
 20
34.4310
 30
0.0000
  0
SEQEND
  8
0
  0
POLYLINE
  8
1
 66
1
 10
0.0000
 20
0.0000
 30
0.0000
 40
0.1250
 41
0.1250
 70
0
  0
VERTEX
  8
1
 10
42.5315
 20
36.1300
 30
0.0000
 42
1.0000
  0
VERTEX
  8
1
 10
42.4065
 20
36.1300
 30
0.0000
  0
SEQEND
  8
0
  0
POLYLINE
  8
1
 66
1
 10
0.0000
 20
0.0000
 30
0.0000
 40
0.2500
 41
0.2500
 70
0
  0
VERTEX
  8
1
 10
42.4690
 20
34.4310
 30
0.0000
  0
VERTEX
  8
1
 10
43.4000
 20
33.5000
 30
0.0000
  0
SEQEND
  8
0
  0
POLYLINE
  8
1
 66
1
 10
0.0000
 20
0.0000
 30
0.0000
 40
0.1250
 41
0.1250
 70
0
  0
VERTEX
  8
1
 10
43.3558
 20
33.4558
 30
0.0000
 42
1.0000
  0
VERTEX
  8
1
 10
43.4442
 20
33.5442
 30
0.0000
  0
SEQEND
  8
0
  0
POLYLINE
  8
1
 66
1
 10
0.0000
 20
0.0000
 30
0.0000
 40
0.1250
 41
0.1250
 70
0
  0
VERTEX
  8
1
 10
42.5132
 20
34.4752
 30
0.0000
 42
1.0000
  0
VERTEX
  8
1
 10
42.4248
 20
34.3868
 30
0.0000
  0
SEQEND
  8
0
  0
POLYLINE
  8
1
 66
1
 10
0.0000
 20
0.0000
 30
0.0000
 40
0.2540
 41
0.2540
 70
0
  0
VERTEX
  8
1
 10
38.7000
 20
55.5000
 30
0.0000
  0
VERTEX
  8
1
 10
38.7000
 20
51.0000
 30
0.0000
  0
SEQEND
  8
0
  0
POLYLINE
  8
1
 66
1
 10
0.0000
 20
0.0000
 30
0.0000
 40
0.1270
 41
0.1270
 70
0
  0
VERTEX
  8
1
 10
38.6365
 20
51.0000
 30
0.0000
 42
1.0000
  0
VERTEX
  8
1
 10
38.7635
 20
51.0000
 30
0.0000
  0
SEQEND
  8
0
  0
POLYLINE
  8
1
 66
1
 10
0.0000
 20
0.0000
 30
0.0000
 40
0.1270
 41
0.1270
 70
0
  0
VERTEX
  8
1
 10
38.7635
 20
55.5000
 30
0.0000
 42
1.0000
  0
VERTEX
  8
1
 10
38.6365
 20
55.5000
 30
0.0000
  0
SEQEND
  8
0
  0
POLYLINE
  8
1
 66
1
 10
0.0000
 20
0.0000
 30
0.0000
 40
0.2540
 41
0.2540
 70
0
  0
VERTEX
  8
1
 10
38.7000
 20
51.0000
 30
0.0000
  0
VERTEX
  8
1
 10
38.6490
 20
50.8000
 30
0.0000
  0
SEQEND
  8
0
  0
POLYLINE
  8
1
 66
1
 10
0.0000
 20
0.0000
 30
0.0000
 40
0.1270
 41
0.1270
 70
0
  0
VERTEX
  8
1
 10
38.5875
 20
50.8157
 30
0.0000
 42
1.0000
  0
VERTEX
  8
1
 10
38.7105
 20
50.7843
 30
0.0000
  0
SEQEND
  8
0
  0
POLYLINE
  8
1
 66
1
 10
0.0000
 20
0.0000
 30
0.0000
 40
0.1270
 41
0.1270
 70
0
  0
VERTEX
  8
1
 10
38.7615
 20
50.9843
 30
0.0000
 42
1.0000
  0
VERTEX
  8
1
 10
38.6385
 20
51.0157
 30
0.0000
  0
SEQEND
  8
0
  0
POLYLINE
  8
1
 66
1
 10
0.0000
 20
0.0000
 30
0.0000
 40
0.2540
 41
0.2540
 70
0
  0
VERTEX
  8
1
 10
38.7000
 20
55.5000
 30
0.0000
  0
VERTEX
  8
1
 10
38.7090
 20
55.8400
 30
0.0000
  0
SEQEND
  8
0
  0
POLYLINE
  8
1
 66
1
 10
0.0000
 20
0.0000
 30
0.0000
 40
0.1270
 41
0.1270
 70
0
  0
VERTEX
  8
1
 10
38.7725
 20
55.8383
 30
0.0000
 42
1.0000
  0
VERTEX
  8
1
 10
38.6455
 20
55.8417
 30
0.0000
  0
SEQEND
  8
0
  0
POLYLINE
  8
1
 66
1
 10
0.0000
 20
0.0000
 30
0.0000
 40
0.1270
 41
0.1270
 70
0
  0
VERTEX
  8
1
 10
38.6365
 20
55.5017
 30
0.0000
 42
1.0000
  0
VERTEX
  8
1
 10
38.7635
 20
55.4983
 30
0.0000
  0
SEQEND
  8
0
  0
POLYLINE
  8
1
 66
1
 10
0.0000
 20
0.0000
 30
0.0000
 40
0.2540
 41
0.2540
 70
0
  0
VERTEX
  8
1
 10
56.2000
 20
43.0000
 30
0.0000
  0
VERTEX
  8
1
 10
56.2000
 20
44.4000
 30
0.0000
  0
SEQEND
  8
0
  0
POLYLINE
  8
1
 66
1
 10
0.0000
 20
0.0000
 30
0.0000
 40
0.1270
 41
0.1270
 70
0
  0
VERTEX
  8
1
 10
56.2635
 20
44.4000
 30
0.0000
 42
1.0000
  0
VERTEX
  8
1
 10
56.1365
 20
44.4000
 30
0.0000
  0
SEQEND
  8
0
  0
POLYLINE
  8
1
 66
1
 10
0.0000
 20
0.0000
 30
0.0000
 40
0.1270
 41
0.1270
 70
0
  0
VERTEX
  8
1
 10
56.1365
 20
43.0000
 30
0.0000
 42
1.0000
  0
VERTEX
  8
1
 10
56.2635
 20
43.0000
 30
0.0000
  0
SEQEND
  8
0
  0
POLYLINE
  8
1
 66
1
 10
0.0000
 20
0.0000
 30
0.0000
 40
0.2540
 41
0.2540
 70
0
  0
VERTEX
  8
1
 10
55.9000
 20
43.0000
 30
0.0000
  0
VERTEX
  8
1
 10
56.2000
 20
43.0000
 30
0.0000
  0
SEQEND
  8
0
  0
POLYLINE
  8
1
 66
1
 10
0.0000
 20
0.0000
 30
0.0000
 40
0.1270
 41
0.1270
 70
0
  0
VERTEX
  8
1
 10
56.2000
 20
42.9365
 30
0.0000
 42
1.0000
  0
VERTEX
  8
1
 10
56.2000
 20
43.0635
 30
0.0000
  0
SEQEND
  8
0
  0
POLYLINE
  8
1
 66
1
 10
0.0000
 20
0.0000
 30
0.0000
 40
0.1270
 41
0.1270
 70
0
  0
VERTEX
  8
1
 10
55.9000
 20
43.0635
 30
0.0000
 42
1.0000
  0
VERTEX
  8
1
 10
55.9000
 20
42.9365
 30
0.0000
  0
SEQEND
  8
0
  0
POLYLINE
  8
1
 66
1
 10
0.0000
 20
0.0000
 30
0.0000
 40
0.2540
 41
0.2540
 70
0
  0
VERTEX
  8
1
 10
56.2000
 20
44.4000
 30
0.0000
  0
VERTEX
  8
1
 10
54.6735
 20
44.4500
 30
0.0000
  0
SEQEND
  8
0
  0
POLYLINE
  8
1
 66
1
 10
0.0000
 20
0.0000
 30
0.0000
 40
0.1270
 41
0.1270
 70
0
  0
VERTEX
  8
1
 10
54.6756
 20
44.5135
 30
0.0000
 42
1.0000
  0
VERTEX
  8
1
 10
54.6714
 20
44.3865
 30
0.0000
  0
SEQEND
  8
0
  0
POLYLINE
  8
1
 66
1
 10
0.0000
 20
0.0000
 30
0.0000
 40
0.1270
 41
0.1270
 70
0
  0
VERTEX
  8
1
 10
56.1979
 20
44.3365
 30
0.0000
 42
1.0000
  0
VERTEX
  8
1
 10
56.2021
 20
44.4635
 30
0.0000
  0
SEQEND
  8
0
  0
POLYLINE
  8
1
 66
1
 10
0.0000
 20
0.0000
 30
0.0000
 40
0.2540
 41
0.2540
 70
0
  0
VERTEX
  8
1
 10
55.9000
 20
43.0000
 30
0.0000
  0
VERTEX
  8
1
 10
55.8800
 20
41.0200
 30
0.0000
  0
SEQEND
  8
0
  0
POLYLINE
  8
1
 66
1
 10
0.0000
 20
0.0000
 30
0.0000
 40
0.1270
 41
0.1270
 70
0
  0
VERTEX
  8
1
 10
55.8165
 20
41.0206
 30
0.0000
 42
1.0000
  0
VERTEX
  8
1
 10
55.9435
 20
41.0194
 30
0.0000
  0
SEQEND
  8
0
  0
POLYLINE
  8
1
 66
1
 10
0.0000
 20
0.0000
 30
0.0000
 40
0.1270
 41
0.1270
 70
0
  0
VERTEX
  8
1
 10
55.9635
 20
42.9994
 30
0.0000
 42
1.0000
  0
VERTEX
  8
1
 10
55.8365
 20
43.0006
 30
0.0000
  0
SEQEND
  8
0
  0
POLYLINE
  8
1
 66
1
 10
0.0000
 20
0.0000
 30
0.0000
 40
0.2540
 41
0.2540
 70
0
  0
VERTEX
  8
1
 10
49.5000
 20
37.6000
 30
0.0000
  0
VERTEX
  8
1
 10
49.5000
 20
44.5000
 30
0.0000
  0
SEQEND
  8
0
  0
POLYLINE
  8
1
 66
1
 10
0.0000
 20
0.0000
 30
0.0000
 40
0.1270
 41
0.1270
 70
0
  0
VERTEX
  8
1
 10
49.5635
 20
44.5000
 30
0.0000
 42
1.0000
  0
VERTEX
  8
1
 10
49.4365
 20
44.5000
 30
0.0000
  0
SEQEND
  8
0
  0
POLYLINE
  8
1
 66
1
 10
0.0000
 20
0.0000
 30
0.0000
 40
0.1270
 41
0.1270
 70
0
  0
VERTEX
  8
1
 10
49.4365
 20
37.6000
 30
0.0000
 42
1.0000
  0
VERTEX
  8
1
 10
49.5635
 20
37.6000
 30
0.0000
  0
SEQEND
  8
0
  0
POLYLINE
  8
1
 66
1
 10
0.0000
 20
0.0000
 30
0.0000
 40
0.2540
 41
0.2540
 70
0
  0
VERTEX
  8
1
 10
53.4000
 20
37.6000
 30
0.0000
  0
VERTEX
  8
1
 10
49.5000
 20
37.6000
 30
0.0000
  0
SEQEND
  8
0
  0
POLYLINE
  8
1
 66
1
 10
0.0000
 20
0.0000
 30
0.0000
 40
0.1270
 41
0.1270
 70
0
  0
VERTEX
  8
1
 10
49.5000
 20
37.6635
 30
0.0000
 42
1.0000
  0
VERTEX
  8
1
 10
49.5000
 20
37.5365
 30
0.0000
  0
SEQEND
  8
0
  0
POLYLINE
  8
1
 66
1
 10
0.0000
 20
0.0000
 30
0.0000
 40
0.1270
 41
0.1270
 70
0
  0
VERTEX
  8
1
 10
53.4000
 20
37.5365
 30
0.0000
 42
1.0000
  0
VERTEX
  8
1
 10
53.4000
 20
37.6635
 30
0.0000
  0
SEQEND
  8
0
  0
POLYLINE
  8
1
 66
1
 10
0.0000
 20
0.0000
 30
0.0000
 40
0.2540
 41
0.2540
 70
0
  0
VERTEX
  8
1
 10
49.5000
 20
44.5000
 30
0.0000
  0
VERTEX
  8
1
 10
49.4665
 20
44.4500
 30
0.0000
  0
SEQEND
  8
0
  0
POLYLINE
  8
1
 66
1
 10
0.0000
 20
0.0000
 30
0.0000
 40
0.1270
 41
0.1270
 70
0
  0
VERTEX
  8
1
 10
49.4137
 20
44.4853
 30
0.0000
 42
1.0000
  0
VERTEX
  8
1
 10
49.5193
 20
44.4147
 30
0.0000
  0
SEQEND
  8
0
  0
POLYLINE
  8
1
 66
1
 10
0.0000
 20
0.0000
 30
0.0000
 40
0.1270
 41
0.1270
 70
0
  0
VERTEX
  8
1
 10
49.5528
 20
44.4647
 30
0.0000
 42
1.0000
  0
VERTEX
  8
1
 10
49.4472
 20
44.5353
 30
0.0000
  0
SEQEND
  8
0
  0
POLYLINE
  8
1
 66
1
 10
0.0000
 20
0.0000
 30
0.0000
 40
0.2540
 41
0.2540
 70
0
  0
VERTEX
  8
1
 10
53.4000
 20
37.6000
 30
0.0000
  0
VERTEX
  8
1
 10
53.3400
 20
35.5600
 30
0.0000
  0
SEQEND
  8
0
  0
POLYLINE
  8
1
 66
1
 10
0.0000
 20
0.0000
 30
0.0000
 40
0.1270
 41
0.1270
 70
0
  0
VERTEX
  8
1
 10
53.2765
 20
35.5619
 30
0.0000
 42
1.0000
  0
VERTEX
  8
1
 10
53.4035
 20
35.5581
 30
0.0000
  0
SEQEND
  8
0
  0
POLYLINE
  8
1
 66
1
 10
0.0000
 20
0.0000
 30
0.0000
 40
0.1270
 41
0.1270
 70
0
  0
VERTEX
  8
1
 10
53.4635
 20
37.5981
 30
0.0000
 42
1.0000
  0
VERTEX
  8
1
 10
53.3365
 20
37.6019
 30
0.0000
  0
SEQEND
  8
0
  0
POLYLINE
  8
1
 66
1
 10
0.0000
 20
0.0000
 30
0.0000
 40
0.2540
 41
0.2540
 70
0
  0
VERTEX
  8
1
 10
57.5000
 20
50.8000
 30
0.0000
  0
VERTEX
  8
1
 10
54.6735
 20
50.8000
 30
0.0000
  0
SEQEND
  8
0
  0
POLYLINE
  8
1
 66
1
 10
0.0000
 20
0.0000
 30
0.0000
 40
0.1270
 41
0.1270
 70
0
  0
VERTEX
  8
1
 10
54.6735
 20
50.8635
 30
0.0000
 42
1.0000
  0
VERTEX
  8
1
 10
54.6735
 20
50.7365
 30
0.0000
  0
SEQEND
  8
0
  0
POLYLINE
  8
1
 66
1
 10
0.0000
 20
0.0000
 30
0.0000
 40
0.1270
 41
0.1270
 70
0
  0
VERTEX
  8
1
 10
57.5000
 20
50.7365
 30
0.0000
 42
1.0000
  0
VERTEX
  8
1
 10
57.5000
 20
50.8635
 30
0.0000
  0
SEQEND
  8
0
  0
POLYLINE
  8
1
 66
1
 10
0.0000
 20
0.0000
 30
0.0000
 40
0.2540
 41
0.2540
 70
0
  0
VERTEX
  8
1
 10
57.5000
 20
48.3000
 30
0.0000
  0
VERTEX
  8
1
 10
57.5000
 20
50.8000
 30
0.0000
  0
SEQEND
  8
0
  0
POLYLINE
  8
1
 66
1
 10
0.0000
 20
0.0000
 30
0.0000
 40
0.1270
 41
0.1270
 70
0
  0
VERTEX
  8
1
 10
57.5635
 20
50.8000
 30
0.0000
 42
1.0000
  0
VERTEX
  8
1
 10
57.4365
 20
50.8000
 30
0.0000
  0
SEQEND
  8
0
  0
POLYLINE
  8
1
 66
1
 10
0.0000
 20
0.0000
 30
0.0000
 40
0.1270
 41
0.1270
 70
0
  0
VERTEX
  8
1
 10
57.4365
 20
48.3000
 30
0.0000
 42
1.0000
  0
VERTEX
  8
1
 10
57.5635
 20
48.3000
 30
0.0000
  0
SEQEND
  8
0
  0
POLYLINE
  8
1
 66
1
 10
0.0000
 20
0.0000
 30
0.0000
 40
0.2540
 41
0.2540
 70
0
  0
VERTEX
  8
1
 10
57.5000
 20
48.3000
 30
0.0000
  0
VERTEX
  8
1
 10
59.6900
 20
48.2600
 30
0.0000
  0
SEQEND
  8
0
  0
POLYLINE
  8
1
 66
1
 10
0.0000
 20
0.0000
 30
0.0000
 40
0.1270
 41
0.1270
 70
0
  0
VERTEX
  8
1
 10
59.6888
 20
48.1965
 30
0.0000
 42
1.0000
  0
VERTEX
  8
1
 10
59.6912
 20
48.3235
 30
0.0000
  0
SEQEND
  8
0
  0
POLYLINE
  8
1
 66
1
 10
0.0000
 20
0.0000
 30
0.0000
 40
0.1270
 41
0.1270
 70
0
  0
VERTEX
  8
1
 10
57.5012
 20
48.3635
 30
0.0000
 42
1.0000
  0
VERTEX
  8
1
 10
57.4988
 20
48.2365
 30
0.0000
  0
SEQEND
  8
0
  0
POLYLINE
  8
1
 66
1
 10
0.0000
 20
0.0000
 30
0.0000
 40
0.2540
 41
0.2540
 70
0
  0
VERTEX
  8
1
 10
56.7000
 20
49.5000
 30
0.0000
  0
VERTEX
  8
1
 10
55.0000
 20
49.5000
 30
0.0000
  0
SEQEND
  8
0
  0
POLYLINE
  8
1
 66
1
 10
0.0000
 20
0.0000
 30
0.0000
 40
0.1270
 41
0.1270
 70
0
  0
VERTEX
  8
1
 10
55.0000
 20
49.5635
 30
0.0000
 42
1.0000
  0
VERTEX
  8
1
 10
55.0000
 20
49.4365
 30
0.0000
  0
SEQEND
  8
0
  0
POLYLINE
  8
1
 66
1
 10
0.0000
 20
0.0000
 30
0.0000
 40
0.1270
 41
0.1270
 70
0
  0
VERTEX
  8
1
 10
56.7000
 20
49.4365
 30
0.0000
 42
1.0000
  0
VERTEX
  8
1
 10
56.7000
 20
49.5635
 30
0.0000
  0
SEQEND
  8
0
  0
POLYLINE
  8
1
 66
1
 10
0.0000
 20
0.0000
 30
0.0000
 40
0.2540
 41
0.2540
 70
0
  0
VERTEX
  8
1
 10
55.0000
 20
49.5000
 30
0.0000
  0
VERTEX
  8
1
 10
54.6735
 20
49.5300
 30
0.0000
  0
SEQEND
  8
0
  0
POLYLINE
  8
1
 66
1
 10
0.0000
 20
0.0000
 30
0.0000
 40
0.1270
 41
0.1270
 70
0
  0
VERTEX
  8
1
 10
54.6793
 20
49.5932
 30
0.0000
 42
1.0000
  0
VERTEX
  8
1
 10
54.6677
 20
49.4668
 30
0.0000
  0
SEQEND
  8
0
  0
POLYLINE
  8
1
 66
1
 10
0.0000
 20
0.0000
 30
0.0000
 40
0.1270
 41
0.1270
 70
0
  0
VERTEX
  8
1
 10
54.9942
 20
49.4368
 30
0.0000
 42
1.0000
  0
VERTEX
  8
1
 10
55.0058
 20
49.5632
 30
0.0000
  0
SEQEND
  8
0
  0
POLYLINE
  8
1
 66
1
 10
0.0000
 20
0.0000
 30
0.0000
 40
0.2500
 41
0.2500
 70
0
  0
VERTEX
  8
1
 10
56.7000
 20
49.5000
 30
0.0000
  0
VERTEX
  8
1
 10
56.7000
 20
45.7000
 30
0.0000
  0
SEQEND
  8
0
  0
POLYLINE
  8
1
 66
1
 10
0.0000
 20
0.0000
 30
0.0000
 40
0.1250
 41
0.1250
 70
0
  0
VERTEX
  8
1
 10
56.6375
 20
45.7000
 30
0.0000
 42
1.0000
  0
VERTEX
  8
1
 10
56.7625
 20
45.7000
 30
0.0000
  0
SEQEND
  8
0
  0
POLYLINE
  8
1
 66
1
 10
0.0000
 20
0.0000
 30
0.0000
 40
0.1250
 41
0.1250
 70
0
  0
VERTEX
  8
1
 10
56.7625
 20
49.5000
 30
0.0000
 42
1.0000
  0
VERTEX
  8
1
 10
56.6375
 20
49.5000
 30
0.0000
  0
SEQEND
  8
0
  0
POLYLINE
  8
1
 66
1
 10
0.0000
 20
0.0000
 30
0.0000
 40
0.2500
 41
0.2500
 70
0
  0
VERTEX
  8
1
 10
56.7000
 20
45.7000
 30
0.0000
  0
VERTEX
  8
1
 10
59.6900
 20
45.7200
 30
0.0000
  0
SEQEND
  8
0
  0
POLYLINE
  8
1
 66
1
 10
0.0000
 20
0.0000
 30
0.0000
 40
0.1250
 41
0.1250
 70
0
  0
VERTEX
  8
1
 10
59.6904
 20
45.6575
 30
0.0000
 42
1.0000
  0
VERTEX
  8
1
 10
59.6896
 20
45.7825
 30
0.0000
  0
SEQEND
  8
0
  0
POLYLINE
  8
1
 66
1
 10
0.0000
 20
0.0000
 30
0.0000
 40
0.1250
 41
0.1250
 70
0
  0
VERTEX
  8
1
 10
56.6996
 20
45.7625
 30
0.0000
 42
1.0000
  0
VERTEX
  8
1
 10
56.7004
 20
45.6375
 30
0.0000
  0
SEQEND
  8
0
  0
POLYLINE
  8
1
 66
1
 10
0.0000
 20
0.0000
 30
0.0000
 40
0.2540
 41
0.2540
 70
0
  0
VERTEX
  8
1
 10
42.0000
 20
57.6000
 30
0.0000
  0
VERTEX
  8
1
 10
42.0000
 20
55.5000
 30
0.0000
  0
SEQEND
  8
0
  0
POLYLINE
  8
1
 66
1
 10
0.0000
 20
0.0000
 30
0.0000
 40
0.1270
 41
0.1270
 70
0
  0
VERTEX
  8
1
 10
41.9365
 20
55.5000
 30
0.0000
 42
1.0000
  0
VERTEX
  8
1
 10
42.0635
 20
55.5000
 30
0.0000
  0
SEQEND
  8
0
  0
POLYLINE
  8
1
 66
1
 10
0.0000
 20
0.0000
 30
0.0000
 40
0.1270
 41
0.1270
 70
0
  0
VERTEX
  8
1
 10
42.0635
 20
57.6000
 30
0.0000
 42
1.0000
  0
VERTEX
  8
1
 10
41.9365
 20
57.6000
 30
0.0000
  0
SEQEND
  8
0
  0
POLYLINE
  8
1
 66
1
 10
0.0000
 20
0.0000
 30
0.0000
 40
0.2540
 41
0.2540
 70
0
  0
VERTEX
  8
1
 10
36.1000
 20
57.6000
 30
0.0000
  0
VERTEX
  8
1
 10
42.0000
 20
57.6000
 30
0.0000
  0
SEQEND
  8
0
  0
POLYLINE
  8
1
 66
1
 10
0.0000
 20
0.0000
 30
0.0000
 40
0.1270
 41
0.1270
 70
0
  0
VERTEX
  8
1
 10
42.0000
 20
57.5365
 30
0.0000
 42
1.0000
  0
VERTEX
  8
1
 10
42.0000
 20
57.6635
 30
0.0000
  0
SEQEND
  8
0
  0
POLYLINE
  8
1
 66
1
 10
0.0000
 20
0.0000
 30
0.0000
 40
0.1270
 41
0.1270
 70
0
  0
VERTEX
  8
1
 10
36.1000
 20
57.6635
 30
0.0000
 42
1.0000
  0
VERTEX
  8
1
 10
36.1000
 20
57.5365
 30
0.0000
  0
SEQEND
  8
0
  0
POLYLINE
  8
1
 66
1
 10
0.0000
 20
0.0000
 30
0.0000
 40
0.2540
 41
0.2540
 70
0
  0
VERTEX
  8
1
 10
44.1000
 20
35.6000
 30
0.0000
  0
VERTEX
  8
1
 10
44.1000
 20
38.4000
 30
0.0000
  0
SEQEND
  8
0
  0
POLYLINE
  8
1
 66
1
 10
0.0000
 20
0.0000
 30
0.0000
 40
0.1270
 41
0.1270
 70
0
  0
VERTEX
  8
1
 10
44.1635
 20
38.4000
 30
0.0000
 42
1.0000
  0
VERTEX
  8
1
 10
44.0365
 20
38.4000
 30
0.0000
  0
SEQEND
  8
0
  0
POLYLINE
  8
1
 66
1
 10
0.0000
 20
0.0000
 30
0.0000
 40
0.1270
 41
0.1270
 70
0
  0
VERTEX
  8
1
 10
44.0365
 20
35.6000
 30
0.0000
 42
1.0000
  0
VERTEX
  8
1
 10
44.1635
 20
35.6000
 30
0.0000
  0
SEQEND
  8
0
  0
POLYLINE
  8
1
 66
1
 10
0.0000
 20
0.0000
 30
0.0000
 40
0.2540
 41
0.2540
 70
0
  0
VERTEX
  8
1
 10
49.0000
 20
45.7000
 30
0.0000
  0
VERTEX
  8
1
 10
47.6000
 20
45.7000
 30
0.0000
  0
SEQEND
  8
0
  0
POLYLINE
  8
1
 66
1
 10
0.0000
 20
0.0000
 30
0.0000
 40
0.1270
 41
0.1270
 70
0
  0
VERTEX
  8
1
 10
47.6000
 20
45.7635
 30
0.0000
 42
1.0000
  0
VERTEX
  8
1
 10
47.6000
 20
45.6365
 30
0.0000
  0
SEQEND
  8
0
  0
POLYLINE
  8
1
 66
1
 10
0.0000
 20
0.0000
 30
0.0000
 40
0.1270
 41
0.1270
 70
0
  0
VERTEX
  8
1
 10
49.0000
 20
45.6365
 30
0.0000
 42
1.0000
  0
VERTEX
  8
1
 10
49.0000
 20
45.7635
 30
0.0000
  0
SEQEND
  8
0
  0
POLYLINE
  8
1
 66
1
 10
0.0000
 20
0.0000
 30
0.0000
 40
0.2540
 41
0.2540
 70
0
  0
VERTEX
  8
1
 10
42.0000
 20
55.5000
 30
0.0000
  0
VERTEX
  8
1
 10
42.0110
 20
55.8400
 30
0.0000
  0
SEQEND
  8
0
  0
POLYLINE
  8
1
 66
1
 10
0.0000
 20
0.0000
 30
0.0000
 40
0.1270
 41
0.1270
 70
0
  0
VERTEX
  8
1
 10
42.0745
 20
55.8379
 30
0.0000
 42
1.0000
  0
VERTEX
  8
1
 10
41.9475
 20
55.8421
 30
0.0000
  0
SEQEND
  8
0
  0
POLYLINE
  8
1
 66
1
 10
0.0000
 20
0.0000
 30
0.0000
 40
0.1270
 41
0.1270
 70
0
  0
VERTEX
  8
1
 10
41.9365
 20
55.5021
 30
0.0000
 42
1.0000
  0
VERTEX
  8
1
 10
42.0635
 20
55.4979
 30
0.0000
  0
SEQEND
  8
0
  0
POLYLINE
  8
1
 66
1
 10
0.0000
 20
0.0000
 30
0.0000
 40
0.2540
 41
0.2540
 70
0
  0
VERTEX
  8
1
 10
49.0000
 20
45.7000
 30
0.0000
  0
VERTEX
  8
1
 10
49.4665
 20
45.7200
 30
0.0000
  0
SEQEND
  8
0
  0
POLYLINE
  8
1
 66
1
 10
0.0000
 20
0.0000
 30
0.0000
 40
0.1270
 41
0.1270
 70
0
  0
VERTEX
  8
1
 10
49.4692
 20
45.6566
 30
0.0000
 42
1.0000
  0
VERTEX
  8
1
 10
49.4638
 20
45.7834
 30
0.0000
  0
SEQEND
  8
0
  0
POLYLINE
  8
1
 66
1
 10
0.0000
 20
0.0000
 30
0.0000
 40
0.1270
 41
0.1270
 70
0
  0
VERTEX
  8
1
 10
48.9973
 20
45.7634
 30
0.0000
 42
1.0000
  0
VERTEX
  8
1
 10
49.0027
 20
45.6366
 30
0.0000
  0
SEQEND
  8
0
  0
POLYLINE
  8
1
 66
1
 10
0.0000
 20
0.0000
 30
0.0000
 40
0.2500
 41
0.2500
 70
0
  0
VERTEX
  8
1
 10
44.1000
 20
38.4000
 30
0.0000
  0
VERTEX
  8
1
 10
42.9000
 20
39.6000
 30
0.0000
  0
SEQEND
  8
0
  0
POLYLINE
  8
1
 66
1
 10
0.0000
 20
0.0000
 30
0.0000
 40
0.1250
 41
0.1250
 70
0
  0
VERTEX
  8
1
 10
42.9442
 20
39.6442
 30
0.0000
 42
1.0000
  0
VERTEX
  8
1
 10
42.8558
 20
39.5558
 30
0.0000
  0
SEQEND
  8
0
  0
POLYLINE
  8
1
 66
1
 10
0.0000
 20
0.0000
 30
0.0000
 40
0.1250
 41
0.1250
 70
0
  0
VERTEX
  8
1
 10
44.0558
 20
38.3558
 30
0.0000
 42
1.0000
  0
VERTEX
  8
1
 10
44.1442
 20
38.4442
 30
0.0000
  0
SEQEND
  8
0
  0
POLYLINE
  8
1
 66
1
 10
0.0000
 20
0.0000
 30
0.0000
 40
0.2500
 41
0.2500
 70
0
  0
VERTEX
  8
1
 10
44.1000
 20
34.3000
 30
0.0000
  0
VERTEX
  8
1
 10
44.1000
 20
35.6000
 30
0.0000
  0
SEQEND
  8
0
  0
POLYLINE
  8
1
 66
1
 10
0.0000
 20
0.0000
 30
0.0000
 40
0.1250
 41
0.1250
 70
0
  0
VERTEX
  8
1
 10
44.1625
 20
35.6000
 30
0.0000
 42
1.0000
  0
VERTEX
  8
1
 10
44.0375
 20
35.6000
 30
0.0000
  0
SEQEND
  8
0
  0
POLYLINE
  8
1
 66
1
 10
0.0000
 20
0.0000
 30
0.0000
 40
0.1250
 41
0.1250
 70
0
  0
VERTEX
  8
1
 10
44.0375
 20
34.3000
 30
0.0000
 42
1.0000
  0
VERTEX
  8
1
 10
44.1625
 20
34.3000
 30
0.0000
  0
SEQEND
  8
0
  0
POLYLINE
  8
1
 66
1
 10
0.0000
 20
0.0000
 30
0.0000
 40
0.2500
 41
0.2500
 70
0
  0
VERTEX
  8
1
 10
42.9000
 20
39.6000
 30
0.0000
  0
VERTEX
  8
1
 10
41.9000
 20
39.6000
 30
0.0000
  0
SEQEND
  8
0
  0
POLYLINE
  8
1
 66
1
 10
0.0000
 20
0.0000
 30
0.0000
 40
0.1250
 41
0.1250
 70
0
  0
VERTEX
  8
1
 10
41.9000
 20
39.6625
 30
0.0000
 42
1.0000
  0
VERTEX
  8
1
 10
41.9000
 20
39.5375
 30
0.0000
  0
SEQEND
  8
0
  0
POLYLINE
  8
1
 66
1
 10
0.0000
 20
0.0000
 30
0.0000
 40
0.1250
 41
0.1250
 70
0
  0
VERTEX
  8
1
 10
42.9000
 20
39.5375
 30
0.0000
 42
1.0000
  0
VERTEX
  8
1
 10
42.9000
 20
39.6625
 30
0.0000
  0
SEQEND
  8
0
  0
POLYLINE
  8
1
 66
1
 10
0.0000
 20
0.0000
 30
0.0000
 40
0.2500
 41
0.2500
 70
0
  0
VERTEX
  8
1
 10
41.9000
 20
39.6000
 30
0.0000
  0
VERTEX
  8
1
 10
41.8000
 20
39.7000
 30
0.0000
  0
SEQEND
  8
0
  0
POLYLINE
  8
1
 66
1
 10
0.0000
 20
0.0000
 30
0.0000
 40
0.1250
 41
0.1250
 70
0
  0
VERTEX
  8
1
 10
41.8442
 20
39.7442
 30
0.0000
 42
1.0000
  0
VERTEX
  8
1
 10
41.7558
 20
39.6558
 30
0.0000
  0
SEQEND
  8
0
  0
POLYLINE
  8
1
 66
1
 10
0.0000
 20
0.0000
 30
0.0000
 40
0.1250
 41
0.1250
 70
0
  0
VERTEX
  8
1
 10
41.8558
 20
39.5558
 30
0.0000
 42
1.0000
  0
VERTEX
  8
1
 10
41.9442
 20
39.6442
 30
0.0000
  0
SEQEND
  8
0
  0
POLYLINE
  8
1
 66
1
 10
0.0000
 20
0.0000
 30
0.0000
 40
0.2500
 41
0.2500
 70
0
  0
VERTEX
  8
1
 10
41.8000
 20
39.7000
 30
0.0000
  0
VERTEX
  8
1
 10
41.8000
 20
44.2000
 30
0.0000
  0
SEQEND
  8
0
  0
POLYLINE
  8
1
 66
1
 10
0.0000
 20
0.0000
 30
0.0000
 40
0.1250
 41
0.1250
 70
0
  0
VERTEX
  8
1
 10
41.8625
 20
44.2000
 30
0.0000
 42
1.0000
  0
VERTEX
  8
1
 10
41.7375
 20
44.2000
 30
0.0000
  0
SEQEND
  8
0
  0
POLYLINE
  8
1
 66
1
 10
0.0000
 20
0.0000
 30
0.0000
 40
0.1250
 41
0.1250
 70
0
  0
VERTEX
  8
1
 10
41.7375
 20
39.7000
 30
0.0000
 42
1.0000
  0
VERTEX
  8
1
 10
41.8625
 20
39.7000
 30
0.0000
  0
SEQEND
  8
0
  0
POLYLINE
  8
1
 66
1
 10
0.0000
 20
0.0000
 30
0.0000
 40
0.2500
 41
0.2500
 70
0
  0
VERTEX
  8
1
 10
44.1000
 20
34.3000
 30
0.0000
  0
VERTEX
  8
1
 10
47.6000
 20
34.3000
 30
0.0000
  0
SEQEND
  8
0
  0
POLYLINE
  8
1
 66
1
 10
0.0000
 20
0.0000
 30
0.0000
 40
0.1250
 41
0.1250
 70
0
  0
VERTEX
  8
1
 10
47.6000
 20
34.2375
 30
0.0000
 42
1.0000
  0
VERTEX
  8
1
 10
47.6000
 20
34.3625
 30
0.0000
  0
SEQEND
  8
0
  0
POLYLINE
  8
1
 66
1
 10
0.0000
 20
0.0000
 30
0.0000
 40
0.1250
 41
0.1250
 70
0
  0
VERTEX
  8
1
 10
44.1000
 20
34.3625
 30
0.0000
 42
1.0000
  0
VERTEX
  8
1
 10
44.1000
 20
34.2375
 30
0.0000
  0
SEQEND
  8
0
  0
POLYLINE
  8
1
 66
1
 10
0.0000
 20
0.0000
 30
0.0000
 40
0.2500
 41
0.2500
 70
0
  0
VERTEX
  8
1
 10
47.6000
 20
45.7000
 30
0.0000
  0
VERTEX
  8
1
 10
47.6000
 20
34.3000
 30
0.0000
  0
SEQEND
  8
0
  0
POLYLINE
  8
1
 66
1
 10
0.0000
 20
0.0000
 30
0.0000
 40
0.1250
 41
0.1250
 70
0
  0
VERTEX
  8
1
 10
47.5375
 20
34.3000
 30
0.0000
 42
1.0000
  0
VERTEX
  8
1
 10
47.6625
 20
34.3000
 30
0.0000
  0
SEQEND
  8
0
  0
POLYLINE
  8
1
 66
1
 10
0.0000
 20
0.0000
 30
0.0000
 40
0.1250
 41
0.1250
 70
0
  0
VERTEX
  8
1
 10
47.6625
 20
45.7000
 30
0.0000
 42
1.0000
  0
VERTEX
  8
1
 10
47.5375
 20
45.7000
 30
0.0000
  0
SEQEND
  8
0
  0
POLYLINE
  8
1
 66
1
 10
0.0000
 20
0.0000
 30
0.0000
 40
0.2500
 41
0.2500
 70
0
  0
VERTEX
  8
1
 10
41.8000
 20
44.2000
 30
0.0000
  0
VERTEX
  8
1
 10
36.1000
 20
44.2000
 30
0.0000
  0
SEQEND
  8
0
  0
POLYLINE
  8
1
 66
1
 10
0.0000
 20
0.0000
 30
0.0000
 40
0.1250
 41
0.1250
 70
0
  0
VERTEX
  8
1
 10
36.1000
 20
44.2625
 30
0.0000
 42
1.0000
  0
VERTEX
  8
1
 10
36.1000
 20
44.1375
 30
0.0000
  0
SEQEND
  8
0
  0
POLYLINE
  8
1
 66
1
 10
0.0000
 20
0.0000
 30
0.0000
 40
0.1250
 41
0.1250
 70
0
  0
VERTEX
  8
1
 10
41.8000
 20
44.1375
 30
0.0000
 42
1.0000
  0
VERTEX
  8
1
 10
41.8000
 20
44.2625
 30
0.0000
  0
SEQEND
  8
0
  0
POLYLINE
  8
1
 66
1
 10
0.0000
 20
0.0000
 30
0.0000
 40
0.2500
 41
0.2500
 70
0
  0
VERTEX
  8
1
 10
36.1000
 20
44.2000
 30
0.0000
  0
VERTEX
  8
1
 10
36.1000
 20
57.6000
 30
0.0000
  0
SEQEND
  8
0
  0
POLYLINE
  8
1
 66
1
 10
0.0000
 20
0.0000
 30
0.0000
 40
0.1250
 41
0.1250
 70
0
  0
VERTEX
  8
1
 10
36.1625
 20
57.6000
 30
0.0000
 42
1.0000
  0
VERTEX
  8
1
 10
36.0375
 20
57.6000
 30
0.0000
  0
SEQEND
  8
0
  0
POLYLINE
  8
1
 66
1
 10
0.0000
 20
0.0000
 30
0.0000
 40
0.1250
 41
0.1250
 70
0
  0
VERTEX
  8
1
 10
36.0375
 20
44.2000
 30
0.0000
 42
1.0000
  0
VERTEX
  8
1
 10
36.1625
 20
44.2000
 30
0.0000
  0
SEQEND
  8
0
  0
POLYLINE
  8
1
 66
1
 10
0.0000
 20
0.0000
 30
0.0000
 40
0.2540
 41
0.2540
 70
0
  0
VERTEX
  8
1
 10
47.0000
 20
51.0000
 30
0.0000
  0
VERTEX
  8
1
 10
49.0000
 20
51.0000
 30
0.0000
  0
SEQEND
  8
0
  0
POLYLINE
  8
1
 66
1
 10
0.0000
 20
0.0000
 30
0.0000
 40
0.1270
 41
0.1270
 70
0
  0
VERTEX
  8
1
 10
49.0000
 20
50.9365
 30
0.0000
 42
1.0000
  0
VERTEX
  8
1
 10
49.0000
 20
51.0635
 30
0.0000
  0
SEQEND
  8
0
  0
POLYLINE
  8
1
 66
1
 10
0.0000
 20
0.0000
 30
0.0000
 40
0.1270
 41
0.1270
 70
0
  0
VERTEX
  8
1
 10
47.0000
 20
51.0635
 30
0.0000
 42
1.0000
  0
VERTEX
  8
1
 10
47.0000
 20
50.9365
 30
0.0000
  0
SEQEND
  8
0
  0
POLYLINE
  8
1
 66
1
 10
0.0000
 20
0.0000
 30
0.0000
 40
0.2540
 41
0.2540
 70
0
  0
VERTEX
  8
1
 10
46.5000
 20
51.5000
 30
0.0000
  0
VERTEX
  8
1
 10
47.0000
 20
51.0000
 30
0.0000
  0
SEQEND
  8
0
  0
POLYLINE
  8
1
 66
1
 10
0.0000
 20
0.0000
 30
0.0000
 40
0.1270
 41
0.1270
 70
0
  0
VERTEX
  8
1
 10
46.9551
 20
50.9551
 30
0.0000
 42
1.0000
  0
VERTEX
  8
1
 10
47.0449
 20
51.0449
 30
0.0000
  0
SEQEND
  8
0
  0
POLYLINE
  8
1
 66
1
 10
0.0000
 20
0.0000
 30
0.0000
 40
0.1270
 41
0.1270
 70
0
  0
VERTEX
  8
1
 10
46.5449
 20
51.5449
 30
0.0000
 42
1.0000
  0
VERTEX
  8
1
 10
46.4551
 20
51.4551
 30
0.0000
  0
SEQEND
  8
0
  0
POLYLINE
  8
1
 66
1
 10
0.0000
 20
0.0000
 30
0.0000
 40
0.2540
 41
0.2540
 70
0
  0
VERTEX
  8
1
 10
45.0500
 20
51.5000
 30
0.0000
  0
VERTEX
  8
1
 10
46.5000
 20
51.5000
 30
0.0000
  0
SEQEND
  8
0
  0
POLYLINE
  8
1
 66
1
 10
0.0000
 20
0.0000
 30
0.0000
 40
0.1270
 41
0.1270
 70
0
  0
VERTEX
  8
1
 10
46.5000
 20
51.4365
 30
0.0000
 42
1.0000
  0
VERTEX
  8
1
 10
46.5000
 20
51.5635
 30
0.0000
  0
SEQEND
  8
0
  0
POLYLINE
  8
1
 66
1
 10
0.0000
 20
0.0000
 30
0.0000
 40
0.1270
 41
0.1270
 70
0
  0
VERTEX
  8
1
 10
45.0500
 20
51.5635
 30
0.0000
 42
1.0000
  0
VERTEX
  8
1
 10
45.0500
 20
51.4365
 30
0.0000
  0
SEQEND
  8
0
  0
POLYLINE
  8
1
 66
1
 10
0.0000
 20
0.0000
 30
0.0000
 40
0.2540
 41
0.2540
 70
0
  0
VERTEX
  8
1
 10
49.0000
 20
51.0000
 30
0.0000
  0
VERTEX
  8
1
 10
49.4665
 20
50.8000
 30
0.0000
  0
SEQEND
  8
0
  0
POLYLINE
  8
1
 66
1
 10
0.0000
 20
0.0000
 30
0.0000
 40
0.1270
 41
0.1270
 70
0
  0
VERTEX
  8
1
 10
49.4415
 20
50.7416
 30
0.0000
 42
1.0000
  0
VERTEX
  8
1
 10
49.4915
 20
50.8584
 30
0.0000
  0
SEQEND
  8
0
  0
POLYLINE
  8
1
 66
1
 10
0.0000
 20
0.0000
 30
0.0000
 40
0.1270
 41
0.1270
 70
0
  0
VERTEX
  8
1
 10
49.0250
 20
51.0584
 30
0.0000
 42
1.0000
  0
VERTEX
  8
1
 10
48.9750
 20
50.9416
 30
0.0000
  0
SEQEND
  8
0
  0
POLYLINE
  8
1
 66
1
 10
0.0000
 20
0.0000
 30
0.0000
 40
0.2540
 41
0.2540
 70
0
  0
VERTEX
  8
1
 10
45.0500
 20
49.5000
 30
0.0000
  0
VERTEX
  8
1
 10
49.0000
 20
49.5000
 30
0.0000
  0
SEQEND
  8
0
  0
POLYLINE
  8
1
 66
1
 10
0.0000
 20
0.0000
 30
0.0000
 40
0.1270
 41
0.1270
 70
0
  0
VERTEX
  8
1
 10
49.0000
 20
49.4365
 30
0.0000
 42
1.0000
  0
VERTEX
  8
1
 10
49.0000
 20
49.5635
 30
0.0000
  0
SEQEND
  8
0
  0
POLYLINE
  8
1
 66
1
 10
0.0000
 20
0.0000
 30
0.0000
 40
0.1270
 41
0.1270
 70
0
  0
VERTEX
  8
1
 10
45.0500
 20
49.5635
 30
0.0000
 42
1.0000
  0
VERTEX
  8
1
 10
45.0500
 20
49.4365
 30
0.0000
  0
SEQEND
  8
0
  0
POLYLINE
  8
1
 66
1
 10
0.0000
 20
0.0000
 30
0.0000
 40
0.2540
 41
0.2540
 70
0
  0
VERTEX
  8
1
 10
49.0000
 20
49.5000
 30
0.0000
  0
VERTEX
  8
1
 10
49.4665
 20
49.5300
 30
0.0000
  0
SEQEND
  8
0
  0
POLYLINE
  8
1
 66
1
 10
0.0000
 20
0.0000
 30
0.0000
 40
0.1270
 41
0.1270
 70
0
  0
VERTEX
  8
1
 10
49.4706
 20
49.4666
 30
0.0000
 42
1.0000
  0
VERTEX
  8
1
 10
49.4624
 20
49.5934
 30
0.0000
  0
SEQEND
  8
0
  0
POLYLINE
  8
1
 66
1
 10
0.0000
 20
0.0000
 30
0.0000
 40
0.1270
 41
0.1270
 70
0
  0
VERTEX
  8
1
 10
48.9959
 20
49.5634
 30
0.0000
 42
1.0000
  0
VERTEX
  8
1
 10
49.0041
 20
49.4366
 30
0.0000
  0
SEQEND
  8
0
  0
POLYLINE
  8
1
 66
1
 10
0.0000
 20
0.0000
 30
0.0000
 40
0.2540
 41
0.2540
 70
0
  0
VERTEX
  8
1
 10
45.8000
 20
39.5000
 30
0.0000
  0
VERTEX
  8
1
 10
45.8000
 20
36.5000
 30
0.0000
  0
SEQEND
  8
0
  0
POLYLINE
  8
1
 66
1
 10
0.0000
 20
0.0000
 30
0.0000
 40
0.1270
 41
0.1270
 70
0
  0
VERTEX
  8
1
 10
45.7365
 20
36.5000
 30
0.0000
 42
1.0000
  0
VERTEX
  8
1
 10
45.8635
 20
36.5000
 30
0.0000
  0
SEQEND
  8
0
  0
POLYLINE
  8
1
 66
1
 10
0.0000
 20
0.0000
 30
0.0000
 40
0.1270
 41
0.1270
 70
0
  0
VERTEX
  8
1
 10
45.8635
 20
39.5000
 30
0.0000
 42
1.0000
  0
VERTEX
  8
1
 10
45.7365
 20
39.5000
 30
0.0000
  0
SEQEND
  8
0
  0
POLYLINE
  8
1
 66
1
 10
0.0000
 20
0.0000
 30
0.0000
 40
0.2540
 41
0.2540
 70
0
  0
VERTEX
  8
1
 10
46.8000
 20
39.5000
 30
0.0000
  0
VERTEX
  8
1
 10
45.8000
 20
39.5000
 30
0.0000
  0
SEQEND
  8
0
  0
POLYLINE
  8
1
 66
1
 10
0.0000
 20
0.0000
 30
0.0000
 40
0.1270
 41
0.1270
 70
0
  0
VERTEX
  8
1
 10
45.8000
 20
39.5635
 30
0.0000
 42
1.0000
  0
VERTEX
  8
1
 10
45.8000
 20
39.4365
 30
0.0000
  0
SEQEND
  8
0
  0
POLYLINE
  8
1
 66
1
 10
0.0000
 20
0.0000
 30
0.0000
 40
0.1270
 41
0.1270
 70
0
  0
VERTEX
  8
1
 10
46.8000
 20
39.4365
 30
0.0000
 42
1.0000
  0
VERTEX
  8
1
 10
46.8000
 20
39.5635
 30
0.0000
  0
SEQEND
  8
0
  0
POLYLINE
  8
1
 66
1
 10
0.0000
 20
0.0000
 30
0.0000
 40
0.2540
 41
0.2540
 70
0
  0
VERTEX
  8
1
 10
46.8000
 20
47.0000
 30
0.0000
  0
VERTEX
  8
1
 10
46.8000
 20
47.9000
 30
0.0000
  0
SEQEND
  8
0
  0
POLYLINE
  8
1
 66
1
 10
0.0000
 20
0.0000
 30
0.0000
 40
0.1270
 41
0.1270
 70
0
  0
VERTEX
  8
1
 10
46.8635
 20
47.9000
 30
0.0000
 42
1.0000
  0
VERTEX
  8
1
 10
46.7365
 20
47.9000
 30
0.0000
  0
SEQEND
  8
0
  0
POLYLINE
  8
1
 66
1
 10
0.0000
 20
0.0000
 30
0.0000
 40
0.1270
 41
0.1270
 70
0
  0
VERTEX
  8
1
 10
46.7365
 20
47.0000
 30
0.0000
 42
1.0000
  0
VERTEX
  8
1
 10
46.8635
 20
47.0000
 30
0.0000
  0
SEQEND
  8
0
  0
POLYLINE
  8
1
 66
1
 10
0.0000
 20
0.0000
 30
0.0000
 40
0.2540
 41
0.2540
 70
0
  0
VERTEX
  8
1
 10
46.8000
 20
47.0000
 30
0.0000
  0
VERTEX
  8
1
 10
46.8000
 20
39.5000
 30
0.0000
  0
SEQEND
  8
0
  0
POLYLINE
  8
1
 66
1
 10
0.0000
 20
0.0000
 30
0.0000
 40
0.1270
 41
0.1270
 70
0
  0
VERTEX
  8
1
 10
46.7365
 20
39.5000
 30
0.0000
 42
1.0000
  0
VERTEX
  8
1
 10
46.8635
 20
39.5000
 30
0.0000
  0
SEQEND
  8
0
  0
POLYLINE
  8
1
 66
1
 10
0.0000
 20
0.0000
 30
0.0000
 40
0.1270
 41
0.1270
 70
0
  0
VERTEX
  8
1
 10
46.8635
 20
47.0000
 30
0.0000
 42
1.0000
  0
VERTEX
  8
1
 10
46.7365
 20
47.0000
 30
0.0000
  0
SEQEND
  8
0
  0
POLYLINE
  8
1
 66
1
 10
0.0000
 20
0.0000
 30
0.0000
 40
0.2540
 41
0.2540
 70
0
  0
VERTEX
  8
1
 10
49.0000
 20
47.0000
 30
0.0000
  0
VERTEX
  8
1
 10
46.8000
 20
47.0000
 30
0.0000
  0
SEQEND
  8
0
  0
POLYLINE
  8
1
 66
1
 10
0.0000
 20
0.0000
 30
0.0000
 40
0.1270
 41
0.1270
 70
0
  0
VERTEX
  8
1
 10
46.8000
 20
47.0635
 30
0.0000
 42
1.0000
  0
VERTEX
  8
1
 10
46.8000
 20
46.9365
 30
0.0000
  0
SEQEND
  8
0
  0
POLYLINE
  8
1
 66
1
 10
0.0000
 20
0.0000
 30
0.0000
 40
0.1270
 41
0.1270
 70
0
  0
VERTEX
  8
1
 10
49.0000
 20
46.9365
 30
0.0000
 42
1.0000
  0
VERTEX
  8
1
 10
49.0000
 20
47.0635
 30
0.0000
  0
SEQEND
  8
0
  0
POLYLINE
  8
1
 66
1
 10
0.0000
 20
0.0000
 30
0.0000
 40
0.2540
 41
0.2540
 70
0
  0
VERTEX
  8
1
 10
45.8000
 20
36.5000
 30
0.0000
  0
VERTEX
  8
1
 10
45.7710
 20
36.1300
 30
0.0000
  0
SEQEND
  8
0
  0
POLYLINE
  8
1
 66
1
 10
0.0000
 20
0.0000
 30
0.0000
 40
0.1270
 41
0.1270
 70
0
  0
VERTEX
  8
1
 10
45.7077
 20
36.1350
 30
0.0000
 42
1.0000
  0
VERTEX
  8
1
 10
45.8343
 20
36.1250
 30
0.0000
  0
SEQEND
  8
0
  0
POLYLINE
  8
1
 66
1
 10
0.0000
 20
0.0000
 30
0.0000
 40
0.1270
 41
0.1270
 70
0
  0
VERTEX
  8
1
 10
45.8633
 20
36.4950
 30
0.0000
 42
1.0000
  0
VERTEX
  8
1
 10
45.7367
 20
36.5050
 30
0.0000
  0
SEQEND
  8
0
  0
POLYLINE
  8
1
 66
1
 10
0.0000
 20
0.0000
 30
0.0000
 40
0.2540
 41
0.2540
 70
0
  0
VERTEX
  8
1
 10
49.0000
 20
47.0000
 30
0.0000
  0
VERTEX
  8
1
 10
49.4665
 20
46.9900
 30
0.0000
  0
SEQEND
  8
0
  0
POLYLINE
  8
1
 66
1
 10
0.0000
 20
0.0000
 30
0.0000
 40
0.1270
 41
0.1270
 70
0
  0
VERTEX
  8
1
 10
49.4651
 20
46.9265
 30
0.0000
 42
1.0000
  0
VERTEX
  8
1
 10
49.4679
 20
47.0535
 30
0.0000
  0
SEQEND
  8
0
  0
POLYLINE
  8
1
 66
1
 10
0.0000
 20
0.0000
 30
0.0000
 40
0.1270
 41
0.1270
 70
0
  0
VERTEX
  8
1
 10
49.0014
 20
47.0635
 30
0.0000
 42
1.0000
  0
VERTEX
  8
1
 10
48.9986
 20
46.9365
 30
0.0000
  0
SEQEND
  8
0
  0
POLYLINE
  8
1
 66
1
 10
0.0000
 20
0.0000
 30
0.0000
 40
0.2540
 41
0.2540
 70
0
  0
VERTEX
  8
1
 10
42.2000
 20
46.3000
 30
0.0000
  0
VERTEX
  8
1
 10
39.0000
 20
46.3000
 30
0.0000
  0
SEQEND
  8
0
  0
POLYLINE
  8
1
 66
1
 10
0.0000
 20
0.0000
 30
0.0000
 40
0.1270
 41
0.1270
 70
0
  0
VERTEX
  8
1
 10
39.0000
 20
46.3635
 30
0.0000
 42
1.0000
  0
VERTEX
  8
1
 10
39.0000
 20
46.2365
 30
0.0000
  0
SEQEND
  8
0
  0
POLYLINE
  8
1
 66
1
 10
0.0000
 20
0.0000
 30
0.0000
 40
0.1270
 41
0.1270
 70
0
  0
VERTEX
  8
1
 10
42.2000
 20
46.2365
 30
0.0000
 42
1.0000
  0
VERTEX
  8
1
 10
42.2000
 20
46.3635
 30
0.0000
  0
SEQEND
  8
0
  0
POLYLINE
  8
1
 66
1
 10
0.0000
 20
0.0000
 30
0.0000
 40
0.2540
 41
0.2540
 70
0
  0
VERTEX
  8
1
 10
42.2000
 20
47.9000
 30
0.0000
  0
VERTEX
  8
1
 10
42.2000
 20
46.3000
 30
0.0000
  0
SEQEND
  8
0
  0
POLYLINE
  8
1
 66
1
 10
0.0000
 20
0.0000
 30
0.0000
 40
0.1270
 41
0.1270
 70
0
  0
VERTEX
  8
1
 10
42.1365
 20
46.3000
 30
0.0000
 42
1.0000
  0
VERTEX
  8
1
 10
42.2635
 20
46.3000
 30
0.0000
  0
SEQEND
  8
0
  0
POLYLINE
  8
1
 66
1
 10
0.0000
 20
0.0000
 30
0.0000
 40
0.1270
 41
0.1270
 70
0
  0
VERTEX
  8
1
 10
42.2635
 20
47.9000
 30
0.0000
 42
1.0000
  0
VERTEX
  8
1
 10
42.1365
 20
47.9000
 30
0.0000
  0
SEQEND
  8
0
  0
POLYLINE
  8
1
 66
1
 10
0.0000
 20
0.0000
 30
0.0000
 40
0.2540
 41
0.2540
 70
0
  0
VERTEX
  8
1
 10
46.8000
 20
47.9000
 30
0.0000
  0
VERTEX
  8
1
 10
42.2000
 20
47.9000
 30
0.0000
  0
SEQEND
  8
0
  0
POLYLINE
  8
1
 66
1
 10
0.0000
 20
0.0000
 30
0.0000
 40
0.1270
 41
0.1270
 70
0
  0
VERTEX
  8
1
 10
42.2000
 20
47.9635
 30
0.0000
 42
1.0000
  0
VERTEX
  8
1
 10
42.2000
 20
47.8365
 30
0.0000
  0
SEQEND
  8
0
  0
POLYLINE
  8
1
 66
1
 10
0.0000
 20
0.0000
 30
0.0000
 40
0.1270
 41
0.1270
 70
0
  0
VERTEX
  8
1
 10
46.8000
 20
47.8365
 30
0.0000
 42
1.0000
  0
VERTEX
  8
1
 10
46.8000
 20
47.9635
 30
0.0000
  0
SEQEND
  8
0
  0
POLYLINE
  8
1
 66
1
 10
0.0000
 20
0.0000
 30
0.0000
 40
0.2540
 41
0.2540
 70
0
  0
VERTEX
  8
1
 10
39.0000
 20
46.3000
 30
0.0000
  0
VERTEX
  8
1
 10
38.2980
 20
46.2860
 30
0.0000
  0
SEQEND
  8
0
  0
POLYLINE
  8
1
 66
1
 10
0.0000
 20
0.0000
 30
0.0000
 40
0.1270
 41
0.1270
 70
0
  0
VERTEX
  8
1
 10
38.2967
 20
46.3495
 30
0.0000
 42
1.0000
  0
VERTEX
  8
1
 10
38.2993
 20
46.2225
 30
0.0000
  0
SEQEND
  8
0
  0
POLYLINE
  8
1
 66
1
 10
0.0000
 20
0.0000
 30
0.0000
 40
0.1270
 41
0.1270
 70
0
  0
VERTEX
  8
1
 10
39.0013
 20
46.2365
 30
0.0000
 42
1.0000
  0
VERTEX
  8
1
 10
38.9987
 20
46.3635
 30
0.0000
  0
SEQEND
  8
0
  0
POLYLINE
  8
1
 66
1
 10
0.0000
 20
0.0000
 30
0.0000
 40
0.2500
 41
0.2500
 70
0
  0
VERTEX
  8
1
 10
51.2000
 20
43.1000
 30
0.0000
  0
VERTEX
  8
1
 10
51.2000
 20
48.2000
 30
0.0000
  0
SEQEND
  8
0
  0
POLYLINE
  8
1
 66
1
 10
0.0000
 20
0.0000
 30
0.0000
 40
0.1250
 41
0.1250
 70
0
  0
VERTEX
  8
1
 10
51.2625
 20
48.2000
 30
0.0000
 42
1.0000
  0
VERTEX
  8
1
 10
51.1375
 20
48.2000
 30
0.0000
  0
SEQEND
  8
0
  0
POLYLINE
  8
1
 66
1
 10
0.0000
 20
0.0000
 30
0.0000
 40
0.1250
 41
0.1250
 70
0
  0
VERTEX
  8
1
 10
51.1375
 20
43.1000
 30
0.0000
 42
1.0000
  0
VERTEX
  8
1
 10
51.2625
 20
43.1000
 30
0.0000
  0
SEQEND
  8
0
  0
POLYLINE
  8
1
 66
1
 10
0.0000
 20
0.0000
 30
0.0000
 40
0.2500
 41
0.2500
 70
0
  0
VERTEX
  8
1
 10
51.2000
 20
48.2000
 30
0.0000
  0
VERTEX
  8
1
 10
51.2000
 20
48.3000
 30
0.0000
  0
SEQEND
  8
0
  0
POLYLINE
  8
1
 66
1
 10
0.0000
 20
0.0000
 30
0.0000
 40
0.1250
 41
0.1250
 70
0
  0
VERTEX
  8
1
 10
51.2625
 20
48.3000
 30
0.0000
 42
1.0000
  0
VERTEX
  8
1
 10
51.1375
 20
48.3000
 30
0.0000
  0
SEQEND
  8
0
  0
POLYLINE
  8
1
 66
1
 10
0.0000
 20
0.0000
 30
0.0000
 40
0.1250
 41
0.1250
 70
0
  0
VERTEX
  8
1
 10
51.1375
 20
48.2000
 30
0.0000
 42
1.0000
  0
VERTEX
  8
1
 10
51.2625
 20
48.2000
 30
0.0000
  0
SEQEND
  8
0
  0
POLYLINE
  8
1
 66
1
 10
0.0000
 20
0.0000
 30
0.0000
 40
0.2500
 41
0.2500
 70
0
  0
VERTEX
  8
1
 10
51.2000
 20
48.3000
 30
0.0000
  0
VERTEX
  8
1
 10
51.1600
 20
48.2600
 30
0.0000
  0
SEQEND
  8
0
  0
POLYLINE
  8
1
 66
1
 10
0.0000
 20
0.0000
 30
0.0000
 40
0.1250
 41
0.1250
 70
0
  0
VERTEX
  8
1
 10
51.1158
 20
48.3042
 30
0.0000
 42
1.0000
  0
VERTEX
  8
1
 10
51.2042
 20
48.2158
 30
0.0000
  0
SEQEND
  8
0
  0
POLYLINE
  8
1
 66
1
 10
0.0000
 20
0.0000
 30
0.0000
 40
0.1250
 41
0.1250
 70
0
  0
VERTEX
  8
1
 10
51.2442
 20
48.2558
 30
0.0000
 42
1.0000
  0
VERTEX
  8
1
 10
51.1558
 20
48.3442
 30
0.0000
  0
SEQEND
  8
0
  0
POLYLINE
  8
1
 66
1
 10
0.0000
 20
0.0000
 30
0.0000
 40
0.2500
 41
0.2500
 70
0
  0
VERTEX
  8
1
 10
51.1600
 20
48.2600
 30
0.0000
  0
VERTEX
  8
1
 10
49.4665
 20
48.2600
 30
0.0000
  0
SEQEND
  8
0
  0
POLYLINE
  8
1
 66
1
 10
0.0000
 20
0.0000
 30
0.0000
 40
0.1250
 41
0.1250
 70
0
  0
VERTEX
  8
1
 10
49.4665
 20
48.3225
 30
0.0000
 42
1.0000
  0
VERTEX
  8
1
 10
49.4665
 20
48.1975
 30
0.0000
  0
SEQEND
  8
0
  0
POLYLINE
  8
1
 66
1
 10
0.0000
 20
0.0000
 30
0.0000
 40
0.1250
 41
0.1250
 70
0
  0
VERTEX
  8
1
 10
51.1600
 20
48.1975
 30
0.0000
 42
1.0000
  0
VERTEX
  8
1
 10
51.1600
 20
48.3225
 30
0.0000
  0
SEQEND
  8
0
  0
POLYLINE
  8
1
 66
1
 10
0.0000
 20
0.0000
 30
0.0000
 40
0.2500
 41
0.2500
 70
0
  0
VERTEX
  8
1
 10
49.4665
 20
48.2600
 30
0.0000
  0
VERTEX
  8
1
 10
49.4665
 20
48.2000
 30
0.0000
  0
SEQEND
  8
0
  0
POLYLINE
  8
1
 66
1
 10
0.0000
 20
0.0000
 30
0.0000
 40
0.1250
 41
0.1250
 70
0
  0
VERTEX
  8
1
 10
49.4040
 20
48.2000
 30
0.0000
 42
1.0000
  0
VERTEX
  8
1
 10
49.5290
 20
48.2000
 30
0.0000
  0
SEQEND
  8
0
  0
POLYLINE
  8
1
 66
1
 10
0.0000
 20
0.0000
 30
0.0000
 40
0.1250
 41
0.1250
 70
0
  0
VERTEX
  8
1
 10
49.5290
 20
48.2600
 30
0.0000
 42
1.0000
  0
VERTEX
  8
1
 10
49.4040
 20
48.2600
 30
0.0000
  0
SEQEND
  8
0
  0
POLYLINE
  8
1
 66
1
 10
0.0000
 20
0.0000
 30
0.0000
 40
0.2500
 41
0.2500
 70
0
  0
VERTEX
  8
1
 10
49.4665
 20
48.2000
 30
0.0000
  0
VERTEX
  8
1
 10
51.2000
 20
48.2000
 30
0.0000
  0
SEQEND
  8
0
  0
POLYLINE
  8
1
 66
1
 10
0.0000
 20
0.0000
 30
0.0000
 40
0.1250
 41
0.1250
 70
0
  0
VERTEX
  8
1
 10
51.2000
 20
48.1375
 30
0.0000
 42
1.0000
  0
VERTEX
  8
1
 10
51.2000
 20
48.2625
 30
0.0000
  0
SEQEND
  8
0
  0
POLYLINE
  8
1
 66
1
 10
0.0000
 20
0.0000
 30
0.0000
 40
0.1250
 41
0.1250
 70
0
  0
VERTEX
  8
1
 10
49.4665
 20
48.2625
 30
0.0000
 42
1.0000
  0
VERTEX
  8
1
 10
49.4665
 20
48.1375
 30
0.0000
  0
SEQEND
  8
0
  0
POLYLINE
  8
1
 66
1
 10
0.0000
 20
0.0000
 30
0.0000
 40
0.2500
 41
0.2500
 70
0
  0
VERTEX
  8
1
 10
51.2000
 20
48.3000
 30
0.0000
  0
VERTEX
  8
1
 10
51.2000
 20
55.8800
 30
0.0000
  0
SEQEND
  8
0
  0
POLYLINE
  8
1
 66
1
 10
0.0000
 20
0.0000
 30
0.0000
 40
0.1250
 41
0.1250
 70
0
  0
VERTEX
  8
1
 10
51.2625
 20
55.8800
 30
0.0000
 42
1.0000
  0
VERTEX
  8
1
 10
51.1375
 20
55.8800
 30
0.0000
  0
SEQEND
  8
0
  0
POLYLINE
  8
1
 66
1
 10
0.0000
 20
0.0000
 30
0.0000
 40
0.1250
 41
0.1250
 70
0
  0
VERTEX
  8
1
 10
51.1375
 20
48.3000
 30
0.0000
 42
1.0000
  0
VERTEX
  8
1
 10
51.2625
 20
48.3000
 30
0.0000
  0
SEQEND
  8
0
  0
POLYLINE
  8
1
 66
1
 10
0.0000
 20
0.0000
 30
0.0000
 40
0.2500
 41
0.2500
 70
0
  0
VERTEX
  8
1
 10
51.2000
 20
55.9000
 30
0.0000
  0
VERTEX
  8
1
 10
51.2000
 20
55.8800
 30
0.0000
  0
SEQEND
  8
0
  0
POLYLINE
  8
1
 66
1
 10
0.0000
 20
0.0000
 30
0.0000
 40
0.1250
 41
0.1250
 70
0
  0
VERTEX
  8
1
 10
51.1375
 20
55.8800
 30
0.0000
 42
1.0000
  0
VERTEX
  8
1
 10
51.2625
 20
55.8800
 30
0.0000
  0
SEQEND
  8
0
  0
POLYLINE
  8
1
 66
1
 10
0.0000
 20
0.0000
 30
0.0000
 40
0.1250
 41
0.1250
 70
0
  0
VERTEX
  8
1
 10
51.2625
 20
55.9000
 30
0.0000
 42
1.0000
  0
VERTEX
  8
1
 10
51.1375
 20
55.9000
 30
0.0000
  0
SEQEND
  8
0
  0
POLYLINE
  8
1
 66
1
 10
0.0000
 20
0.0000
 30
0.0000
 40
0.2500
 41
0.2500
 70
0
  0
VERTEX
  8
1
 10
51.2000
 20
55.8800
 30
0.0000
  0
VERTEX
  8
1
 10
49.9110
 20
55.8800
 30
0.0000
  0
SEQEND
  8
0
  0
POLYLINE
  8
1
 66
1
 10
0.0000
 20
0.0000
 30
0.0000
 40
0.1250
 41
0.1250
 70
0
  0
VERTEX
  8
1
 10
49.9110
 20
55.9425
 30
0.0000
 42
1.0000
  0
VERTEX
  8
1
 10
49.9110
 20
55.8175
 30
0.0000
  0
SEQEND
  8
0
  0
POLYLINE
  8
1
 66
1
 10
0.0000
 20
0.0000
 30
0.0000
 40
0.1250
 41
0.1250
 70
0
  0
VERTEX
  8
1
 10
51.2000
 20
55.8175
 30
0.0000
 42
1.0000
  0
VERTEX
  8
1
 10
51.2000
 20
55.9425
 30
0.0000
  0
SEQEND
  8
0
  0
POLYLINE
  8
1
 66
1
 10
0.0000
 20
0.0000
 30
0.0000
 40
0.2500
 41
0.2500
 70
0
  0
VERTEX
  8
1
 10
51.2000
 20
43.1000
 30
0.0000
  0
VERTEX
  8
1
 10
50.8000
 20
43.1000
 30
0.0000
  0
SEQEND
  8
0
  0
POLYLINE
  8
1
 66
1
 10
0.0000
 20
0.0000
 30
0.0000
 40
0.1250
 41
0.1250
 70
0
  0
VERTEX
  8
1
 10
50.8000
 20
43.1625
 30
0.0000
 42
1.0000
  0
VERTEX
  8
1
 10
50.8000
 20
43.0375
 30
0.0000
  0
SEQEND
  8
0
  0
POLYLINE
  8
1
 66
1
 10
0.0000
 20
0.0000
 30
0.0000
 40
0.1250
 41
0.1250
 70
0
  0
VERTEX
  8
1
 10
51.2000
 20
43.0375
 30
0.0000
 42
1.0000
  0
VERTEX
  8
1
 10
51.2000
 20
43.1625
 30
0.0000
  0
SEQEND
  8
0
  0
POLYLINE
  8
1
 66
1
 10
0.0000
 20
0.0000
 30
0.0000
 40
0.2500
 41
0.2500
 70
0
  0
VERTEX
  8
1
 10
50.8000
 20
43.1000
 30
0.0000
  0
VERTEX
  8
1
 10
50.8000
 20
41.0200
 30
0.0000
  0
SEQEND
  8
0
  0
POLYLINE
  8
1
 66
1
 10
0.0000
 20
0.0000
 30
0.0000
 40
0.1250
 41
0.1250
 70
0
  0
VERTEX
  8
1
 10
50.7375
 20
41.0200
 30
0.0000
 42
1.0000
  0
VERTEX
  8
1
 10
50.8625
 20
41.0200
 30
0.0000
  0
SEQEND
  8
0
  0
POLYLINE
  8
1
 66
1
 10
0.0000
 20
0.0000
 30
0.0000
 40
0.1250
 41
0.1250
 70
0
  0
VERTEX
  8
1
 10
50.8625
 20
43.1000
 30
0.0000
 42
1.0000
  0
VERTEX
  8
1
 10
50.7375
 20
43.1000
 30
0.0000
  0
SEQEND
  8
0
  0
POLYLINE
  8
1
 66
1
 10
0.0000
 20
0.0000
 30
0.0000
 40
0.2540
 41
0.2540
 70
0
  0
VERTEX
  8
1
 10
53.0000
 20
45.7000
 30
0.0000
  0
VERTEX
  8
1
 10
54.5000
 20
45.7000
 30
0.0000
  0
SEQEND
  8
0
  0
POLYLINE
  8
1
 66
1
 10
0.0000
 20
0.0000
 30
0.0000
 40
0.1270
 41
0.1270
 70
0
  0
VERTEX
  8
1
 10
54.5000
 20
45.6365
 30
0.0000
 42
1.0000
  0
VERTEX
  8
1
 10
54.5000
 20
45.7635
 30
0.0000
  0
SEQEND
  8
0
  0
POLYLINE
  8
1
 66
1
 10
0.0000
 20
0.0000
 30
0.0000
 40
0.1270
 41
0.1270
 70
0
  0
VERTEX
  8
1
 10
53.0000
 20
45.7635
 30
0.0000
 42
1.0000
  0
VERTEX
  8
1
 10
53.0000
 20
45.6365
 30
0.0000
  0
SEQEND
  8
0
  0
POLYLINE
  8
1
 66
1
 10
0.0000
 20
0.0000
 30
0.0000
 40
0.2540
 41
0.2540
 70
0
  0
VERTEX
  8
1
 10
53.0000
 20
43.1000
 30
0.0000
  0
VERTEX
  8
1
 10
53.0000
 20
45.7000
 30
0.0000
  0
SEQEND
  8
0
  0
POLYLINE
  8
1
 66
1
 10
0.0000
 20
0.0000
 30
0.0000
 40
0.1270
 41
0.1270
 70
0
  0
VERTEX
  8
1
 10
53.0635
 20
45.7000
 30
0.0000
 42
1.0000
  0
VERTEX
  8
1
 10
52.9365
 20
45.7000
 30
0.0000
  0
SEQEND
  8
0
  0
POLYLINE
  8
1
 66
1
 10
0.0000
 20
0.0000
 30
0.0000
 40
0.1270
 41
0.1270
 70
0
  0
VERTEX
  8
1
 10
52.9365
 20
43.1000
 30
0.0000
 42
1.0000
  0
VERTEX
  8
1
 10
53.0635
 20
43.1000
 30
0.0000
  0
SEQEND
  8
0
  0
POLYLINE
  8
1
 66
1
 10
0.0000
 20
0.0000
 30
0.0000
 40
0.2540
 41
0.2540
 70
0
  0
VERTEX
  8
1
 10
54.5000
 20
45.7000
 30
0.0000
  0
VERTEX
  8
1
 10
54.6735
 20
45.7200
 30
0.0000
  0
SEQEND
  8
0
  0
POLYLINE
  8
1
 66
1
 10
0.0000
 20
0.0000
 30
0.0000
 40
0.1270
 41
0.1270
 70
0
  0
VERTEX
  8
1
 10
54.6808
 20
45.6569
 30
0.0000
 42
1.0000
  0
VERTEX
  8
1
 10
54.6662
 20
45.7831
 30
0.0000
  0
SEQEND
  8
0
  0
POLYLINE
  8
1
 66
1
 10
0.0000
 20
0.0000
 30
0.0000
 40
0.1270
 41
0.1270
 70
0
  0
VERTEX
  8
1
 10
54.4927
 20
45.7631
 30
0.0000
 42
1.0000
  0
VERTEX
  8
1
 10
54.5073
 20
45.6369
 30
0.0000
  0
SEQEND
  8
0
  0
POLYLINE
  8
1
 66
1
 10
0.0000
 20
0.0000
 30
0.0000
 40
0.2500
 41
0.2500
 70
0
  0
VERTEX
  8
1
 10
53.0000
 20
43.1000
 30
0.0000
  0
VERTEX
  8
1
 10
53.3000
 20
43.1000
 30
0.0000
  0
SEQEND
  8
0
  0
POLYLINE
  8
1
 66
1
 10
0.0000
 20
0.0000
 30
0.0000
 40
0.1250
 41
0.1250
 70
0
  0
VERTEX
  8
1
 10
53.3000
 20
43.0375
 30
0.0000
 42
1.0000
  0
VERTEX
  8
1
 10
53.3000
 20
43.1625
 30
0.0000
  0
SEQEND
  8
0
  0
POLYLINE
  8
1
 66
1
 10
0.0000
 20
0.0000
 30
0.0000
 40
0.1250
 41
0.1250
 70
0
  0
VERTEX
  8
1
 10
53.0000
 20
43.1625
 30
0.0000
 42
1.0000
  0
VERTEX
  8
1
 10
53.0000
 20
43.0375
 30
0.0000
  0
SEQEND
  8
0
  0
POLYLINE
  8
1
 66
1
 10
0.0000
 20
0.0000
 30
0.0000
 40
0.2500
 41
0.2500
 70
0
  0
VERTEX
  8
1
 10
53.3000
 20
43.1000
 30
0.0000
  0
VERTEX
  8
1
 10
53.3000
 20
41.0200
 30
0.0000
  0
SEQEND
  8
0
  0
POLYLINE
  8
1
 66
1
 10
0.0000
 20
0.0000
 30
0.0000
 40
0.1250
 41
0.1250
 70
0
  0
VERTEX
  8
1
 10
53.2375
 20
41.0200
 30
0.0000
 42
1.0000
  0
VERTEX
  8
1
 10
53.3625
 20
41.0200
 30
0.0000
  0
SEQEND
  8
0
  0
POLYLINE
  8
1
 66
1
 10
0.0000
 20
0.0000
 30
0.0000
 40
0.1250
 41
0.1250
 70
0
  0
VERTEX
  8
1
 10
53.3625
 20
43.1000
 30
0.0000
 42
1.0000
  0
VERTEX
  8
1
 10
53.2375
 20
43.1000
 30
0.0000
  0
SEQEND
  8
0
  0
POLYLINE
  8
1
 66
1
 10
0.0000
 20
0.0000
 30
0.0000
 40
0.2500
 41
0.2500
 70
0
  0
VERTEX
  8
1
 10
53.3000
 20
41.0200
 30
0.0000
  0
VERTEX
  8
1
 10
53.3400
 20
41.0200
 30
0.0000
  0
SEQEND
  8
0
  0
POLYLINE
  8
1
 66
1
 10
0.0000
 20
0.0000
 30
0.0000
 40
0.1250
 41
0.1250
 70
0
  0
VERTEX
  8
1
 10
53.3400
 20
40.9575
 30
0.0000
 42
1.0000
  0
VERTEX
  8
1
 10
53.3400
 20
41.0825
 30
0.0000
  0
SEQEND
  8
0
  0
POLYLINE
  8
1
 66
1
 10
0.0000
 20
0.0000
 30
0.0000
 40
0.1250
 41
0.1250
 70
0
  0
VERTEX
  8
1
 10
53.3000
 20
41.0825
 30
0.0000
 42
1.0000
  0
VERTEX
  8
1
 10
53.3000
 20
40.9575
 30
0.0000
  0
SEQEND
  8
0
  0
POLYLINE
  8
1
 66
1
 10
0.0000
 20
0.0000
 30
0.0000
 40
0.2540
 41
0.2540
 70
0
  0
VERTEX
  8
1
 10
46.6000
 20
54.4000
 30
0.0000
  0
VERTEX
  8
1
 10
46.6000
 20
55.9000
 30
0.0000
  0
SEQEND
  8
0
  0
POLYLINE
  8
1
 66
1
 10
0.0000
 20
0.0000
 30
0.0000
 40
0.1270
 41
0.1270
 70
0
  0
VERTEX
  8
1
 10
46.6635
 20
55.9000
 30
0.0000
 42
1.0000
  0
VERTEX
  8
1
 10
46.5365
 20
55.9000
 30
0.0000
  0
SEQEND
  8
0
  0
POLYLINE
  8
1
 66
1
 10
0.0000
 20
0.0000
 30
0.0000
 40
0.1270
 41
0.1270
 70
0
  0
VERTEX
  8
1
 10
46.5365
 20
54.4000
 30
0.0000
 42
1.0000
  0
VERTEX
  8
1
 10
46.6635
 20
54.4000
 30
0.0000
  0
SEQEND
  8
0
  0
POLYLINE
  8
1
 66
1
 10
0.0000
 20
0.0000
 30
0.0000
 40
0.2540
 41
0.2540
 70
0
  0
VERTEX
  8
1
 10
46.6000
 20
55.9000
 30
0.0000
  0
VERTEX
  8
1
 10
46.6090
 20
55.8800
 30
0.0000
  0
SEQEND
  8
0
  0
POLYLINE
  8
1
 66
1
 10
0.0000
 20
0.0000
 30
0.0000
 40
0.1270
 41
0.1270
 70
0
  0
VERTEX
  8
1
 10
46.5511
 20
55.8539
 30
0.0000
 42
1.0000
  0
VERTEX
  8
1
 10
46.6669
 20
55.9061
 30
0.0000
  0
SEQEND
  8
0
  0
POLYLINE
  8
1
 66
1
 10
0.0000
 20
0.0000
 30
0.0000
 40
0.1270
 41
0.1270
 70
0
  0
VERTEX
  8
1
 10
46.6579
 20
55.9261
 30
0.0000
 42
1.0000
  0
VERTEX
  8
1
 10
46.5421
 20
55.8739
 30
0.0000
  0
SEQEND
  8
0
  0
POLYLINE
  8
1
 66
1
 10
0.0000
 20
0.0000
 30
0.0000
 40
0.2540
 41
0.2540
 70
0
  0
VERTEX
  8
1
 10
47.8000
 20
52.1000
 30
0.0000
  0
VERTEX
  8
1
 10
49.4665
 20
52.0700
 30
0.0000
  0
SEQEND
  8
0
  0
POLYLINE
  8
1
 66
1
 10
0.0000
 20
0.0000
 30
0.0000
 40
0.1270
 41
0.1270
 70
0
  0
VERTEX
  8
1
 10
49.4654
 20
52.0065
 30
0.0000
 42
1.0000
  0
VERTEX
  8
1
 10
49.4676
 20
52.1335
 30
0.0000
  0
SEQEND
  8
0
  0
POLYLINE
  8
1
 66
1
 10
0.0000
 20
0.0000
 30
0.0000
 40
0.1270
 41
0.1270
 70
0
  0
VERTEX
  8
1
 10
47.8011
 20
52.1635
 30
0.0000
 42
1.0000
  0
VERTEX
  8
1
 10
47.7989
 20
52.0365
 30
0.0000
  0
SEQEND
  8
0
  0
POLYLINE
  8
1
 66
1
 10
0.0000
 20
0.0000
 30
0.0000
 40
0.2540
 41
0.2540
 70
0
  0
VERTEX
  8
1
 10
53.0000
 20
57.6000
 30
0.0000
  0
VERTEX
  8
1
 10
46.7000
 20
57.6000
 30
0.0000
  0
SEQEND
  8
0
  0
POLYLINE
  8
1
 66
1
 10
0.0000
 20
0.0000
 30
0.0000
 40
0.1270
 41
0.1270
 70
0
  0
VERTEX
  8
1
 10
46.7000
 20
57.6635
 30
0.0000
 42
1.0000
  0
VERTEX
  8
1
 10
46.7000
 20
57.5365
 30
0.0000
  0
SEQEND
  8
0
  0
POLYLINE
  8
1
 66
1
 10
0.0000
 20
0.0000
 30
0.0000
 40
0.1270
 41
0.1270
 70
0
  0
VERTEX
  8
1
 10
53.0000
 20
57.5365
 30
0.0000
 42
1.0000
  0
VERTEX
  8
1
 10
53.0000
 20
57.6635
 30
0.0000
  0
SEQEND
  8
0
  0
POLYLINE
  8
1
 66
1
 10
0.0000
 20
0.0000
 30
0.0000
 40
0.2540
 41
0.2540
 70
0
  0
VERTEX
  8
1
 10
53.0000
 20
56.0000
 30
0.0000
  0
VERTEX
  8
1
 10
53.0000
 20
57.6000
 30
0.0000
  0
SEQEND
  8
0
  0
POLYLINE
  8
1
 66
1
 10
0.0000
 20
0.0000
 30
0.0000
 40
0.1270
 41
0.1270
 70
0
  0
VERTEX
  8
1
 10
53.0635
 20
57.6000
 30
0.0000
 42
1.0000
  0
VERTEX
  8
1
 10
52.9365
 20
57.6000
 30
0.0000
  0
SEQEND
  8
0
  0
POLYLINE
  8
1
 66
1
 10
0.0000
 20
0.0000
 30
0.0000
 40
0.1270
 41
0.1270
 70
0
  0
VERTEX
  8
1
 10
52.9365
 20
56.0000
 30
0.0000
 42
1.0000
  0
VERTEX
  8
1
 10
53.0635
 20
56.0000
 30
0.0000
  0
SEQEND
  8
0
  0
POLYLINE
  8
1
 66
1
 10
0.0000
 20
0.0000
 30
0.0000
 40
0.2540
 41
0.2540
 70
0
  0
VERTEX
  8
1
 10
47.0000
 20
56.0000
 30
0.0000
  0
VERTEX
  8
1
 10
46.6090
 20
55.8800
 30
0.0000
  0
SEQEND
  8
0
  0
POLYLINE
  8
1
 66
1
 10
0.0000
 20
0.0000
 30
0.0000
 40
0.1270
 41
0.1270
 70
0
  0
VERTEX
  8
1
 10
46.5904
 20
55.9407
 30
0.0000
 42
1.0000
  0
VERTEX
  8
1
 10
46.6276
 20
55.8193
 30
0.0000
  0
SEQEND
  8
0
  0
POLYLINE
  8
1
 66
1
 10
0.0000
 20
0.0000
 30
0.0000
 40
0.1270
 41
0.1270
 70
0
  0
VERTEX
  8
1
 10
47.0186
 20
55.9393
 30
0.0000
 42
1.0000
  0
VERTEX
  8
1
 10
46.9814
 20
56.0607
 30
0.0000
  0
SEQEND
  8
0
  0
POLYLINE
  8
1
 66
1
 10
0.0000
 20
0.0000
 30
0.0000
 40
0.2540
 41
0.2540
 70
0
  0
VERTEX
  8
1
 10
53.0000
 20
56.0000
 30
0.0000
  0
VERTEX
  8
1
 10
52.9590
 20
55.8800
 30
0.0000
  0
SEQEND
  8
0
  0
POLYLINE
  8
1
 66
1
 10
0.0000
 20
0.0000
 30
0.0000
 40
0.1270
 41
0.1270
 70
0
  0
VERTEX
  8
1
 10
52.8989
 20
55.9005
 30
0.0000
 42
1.0000
  0
VERTEX
  8
1
 10
53.0191
 20
55.8595
 30
0.0000
  0
SEQEND
  8
0
  0
POLYLINE
  8
1
 66
1
 10
0.0000
 20
0.0000
 30
0.0000
 40
0.1270
 41
0.1270
 70
0
  0
VERTEX
  8
1
 10
53.0601
 20
55.9795
 30
0.0000
 42
1.0000
  0
VERTEX
  8
1
 10
52.9399
 20
56.0205
 30
0.0000
  0
SEQEND
  8
0
  0
POLYLINE
  8
1
 66
1
 10
0.0000
 20
0.0000
 30
0.0000
 40
0.2540
 41
0.2540
 70
0
  0
VERTEX
  8
1
 10
55.9000
 20
32.4000
 30
0.0000
  0
VERTEX
  8
1
 10
42.8000
 20
32.4000
 30
0.0000
  0
SEQEND
  8
0
  0
POLYLINE
  8
1
 66
1
 10
0.0000
 20
0.0000
 30
0.0000
 40
0.1270
 41
0.1270
 70
0
  0
VERTEX
  8
1
 10
42.8000
 20
32.4635
 30
0.0000
 42
1.0000
  0
VERTEX
  8
1
 10
42.8000
 20
32.3365
 30
0.0000
  0
SEQEND
  8
0
  0
POLYLINE
  8
1
 66
1
 10
0.0000
 20
0.0000
 30
0.0000
 40
0.1270
 41
0.1270
 70
0
  0
VERTEX
  8
1
 10
55.9000
 20
32.3365
 30
0.0000
 42
1.0000
  0
VERTEX
  8
1
 10
55.9000
 20
32.4635
 30
0.0000
  0
SEQEND
  8
0
  0
POLYLINE
  8
1
 66
1
 10
0.0000
 20
0.0000
 30
0.0000
 40
0.2540
 41
0.2540
 70
0
  0
VERTEX
  8
1
 10
55.9000
 20
35.4000
 30
0.0000
  0
VERTEX
  8
1
 10
55.9000
 20
32.4000
 30
0.0000
  0
SEQEND
  8
0
  0
POLYLINE
  8
1
 66
1
 10
0.0000
 20
0.0000
 30
0.0000
 40
0.1270
 41
0.1270
 70
0
  0
VERTEX
  8
1
 10
55.8365
 20
32.4000
 30
0.0000
 42
1.0000
  0
VERTEX
  8
1
 10
55.9635
 20
32.4000
 30
0.0000
  0
SEQEND
  8
0
  0
POLYLINE
  8
1
 66
1
 10
0.0000
 20
0.0000
 30
0.0000
 40
0.1270
 41
0.1270
 70
0
  0
VERTEX
  8
1
 10
55.9635
 20
35.4000
 30
0.0000
 42
1.0000
  0
VERTEX
  8
1
 10
55.8365
 20
35.4000
 30
0.0000
  0
SEQEND
  8
0
  0
POLYLINE
  8
1
 66
1
 10
0.0000
 20
0.0000
 30
0.0000
 40
0.2540
 41
0.2540
 70
0
  0
VERTEX
  8
1
 10
38.3000
 20
41.5000
 30
0.0000
  0
VERTEX
  8
1
 10
38.2980
 20
41.7140
 30
0.0000
  0
SEQEND
  8
0
  0
POLYLINE
  8
1
 66
1
 10
0.0000
 20
0.0000
 30
0.0000
 40
0.1270
 41
0.1270
 70
0
  0
VERTEX
  8
1
 10
38.3615
 20
41.7146
 30
0.0000
 42
1.0000
  0
VERTEX
  8
1
 10
38.2345
 20
41.7134
 30
0.0000
  0
SEQEND
  8
0
  0
POLYLINE
  8
1
 66
1
 10
0.0000
 20
0.0000
 30
0.0000
 40
0.1270
 41
0.1270
 70
0
  0
VERTEX
  8
1
 10
38.2365
 20
41.4994
 30
0.0000
 42
1.0000
  0
VERTEX
  8
1
 10
38.3635
 20
41.5006
 30
0.0000
  0
SEQEND
  8
0
  0
POLYLINE
  8
1
 66
1
 10
0.0000
 20
0.0000
 30
0.0000
 40
0.2540
 41
0.2540
 70
0
  0
VERTEX
  8
1
 10
55.9000
 20
35.4000
 30
0.0000
  0
VERTEX
  8
1
 10
55.8800
 20
35.5600
 30
0.0000
  0
SEQEND
  8
0
  0
POLYLINE
  8
1
 66
1
 10
0.0000
 20
0.0000
 30
0.0000
 40
0.1270
 41
0.1270
 70
0
  0
VERTEX
  8
1
 10
55.9430
 20
35.5679
 30
0.0000
 42
1.0000
  0
VERTEX
  8
1
 10
55.8170
 20
35.5521
 30
0.0000
  0
SEQEND
  8
0
  0
POLYLINE
  8
1
 66
1
 10
0.0000
 20
0.0000
 30
0.0000
 40
0.1270
 41
0.1270
 70
0
  0
VERTEX
  8
1
 10
55.8370
 20
35.3921
 30
0.0000
 42
1.0000
  0
VERTEX
  8
1
 10
55.9630
 20
35.4079
 30
0.0000
  0
SEQEND
  8
0
  0
POLYLINE
  8
1
 66
1
 10
0.0000
 20
0.0000
 30
0.0000
 40
0.2540
 41
0.2540
 70
0
  0
VERTEX
  8
1
 10
62.1000
 20
50.7000
 30
0.0000
  0
VERTEX
  8
1
 10
60.0000
 20
50.7000
 30
0.0000
  0
SEQEND
  8
0
  0
POLYLINE
  8
1
 66
1
 10
0.0000
 20
0.0000
 30
0.0000
 40
0.1270
 41
0.1270
 70
0
  0
VERTEX
  8
1
 10
60.0000
 20
50.7635
 30
0.0000
 42
1.0000
  0
VERTEX
  8
1
 10
60.0000
 20
50.6365
 30
0.0000
  0
SEQEND
  8
0
  0
POLYLINE
  8
1
 66
1
 10
0.0000
 20
0.0000
 30
0.0000
 40
0.1270
 41
0.1270
 70
0
  0
VERTEX
  8
1
 10
62.1000
 20
50.6365
 30
0.0000
 42
1.0000
  0
VERTEX
  8
1
 10
62.1000
 20
50.7635
 30
0.0000
  0
SEQEND
  8
0
  0
POLYLINE
  8
1
 66
1
 10
0.0000
 20
0.0000
 30
0.0000
 40
0.2540
 41
0.2540
 70
0
  0
VERTEX
  8
1
 10
62.1000
 20
41.4000
 30
0.0000
  0
VERTEX
  8
1
 10
62.1000
 20
50.7000
 30
0.0000
  0
SEQEND
  8
0
  0
POLYLINE
  8
1
 66
1
 10
0.0000
 20
0.0000
 30
0.0000
 40
0.1270
 41
0.1270
 70
0
  0
VERTEX
  8
1
 10
62.1635
 20
50.7000
 30
0.0000
 42
1.0000
  0
VERTEX
  8
1
 10
62.0365
 20
50.7000
 30
0.0000
  0
SEQEND
  8
0
  0
POLYLINE
  8
1
 66
1
 10
0.0000
 20
0.0000
 30
0.0000
 40
0.1270
 41
0.1270
 70
0
  0
VERTEX
  8
1
 10
62.0365
 20
41.4000
 30
0.0000
 42
1.0000
  0
VERTEX
  8
1
 10
62.1635
 20
41.4000
 30
0.0000
  0
SEQEND
  8
0
  0
POLYLINE
  8
1
 66
1
 10
0.0000
 20
0.0000
 30
0.0000
 40
0.2540
 41
0.2540
 70
0
  0
VERTEX
  8
1
 10
60.0000
 20
50.7000
 30
0.0000
  0
VERTEX
  8
1
 10
59.6900
 20
50.8000
 30
0.0000
  0
SEQEND
  8
0
  0
POLYLINE
  8
1
 66
1
 10
0.0000
 20
0.0000
 30
0.0000
 40
0.1270
 41
0.1270
 70
0
  0
VERTEX
  8
1
 10
59.7095
 20
50.8604
 30
0.0000
 42
1.0000
  0
VERTEX
  8
1
 10
59.6705
 20
50.7396
 30
0.0000
  0
SEQEND
  8
0
  0
POLYLINE
  8
1
 66
1
 10
0.0000
 20
0.0000
 30
0.0000
 40
0.1270
 41
0.1270
 70
0
  0
VERTEX
  8
1
 10
59.9805
 20
50.6396
 30
0.0000
 42
1.0000
  0
VERTEX
  8
1
 10
60.0195
 20
50.7604
 30
0.0000
  0
SEQEND
  8
0
  0
POLYLINE
  8
1
 66
1
 10
0.0000
 20
0.0000
 30
0.0000
 40
0.2540
 41
0.2540
 70
0
  0
VERTEX
  8
1
 10
55.9000
 20
37.5000
 30
0.0000
  0
VERTEX
  8
1
 10
55.8800
 20
35.5600
 30
0.0000
  0
SEQEND
  8
0
  0
POLYLINE
  8
1
 66
1
 10
0.0000
 20
0.0000
 30
0.0000
 40
0.1270
 41
0.1270
 70
0
  0
VERTEX
  8
1
 10
55.8165
 20
35.5607
 30
0.0000
 42
1.0000
  0
VERTEX
  8
1
 10
55.9435
 20
35.5593
 30
0.0000
  0
SEQEND
  8
0
  0
POLYLINE
  8
1
 66
1
 10
0.0000
 20
0.0000
 30
0.0000
 40
0.1270
 41
0.1270
 70
0
  0
VERTEX
  8
1
 10
55.9635
 20
37.4993
 30
0.0000
 42
1.0000
  0
VERTEX
  8
1
 10
55.8365
 20
37.5007
 30
0.0000
  0
SEQEND
  8
0
  0
POLYLINE
  8
1
 66
1
 10
0.0000
 20
0.0000
 30
0.0000
 40
0.2500
 41
0.2500
 70
0
  0
VERTEX
  8
1
 10
56.8900
 20
53.6000
 30
0.0000
  0
VERTEX
  8
1
 10
54.3000
 20
53.6000
 30
0.0000
  0
SEQEND
  8
0
  0
POLYLINE
  8
1
 66
1
 10
0.0000
 20
0.0000
 30
0.0000
 40
0.1250
 41
0.1250
 70
0
  0
VERTEX
  8
1
 10
54.3000
 20
53.6625
 30
0.0000
 42
1.0000
  0
VERTEX
  8
1
 10
54.3000
 20
53.5375
 30
0.0000
  0
SEQEND
  8
0
  0
POLYLINE
  8
1
 66
1
 10
0.0000
 20
0.0000
 30
0.0000
 40
0.1250
 41
0.1250
 70
0
  0
VERTEX
  8
1
 10
56.8900
 20
53.5375
 30
0.0000
 42
1.0000
  0
VERTEX
  8
1
 10
56.8900
 20
53.6625
 30
0.0000
  0
SEQEND
  8
0
  0
POLYLINE
  8
1
 66
1
 10
0.0000
 20
0.0000
 30
0.0000
 40
0.2500
 41
0.2500
 70
0
  0
VERTEX
  8
1
 10
54.3000
 20
53.6000
 30
0.0000
  0
VERTEX
  8
1
 10
52.9590
 20
54.9410
 30
0.0000
  0
SEQEND
  8
0
  0
POLYLINE
  8
1
 66
1
 10
0.0000
 20
0.0000
 30
0.0000
 40
0.1250
 41
0.1250
 70
0
  0
VERTEX
  8
1
 10
53.0032
 20
54.9852
 30
0.0000
 42
1.0000
  0
VERTEX
  8
1
 10
52.9148
 20
54.8968
 30
0.0000
  0
SEQEND
  8
0
  0
POLYLINE
  8
1
 66
1
 10
0.0000
 20
0.0000
 30
0.0000
 40
0.1250
 41
0.1250
 70
0
  0
VERTEX
  8
1
 10
54.2558
 20
53.5558
 30
0.0000
 42
1.0000
  0
VERTEX
  8
1
 10
54.3442
 20
53.6442
 30
0.0000
  0
SEQEND
  8
0
  0
POLYLINE
  8
1
 66
1
 10
0.0000
 20
0.0000
 30
0.0000
 40
0.2500
 41
0.2500
 70
0
  0
VERTEX
  8
1
 10
52.9590
 20
54.9410
 30
0.0000
  0
VERTEX
  8
1
 10
52.9590
 20
55.8800
 30
0.0000
  0
SEQEND
  8
0
  0
POLYLINE
  8
1
 66
1
 10
0.0000
 20
0.0000
 30
0.0000
 40
0.1250
 41
0.1250
 70
0
  0
VERTEX
  8
1
 10
53.0215
 20
55.8800
 30
0.0000
 42
1.0000
  0
VERTEX
  8
1
 10
52.8965
 20
55.8800
 30
0.0000
  0
SEQEND
  8
0
  0
POLYLINE
  8
1
 66
1
 10
0.0000
 20
0.0000
 30
0.0000
 40
0.1250
 41
0.1250
 70
0
  0
VERTEX
  8
1
 10
52.8965
 20
54.9410
 30
0.0000
 42
1.0000
  0
VERTEX
  8
1
 10
53.0215
 20
54.9410
 30
0.0000
  0
SEQEND
  8
0
  0
POLYLINE
  8
1
 66
1
 10
0.0000
 20
0.0000
 30
0.0000
 40
0.2500
 41
0.2500
 70
0
  0
VERTEX
  8
1
 10
55.9000
 20
37.5000
 30
0.0000
  0
VERTEX
  8
1
 10
58.2000
 20
37.5000
 30
0.0000
  0
SEQEND
  8
0
  0
POLYLINE
  8
1
 66
1
 10
0.0000
 20
0.0000
 30
0.0000
 40
0.1250
 41
0.1250
 70
0
  0
VERTEX
  8
1
 10
58.2000
 20
37.4375
 30
0.0000
 42
1.0000
  0
VERTEX
  8
1
 10
58.2000
 20
37.5625
 30
0.0000
  0
SEQEND
  8
0
  0
POLYLINE
  8
1
 66
1
 10
0.0000
 20
0.0000
 30
0.0000
 40
0.1250
 41
0.1250
 70
0
  0
VERTEX
  8
1
 10
55.9000
 20
37.5625
 30
0.0000
 42
1.0000
  0
VERTEX
  8
1
 10
55.9000
 20
37.4375
 30
0.0000
  0
SEQEND
  8
0
  0
POLYLINE
  8
1
 66
1
 10
0.0000
 20
0.0000
 30
0.0000
 40
0.2500
 41
0.2500
 70
0
  0
VERTEX
  8
1
 10
58.2000
 20
37.5000
 30
0.0000
  0
VERTEX
  8
1
 10
62.1000
 20
41.4000
 30
0.0000
  0
SEQEND
  8
0
  0
POLYLINE
  8
1
 66
1
 10
0.0000
 20
0.0000
 30
0.0000
 40
0.1250
 41
0.1250
 70
0
  0
VERTEX
  8
1
 10
62.1442
 20
41.3558
 30
0.0000
 42
1.0000
  0
VERTEX
  8
1
 10
62.0558
 20
41.4442
 30
0.0000
  0
SEQEND
  8
0
  0
POLYLINE
  8
1
 66
1
 10
0.0000
 20
0.0000
 30
0.0000
 40
0.1250
 41
0.1250
 70
0
  0
VERTEX
  8
1
 10
58.1558
 20
37.5442
 30
0.0000
 42
1.0000
  0
VERTEX
  8
1
 10
58.2442
 20
37.4558
 30
0.0000
  0
SEQEND
  8
0
  0
POLYLINE
  8
1
 66
1
 10
0.0000
 20
0.0000
 30
0.0000
 40
0.2500
 41
0.2500
 70
0
  0
VERTEX
  8
1
 10
47.8000
 20
52.1000
 30
0.0000
  0
VERTEX
  8
1
 10
47.8000
 20
53.2000
 30
0.0000
  0
SEQEND
  8
0
  0
POLYLINE
  8
1
 66
1
 10
0.0000
 20
0.0000
 30
0.0000
 40
0.1250
 41
0.1250
 70
0
  0
VERTEX
  8
1
 10
47.8625
 20
53.2000
 30
0.0000
 42
1.0000
  0
VERTEX
  8
1
 10
47.7375
 20
53.2000
 30
0.0000
  0
SEQEND
  8
0
  0
POLYLINE
  8
1
 66
1
 10
0.0000
 20
0.0000
 30
0.0000
 40
0.1250
 41
0.1250
 70
0
  0
VERTEX
  8
1
 10
47.7375
 20
52.1000
 30
0.0000
 42
1.0000
  0
VERTEX
  8
1
 10
47.8625
 20
52.1000
 30
0.0000
  0
SEQEND
  8
0
  0
POLYLINE
  8
1
 66
1
 10
0.0000
 20
0.0000
 30
0.0000
 40
0.2500
 41
0.2500
 70
0
  0
VERTEX
  8
1
 10
47.8000
 20
53.2000
 30
0.0000
  0
VERTEX
  8
1
 10
46.6000
 20
54.4000
 30
0.0000
  0
SEQEND
  8
0
  0
POLYLINE
  8
1
 66
1
 10
0.0000
 20
0.0000
 30
0.0000
 40
0.1250
 41
0.1250
 70
0
  0
VERTEX
  8
1
 10
46.6442
 20
54.4442
 30
0.0000
 42
1.0000
  0
VERTEX
  8
1
 10
46.5558
 20
54.3558
 30
0.0000
  0
SEQEND
  8
0
  0
POLYLINE
  8
1
 66
1
 10
0.0000
 20
0.0000
 30
0.0000
 40
0.1250
 41
0.1250
 70
0
  0
VERTEX
  8
1
 10
47.7558
 20
53.1558
 30
0.0000
 42
1.0000
  0
VERTEX
  8
1
 10
47.8442
 20
53.2442
 30
0.0000
  0
SEQEND
  8
0
  0
POLYLINE
  8
1
 66
1
 10
0.0000
 20
0.0000
 30
0.0000
 40
0.2500
 41
0.2500
 70
0
  0
VERTEX
  8
1
 10
46.7000
 20
57.6000
 30
0.0000
  0
VERTEX
  8
1
 10
46.7000
 20
55.9710
 30
0.0000
  0
SEQEND
  8
0
  0
POLYLINE
  8
1
 66
1
 10
0.0000
 20
0.0000
 30
0.0000
 40
0.1250
 41
0.1250
 70
0
  0
VERTEX
  8
1
 10
46.6375
 20
55.9710
 30
0.0000
 42
1.0000
  0
VERTEX
  8
1
 10
46.7625
 20
55.9710
 30
0.0000
  0
SEQEND
  8
0
  0
POLYLINE
  8
1
 66
1
 10
0.0000
 20
0.0000
 30
0.0000
 40
0.1250
 41
0.1250
 70
0
  0
VERTEX
  8
1
 10
46.7625
 20
57.6000
 30
0.0000
 42
1.0000
  0
VERTEX
  8
1
 10
46.6375
 20
57.6000
 30
0.0000
  0
SEQEND
  8
0
  0
POLYLINE
  8
1
 66
1
 10
0.0000
 20
0.0000
 30
0.0000
 40
0.2500
 41
0.2500
 70
0
  0
VERTEX
  8
1
 10
46.7000
 20
55.9710
 30
0.0000
  0
VERTEX
  8
1
 10
46.6090
 20
55.8800
 30
0.0000
  0
SEQEND
  8
0
  0
POLYLINE
  8
1
 66
1
 10
0.0000
 20
0.0000
 30
0.0000
 40
0.1250
 41
0.1250
 70
0
  0
VERTEX
  8
1
 10
46.5648
 20
55.9242
 30
0.0000
 42
1.0000
  0
VERTEX
  8
1
 10
46.6532
 20
55.8358
 30
0.0000
  0
SEQEND
  8
0
  0
POLYLINE
  8
1
 66
1
 10
0.0000
 20
0.0000
 30
0.0000
 40
0.1250
 41
0.1250
 70
0
  0
VERTEX
  8
1
 10
46.7442
 20
55.9268
 30
0.0000
 42
1.0000
  0
VERTEX
  8
1
 10
46.6558
 20
56.0152
 30
0.0000
  0
SEQEND
  8
0
  0
POLYLINE
  8
1
 66
1
 10
0.0000
 20
0.0000
 30
0.0000
 40
0.2500
 41
0.2500
 70
0
  0
VERTEX
  8
1
 10
56.8900
 20
53.6000
 30
0.0000
  0
VERTEX
  8
1
 10
56.8900
 20
52.0000
 30
0.0000
  0
SEQEND
  8
0
  0
POLYLINE
  8
1
 66
1
 10
0.0000
 20
0.0000
 30
0.0000
 40
0.1250
 41
0.1250
 70
0
  0
VERTEX
  8
1
 10
56.8275
 20
52.0000
 30
0.0000
 42
1.0000
  0
VERTEX
  8
1
 10
56.9525
 20
52.0000
 30
0.0000
  0
SEQEND
  8
0
  0
POLYLINE
  8
1
 66
1
 10
0.0000
 20
0.0000
 30
0.0000
 40
0.1250
 41
0.1250
 70
0
  0
VERTEX
  8
1
 10
56.9525
 20
53.6000
 30
0.0000
 42
1.0000
  0
VERTEX
  8
1
 10
56.8275
 20
53.6000
 30
0.0000
  0
SEQEND
  8
0
  0
POLYLINE
  8
1
 66
1
 10
0.0000
 20
0.0000
 30
0.0000
 40
0.2500
 41
0.2500
 70
0
  0
VERTEX
  8
1
 10
56.8900
 20
52.0000
 30
0.0000
  0
VERTEX
  8
1
 10
59.7000
 20
52.0000
 30
0.0000
  0
SEQEND
  8
0
  0
POLYLINE
  8
1
 66
1
 10
0.0000
 20
0.0000
 30
0.0000
 40
0.1250
 41
0.1250
 70
0
  0
VERTEX
  8
1
 10
59.7000
 20
51.9375
 30
0.0000
 42
1.0000
  0
VERTEX
  8
1
 10
59.7000
 20
52.0625
 30
0.0000
  0
SEQEND
  8
0
  0
POLYLINE
  8
1
 66
1
 10
0.0000
 20
0.0000
 30
0.0000
 40
0.1250
 41
0.1250
 70
0
  0
VERTEX
  8
1
 10
56.8900
 20
52.0625
 30
0.0000
 42
1.0000
  0
VERTEX
  8
1
 10
56.8900
 20
51.9375
 30
0.0000
  0
SEQEND
  8
0
  0
POLYLINE
  8
1
 66
1
 10
0.0000
 20
0.0000
 30
0.0000
 40
0.2500
 41
0.2500
 70
0
  0
VERTEX
  8
1
 10
59.7000
 20
52.0000
 30
0.0000
  0
VERTEX
  8
1
 10
59.7000
 20
50.8000
 30
0.0000
  0
SEQEND
  8
0
  0
POLYLINE
  8
1
 66
1
 10
0.0000
 20
0.0000
 30
0.0000
 40
0.1250
 41
0.1250
 70
0
  0
VERTEX
  8
1
 10
59.6375
 20
50.8000
 30
0.0000
 42
1.0000
  0
VERTEX
  8
1
 10
59.7625
 20
50.8000
 30
0.0000
  0
SEQEND
  8
0
  0
POLYLINE
  8
1
 66
1
 10
0.0000
 20
0.0000
 30
0.0000
 40
0.1250
 41
0.1250
 70
0
  0
VERTEX
  8
1
 10
59.7625
 20
52.0000
 30
0.0000
 42
1.0000
  0
VERTEX
  8
1
 10
59.6375
 20
52.0000
 30
0.0000
  0
SEQEND
  8
0
  0
POLYLINE
  8
1
 66
1
 10
0.0000
 20
0.0000
 30
0.0000
 40
0.2500
 41
0.2500
 70
0
  0
VERTEX
  8
1
 10
59.7000
 20
50.8000
 30
0.0000
  0
VERTEX
  8
1
 10
59.6900
 20
50.8000
 30
0.0000
  0
SEQEND
  8
0
  0
POLYLINE
  8
1
 66
1
 10
0.0000
 20
0.0000
 30
0.0000
 40
0.1250
 41
0.1250
 70
0
  0
VERTEX
  8
1
 10
59.6900
 20
50.8625
 30
0.0000
 42
1.0000
  0
VERTEX
  8
1
 10
59.6900
 20
50.7375
 30
0.0000
  0
SEQEND
  8
0
  0
POLYLINE
  8
1
 66
1
 10
0.0000
 20
0.0000
 30
0.0000
 40
0.1250
 41
0.1250
 70
0
  0
VERTEX
  8
1
 10
59.7000
 20
50.7375
 30
0.0000
 42
1.0000
  0
VERTEX
  8
1
 10
59.7000
 20
50.8625
 30
0.0000
  0
SEQEND
  8
0
  0
POLYLINE
  8
1
 66
1
 10
0.0000
 20
0.0000
 30
0.0000
 40
0.2500
 41
0.2500
 70
0
  0
VERTEX
  8
1
 10
38.4000
 20
36.8000
 30
0.0000
  0
VERTEX
  8
1
 10
38.6000
 20
36.6000
 30
0.0000
  0
SEQEND
  8
0
  0
POLYLINE
  8
1
 66
1
 10
0.0000
 20
0.0000
 30
0.0000
 40
0.1250
 41
0.1250
 70
0
  0
VERTEX
  8
1
 10
38.5558
 20
36.5558
 30
0.0000
 42
1.0000
  0
VERTEX
  8
1
 10
38.6442
 20
36.6442
 30
0.0000
  0
SEQEND
  8
0
  0
POLYLINE
  8
1
 66
1
 10
0.0000
 20
0.0000
 30
0.0000
 40
0.1250
 41
0.1250
 70
0
  0
VERTEX
  8
1
 10
38.4442
 20
36.8442
 30
0.0000
 42
1.0000
  0
VERTEX
  8
1
 10
38.3558
 20
36.7558
 30
0.0000
  0
SEQEND
  8
0
  0
POLYLINE
  8
1
 66
1
 10
0.0000
 20
0.0000
 30
0.0000
 40
0.2500
 41
0.2500
 70
0
  0
VERTEX
  8
1
 10
38.6000
 20
36.6000
 30
0.0000
  0
VERTEX
  8
1
 10
42.8000
 20
32.4000
 30
0.0000
  0
SEQEND
  8
0
  0
POLYLINE
  8
1
 66
1
 10
0.0000
 20
0.0000
 30
0.0000
 40
0.1250
 41
0.1250
 70
0
  0
VERTEX
  8
1
 10
42.7558
 20
32.3558
 30
0.0000
 42
1.0000
  0
VERTEX
  8
1
 10
42.8442
 20
32.4442
 30
0.0000
  0
SEQEND
  8
0
  0
POLYLINE
  8
1
 66
1
 10
0.0000
 20
0.0000
 30
0.0000
 40
0.1250
 41
0.1250
 70
0
  0
VERTEX
  8
1
 10
38.6442
 20
36.6442
 30
0.0000
 42
1.0000
  0
VERTEX
  8
1
 10
38.5558
 20
36.5558
 30
0.0000
  0
SEQEND
  8
0
  0
POLYLINE
  8
1
 66
1
 10
0.0000
 20
0.0000
 30
0.0000
 40
0.2500
 41
0.2500
 70
0
  0
VERTEX
  8
1
 10
38.3000
 20
41.5000
 30
0.0000
  0
VERTEX
  8
1
 10
38.3000
 20
36.9000
 30
0.0000
  0
SEQEND
  8
0
  0
POLYLINE
  8
1
 66
1
 10
0.0000
 20
0.0000
 30
0.0000
 40
0.1250
 41
0.1250
 70
0
  0
VERTEX
  8
1
 10
38.2375
 20
36.9000
 30
0.0000
 42
1.0000
  0
VERTEX
  8
1
 10
38.3625
 20
36.9000
 30
0.0000
  0
SEQEND
  8
0
  0
POLYLINE
  8
1
 66
1
 10
0.0000
 20
0.0000
 30
0.0000
 40
0.1250
 41
0.1250
 70
0
  0
VERTEX
  8
1
 10
38.3625
 20
41.5000
 30
0.0000
 42
1.0000
  0
VERTEX
  8
1
 10
38.2375
 20
41.5000
 30
0.0000
  0
SEQEND
  8
0
  0
POLYLINE
  8
1
 66
1
 10
0.0000
 20
0.0000
 30
0.0000
 40
0.2500
 41
0.2500
 70
0
  0
VERTEX
  8
1
 10
38.3000
 20
36.9000
 30
0.0000
  0
VERTEX
  8
1
 10
38.4000
 20
36.8000
 30
0.0000
  0
SEQEND
  8
0
  0
POLYLINE
  8
1
 66
1
 10
0.0000
 20
0.0000
 30
0.0000
 40
0.1250
 41
0.1250
 70
0
  0
VERTEX
  8
1
 10
38.3558
 20
36.7558
 30
0.0000
 42
1.0000
  0
VERTEX
  8
1
 10
38.4442
 20
36.8442
 30
0.0000
  0
SEQEND
  8
0
  0
POLYLINE
  8
1
 66
1
 10
0.0000
 20
0.0000
 30
0.0000
 40
0.1250
 41
0.1250
 70
0
  0
VERTEX
  8
1
 10
38.3442
 20
36.9442
 30
0.0000
 42
1.0000
  0
VERTEX
  8
1
 10
38.2558
 20
36.8558
 30
0.0000
  0
SEQEND
  8
0
  0
ENDSEC
  0
EOF
