  0
SECTION
  2
HEADER
  9
$ACADVER
  1
AC1018
  9
$ACADMAINTVER
 70
     0
  9
$DWGCODEPAGE
  3
ANSI_1252
  9
$INSBASE
 10
0.0
 20
0.0
 30
0.0
  9
$EXTMIN
 10
1.000000000000000E+20
 20
1.000000000000000E+20
 30
1.000000000000000E+20
  9
$EXTMAX
 10
-1.000000000000000E+20
 20
-1.000000000000000E+20
 30
-1.000000000000000E+20
  9
$LIMMIN
 10
0.0
 20
0.0
  9
$LIMMAX
 10
12.0
 20
9.0
  9
$ORTHOMODE
 70
     0
  9
$REGENMODE
 70
     1
  9
$FILLMODE
 70
     1
  9
$QTEXTMODE
 70
     0
  9
$MIRRTEXT
 70
     1
  9
$LTSCALE
 40
1.0
  9
$ATTMODE
 70
     1
  9
$TEXTSIZE
 40
0.2
  9
$TRACEWID
 40
0.05
  9
$TEXTSTYLE
  7
Standard
  9
$CLAYER
  8
0
  9
$CELTYPE
  6
ByLayer
  9
$CECOLOR
 62
   256
  9
$CELTSCALE
 40
1.0
  9
$DISPSILH
 70
     0
  9
$DIMSCALE
 40
1.0
  9
$DIMASZ
 40
0.18
  9
$DIMEXO
 40
0.0625
  9
$DIMDLI
 40
0.38
  9
$DIMRND
 40
0.0
  9
$DIMDLE
 40
0.0
  9
$DIMEXE
 40
0.18
  9
$DIMTP
 40
0.0
  9
$DIMTM
 40
0.0
  9
$DIMTXT
 40
0.18
  9
$DIMCEN
 40
0.09
  9
$DIMTSZ
 40
0.0
  9
$DIMTOL
 70
     0
  9
$DIMLIM
 70
     0
  9
$DIMTIH
 70
     1
  9
$DIMTOH
 70
     1
  9
$DIMSE1
 70
     0
  9
$DIMSE2
 70
     0
  9
$DIMTAD
 70
     0
  9
$DIMZIN
 70
     0
  9
$DIMBLK
  1

  9
$DIMASO
 70
     1
  9
$DIMSHO
 70
     1
  9
$DIMPOST
  1

  9
$DIMAPOST
  1

  9
$DIMALT
 70
     0
  9
$DIMALTD
 70
     2
  9
$DIMALTF
 40
25.4
  9
$DIMLFAC
 40
1.0
  9
$DIMTOFL
 70
     0
  9
$DIMTVP
 40
0.0
  9
$DIMTIX
 70
     0
  9
$DIMSOXD
 70
     0
  9
$DIMSAH
 70
     0
  9
$DIMBLK1
  1

  9
$DIMBLK2
  1

  9
$DIMSTYLE
  2
Standard
  9
$DIMCLRD
 70
     0
  9
$DIMCLRE
 70
     0
  9
$DIMCLRT
 70
     0
  9
$DIMTFAC
 40
1.0
  9
$DIMGAP
 40
0.09
  9
$DIMJUST
 70
     0
  9
$DIMSD1
 70
     0
  9
$DIMSD2
 70
     0
  9
$DIMTOLJ
 70
     1
  9
$DIMTZIN
 70
     0
  9
$DIMALTZ
 70
     0
  9
$DIMALTTZ
 70
     0
  9
$DIMUPT
 70
     0
  9
$DIMDEC
 70
     4
  9
$DIMTDEC
 70
     4
  9
$DIMALTU
 70
     2
  9
$DIMALTTD
 70
     2
  9
$DIMTXSTY
  7
Standard
  9
$DIMAUNIT
 70
     0
  9
$DIMADEC
 70
     0
  9
$DIMALTRND
 40
0.0
  9
$DIMAZIN
 70
     0
  9
$DIMDSEP
 70
    46
  9
$DIMATFIT
 70
     3
  9
$DIMFRAC
 70
     0
  9
$DIMLDRBLK
  1

  9
$DIMLUNIT
 70
     2
  9
$DIMLWD
 70
    -2
  9
$DIMLWE
 70
    -2
  9
$DIMTMOVE
 70
     0
  9
$LUNITS
 70
     2
  9
$LUPREC
 70
     4
  9
$SKETCHINC
 40
0.1
  9
$FILLETRAD
 40
0.5
  9
$AUNITS
 70
     0
  9
$AUPREC
 70
     0
  9
$MENU
  1
.
  9
$ELEVATION
 40
0.0
  9
$PELEVATION
 40
0.0
  9
$THICKNESS
 40
0.0
  9
$LIMCHECK
 70
     0
  9
$CHAMFERA
 40
0.5
  9
$CHAMFERB
 40
0.5
  9
$CHAMFERC
 40
1.0
  9
$CHAMFERD
 40
0.0
  9
$SKPOLY
 70
     0
  9
$TDCREATE
 40
2457575.738111655
  9
$TDUCREATE
 40
2457575.654778322
  9
$TDUPDATE
 40
2457575.738111667
  9
$TDUUPDATE
 40
2457575.654778333
  9
$TDINDWG
 40
0.0000000116
  9
$TDUSRTIMER
 40
0.0000000116
  9
$USRTIMER
 70
     1
  9
$ANGBASE
 50
0.0
  9
$ANGDIR
 70
     0
  9
$PDMODE
 70
     0
  9
$PDSIZE
 40
0.0
  9
$PLINEWID
 40
0.0
  9
$SPLFRAME
 70
     0
  9
$SPLINETYPE
 70
     6
  9
$SPLINESEGS
 70
     8
  9
$HANDSEED
  5
2D2
  9
$SURFTAB1
 70
     6
  9
$SURFTAB2
 70
     6
  9
$SURFTYPE
 70
     6
  9
$SURFU
 70
     6
  9
$SURFV
 70
     6
  9
$UCSBASE
  2

  9
$UCSNAME
  2

  9
$UCSORG
 10
0.0
 20
0.0
 30
0.0
  9
$UCSXDIR
 10
1.0
 20
0.0
 30
0.0
  9
$UCSYDIR
 10
0.0
 20
1.0
 30
0.0
  9
$UCSORTHOREF
  2

  9
$UCSORTHOVIEW
 70
     0
  9
$UCSORGTOP
 10
0.0
 20
0.0
 30
0.0
  9
$UCSORGBOTTOM
 10
0.0
 20
0.0
 30
0.0
  9
$UCSORGLEFT
 10
0.0
 20
0.0
 30
0.0
  9
$UCSORGRIGHT
 10
0.0
 20
0.0
 30
0.0
  9
$UCSORGFRONT
 10
0.0
 20
0.0
 30
0.0
  9
$UCSORGBACK
 10
0.0
 20
0.0
 30
0.0
  9
$PUCSBASE
  2

  9
$PUCSNAME
  2

  9
$PUCSORG
 10
0.0
 20
0.0
 30
0.0
  9
$PUCSXDIR
 10
1.0
 20
0.0
 30
0.0
  9
$PUCSYDIR
 10
0.0
 20
1.0
 30
0.0
  9
$PUCSORTHOREF
  2

  9
$PUCSORTHOVIEW
 70
     0
  9
$PUCSORGTOP
 10
0.0
 20
0.0
 30
0.0
  9
$PUCSORGBOTTOM
 10
0.0
 20
0.0
 30
0.0
  9
$PUCSORGLEFT
 10
0.0
 20
0.0
 30
0.0
  9
$PUCSORGRIGHT
 10
0.0
 20
0.0
 30
0.0
  9
$PUCSORGFRONT
 10
0.0
 20
0.0
 30
0.0
  9
$PUCSORGBACK
 10
0.0
 20
0.0
 30
0.0
  9
$USERI1
 70
     0
  9
$USERI2
 70
     0
  9
$USERI3
 70
     0
  9
$USERI4
 70
     0
  9
$USERI5
 70
     0
  9
$USERR1
 40
0.0
  9
$USERR2
 40
0.0
  9
$USERR3
 40
0.0
  9
$USERR4
 40
0.0
  9
$USERR5
 40
0.0
  9
$WORLDVIEW
 70
     1
  9
$SHADEDGE
 70
     3
  9
$SHADEDIF
 70
    70
  9
$TILEMODE
 70
     1
  9
$MAXACTVP
 70
    64
  9
$PINSBASE
 10
0.0
 20
0.0
 30
0.0
  9
$PLIMCHECK
 70
     0
  9
$PEXTMIN
 10
1.000000000000000E+20
 20
1.000000000000000E+20
 30
1.000000000000000E+20
  9
$PEXTMAX
 10
-1.000000000000000E+20
 20
-1.000000000000000E+20
 30
-1.000000000000000E+20
  9
$PLIMMIN
 10
0.0
 20
0.0
  9
$PLIMMAX
 10
12.0
 20
9.0
  9
$UNITMODE
 70
     0
  9
$VISRETAIN
 70
     1
  9
$PLINEGEN
 70
     0
  9
$PSLTSCALE
 70
     1
  9
$TREEDEPTH
 70
  3020
  9
$CMLSTYLE
  2
Standard
  9
$CMLJUST
 70
     0
  9
$CMLSCALE
 40
1.0
  9
$PROXYGRAPHICS
 70
     1
  9
$MEASUREMENT
 70
     0
  9
$CELWEIGHT
370
    -1
  9
$ENDCAPS
280
     0
  9
$JOINSTYLE
280
     0
  9
$LWDISPLAY
290
     1
  9
$INSUNITS
 70
     1
  9
$HYPERLINKBASE
  1

  9
$STYLESHEET
  1

  9
$XEDIT
290
     1
  9
$CEPSNTYPE
380
     0
  9
$PSTYLEMODE
290
     1
  9
$FINGERPRINTGUID
  2
{A1D5B109-391C-47E4-A713-DDBE025B30BA}
  9
$VERSIONGUID
  2
{FAEB1C32-E019-11D5-929B-00C0DF256EC4}
  9
$EXTNAMES
290
     1
  9
$PSVPSCALE
 40
0.0
  9
$OLESTARTUP
290
     0
  9
$SORTENTS
280
   127
  9
$INDEXCTL
280
     0
  9
$HIDETEXT
280
     1
  9
$XCLIPFRAME
290
     0
  9
$HALOGAP
280
     0
  9
$OBSCOLOR
 70
   257
  9
$OBSLTYPE
280
     0
  9
$INTERSECTIONDISPLAY
280
     0
  9
$INTERSECTIONCOLOR
 70
   257
  9
$DIMASSOC
280
     2
  9
$PROJECTNAME
  1

  0
ENDSEC
  0
SECTION
  2
CLASSES
  0
CLASS
  1
ACDBDICTIONARYWDFLT
  2
AcDbDictionaryWithDefault
  3
ObjectDBX Classes
 90
        0
 91
        3
280
     0
281
     0
  0
CLASS
  1
VISUALSTYLE
  2
AcDbVisualStyle
  3
ObjectDBX Classes
 90
     4095
 91
        3
280
     0
281
     0
  0
ENDSEC
  0
SECTION
  2
TABLES
  0
TABLE
  2
VPORT
  5
8
330
0
100
AcDbSymbolTable
 70
     1
  0
VPORT
  5
29
330
8
100
AcDbSymbolTableRecord
100
AcDbViewportTableRecord
  2
*Active
 70
     0
 10
0.0
 20
0.0
 11
1.0
 21
1.0
 12
0.0
 22
0.0
 13
0.0
 23
0.0
 14
0.5
 24
0.5
 15
0.5
 25
0.5
 16
0.0
 26
0.0
 36
1.0
 17
148.4999796178229
 27
-198.8870849112157
 37
0.0
 40
397.7741698224315
 41
0.7466547145789487
 42
50.0
 43
0.0
 44
0.0
 50
0.0
 51
0.0
 71
     0
 72
   100
 73
     1
 74
     3
 75
     0
 76
     0
 77
     0
 78
     0
281
     0
 65
     1
110
0.0
120
0.0
130
0.0
111
1.0
121
0.0
131
0.0
112
0.0
122
1.0
132
0.0
 79
     0
146
0.0
  0
ENDTAB
  0
TABLE
  2
LTYPE
  5
5
330
0
100
AcDbSymbolTable
 70
     1
  0
LTYPE
  5
14
330
5
100
AcDbSymbolTableRecord
100
AcDbLinetypeTableRecord
  2
ByBlock
 70
     0
  3

 72
    65
 73
     0
 40
0.0
  0
LTYPE
  5
15
330
5
100
AcDbSymbolTableRecord
100
AcDbLinetypeTableRecord
  2
ByLayer
 70
     0
  3

 72
    65
 73
     0
 40
0.0
  0
LTYPE
  5
16
330
5
100
AcDbSymbolTableRecord
100
AcDbLinetypeTableRecord
  2
Continuous
 70
     0
  3
Solid line
 72
    65
 73
     0
 40
0.0
  0
ENDTAB
  0
TABLE
  2
LAYER
  5
2
330
0
100
AcDbSymbolTable
 70
     2
  0
LAYER
  5
10
330
2
100
AcDbSymbolTableRecord
100
AcDbLayerTableRecord
  2
0
 70
     0
 62
     7
  6
Continuous
370
    -3
390
F
  0
LAYER
  5
3B
330
2
100
AcDbSymbolTableRecord
100
AcDbLayerTableRecord
  2
Layer 1
 70
     0
 62
     7
  6
Continuous
370
    -3
390
F
  0
ENDTAB
  0
TABLE
  2
STYLE
  5
3
330
0
100
AcDbSymbolTable
 70
     1
  0
STYLE
  5
11
330
3
100
AcDbSymbolTableRecord
100
AcDbTextStyleTableRecord
  2
Standard
 70
     0
 40
0.0
 41
1.0
 50
0.0
 71
     0
 42
0.2
  3
txt
  4

  0
ENDTAB
  0
TABLE
  2
VIEW
  5
6
330
0
100
AcDbSymbolTable
 70
     0
  0
ENDTAB
  0
TABLE
  2
UCS
  5
7
330
0
100
AcDbSymbolTable
 70
     0
  0
ENDTAB
  0
TABLE
  2
APPID
  5
9
330
0
100
AcDbSymbolTable
 70
     1
  0
APPID
  5
12
330
9
100
AcDbSymbolTableRecord
100
AcDbRegAppTableRecord
  2
ACAD
 70
     0
  0
ENDTAB
  0
TABLE
  2
DIMSTYLE
  5
A
330
0
100
AcDbSymbolTable
 70
     1
100
AcDbDimStyleTable
  0
DIMSTYLE
105
27
330
A
100
AcDbSymbolTableRecord
100
AcDbDimStyleTableRecord
  2
Standard
 70
     0
340
11
  0
ENDTAB
  0
TABLE
  2
BLOCK_RECORD
  5
1
330
0
100
AcDbSymbolTable
 70
    12
  0
BLOCK_RECORD
  5
1F
330
1
100
AcDbSymbolTableRecord
100
AcDbBlockTableRecord
  2
*Model_Space
340
22
  0
BLOCK_RECORD
  5
1B
330
1
100
AcDbSymbolTableRecord
100
AcDbBlockTableRecord
  2
*Paper_Space
340
1E
  0
BLOCK_RECORD
  5
23
330
1
100
AcDbSymbolTableRecord
100
AcDbBlockTableRecord
  2
*Paper_Space0
340
26
  0
BLOCK_RECORD
  5
44
330
1
100
AcDbSymbolTableRecord
100
AcDbBlockTableRecord
  2
block 2
340
0
102
{BLKREFS
331
45
102
}
  0
BLOCK_RECORD
  5
99
330
1
100
AcDbSymbolTableRecord
100
AcDbBlockTableRecord
  2
block 3
340
0
102
{BLKREFS
331
9A
102
}
  0
BLOCK_RECORD
  5
EF
330
1
100
AcDbSymbolTableRecord
100
AcDbBlockTableRecord
  2
block 4
340
0
102
{BLKREFS
331
F0
102
}
  0
BLOCK_RECORD
  5
108
330
1
100
AcDbSymbolTableRecord
100
AcDbBlockTableRecord
  2
block 5
340
0
102
{BLKREFS
331
109
102
}
  0
BLOCK_RECORD
  5
114
330
1
100
AcDbSymbolTableRecord
100
AcDbBlockTableRecord
  2
block 6
340
0
102
{BLKREFS
331
115
102
}
  0
BLOCK_RECORD
  5
11A
330
1
100
AcDbSymbolTableRecord
100
AcDbBlockTableRecord
  2
block 7
340
0
102
{BLKREFS
331
11B
102
}
  0
BLOCK_RECORD
  5
14F
330
1
100
AcDbSymbolTableRecord
100
AcDbBlockTableRecord
  2
block 8
340
0
102
{BLKREFS
331
150
102
}
  0
BLOCK_RECORD
  5
1D8
330
1
100
AcDbSymbolTableRecord
100
AcDbBlockTableRecord
  2
block 9
340
0
102
{BLKREFS
331
1D9
102
}
  0
BLOCK_RECORD
  5
1E4
330
1
100
AcDbSymbolTableRecord
100
AcDbBlockTableRecord
  2
block 10
340
0
102
{BLKREFS
331
1E5
102
}
  0
BLOCK_RECORD
  5
26F
330
1
100
AcDbSymbolTableRecord
100
AcDbBlockTableRecord
  2
block 11
340
0
102
{BLKREFS
331
270
102
}
  0
BLOCK_RECORD
  5
27B
330
1
100
AcDbSymbolTableRecord
100
AcDbBlockTableRecord
  2
block 12
340
0
102
{BLKREFS
331
27C
102
}
  0
ENDTAB
  0
ENDSEC
  0
SECTION
  2
BLOCKS
  0
BLOCK
  5
20
330
1F
100
AcDbEntity
  8
0
100
AcDbBlockBegin
  2
*Model_Space
 70
     0
 71
     0
 10
0.0
 20
0.0
 30
0.0
  3
*Model_Space
  1

  0
ENDBLK
  5
21
330
1F
100
AcDbEntity
  8
0
100
AcDbBlockEnd
  0
BLOCK
  5
1C
330
1B
100
AcDbEntity
 67
     1
  8
0
100
AcDbBlockBegin
  2
*Paper_Space
 70
     0
 71
     0
 10
0.0
 20
0.0
 30
0.0
  3
*Paper_Space
  1

  0
ENDBLK
  5
1D
330
1B
100
AcDbEntity
 67
     1
  8
0
100
AcDbBlockEnd
  0
BLOCK
  5
24
330
23
100
AcDbEntity
  8
0
100
AcDbBlockBegin
  2
*Paper_Space0
 70
     0
 71
     0
 10
0.0
 20
0.0
 30
0.0
  3
*Paper_Space0
  1

  0
ENDBLK
  5
25
330
23
100
AcDbEntity
  8
0
100
AcDbBlockEnd
  0
BLOCK
  5
46
330
44
100
AcDbEntity
  8
0
100
AcDbBlockBegin
  2
block 2
 70
     0
 71
     0
 10
0.0
 20
0.0
 30
0.0
  3
block 2
  1

  0
SPLINE
  5
48
330
44
100
AcDbEntity
  8
Layer 1
370
     0
100
AcDbSpline
210
0.0
220
0.0
230
1.0
 70
    11
 71
     3
 72
    17
 73
    13
 74
     0
 42
0.0000000001
 43
0.0000000001
 40
0.0
 40
0.0
 40
0.0
 40
0.0
 40
1.0
 40
1.0
 40
1.0
 40
2.0
 40
2.0
 40
2.0
 40
3.0
 40
3.0
 40
3.0
 40
4.0
 40
4.0
 40
4.0
 40
4.0
 10
44.07017821163871
 20
-91.32655298281072
 30
0.0
 10
37.54740667464092
 20
-91.32655298281072
 30
0.0
 10
32.24075384393634
 20
-96.63320581351532
 30
0.0
 10
32.24075384393634
 20
-103.1559773505131
 30
0.0
 10
32.24075384393634
 20
-109.6787488875109
 30
0.0
 10
37.54740667464092
 20
-114.9855739729897
 30
0.0
 10
44.07017821163871
 20
-114.9855739729897
 30
0.0
 10
50.59294974863649
 20
-114.9855739729897
 30
0.0
 10
55.89960257934107
 20
-109.6787488875109
 30
0.0
 10
55.89960257934107
 20
-103.1559773505131
 30
0.0
 10
55.89960257934107
 20
-96.63320581351532
 30
0.0
 10
50.59294974863649
 20
-91.32655298281072
 30
0.0
 10
44.07017821163871
 20
-91.32655298281072
 30
0.0
  0
SPLINE
  5
49
330
44
100
AcDbEntity
  8
Layer 1
370
     0
100
AcDbSpline
210
0.0
220
0.0
230
1.0
 70
    11
 71
     3
 72
    17
 73
    13
 74
     0
 42
0.0000000001
 43
0.0000000001
 40
0.0
 40
0.0
 40
0.0
 40
0.0
 40
1.0
 40
1.0
 40
1.0
 40
2.0
 40
2.0
 40
2.0
 40
3.0
 40
3.0
 40
3.0
 40
4.0
 40
4.0
 40
4.0
 40
4.0
 10
44.07017821163871
 20
-113.2216850845418
 30
0.0
 10
38.51995713012695
 20
-113.2216850845418
 30
0.0
 10
34.00464273238426
 20
-108.7061984320248
 30
0.0
 10
34.00464273238426
 20
-103.1559773505131
 30
0.0
 10
34.00464273238426
 20
-97.60575626900135
 30
0.0
 10
38.51995713012695
 20
-93.09044187125865
 30
0.0
 10
44.07017821163871
 20
-93.09044187125865
 30
0.0
 10
49.62039929315046
 20
-93.09044187125865
 30
0.0
 10
54.13571369089316
 20
-97.60575626900135
 30
0.0
 10
54.13571369089316
 20
-103.1559773505131
 30
0.0
 10
54.13571369089316
 20
-108.7061984320248
 30
0.0
 10
49.62039929315046
 20
-113.2216850845418
 30
0.0
 10
44.07017821163871
 20
-113.2216850845418
 30
0.0
  0
SPLINE
  5
4A
330
44
100
AcDbEntity
  8
Layer 1
370
     0
100
AcDbSpline
210
0.0
220
0.0
230
1.0
 70
    11
 71
     3
 72
    50
 73
    46
 74
     0
 42
0.0000000001
 43
0.0000000001
 40
0.0
 40
0.0
 40
0.0
 40
0.0
 40
1.0
 40
1.0
 40
1.0
 40
2.0
 40
2.0
 40
2.0
 40
3.0
 40
3.0
 40
3.0
 40
4.0
 40
4.0
 40
4.0
 40
5.0
 40
5.0
 40
5.0
 40
6.0
 40
6.0
 40
6.0
 40
7.0
 40
7.0
 40
7.0
 40
8.0
 40
8.0
 40
8.0
 40
9.0
 40
9.0
 40
9.0
 40
10.0
 40
10.0
 40
10.0
 40
11.0
 40
11.0
 40
11.0
 40
12.0
 40
12.0
 40
12.0
 40
13.0
 40
13.0
 40
13.0
 40
14.0
 40
14.0
 40
14.0
 40
15.0
 40
15.0
 40
15.0
 40
15.0
 10
61.67599417945948
 20
-118.9977321751117
 30
0.0
 10
61.67599417945948
 20
-118.9977321751117
 30
0.0
 10
61.67599417945948
 20
-117.4364149011965
 30
0.0
 10
61.67599417945948
 20
-117.4364149011965
 30
0.0
 10
61.67599417945948
 20
-117.4364149011965
 30
0.0
 10
64.31321477341822
 20
-117.4364149011965
 30
0.0
 10
64.31321477341822
 20
-117.4364149011965
 30
0.0
 10
64.31321477341822
 20
-117.4364149011965
 30
0.0
 10
64.31321477341822
 20
-105.3727240404971
 30
0.0
 10
64.31321477341822
 20
-105.3727240404971
 30
0.0
 10
64.31321477341822
 20
-105.3727240404971
 30
0.0
 10
61.67599417945948
 20
-105.3727240404971
 30
0.0
 10
61.67599417945948
 20
-105.3727240404971
 30
0.0
 10
61.67599417945948
 20
-105.3727240404971
 30
0.0
 10
61.67599417945948
 20
-103.1559773505131
 30
0.0
 10
61.67599417945948
 20
-103.1559773505131
 30
0.0
 10
61.67599417945948
 20
-93.44804278262758
 30
0.0
 10
53.77811277952422
 20
-85.55016138269232
 30
0.0
 10
44.07017821163871
 20
-85.55016138269232
 30
0.0
 10
34.36224364375319
 20
-85.55016138269232
 30
0.0
 10
26.46436224381794
 20
-93.44804278262758
 30
0.0
 10
26.46436224381794
 20
-103.1559773505131
 30
0.0
 10
26.46436224381794
 20
-112.8640841731729
 30
0.0
 10
34.36224364375319
 20
-120.7616210635596
 30
0.0
 10
44.07017821163871
 20
-120.7616210635596
 30
0.0
 10
44.07017821163871
 20
-120.7616210635596
 30
0.0
 10
60.79404973523552
 20
-120.7616210635596
 30
0.0
 10
60.79404973523552
 20
-120.7616210635596
 30
0.0
 10
60.79404973523552
 20
-120.7616210635596
 30
0.0
 10
61.67599417945948
 20
-120.7616210635596
 30
0.0
 10
61.67599417945948
 20
-120.7616210635596
 30
0.0
 10
61.67599417945948
 20
-120.7616210635596
 30
0.0
 10
77.97870277998449
 20
-120.7616210635596
 30
0.0
 10
77.97870277998449
 20
-120.7616210635596
 30
0.0
 10
77.97870277998449
 20
-120.7616210635596
 30
0.0
 10
77.97870277998449
 20
-123.9317979290865
 30
0.0
 10
77.97870277998449
 20
-123.9317979290865
 30
0.0
 10
77.97870277998449
 20
-123.9317979290865
 30
0.0
 10
79.74259166843241
 20
-123.9317979290865
 30
0.0
 10
79.74259166843241
 20
-123.9317979290865
 30
0.0
 10
79.74259166843241
 20
-123.9317979290865
 30
0.0
 10
79.74259166843241
 20
-118.9977321751117
 30
0.0
 10
79.74259166843241
 20
-118.9977321751117
 30
0.0
 10
79.74259166843241
 20
-118.9977321751117
 30
0.0
 10
61.67599417945948
 20
-118.9977321751117
 30
0.0
 10
61.67599417945948
 20
-118.9977321751117
 30
0.0
  0
POLYLINE
  5
4B
330
44
100
AcDbEntity
  8
Layer 1
370
     0
100
AcDb2dPolyline
 66
     1
 10
0.0
 20
0.0
 30
0.0
  0
VERTEX
  5
4C
330
4B
100
AcDbEntity
  8
Layer 1
370
     0
100
AcDbVertex
100
AcDb2dVertex
 10
62.54932588497031
 20
-107.136612928945
 30
0.0
  0
VERTEX
  5
4D
330
4B
100
AcDbEntity
  8
Layer 1
370
     0
100
AcDbVertex
100
AcDb2dVertex
 10
62.54932588497031
 20
-115.6725260127485
 30
0.0
  0
VERTEX
  5
4E
330
4B
100
AcDbEntity
  8
Layer 1
370
     0
100
AcDbVertex
100
AcDb2dVertex
 10
61.67599417945948
 20
-115.6725260127485
 30
0.0
  0
VERTEX
  5
4F
330
4B
100
AcDbEntity
  8
Layer 1
370
     0
100
AcDbVertex
100
AcDb2dVertex
 10
61.67599417945948
 20
-107.136612928945
 30
0.0
  0
VERTEX
  5
50
330
4B
100
AcDbEntity
  8
Layer 1
370
     0
100
AcDbVertex
100
AcDb2dVertex
 10
62.54932588497031
 20
-107.136612928945
 30
0.0
  0
SEQEND
  5
51
330
4B
100
AcDbEntity
  8
Layer 1
370
     0
  0
SPLINE
  5
52
330
44
100
AcDbEntity
  8
Layer 1
370
     0
100
AcDbSpline
210
0.0
220
0.0
230
1.0
 70
    11
 71
     3
 72
    26
 73
    22
 74
     0
 42
0.0000000001
 43
0.0000000001
 40
0.0
 40
0.0
 40
0.0
 40
0.0
 40
1.0
 40
1.0
 40
1.0
 40
2.0
 40
2.0
 40
2.0
 40
3.0
 40
3.0
 40
3.0
 40
4.0
 40
4.0
 40
4.0
 40
5.0
 40
5.0
 40
5.0
 40
6.0
 40
6.0
 40
6.0
 40
7.0
 40
7.0
 40
7.0
 40
7.0
 10
59.91210529101156
 20
-118.9977321751117
 30
0.0
 10
59.91210529101156
 20
-118.9977321751117
 30
0.0
 10
44.07017821163871
 20
-118.9977321751117
 30
0.0
 10
44.07017821163871
 20
-118.9977321751117
 30
0.0
 10
35.33496635401348
 20
-118.9977321751117
 30
0.0
 10
28.22825113226585
 20
-111.8911892081383
 30
0.0
 10
28.22825113226585
 20
-103.1559773505131
 30
0.0
 10
28.22825113226585
 20
-94.42076549288787
 30
0.0
 10
35.33496635401348
 20
-87.31405027114025
 30
0.0
 10
44.07017821163871
 20
-87.31405027114025
 30
0.0
 10
52.80539006926394
 20
-87.31405027114025
 30
0.0
 10
59.91210529101156
 20
-94.42076549288787
 30
0.0
 10
59.91210529101156
 20
-103.1559773505131
 30
0.0
 10
59.91210529101156
 20
-103.1559773505131
 30
0.0
 10
59.91210529101156
 20
-105.3727240404971
 30
0.0
 10
59.91210529101156
 20
-105.3727240404971
 30
0.0
 10
59.91210529101156
 20
-105.3727240404971
 30
0.0
 10
59.91210529101156
 20
-117.4364149011965
 30
0.0
 10
59.91210529101156
 20
-117.4364149011965
 30
0.0
 10
59.91210529101156
 20
-117.4364149011965
 30
0.0
 10
59.91210529101156
 20
-118.9977321751117
 30
0.0
 10
59.91210529101156
 20
-118.9977321751117
 30
0.0
  0
ENDBLK
  5
47
330
44
100
AcDbEntity
  8
0
100
AcDbBlockEnd
  0
BLOCK
  5
9B
330
99
100
AcDbEntity
  8
0
100
AcDbBlockBegin
  2
block 3
 70
     0
 71
     0
 10
0.0
 20
0.0
 30
0.0
  3
block 3
  1

  0
POLYLINE
  5
9D
330
99
100
AcDbEntity
  8
Layer 1
370
     0
100
AcDb2dPolyline
 66
     1
 10
0.0
 20
0.0
 30
0.0
  0
VERTEX
  5
9E
330
9D
100
AcDbEntity
  8
Layer 1
370
     0
100
AcDbVertex
100
AcDb2dVertex
 10
274.8455836986497
 20
-96.24804413826438
 30
0.0
  0
VERTEX
  5
9F
330
9D
100
AcDbEntity
  8
Layer 1
370
     0
100
AcDbVertex
100
AcDb2dVertex
 10
229.9139593609243
 20
-96.24804413826438
 30
0.0
  0
VERTEX
  5
A0
330
9D
100
AcDbEntity
  8
Layer 1
370
     0
100
AcDbVertex
100
AcDb2dVertex
 10
229.9139593609243
 20
-93.53606497227571
 30
0.0
  0
VERTEX
  5
A1
330
9D
100
AcDbEntity
  8
Layer 1
370
     0
100
AcDbVertex
100
AcDb2dVertex
 10
227.331515785181
 20
-93.53606497227571
 30
0.0
  0
VERTEX
  5
A2
330
9D
100
AcDbEntity
  8
Layer 1
370
     0
100
AcDbVertex
100
AcDb2dVertex
 10
227.331515785181
 20
-90.84510088874707
 30
0.0
  0
VERTEX
  5
A3
330
9D
100
AcDbEntity
  8
Layer 1
370
     0
100
AcDbVertex
100
AcDb2dVertex
 10
225.5676268967331
 20
-90.84510088874707
 30
0.0
  0
VERTEX
  5
A4
330
9D
100
AcDbEntity
  8
Layer 1
370
     0
100
AcDbVertex
100
AcDb2dVertex
 10
225.5676268967331
 20
-93.53606497227571
 30
0.0
  0
VERTEX
  5
A5
330
9D
100
AcDbEntity
  8
Layer 1
370
     0
100
AcDbVertex
100
AcDb2dVertex
 10
214.2518662658815
 20
-93.53606497227571
 30
0.0
  0
VERTEX
  5
A6
330
9D
100
AcDbEntity
  8
Layer 1
370
     0
100
AcDbVertex
100
AcDb2dVertex
 10
214.2532443040756
 20
-91.96854652648703
 30
0.0
  0
VERTEX
  5
A7
330
9D
100
AcDbEntity
  8
Layer 1
370
     0
100
AcDbVertex
100
AcDb2dVertex
 10
209.8311197392089
 20
-91.96854652648703
 30
0.0
  0
VERTEX
  5
A8
330
9D
100
AcDbEntity
  8
Layer 1
370
     0
100
AcDbVertex
100
AcDb2dVertex
 10
209.8311197392089
 20
-87.13094344609921
 30
0.0
  0
VERTEX
  5
A9
330
9D
100
AcDbEntity
  8
Layer 1
370
     0
100
AcDbVertex
100
AcDb2dVertex
 10
204.9749131432007
 20
-87.13094344609921
 30
0.0
  0
VERTEX
  5
AA
330
9D
100
AcDbEntity
  8
Layer 1
370
     0
100
AcDbVertex
100
AcDb2dVertex
 10
204.9749131432007
 20
-126.061555958068
 30
0.0
  0
VERTEX
  5
AB
330
9D
100
AcDbEntity
  8
Layer 1
370
     0
100
AcDbVertex
100
AcDb2dVertex
 10
212.052517308098
 20
-121.7751681553201
 30
0.0
  0
VERTEX
  5
AC
330
9D
100
AcDbEntity
  8
Layer 1
370
     0
100
AcDbVertex
100
AcDb2dVertex
 10
213.6234808493719
 20
-113.0011989734858
 30
0.0
  0
VERTEX
  5
AD
330
9D
100
AcDbEntity
  8
Layer 1
370
     0
100
AcDbVertex
100
AcDb2dVertex
 10
229.9139593609243
 20
-113.0011989734858
 30
0.0
  0
VERTEX
  5
AE
330
9D
100
AcDbEntity
  8
Layer 1
370
     0
100
AcDbVertex
100
AcDb2dVertex
 10
229.9139593609243
 20
-110.2892198074971
 30
0.0
  0
VERTEX
  5
AF
330
9D
100
AcDbEntity
  8
Layer 1
370
     0
100
AcDbVertex
100
AcDb2dVertex
 10
274.8455836986497
 20
-110.2892198074971
 30
0.0
  0
VERTEX
  5
B0
330
9D
100
AcDbEntity
  8
Layer 1
370
     0
100
AcDbVertex
100
AcDb2dVertex
 10
274.8455836986497
 20
-96.24804413826438
 30
0.0
  0
SEQEND
  5
B1
330
9D
100
AcDbEntity
  8
Layer 1
370
     0
  0
POLYLINE
  5
B2
330
99
100
AcDbEntity
  8
Layer 1
370
     0
100
AcDb2dPolyline
 66
     1
 10
0.0
 20
0.0
 30
0.0
  0
VERTEX
  5
B3
330
B2
100
AcDbEntity
  8
Layer 1
370
     0
100
AcDbVertex
100
AcDb2dVertex
 10
273.0816948102018
 20
-98.0119330267123
 30
0.0
  0
VERTEX
  5
B4
330
B2
100
AcDbEntity
  8
Layer 1
370
     0
100
AcDbVertex
100
AcDb2dVertex
 10
273.0816948102018
 20
-102.3865152738825
 30
0.0
  0
VERTEX
  5
B5
330
B2
100
AcDbEntity
  8
Layer 1
370
     0
100
AcDbVertex
100
AcDb2dVertex
 10
229.9139593609243
 20
-102.3865152738825
 30
0.0
  0
VERTEX
  5
B6
330
B2
100
AcDbEntity
  8
Layer 1
370
     0
100
AcDbVertex
100
AcDb2dVertex
 10
229.9139593609243
 20
-98.0119330267123
 30
0.0
  0
VERTEX
  5
B7
330
B2
100
AcDbEntity
  8
Layer 1
370
     0
100
AcDbVertex
100
AcDb2dVertex
 10
273.0816948102018
 20
-98.0119330267123
 30
0.0
  0
SEQEND
  5
B8
330
B2
100
AcDbEntity
  8
Layer 1
370
     0
  0
POLYLINE
  5
B9
330
99
100
AcDbEntity
  8
Layer 1
370
     0
100
AcDb2dPolyline
 66
     1
 10
0.0
 20
0.0
 30
0.0
  0
VERTEX
  5
BA
330
B9
100
AcDbEntity
  8
Layer 1
370
     0
100
AcDbVertex
100
AcDb2dVertex
 10
210.4567490793303
 20
-120.6796277910107
 30
0.0
  0
VERTEX
  5
BB
330
B9
100
AcDbEntity
  8
Layer 1
370
     0
100
AcDbVertex
100
AcDb2dVertex
 10
206.7388020316486
 20
-122.93134220017
 30
0.0
  0
VERTEX
  5
BC
330
B9
100
AcDbEntity
  8
Layer 1
370
     0
100
AcDbVertex
100
AcDb2dVertex
 10
206.7388020316486
 20
-88.89483233454713
 30
0.0
  0
VERTEX
  5
BD
330
B9
100
AcDbEntity
  8
Layer 1
370
     0
100
AcDbVertex
100
AcDb2dVertex
 10
208.067230850761
 20
-88.89483233454713
 30
0.0
  0
VERTEX
  5
BE
330
B9
100
AcDbEntity
  8
Layer 1
370
     0
100
AcDbVertex
100
AcDb2dVertex
 10
208.067230850761
 20
-93.73243541493495
 30
0.0
  0
VERTEX
  5
BF
330
B9
100
AcDbEntity
  8
Layer 1
370
     0
100
AcDbVertex
100
AcDb2dVertex
 10
212.4893554156277
 20
-93.73243541493495
 30
0.0
  0
VERTEX
  5
C0
330
B9
100
AcDbEntity
  8
Layer 1
370
     0
100
AcDbVertex
100
AcDb2dVertex
 10
212.4893554156277
 20
-109.3287271862095
 30
0.0
  0
VERTEX
  5
C1
330
B9
100
AcDbEntity
  8
Layer 1
370
     0
100
AcDbVertex
100
AcDb2dVertex
 10
210.4567490793303
 20
-120.6796277910107
 30
0.0
  0
SEQEND
  5
C2
330
B9
100
AcDbEntity
  8
Layer 1
370
     0
  0
POLYLINE
  5
C3
330
99
100
AcDbEntity
  8
Layer 1
370
     0
100
AcDb2dPolyline
 66
     1
 10
0.0
 20
0.0
 30
0.0
  0
VERTEX
  5
C4
330
C3
100
AcDbEntity
  8
Layer 1
370
     0
100
AcDbVertex
100
AcDb2dVertex
 10
228.1500704724764
 20
-111.2373100850379
 30
0.0
  0
VERTEX
  5
C5
330
C3
100
AcDbEntity
  8
Layer 1
370
     0
100
AcDbVertex
100
AcDb2dVertex
 10
214.2532443040756
 20
-111.2373100850379
 30
0.0
  0
VERTEX
  5
C6
330
C3
100
AcDbEntity
  8
Layer 1
370
     0
100
AcDbVertex
100
AcDb2dVertex
 10
214.2532443040756
 20
-95.29995386072363
 30
0.0
  0
VERTEX
  5
C7
330
C3
100
AcDbEntity
  8
Layer 1
370
     0
100
AcDbVertex
100
AcDb2dVertex
 10
228.1500704724764
 20
-95.29995386072363
 30
0.0
  0
VERTEX
  5
C8
330
C3
100
AcDbEntity
  8
Layer 1
370
     0
100
AcDbVertex
100
AcDb2dVertex
 10
228.1500704724764
 20
-96.24804413826438
 30
0.0
  0
VERTEX
  5
C9
330
C3
100
AcDbEntity
  8
Layer 1
370
     0
100
AcDbVertex
100
AcDb2dVertex
 10
228.1500704724764
 20
-110.2892198074971
 30
0.0
  0
VERTEX
  5
CA
330
C3
100
AcDbEntity
  8
Layer 1
370
     0
100
AcDbVertex
100
AcDb2dVertex
 10
228.1500704724764
 20
-111.2373100850379
 30
0.0
  0
SEQEND
  5
CB
330
C3
100
AcDbEntity
  8
Layer 1
370
     0
  0
POLYLINE
  5
CC
330
99
100
AcDbEntity
  8
Layer 1
370
     0
100
AcDb2dPolyline
 66
     1
 10
0.0
 20
0.0
 30
0.0
  0
VERTEX
  5
CD
330
CC
100
AcDbEntity
  8
Layer 1
370
     0
100
AcDbVertex
100
AcDb2dVertex
 10
229.9139593609243
 20
-108.5253309190492
 30
0.0
  0
VERTEX
  5
CE
330
CC
100
AcDbEntity
  8
Layer 1
370
     0
100
AcDbVertex
100
AcDb2dVertex
 10
229.9139593609243
 20
-104.1504041623305
 30
0.0
  0
VERTEX
  5
CF
330
CC
100
AcDbEntity
  8
Layer 1
370
     0
100
AcDbVertex
100
AcDb2dVertex
 10
273.0816948102018
 20
-104.1504041623305
 30
0.0
  0
VERTEX
  5
D0
330
CC
100
AcDbEntity
  8
Layer 1
370
     0
100
AcDbVertex
100
AcDb2dVertex
 10
273.0816948102018
 20
-108.5253309190492
 30
0.0
  0
VERTEX
  5
D1
330
CC
100
AcDbEntity
  8
Layer 1
370
     0
100
AcDbVertex
100
AcDb2dVertex
 10
229.9139593609243
 20
-108.5253309190492
 30
0.0
  0
SEQEND
  5
D2
330
CC
100
AcDbEntity
  8
Layer 1
370
     0
  0
POLYLINE
  5
D3
330
99
100
AcDbEntity
  8
Layer 1
370
     0
100
AcDb2dPolyline
 66
     1
 10
0.0
 20
0.0
 30
0.0
  0
VERTEX
  5
D4
330
D3
100
AcDbEntity
  8
Layer 1
370
     0
100
AcDbVertex
100
AcDb2dVertex
 10
198.9239474329079
 20
-91.96854652648703
 30
0.0
  0
VERTEX
  5
D5
330
D3
100
AcDbEntity
  8
Layer 1
370
     0
100
AcDbVertex
100
AcDb2dVertex
 10
194.5018228680412
 20
-91.96854652648703
 30
0.0
  0
VERTEX
  5
D6
330
D3
100
AcDbEntity
  8
Layer 1
370
     0
100
AcDbVertex
100
AcDb2dVertex
 10
194.5018228680412
 20
-109.4072753632732
 30
0.0
  0
VERTEX
  5
D7
330
D3
100
AcDbEntity
  8
Layer 1
370
     0
100
AcDbVertex
100
AcDb2dVertex
 10
196.7025498640188
 20
-121.7751681553201
 30
0.0
  0
VERTEX
  5
D8
330
D3
100
AcDbEntity
  8
Layer 1
370
     0
100
AcDbVertex
100
AcDb2dVertex
 10
203.7801540289161
 20
-126.061555958068
 30
0.0
  0
VERTEX
  5
D9
330
D3
100
AcDbEntity
  8
Layer 1
370
     0
100
AcDbVertex
100
AcDb2dVertex
 10
203.7801540289161
 20
-87.13094344609921
 30
0.0
  0
VERTEX
  5
DA
330
D3
100
AcDbEntity
  8
Layer 1
370
     0
100
AcDbVertex
100
AcDb2dVertex
 10
198.9239474329079
 20
-87.13094344609921
 30
0.0
  0
VERTEX
  5
DB
330
D3
100
AcDbEntity
  8
Layer 1
370
     0
100
AcDbVertex
100
AcDb2dVertex
 10
198.9239474329079
 20
-91.96854652648703
 30
0.0
  0
SEQEND
  5
DC
330
D3
100
AcDbEntity
  8
Layer 1
370
     0
  0
POLYLINE
  5
DD
330
99
100
AcDbEntity
  8
Layer 1
370
     0
100
AcDb2dPolyline
 66
     1
 10
0.0
 20
0.0
 30
0.0
  0
VERTEX
  5
DE
330
DD
100
AcDbEntity
  8
Layer 1
370
     0
100
AcDbVertex
100
AcDb2dVertex
 10
200.6878363213558
 20
-88.89483233454713
 30
0.0
  0
VERTEX
  5
DF
330
DD
100
AcDbEntity
  8
Layer 1
370
     0
100
AcDbVertex
100
AcDb2dVertex
 10
202.0162651404682
 20
-88.89483233454713
 30
0.0
  0
VERTEX
  5
E0
330
DD
100
AcDbEntity
  8
Layer 1
370
     0
100
AcDbVertex
100
AcDb2dVertex
 10
202.0162651404682
 20
-122.93134220017
 30
0.0
  0
VERTEX
  5
E1
330
DD
100
AcDbEntity
  8
Layer 1
370
     0
100
AcDbVertex
100
AcDb2dVertex
 10
198.2983180927865
 20
-120.6796277910107
 30
0.0
  0
VERTEX
  5
E2
330
DD
100
AcDbEntity
  8
Layer 1
370
     0
100
AcDbVertex
100
AcDb2dVertex
 10
196.2657117564891
 20
-109.3287271862095
 30
0.0
  0
VERTEX
  5
E3
330
DD
100
AcDbEntity
  8
Layer 1
370
     0
100
AcDbVertex
100
AcDb2dVertex
 10
196.2657117564891
 20
-93.73243541493495
 30
0.0
  0
VERTEX
  5
E4
330
DD
100
AcDbEntity
  8
Layer 1
370
     0
100
AcDbVertex
100
AcDb2dVertex
 10
200.6878363213558
 20
-93.73243541493495
 30
0.0
  0
VERTEX
  5
E5
330
DD
100
AcDbEntity
  8
Layer 1
370
     0
100
AcDbVertex
100
AcDb2dVertex
 10
200.6878363213558
 20
-88.89483233454713
 30
0.0
  0
SEQEND
  5
E6
330
DD
100
AcDbEntity
  8
Layer 1
370
     0
  0
ENDBLK
  5
9C
330
99
100
AcDbEntity
  8
0
100
AcDbBlockEnd
  0
BLOCK
  5
F1
330
EF
100
AcDbEntity
  8
0
100
AcDbBlockBegin
  2
block 4
 70
     0
 71
     0
 10
0.0
 20
0.0
 30
0.0
  3
block 4
  1

  0
SPLINE
  5
F3
330
EF
100
AcDbEntity
  8
Layer 1
370
     0
100
AcDbSpline
210
0.0
220
0.0
230
1.0
 70
    11
 71
     3
 72
   122
 73
   118
 74
     0
 42
0.0000000001
 43
0.0000000001
 40
0.0
 40
0.0
 40
0.0
 40
0.0
 40
1.0
 40
1.0
 40
1.0
 40
2.0
 40
2.0
 40
2.0
 40
3.0
 40
3.0
 40
3.0
 40
4.0
 40
4.0
 40
4.0
 40
5.0
 40
5.0
 40
5.0
 40
6.0
 40
6.0
 40
6.0
 40
7.0
 40
7.0
 40
7.0
 40
8.0
 40
8.0
 40
8.0
 40
9.0
 40
9.0
 40
9.0
 40
10.0
 40
10.0
 40
10.0
 40
11.0
 40
11.0
 40
11.0
 40
12.0
 40
12.0
 40
12.0
 40
13.0
 40
13.0
 40
13.0
 40
14.0
 40
14.0
 40
14.0
 40
15.0
 40
15.0
 40
15.0
 40
16.0
 40
16.0
 40
16.0
 40
17.0
 40
17.0
 40
17.0
 40
18.0
 40
18.0
 40
18.0
 40
19.0
 40
19.0
 40
19.0
 40
20.0
 40
20.0
 40
20.0
 40
21.0
 40
21.0
 40
21.0
 40
22.0
 40
22.0
 40
22.0
 40
23.0
 40
23.0
 40
23.0
 40
24.0
 40
24.0
 40
24.0
 40
25.0
 40
25.0
 40
25.0
 40
26.0
 40
26.0
 40
26.0
 40
27.0
 40
27.0
 40
27.0
 40
28.0
 40
28.0
 40
28.0
 40
29.0
 40
29.0
 40
29.0
 40
30.0
 40
30.0
 40
30.0
 40
31.0
 40
31.0
 40
31.0
 40
32.0
 40
32.0
 40
32.0
 40
33.0
 40
33.0
 40
33.0
 40
34.0
 40
34.0
 40
34.0
 40
35.0
 40
35.0
 40
35.0
 40
36.0
 40
36.0
 40
36.0
 40
37.0
 40
37.0
 40
37.0
 40
38.0
 40
38.0
 40
38.0
 40
39.0
 40
39.0
 40
39.0
 40
39.0
 10
63.74994166157988
 20
-29.22784558731109
 30
0.0
 10
63.74994166157988
 20
-29.22784558731109
 30
0.0
 10
43.70120848516845
 20
-29.22784558731109
 30
0.0
 10
43.70120848516845
 20
-29.22784558731109
 30
0.0
 10
41.80227185369874
 20
-29.22784558731109
 30
0.0
 10
40.25749103811271
 20
-30.77262640289712
 30
0.0
 10
40.25749103811271
 20
-32.67156303436683
 30
0.0
 10
40.25749103811271
 20
-32.67156303436683
 30
0.0
 10
40.25749103811271
 20
-36.35643716539006
 30
0.0
 10
40.25749103811271
 20
-36.35643716539006
 30
0.0
 10
40.25749103811271
 20
-38.25537379685977
 30
0.0
 10
41.80227185369874
 20
-39.80015461244579
 30
0.0
 10
43.70120848516845
 20
-39.80015461244579
 30
0.0
 10
43.70120848516845
 20
-39.80015461244579
 30
0.0
 10
63.74994166157988
 20
-39.80015461244579
 30
0.0
 10
63.74994166157988
 20
-39.80015461244579
 30
0.0
 10
63.74994166157988
 20
-39.80015461244579
 30
0.0
 10
63.74994166157988
 20
-47.72680255968289
 30
0.0
 10
63.74994166157988
 20
-47.72680255968289
 30
0.0
 10
63.74994166157988
 20
-47.72680255968289
 30
0.0
 10
63.74994166157988
 20
-53.20381536213308
 30
0.0
 10
63.74994166157988
 20
-53.20381536213308
 30
0.0
 10
63.74994166157988
 20
-53.56244980214758
 30
0.0
 10
63.96715493192488
 20
-53.88559975866402
 30
0.0
 10
64.29943439147723
 20
-54.02064750168581
 30
0.0
 10
64.40709362539128
 20
-54.06440021434849
 30
0.0
 10
64.51992050253321
 20
-54.08575980635703
 30
0.0
 10
64.63171385102957
 20
-54.08575980635703
 30
0.0
 10
64.86494681538099
 20
-54.08575980635703
 30
0.0
 10
65.0940456651501
 20
-53.99308673780381
 30
0.0
 10
65.26319985347587
 20
-53.81945392534723
 30
0.0
 10
65.26319985347587
 20
-53.81945392534723
 30
0.0
 10
69.97333440090945
 20
-48.98977456457548
 30
0.0
 10
69.97333440090945
 20
-48.98977456457548
 30
0.0
 10
69.97333440090945
 20
-48.98977456457548
 30
0.0
 10
74.68295218402024
 20
-53.81945392534723
 30
0.0
 10
74.68295218402024
 20
-53.81945392534723
 30
0.0
 10
74.84900578640928
 20
-53.98964164231857
 30
0.0
 10
75.07672659798429
 20
-54.08575980635703
 30
0.0
 10
75.31443818646653
 20
-54.08575980635703
 30
0.0
 10
75.55214977494877
 20
-54.08575980635703
 30
0.0
 10
75.77987058652378
 20
-53.98964164231857
 30
0.0
 10
75.94592418891283
 20
-53.81945392534723
 30
0.0
 10
75.94592418891283
 20
-53.81945392534723
 30
0.0
 10
80.65536971724936
 20
-48.990119074124
 30
0.0
 10
80.65536971724936
 20
-48.990119074124
 30
0.0
 10
80.65536971724936
 20
-48.990119074124
 30
0.0
 10
85.36515975513441
 20
-53.81945392534723
 30
0.0
 10
85.36515975513441
 20
-53.81945392534723
 30
0.0
 10
85.53121335752346
 20
-53.98964164231857
 30
0.0
 10
85.75893416909847
 20
-54.08575980635703
 30
0.0
 10
85.99664575758071
 20
-54.08575980635703
 30
0.0
 10
86.23435734606294
 20
-54.08575980635703
 30
0.0
 10
86.46207815763796
 20
-53.98964164231857
 30
0.0
 10
86.628131760027
 20
-53.81945392534723
 30
0.0
 10
86.628131760027
 20
-53.81945392534723
 30
0.0
 10
91.33792179791205
 20
-48.990119074124
 30
0.0
 10
91.33792179791205
 20
-48.990119074124
 30
0.0
 10
91.33792179791205
 20
-48.990119074124
 30
0.0
 10
96.04736732624858
 20
-53.81945392534723
 30
0.0
 10
96.04736732624858
 20
-53.81945392534723
 30
0.0
 10
96.21342092863762
 20
-53.98964164231857
 30
0.0
 10
96.44114174021263
 20
-54.08575980635703
 30
0.0
 10
96.67885332869487
 20
-54.08575980635703
 30
0.0
 10
96.91656491717711
 20
-54.08575980635703
 30
0.0
 10
97.14428572875212
 20
-53.98964164231857
 30
0.0
 10
97.31033933114117
 20
-53.81945392534723
 30
0.0
 10
97.31033933114117
 20
-53.81945392534723
 30
0.0
 10
102.0194403499292
 20
-48.990119074124
 30
0.0
 10
102.0194403499292
 20
-48.990119074124
 30
0.0
 10
102.0194403499292
 20
-48.990119074124
 30
0.0
 10
106.7288858782657
 20
-53.81945392534723
 30
0.0
 10
106.7288858782657
 20
-53.81945392534723
 30
0.0
 10
106.8949394806547
 20
-53.98964164231857
 30
0.0
 10
107.1226602922298
 20
-54.08575980635703
 30
0.0
 10
107.360371880712
 20
-54.08575980635703
 30
0.0
 10
107.5980834691942
 20
-54.08575980635703
 30
0.0
 10
107.8258042807692
 20
-53.98964164231857
 30
0.0
 10
107.9918578831583
 20
-53.81945392534723
 30
0.0
 10
107.9918578831583
 20
-53.81945392534723
 30
0.0
 10
112.7013034114948
 20
-48.990119074124
 30
0.0
 10
112.7013034114948
 20
-48.990119074124
 30
0.0
 10
112.7013034114948
 20
-48.990119074124
 30
0.0
 10
117.4107489398314
 20
-53.81945392534723
 30
0.0
 10
117.4107489398314
 20
-53.81945392534723
 30
0.0
 10
117.5768025422204
 20
-53.98964164231857
 30
0.0
 10
117.8045233537954
 20
-54.08575980635703
 30
0.0
 10
118.0422349422776
 20
-54.08575980635703
 30
0.0
 10
118.2799465307599
 20
-54.08575980635703
 30
0.0
 10
118.5076673423349
 20
-53.98964164231857
 30
0.0
 10
118.6735486899497
 20
-53.81945392534723
 30
0.0
 10
118.6735486899497
 20
-53.81945392534723
 30
0.0
 10
123.3916069569993
 20
-48.9818508449594
 30
0.0
 10
123.3916069569993
 20
-48.9818508449594
 30
0.0
 10
123.3916069569993
 20
-48.9818508449594
 30
0.0
 10
128.4417724288271
 20
-54.03270533588419
 30
0.0
 10
128.4417724288271
 20
-54.03270533588419
 30
0.0
 10
128.6105821076043
 20
-54.20151501466143
 30
0.0
 10
128.8362358618882
 20
-54.29108749727793
 30
0.0
 10
129.0656792212058
 20
-54.29108749727793
 30
0.0
 10
129.179367372219
 20
-54.29108749727793
 30
0.0
 10
129.2939167971036
 20
-54.26903888617232
 30
0.0
 10
129.4029540692118
 20
-54.22390813531555
 30
0.0
 10
129.7324774523759
 20
-54.08748235409966
 30
0.0
 10
129.9474514106555
 20
-53.76571043577732
 30
0.0
 10
129.9474514106555
 20
-53.40914305305397
 30
0.0
 10
129.9474514106555
 20
-53.40914305305397
 30
0.0
 10
129.9474514106555
 20
-47.72680255968289
 30
0.0
 10
129.9474514106555
 20
-47.72680255968289
 30
0.0
 10
129.9474514106555
 20
-47.72680255968289
 30
0.0
 10
129.9474514106555
 20
-29.22784558731109
 30
0.0
 10
129.9474514106555
 20
-29.22784558731109
 30
0.0
 10
129.9474514106555
 20
-29.22784558731109
 30
0.0
 10
65.51383055002779
 20
-29.22784558731109
 30
0.0
 10
65.51383055002779
 20
-29.22784558731109
 30
0.0
 10
65.51383055002779
 20
-29.22784558731109
 30
0.0
 10
63.74994166157988
 20
-29.22784558731109
 30
0.0
 10
63.74994166157988
 20
-29.22784558731109
 30
0.0
  0
SPLINE
  5
F4
330
EF
100
AcDbEntity
  8
Layer 1
370
     0
100
AcDbSpline
210
0.0
220
0.0
230
1.0
 70
    11
 71
     3
 72
    23
 73
    19
 74
     0
 42
0.0000000001
 43
0.0000000001
 40
0.0
 40
0.0
 40
0.0
 40
0.0
 40
1.0
 40
1.0
 40
1.0
 40
2.0
 40
2.0
 40
2.0
 40
3.0
 40
3.0
 40
3.0
 40
4.0
 40
4.0
 40
4.0
 40
5.0
 40
5.0
 40
5.0
 40
6.0
 40
6.0
 40
6.0
 40
6.0
 10
43.70120848516845
 20
-38.03626572399788
 30
0.0
 10
42.77499456395903
 20
-38.03626572399788
 30
0.0
 10
42.02137992656063
 20
-37.28265108659948
 30
0.0
 10
42.02137992656063
 20
-36.35643716539006
 30
0.0
 10
42.02137992656063
 20
-36.35643716539006
 30
0.0
 10
42.02137992656063
 20
-32.67156303436683
 30
0.0
 10
42.02137992656063
 20
-32.67156303436683
 30
0.0
 10
42.02137992656063
 20
-31.74534911315741
 30
0.0
 10
42.77499456395903
 20
-30.99173447575901
 30
0.0
 10
43.70120848516845
 20
-30.99173447575901
 30
0.0
 10
43.70120848516845
 20
-30.99173447575901
 30
0.0
 10
63.74994166157988
 20
-30.99173447575901
 30
0.0
 10
63.74994166157988
 20
-30.99173447575901
 30
0.0
 10
63.74994166157988
 20
-30.99173447575901
 30
0.0
 10
63.74994166157988
 20
-38.03626572399788
 30
0.0
 10
63.74994166157988
 20
-38.03626572399788
 30
0.0
 10
63.74994166157988
 20
-38.03626572399788
 30
0.0
 10
43.70120848516845
 20
-38.03626572399788
 30
0.0
 10
43.70120848516845
 20
-38.03626572399788
 30
0.0
  0
SPLINE
  5
F5
330
EF
100
AcDbEntity
  8
Layer 1
370
     0
100
AcDbSpline
210
0.0
220
0.0
230
1.0
 70
    11
 71
     3
 72
   365
 73
   361
 74
     0
 42
0.0000000001
 43
0.0000000001
 40
0.0
 40
0.0
 40
0.0
 40
0.0
 40
1.0
 40
1.0
 40
1.0
 40
2.0
 40
2.0
 40
2.0
 40
3.0
 40
3.0
 40
3.0
 40
4.0
 40
4.0
 40
4.0
 40
5.0
 40
5.0
 40
5.0
 40
6.0
 40
6.0
 40
6.0
 40
7.0
 40
7.0
 40
7.0
 40
8.0
 40
8.0
 40
8.0
 40
9.0
 40
9.0
 40
9.0
 40
10.0
 40
10.0
 40
10.0
 40
11.0
 40
11.0
 40
11.0
 40
12.0
 40
12.0
 40
12.0
 40
13.0
 40
13.0
 40
13.0
 40
14.0
 40
14.0
 40
14.0
 40
15.0
 40
15.0
 40
15.0
 40
16.0
 40
16.0
 40
16.0
 40
17.0
 40
17.0
 40
17.0
 40
18.0
 40
18.0
 40
18.0
 40
19.0
 40
19.0
 40
19.0
 40
20.0
 40
20.0
 40
20.0
 40
21.0
 40
21.0
 40
21.0
 40
22.0
 40
22.0
 40
22.0
 40
23.0
 40
23.0
 40
23.0
 40
24.0
 40
24.0
 40
24.0
 40
25.0
 40
25.0
 40
25.0
 40
26.0
 40
26.0
 40
26.0
 40
27.0
 40
27.0
 40
27.0
 40
28.0
 40
28.0
 40
28.0
 40
29.0
 40
29.0
 40
29.0
 40
30.0
 40
30.0
 40
30.0
 40
31.0
 40
31.0
 40
31.0
 40
32.0
 40
32.0
 40
32.0
 40
33.0
 40
33.0
 40
33.0
 40
34.0
 40
34.0
 40
34.0
 40
35.0
 40
35.0
 40
35.0
 40
36.0
 40
36.0
 40
36.0
 40
37.0
 40
37.0
 40
37.0
 40
38.0
 40
38.0
 40
38.0
 40
39.0
 40
39.0
 40
39.0
 40
40.0
 40
40.0
 40
40.0
 40
41.0
 40
41.0
 40
41.0
 40
42.0
 40
42.0
 40
42.0
 40
43.0
 40
43.0
 40
43.0
 40
44.0
 40
44.0
 40
44.0
 40
45.0
 40
45.0
 40
45.0
 40
46.0
 40
46.0
 40
46.0
 40
47.0
 40
47.0
 40
47.0
 40
48.0
 40
48.0
 40
48.0
 40
49.0
 40
49.0
 40
49.0
 40
50.0
 40
50.0
 40
50.0
 40
51.0
 40
51.0
 40
51.0
 40
52.0
 40
52.0
 40
52.0
 40
53.0
 40
53.0
 40
53.0
 40
54.0
 40
54.0
 40
54.0
 40
55.0
 40
55.0
 40
55.0
 40
56.0
 40
56.0
 40
56.0
 40
57.0
 40
57.0
 40
57.0
 40
58.0
 40
58.0
 40
58.0
 40
59.0
 40
59.0
 40
59.0
 40
60.0
 40
60.0
 40
60.0
 40
61.0
 40
61.0
 40
61.0
 40
62.0
 40
62.0
 40
62.0
 40
63.0
 40
63.0
 40
63.0
 40
64.0
 40
64.0
 40
64.0
 40
65.0
 40
65.0
 40
65.0
 40
66.0
 40
66.0
 40
66.0
 40
67.0
 40
67.0
 40
67.0
 40
68.0
 40
68.0
 40
68.0
 40
69.0
 40
69.0
 40
69.0
 40
70.0
 40
70.0
 40
70.0
 40
71.0
 40
71.0
 40
71.0
 40
72.0
 40
72.0
 40
72.0
 40
73.0
 40
73.0
 40
73.0
 40
74.0
 40
74.0
 40
74.0
 40
75.0
 40
75.0
 40
75.0
 40
76.0
 40
76.0
 40
76.0
 40
77.0
 40
77.0
 40
77.0
 40
78.0
 40
78.0
 40
78.0
 40
79.0
 40
79.0
 40
79.0
 40
80.0
 40
80.0
 40
80.0
 40
81.0
 40
81.0
 40
81.0
 40
82.0
 40
82.0
 40
82.0
 40
83.0
 40
83.0
 40
83.0
 40
84.0
 40
84.0
 40
84.0
 40
85.0
 40
85.0
 40
85.0
 40
86.0
 40
86.0
 40
86.0
 40
87.0
 40
87.0
 40
87.0
 40
88.0
 40
88.0
 40
88.0
 40
89.0
 40
89.0
 40
89.0
 40
90.0
 40
90.0
 40
90.0
 40
91.0
 40
91.0
 40
91.0
 40
92.0
 40
92.0
 40
92.0
 40
93.0
 40
93.0
 40
93.0
 40
94.0
 40
94.0
 40
94.0
 40
95.0
 40
95.0
 40
95.0
 40
96.0
 40
96.0
 40
96.0
 40
97.0
 40
97.0
 40
97.0
 40
98.0
 40
98.0
 40
98.0
 40
99.0
 40
99.0
 40
99.0
 40
100.0
 40
100.0
 40
100.0
 40
101.0
 40
101.0
 40
101.0
 40
102.0
 40
102.0
 40
102.0
 40
103.0
 40
103.0
 40
103.0
 40
104.0
 40
104.0
 40
104.0
 40
105.0
 40
105.0
 40
105.0
 40
106.0
 40
106.0
 40
106.0
 40
107.0
 40
107.0
 40
107.0
 40
108.0
 40
108.0
 40
108.0
 40
109.0
 40
109.0
 40
109.0
 40
110.0
 40
110.0
 40
110.0
 40
111.0
 40
111.0
 40
111.0
 40
112.0
 40
112.0
 40
112.0
 40
113.0
 40
113.0
 40
113.0
 40
114.0
 40
114.0
 40
114.0
 40
115.0
 40
115.0
 40
115.0
 40
116.0
 40
116.0
 40
116.0
 40
117.0
 40
117.0
 40
117.0
 40
118.0
 40
118.0
 40
118.0
 40
119.0
 40
119.0
 40
119.0
 40
120.0
 40
120.0
 40
120.0
 40
120.0
 10
128.1835625222076
 20
-30.99173447575901
 30
0.0
 10
128.1835625222076
 20
-30.99173447575901
 30
0.0
 10
128.1835625222076
 20
-47.72680255968289
 30
0.0
 10
128.1835625222076
 20
-47.72680255968289
 30
0.0
 10
128.1835625222076
 20
-47.72680255968289
 30
0.0
 10
128.1835625222076
 20
-51.27972953362104
 30
0.0
 10
128.1835625222076
 20
-51.27972953362104
 30
0.0
 10
128.1835625222076
 20
-51.27972953362104
 30
0.0
 10
124.007590029762
 20
-47.10324027685267
 30
0.0
 10
124.007590029762
 20
-47.10324027685267
 30
0.0
 10
123.8406751535016
 20
-46.93649765536657
 30
0.0
 10
123.6098537559899
 20
-46.84141301997368
 30
0.0
 10
123.3783433393811
 20
-46.84485811545893
 30
0.0
 10
123.1425265534158
 20
-46.84623615365302
 30
0.0
 10
122.9170450539062
 20
-46.9423543176915
 30
0.0
 10
122.7525417444855
 20
-47.11116399646874
 30
0.0
 10
122.7525417444855
 20
-47.11116399646874
 30
0.0
 10
118.0422349422776
 20
-51.94049884769196
 30
0.0
 10
118.0422349422776
 20
-51.94049884769196
 30
0.0
 10
118.0422349422776
 20
-51.94049884769196
 30
0.0
 10
113.3327894139411
 20
-47.11116399646874
 30
0.0
 10
113.3327894139411
 20
-47.11116399646874
 30
0.0
 10
113.3302055923272
 20
-47.10875242962906
 30
0.0
 10
113.3272772611647
 20
-47.10702988188644
 30
0.0
 10
113.3246934395508
 20
-47.10427380549824
 30
0.0
 10
113.3219373631626
 20
-47.10151772911004
 30
0.0
 10
113.3200425606457
 20
-47.09807263362479
 30
0.0
 10
113.3171142294832
 20
-47.09531655723659
 30
0.0
 10
113.2971326756688
 20
-47.07567951297067
 30
0.0
 10
113.2742227906919
 20
-47.06121011193262
 30
0.0
 10
113.2526909439091
 20
-47.04398463450637
 30
0.0
 10
113.2306423328035
 20
-47.02607013798307
 30
0.0
 10
113.2096272503434
 20
-47.00643309371714
 30
0.0
 10
113.1862006010437
 20
-46.99093016403352
 30
0.0
 10
113.1610514040014
 20
-46.97439370570432
 30
0.0
 10
113.1341796592165
 20
-46.96233587150594
 30
0.0
 10
113.10765242398
 20
-46.94855548956495
 30
0.0
 10
113.0828477364862
 20
-46.93546412672099
 30
0.0
 10
113.0587320680895
 20
-46.92065021613443
 30
0.0
 10
113.0328938519501
 20
-46.91031492967868
 30
0.0
 10
113.0056775976166
 20
-46.89929062412588
 30
0.0
 10
112.9776000694118
 20
-46.8927449427039
 30
0.0
 10
112.9496947959813
 20
-46.8844767135393
 30
0.0
 10
112.9229953059706
 20
-46.87655299392323
 30
0.0
 10
112.8968125802827
 20
-46.86725123611305
 30
0.0
 10
112.8695963259493
 20
-46.86173908333665
 30
0.0
 10
112.8416910525188
 20
-46.85657144010877
 30
0.0
 10
112.8132690147654
 20
-46.85519340191468
 30
0.0
 10
112.7848469770121
 20
-46.85243732552647
 30
0.0
 10
112.7569417035816
 20
-46.8500257586868
 30
0.0
 10
112.7293809396996
 20
-46.84554713455598
 30
0.0
 10
112.7013034114948
 20
-46.84554713455598
 30
0.0
 10
112.67322588329
 20
-46.84554713455598
 30
0.0
 10
112.6454928646338
 20
-46.8500257586868
 30
0.0
 10
112.617415336429
 20
-46.852781835075
 30
0.0
 10
112.5891655534499
 20
-46.85519340191468
 30
0.0
 10
112.5609157704709
 20
-46.85622693056025
 30
0.0
 10
112.5330104970404
 20
-46.86173908333665
 30
0.0
 10
112.5052774783841
 20
-46.86725123611305
 30
0.0
 10
112.4785779883734
 20
-46.87689750347175
 30
0.0
 10
112.4513617340399
 20
-46.88482122308783
 30
0.0
 10
112.4241454797065
 20
-46.89308945225243
 30
0.0
 10
112.3965847158245
 20
-46.89929062412588
 30
0.0
 10
112.3698852258138
 20
-46.91031492967868
 30
0.0
 10
112.3431857358031
 20
-46.92099472568295
 30
0.0
 10
112.318208793535
 20
-46.93615314581805
 30
0.0
 10
112.2923705773957
 20
-46.94958901821052
 30
0.0
 10
112.2670491255791
 20
-46.96302489060299
 30
0.0
 10
112.2410386546654
 20
-46.97473821525285
 30
0.0
 10
112.2167507314944
 20
-46.99093016403352
 30
0.0
 10
112.1926350630977
 20
-47.00677760326567
 30
0.0
 10
112.1709309615406
 20
-47.02675915708011
 30
0.0
 10
112.1481933313379
 20
-47.04536267270047
 30
0.0
 10
112.1273505036522
 20
-47.06224364057819
 30
0.0
 10
112.1051296377723
 20
-47.07636853206772
 30
0.0
 10
112.0854925935064
 20
-47.09531655723659
 30
0.0
 10
112.082564262344
 20
-47.09807263362479
 30
0.0
 10
112.0806694598271
 20
-47.10151772911004
 30
0.0
 10
112.0779133834389
 20
-47.10427380549824
 30
0.0
 10
112.0753295618249
 20
-47.10702988188644
 30
0.0
 10
112.0724012306625
 20
-47.10875242962906
 30
0.0
 10
112.0698174090485
 20
-47.11116399646874
 30
0.0
 10
112.0698174090485
 20
-47.11116399646874
 30
0.0
 10
107.360371880712
 20
-51.94049884769196
 30
0.0
 10
107.360371880712
 20
-51.94049884769196
 30
0.0
 10
107.360371880712
 20
-51.94049884769196
 30
0.0
 10
102.6509263523755
 20
-47.11116399646874
 30
0.0
 10
102.6509263523755
 20
-47.11116399646874
 30
0.0
 10
102.6481702759873
 20
-47.10840792008054
 30
0.0
 10
102.6450696900505
 20
-47.10668537233791
 30
0.0
 10
102.6423136136623
 20
-47.10392929594971
 30
0.0
 10
102.6395575372741
 20
-47.10117321956152
 30
0.0
 10
102.6378349895315
 20
-47.09807263362479
 30
0.0
 10
102.6350789131433
 20
-47.09531655723659
 30
0.0
 10
102.6163031427487
 20
-47.07705755116476
 30
0.0
 10
102.5947712959659
 20
-47.06362167877229
 30
0.0
 10
102.5747897421515
 20
-47.04742972999162
 30
0.0
 10
102.5513630928517
 20
-47.02813719527422
 30
0.0
 10
102.5287977174234
 20
-47.00712211281419
 30
0.0
 10
102.5038207751553
 20
-46.990585654485
 30
0.0
 10
102.4798773615328
 20
-46.97508272480137
 30
0.0
 10
102.4542114001677
 20
-46.96336940015152
 30
0.0
 10
102.4292344578996
 20
-46.95027803730757
 30
0.0
 10
102.4030517322117
 20
-46.93649765536657
 30
0.0
 10
102.3777302803952
 20
-46.92099472568295
 30
0.0
 10
102.3506862808359
 20
-46.90997042013015
 30
0.0
 10
102.3243313003738
 20
-46.89929062412588
 30
0.0
 10
102.296942791266
 20
-46.89308945225243
 30
0.0
 10
102.2698987917068
 20
-46.88516573263635
 30
0.0
 10
102.2425102825991
 20
-46.87689750347175
 30
0.0
 10
102.2156385378141
 20
-46.86725123611305
 30
0.0
 10
102.1877332643836
 20
-46.86173908333665
 30
0.0
 10
102.1598279909531
 20
-46.85622693056025
 30
0.0
 10
102.1317504627483
 20
-46.85519340191468
 30
0.0
 10
102.1035006797693
 20
-46.852781835075
 30
0.0
 10
102.0754231515645
 20
-46.8500257586868
 30
0.0
 10
102.0476901329082
 20
-46.84554713455598
 30
0.0
 10
102.0194403499292
 20
-46.84554713455598
 30
0.0
 10
101.9913628217244
 20
-46.84554713455598
 30
0.0
 10
101.9634575482939
 20
-46.8500257586868
 30
0.0
 10
101.9355522748633
 20
-46.852781835075
 30
0.0
 10
101.9073024918843
 20
-46.85519340191468
 30
0.0
 10
101.8790527089052
 20
-46.85657144010877
 30
0.0
 10
101.851319690249
 20
-46.86173908333665
 30
0.0
 10
101.8235866715927
 20
-46.86725123611305
 30
0.0
 10
101.796887181582
 20
-46.87689750347175
 30
0.0
 10
101.7696709272486
 20
-46.88482122308783
 30
0.0
 10
101.7422824181408
 20
-46.89308945225243
 30
0.0
 10
101.7147216542588
 20
-46.89929062412588
 30
0.0
 10
101.6880221642481
 20
-46.91031492967868
 30
0.0
 10
101.661667183786
 20
-46.92099472568295
 30
0.0
 10
101.6368624962922
 20
-46.93580863626952
 30
0.0
 10
101.6113687897013
 20
-46.949244508662
 30
0.0
 10
101.585530573562
 20
-46.96302489060299
 30
0.0
 10
101.5593478478741
 20
-46.97473821525285
 30
0.0
 10
101.5347154151545
 20
-46.99093016403352
 30
0.0
 10
101.5109442563063
 20
-47.00677760326567
 30
0.0
 10
101.4895846642978
 20
-47.0264146475316
 30
0.0
 10
101.4670192888694
 20
-47.04467365360342
 30
0.0
 10
101.4460042064093
 20
-47.06189913102967
 30
0.0
 10
101.423438830981
 20
-47.07602402251919
 30
0.0
 10
101.4036295319408
 20
-47.09531655723659
 30
0.0
 10
101.4007012007783
 20
-47.09807263362479
 30
0.0
 10
101.3988063982614
 20
-47.10151772911004
 30
0.0
 10
101.3960503218732
 20
-47.10427380549824
 30
0.0
 10
101.3934665002593
 20
-47.10702988188644
 30
0.0
 10
101.3905381690968
 20
-47.10875242962906
 30
0.0
 10
101.3879543474829
 20
-47.11116399646874
 30
0.0
 10
101.3879543474829
 20
-47.11116399646874
 30
0.0
 10
96.67885332869487
 20
-51.94049884769196
 30
0.0
 10
96.67885332869487
 20
-51.94049884769196
 30
0.0
 10
96.67885332869487
 20
-51.94049884769196
 30
0.0
 10
91.96940780035834
 20
-47.11116399646874
 30
0.0
 10
91.96940780035834
 20
-47.11116399646874
 30
0.0
 10
91.96682397874442
 20
-47.10875242962906
 30
0.0
 10
91.96389564758195
 20
-47.10702988188644
 30
0.0
 10
91.96131182596801
 20
-47.10427380549824
 30
0.0
 10
91.95855574957982
 20
-47.10151772911004
 30
0.0
 10
91.95666094706293
 20
-47.09807263362479
 30
0.0
 10
91.95373261590046
 20
-47.09531655723659
 30
0.0
 10
91.93461233595733
 20
-47.07671304161624
 30
0.0
 10
91.91273597962599
 20
-47.06327716922377
 30
0.0
 10
91.89240991626302
 20
-47.04674071089457
 30
0.0
 10
91.86915552173758
 20
-47.02744817617717
 30
0.0
 10
91.84676240108345
 20
-47.00677760326567
 30
0.0
 10
91.82195771358965
 20
-46.990585654485
 30
0.0
 10
91.79939233816127
 20
-46.97577174389842
 30
0.0
 10
91.77527666976452
 20
-46.96509194789414
 30
0.0
 10
91.75185002046481
 20
-46.95234509459872
 30
0.0
 10
91.72411700180855
 20
-46.93753118401214
 30
0.0
 10
91.69707300224935
 20
-46.92133923523147
 30
0.0
 10
91.66830645494751
 20
-46.90997042013015
 30
0.0
 10
91.64436304132502
 20
-46.89997964322293
 30
0.0
 10
91.61938609905697
 20
-46.89446749044652
 30
0.0
 10
91.59475366633743
 20
-46.88688828037898
 30
0.0
 10
91.56495359039002
 20
-46.87793103211732
 30
0.0
 10
91.53549802399112
 20
-46.86759574566157
 30
0.0
 10
91.50518118372094
 20
-46.86173908333665
 30
0.0
 10
91.47968747713008
 20
-46.8569159496573
 30
0.0
 10
91.45384926099071
 20
-46.85588242101173
 30
0.0
 10
91.42801104485133
 20
-46.85312634462353
 30
0.0
 10
91.39769420458114
 20
-46.8500257586868
 30
0.0
 10
91.36772187385947
 20
-46.84554713455598
 30
0.0
 10
91.33706052404074
 20
-46.84554713455598
 30
0.0
 10
91.31053328880432
 20
-46.8458916441045
 30
0.0
 10
91.28435056311642
 20
-46.8500257586868
 30
0.0
 10
91.25799558265426
 20
-46.85243732552647
 30
0.0
 10
91.22819550670684
 20
-46.85484889236615
 30
0.0
 10
91.19856768553369
 20
-46.85622693056025
 30
0.0
 10
91.16928437390908
 20
-46.86208359288518
 30
0.0
 10
91.14224037434987
 20
-46.86725123611305
 30
0.0
 10
91.11640215821049
 20
-46.87655299392323
 30
0.0
 10
91.08987492297406
 20
-46.8844767135393
 30
0.0
 10
91.06179739476927
 20
-46.8927449427039
 30
0.0
 10
91.03354761179023
 20
-46.89929062412588
 30
0.0
 10
91.00633135745676
 20
-46.91031492967868
 30
0.0
 10
90.98014863176886
 20
-46.92099472568295
 30
0.0
 10
90.95551619904931
 20
-46.93580863626952
 30
0.0
 10
90.93002249245848
 20
-46.949244508662
 30
0.0
 10
90.9041842763191
 20
-46.96268038105447
 30
0.0
 10
90.87782929585694
 20
-46.97473821525285
 30
0.0
 10
90.8531968631374
 20
-46.99093016403352
 30
0.0
 10
90.82942570428918
 20
-47.00677760326567
 30
0.0
 10
90.80789385750636
 20
-47.02675915708011
 30
0.0
 10
90.78532848207797
 20
-47.04501816315194
 30
0.0
 10
90.76431339961795
 20
-47.06189913102967
 30
0.0
 10
90.74174802418956
 20
-47.07602402251919
 30
0.0
 10
90.72211097992364
 20
-47.09531655723659
 30
0.0
 10
90.71918264876118
 20
-47.09807263362479
 30
0.0
 10
90.71728784624429
 20
-47.10151772911004
 30
0.0
 10
90.7145317698561
 20
-47.10427380549824
 30
0.0
 10
90.71194794824216
 20
-47.10702988188644
 30
0.0
 10
90.70901961707969
 20
-47.10875242962906
 30
0.0
 10
90.70643579546575
 20
-47.11116399646874
 30
0.0
 10
90.70643579546575
 20
-47.11116399646874
 30
0.0
 10
85.99664575758071
 20
-51.94049884769196
 30
0.0
 10
85.99664575758071
 20
-51.94049884769196
 30
0.0
 10
85.99664575758071
 20
-51.94049884769196
 30
0.0
 10
81.28685571969565
 20
-47.11116399646874
 30
0.0
 10
81.28685571969565
 20
-47.11116399646874
 30
0.0
 10
81.28427189808171
 20
-47.10875242962906
 30
0.0
 10
81.28134356691925
 20
-47.10702988188644
 30
0.0
 10
81.27875974530531
 20
-47.10427380549824
 30
0.0
 10
81.27600366891711
 20
-47.10151772911004
 30
0.0
 10
81.27410886640023
 20
-47.09807263362479
 30
0.0
 10
81.27118053523776
 20
-47.09531655723659
 30
0.0
 10
81.25154349097184
 20
-47.07636853206772
 30
0.0
 10
81.22915037031771
 20
-47.06224364057819
 30
0.0
 10
81.20830754263196
 20
-47.04536267270047
 30
0.0
 10
81.1855699124293
 20
-47.02675915708011
 30
0.0
 10
81.1640380656465
 20
-47.00677760326567
 30
0.0
 10
81.13992239724975
 20
-46.99093016403352
 30
0.0
 10
81.115806728853
 20
-46.97508272480137
 30
0.0
 10
81.08996851271363
 20
-46.96336940015152
 30
0.0
 10
81.06464706089703
 20
-46.94993352775904
 30
0.0
 10
81.0386365899834
 20
-46.93615314581805
 30
0.0
 10
81.01348739294107
 20
-46.92099472568295
 30
0.0
 10
80.98661564815613
 20
-46.90997042013015
 30
0.0
 10
80.96026066769397
 20
-46.8996351336744
 30
0.0
 10
80.93321666813476
 20
-46.89308945225243
 30
0.0
 10
80.9063449233498
 20
-46.88516573263635
 30
0.0
 10
80.87878415946781
 20
-46.87689750347175
 30
0.0
 10
80.85156790513433
 20
-46.86725123611305
 30
0.0
 10
80.82349037692954
 20
-46.86173908333665
 30
0.0
 10
80.79575735827329
 20
-46.85657144010877
 30
0.0
 10
80.76785208484276
 20
-46.8555379114632
 30
0.0
 10
80.73977455663798
 20
-46.852781835075
 30
0.0
 10
80.71152477365892
 20
-46.8500257586868
 30
0.0
 10
80.6836195002284
 20
-46.84554713455598
 30
0.0
 10
80.65536971724936
 20
-46.84554713455598
 30
0.0
 10
80.62711993427031
 20
-46.84554713455598
 30
0.0
 10
80.59921466083978
 20
-46.8500257586868
 30
0.0
 10
80.57096487786073
 20
-46.852781835075
 30
0.0
 10
80.54288734965594
 20
-46.8555379114632
 30
0.0
 10
80.51498207622542
 20
-46.85657144010877
 30
0.0
 10
80.48724905756916
 20
-46.86173908333665
 30
0.0
 10
80.45917152936438
 20
-46.86725123611305
 30
0.0
 10
80.4319552750309
 20
-46.87689750347175
 30
0.0
 10
80.40439451114891
 20
-46.88516573263635
 30
0.0
 10
80.37752276636395
 20
-46.89308945225243
 30
0.0
 10
80.35047876680474
 20
-46.8996351336744
 30
0.0
 10
80.32412378634258
 20
-46.90997042013015
 30
0.0
 10
80.29725204155764
 20
-46.92099472568295
 30
0.0
 10
80.27210284451532
 20
-46.93615314581805
 30
0.0
 10
80.24609237360167
 20
-46.94993352775904
 30
0.0
 10
80.22077092178509
 20
-46.96336940015152
 30
0.0
 10
80.19493270564571
 20
-46.97508272480137
 30
0.0
 10
80.17081703724897
 20
-46.99093016403352
 30
0.0
 10
80.14670136885222
 20
-47.00677760326567
 30
0.0
 10
80.1251695220694
 20
-47.02675915708011
 30
0.0
 10
80.10243189186676
 20
-47.04536267270047
 30
0.0
 10
80.08158906418099
 20
-47.06224364057819
 30
0.0
 10
80.05919594352687
 20
-47.07636853206772
 30
0.0
 10
80.03955889926095
 20
-47.09531655723659
 30
0.0
 10
80.03663056809849
 20
-47.09807263362479
 30
0.0
 10
80.0347357655816
 20
-47.10151772911004
 30
0.0
 10
80.03197968919339
 20
-47.10427380549824
 30
0.0
 10
80.02939586757947
 20
-47.10702988188644
 30
0.0
 10
80.026467536417
 20
-47.10875242962906
 30
0.0
 10
80.02388371480306
 20
-47.11116399646874
 30
0.0
 10
80.02388371480306
 20
-47.11116399646874
 30
0.0
 10
75.31443818646653
 20
-51.94049884769196
 30
0.0
 10
75.31443818646653
 20
-51.94049884769196
 30
0.0
 10
75.31443818646653
 20
-51.94049884769196
 30
0.0
 10
70.60499265813
 20
-47.11116399646874
 30
0.0
 10
70.60499265813
 20
-47.11116399646874
 30
0.0
 10
70.60240883651606
 20
-47.10875242962906
 30
0.0
 10
70.59948050535361
 20
-47.10702988188644
 30
0.0
 10
70.59689668373967
 20
-47.10427380549824
 30
0.0
 10
70.59414060735146
 20
-47.10151772911004
 30
0.0
 10
70.59224580483458
 20
-47.09807263362479
 30
0.0
 10
70.58931747367212
 20
-47.09531655723659
 30
0.0
 10
70.57019719372899
 20
-47.07671304161624
 30
0.0
 10
70.54832083739764
 20
-47.06327716922377
 30
0.0
 10
70.52799477403467
 20
-47.04674071089457
 30
0.0
 10
70.50474037950923
 20
-47.02744817617717
 30
0.0
 10
70.48234725885511
 20
-47.00677760326567
 30
0.0
 10
70.45754257136132
 20
-46.990585654485
 30
0.0
 10
70.43497719593293
 20
-46.97577174389842
 30
0.0
 10
70.41103378231044
 20
-46.96509194789414
 30
0.0
 10
70.38743487823648
 20
-46.95268960414725
 30
0.0
 10
70.35970185958021
 20
-46.93753118401214
 30
0.0
 10
70.332657860021
 20
-46.92133923523147
 30
0.0
 10
70.3037190579449
 20
-46.90997042013015
 30
0.0
 10
70.27994789909668
 20
-46.90032415277145
 30
0.0
 10
70.25514321160288
 20
-46.89446749044652
 30
0.0
 10
70.23068303365761
 20
-46.8872327899275
 30
0.0
 10
70.20071070293594
 20
-46.87793103211732
 30
0.0
 10
70.17125513653706
 20
-46.86759574566157
 30
0.0
 10
70.14059378671833
 20
-46.86173908333665
 30
0.0
 10
70.11527233490175
 20
-46.8569159496573
 30
0.0
 10
70.08943411876237
 20
-46.85588242101173
 30
0.0
 10
70.06376815739725
 20
-46.85347085417205
 30
0.0
 10
70.03327906235279
 20
-46.85037026823532
 30
0.0
 10
70.00330673163113
 20
-46.84554713455598
 30
0.0
 10
69.9726453818124
 20
-46.84554713455598
 30
0.0
 10
69.94611814657597
 20
-46.8458916441045
 30
0.0
 10
69.91993542088808
 20
-46.8500257586868
 30
0.0
 10
69.89340818565165
 20
-46.85243732552647
 30
0.0
 10
69.8637803644785
 20
-46.85519340191468
 30
0.0
 10
69.83415254330535
 20
-46.85622693056025
 30
0.0
 10
69.80486923168073
 20
-46.86208359288518
 30
0.0
 10
69.77782523212151
 20
-46.86725123611305
 30
0.0
 10
69.75181476120788
 20
-46.87655299392323
 30
0.0
 10
69.72528752597145
 20
-46.8844767135393
 30
0.0
 10
69.69738225254093
 20
-46.8927449427039
 30
0.0
 10
69.66913246956189
 20
-46.89929062412588
 30
0.0
 10
69.6419162152284
 20
-46.91031492967868
 30
0.0
 10
69.61573348954052
 20
-46.92099472568295
 30
0.0
 10
69.59127331159524
 20
-46.93580863626952
 30
0.0
 10
69.56612411455292
 20
-46.94889999911347
 30
0.0
 10
69.54011364363927
 20
-46.96268038105447
 30
0.0
 10
69.51358640840286
 20
-46.97473821525285
 30
0.0
 10
69.48860946613479
 20
-46.99093016403352
 30
0.0
 10
69.46569958115788
 20
-47.00643309371714
 30
0.0
 10
69.44485675347212
 20
-47.02572562843454
 30
0.0
 10
69.42315265191505
 20
-47.04329561540932
 30
0.0
 10
69.40127629558371
 20
-47.06086560238409
 30
0.0
 10
69.37802190105828
 20
-47.07533500342214
 30
0.0
 10
69.3576958376953
 20
-47.09531655723659
 30
0.0
 10
69.35459525175858
 20
-47.09841714317331
 30
0.0
 10
69.3527004492417
 20
-47.10186223865856
 30
0.0
 10
69.34977211807923
 20
-47.10496282459529
 30
0.0
 10
69.34736055123955
 20
-47.10737439143497
 30
0.0
 10
69.34460447485135
 20
-47.10875242962906
 30
0.0
 10
69.34219290801168
 20
-47.11116399646874
 30
0.0
 10
69.34219290801168
 20
-47.11116399646874
 30
0.0
 10
65.51383055002779
 20
-51.03650579236241
 30
0.0
 10
65.51383055002779
 20
-51.03650579236241
 30
0.0
 10
65.51383055002779
 20
-51.03650579236241
 30
0.0
 10
65.51383055002779
 20
-47.72680255968289
 30
0.0
 10
65.51383055002779
 20
-47.72680255968289
 30
0.0
 10
65.51383055002779
 20
-47.72680255968289
 30
0.0
 10
65.51383055002779
 20
-39.80015461244579
 30
0.0
 10
65.51383055002779
 20
-39.80015461244579
 30
0.0
 10
65.51383055002779
 20
-39.80015461244579
 30
0.0
 10
65.51383055002779
 20
-30.99173447575901
 30
0.0
 10
65.51383055002779
 20
-30.99173447575901
 30
0.0
 10
65.51383055002779
 20
-30.99173447575901
 30
0.0
 10
128.1835625222076
 20
-30.99173447575901
 30
0.0
 10
128.1835625222076
 20
-30.99173447575901
 30
0.0
  0
SPLINE
  5
F6
330
EF
100
AcDbEntity
  8
Layer 1
370
     0
100
AcDbSpline
210
0.0
220
0.0
230
1.0
 70
    11
 71
     3
 72
    23
 73
    19
 74
     0
 42
0.0000000001
 43
0.0000000001
 40
0.0
 40
0.0
 40
0.0
 40
0.0
 40
1.0
 40
1.0
 40
1.0
 40
2.0
 40
2.0
 40
2.0
 40
3.0
 40
3.0
 40
3.0
 40
4.0
 40
4.0
 40
4.0
 40
5.0
 40
5.0
 40
5.0
 40
6.0
 40
6.0
 40
6.0
 40
6.0
 10
160.274110202987
 20
-46.20441486475098
 30
0.0
 10
160.274110202987
 20
-46.20441486475098
 30
0.0
 10
160.274110202987
 20
-49.88963350532273
 30
0.0
 10
160.274110202987
 20
-49.88963350532273
 30
0.0
 10
160.274110202987
 20
-51.78857013679244
 30
0.0
 10
161.8188910185731
 20
-53.33335095237847
 30
0.0
 10
163.7178276500428
 20
-53.33335095237847
 30
0.0
 10
163.7178276500428
 20
-53.33335095237847
 30
0.0
 10
184.5544541639308
 20
-53.33335095237847
 30
0.0
 10
184.5544541639308
 20
-53.33335095237847
 30
0.0
 10
184.5544541639308
 20
-53.33335095237847
 30
0.0
 10
184.5544541639308
 20
-42.76104192724377
 30
0.0
 10
184.5544541639308
 20
-42.76104192724377
 30
0.0
 10
184.5544541639308
 20
-42.76104192724377
 30
0.0
 10
163.7178276500428
 20
-42.76104192724377
 30
0.0
 10
163.7178276500428
 20
-42.76104192724377
 30
0.0
 10
161.8188910185731
 20
-42.76104192724377
 30
0.0
 10
160.274110202987
 20
-44.3058227428298
 30
0.0
 10
160.274110202987
 20
-46.20441486475098
 30
0.0
  0
SPLINE
  5
F7
330
EF
100
AcDbEntity
  8
Layer 1
370
     0
100
AcDbSpline
210
0.0
220
0.0
230
1.0
 70
    11
 71
     3
 72
    23
 73
    19
 74
     0
 42
0.0000000001
 43
0.0000000001
 40
0.0
 40
0.0
 40
0.0
 40
0.0
 40
1.0
 40
1.0
 40
1.0
 40
2.0
 40
2.0
 40
2.0
 40
3.0
 40
3.0
 40
3.0
 40
4.0
 40
4.0
 40
4.0
 40
5.0
 40
5.0
 40
5.0
 40
6.0
 40
6.0
 40
6.0
 40
6.0
 10
182.7905652754829
 20
-51.56946206393055
 30
0.0
 10
182.7905652754829
 20
-51.56946206393055
 30
0.0
 10
163.7178276500428
 20
-51.56946206393055
 30
0.0
 10
163.7178276500428
 20
-51.56946206393055
 30
0.0
 10
162.7914414740591
 20
-51.56946206393055
 30
0.0
 10
162.037999091435
 20
-50.81601968130641
 30
0.0
 10
162.037999091435
 20
-49.88963350532273
 30
0.0
 10
162.037999091435
 20
-49.88963350532273
 30
0.0
 10
162.037999091435
 20
-46.20441486475098
 30
0.0
 10
162.037999091435
 20
-46.20441486475098
 30
0.0
 10
162.037999091435
 20
-45.27837319831583
 30
0.0
 10
162.7914414740591
 20
-44.52493081569168
 30
0.0
 10
163.7178276500428
 20
-44.52493081569168
 30
0.0
 10
163.7178276500428
 20
-44.52493081569168
 30
0.0
 10
182.7905652754829
 20
-44.52493081569168
 30
0.0
 10
182.7905652754829
 20
-44.52493081569168
 30
0.0
 10
182.7905652754829
 20
-44.52493081569168
 30
0.0
 10
182.7905652754829
 20
-51.56946206393055
 30
0.0
 10
182.7905652754829
 20
-51.56946206393055
 30
0.0
  0
POLYLINE
  5
F8
330
EF
100
AcDbEntity
  8
Layer 1
370
     0
100
AcDb2dPolyline
 66
     1
 10
0.0
 20
0.0
 30
0.0
  0
VERTEX
  5
F9
330
F8
100
AcDbEntity
  8
Layer 1
370
     0
100
AcDbVertex
100
AcDb2dVertex
 10
194.0959906198788
 20
-50.5676282968199
 30
0.0
  0
VERTEX
  5
FA
330
F8
100
AcDbEntity
  8
Layer 1
370
     0
100
AcDbVertex
100
AcDb2dVertex
 10
240.5937553651988
 20
-50.5676282968199
 30
0.0
  0
VERTEX
  5
FB
330
F8
100
AcDbEntity
  8
Layer 1
370
     0
100
AcDbVertex
100
AcDb2dVertex
 10
240.5937553651988
 20
-48.80373940837198
 30
0.0
  0
VERTEX
  5
FC
330
F8
100
AcDbEntity
  8
Layer 1
370
     0
100
AcDbVertex
100
AcDb2dVertex
 10
194.0959906198788
 20
-48.80373940837198
 30
0.0
  0
VERTEX
  5
FD
330
F8
100
AcDbEntity
  8
Layer 1
370
     0
100
AcDbVertex
100
AcDb2dVertex
 10
194.0959906198788
 20
-50.5676282968199
 30
0.0
  0
SEQEND
  5
FE
330
F8
100
AcDbEntity
  8
Layer 1
370
     0
  0
SPLINE
  5
FF
330
EF
100
AcDbEntity
  8
Layer 1
370
     0
100
AcDbSpline
210
0.0
220
0.0
230
1.0
 70
    11
 71
     3
 72
    53
 73
    49
 74
     0
 42
0.0000000001
 43
0.0000000001
 40
0.0
 40
0.0
 40
0.0
 40
0.0
 40
1.0
 40
1.0
 40
1.0
 40
2.0
 40
2.0
 40
2.0
 40
3.0
 40
3.0
 40
3.0
 40
4.0
 40
4.0
 40
4.0
 40
5.0
 40
5.0
 40
5.0
 40
6.0
 40
6.0
 40
6.0
 40
7.0
 40
7.0
 40
7.0
 40
8.0
 40
8.0
 40
8.0
 40
9.0
 40
9.0
 40
9.0
 40
10.0
 40
10.0
 40
10.0
 40
11.0
 40
11.0
 40
11.0
 40
12.0
 40
12.0
 40
12.0
 40
13.0
 40
13.0
 40
13.0
 40
14.0
 40
14.0
 40
14.0
 40
15.0
 40
15.0
 40
15.0
 40
16.0
 40
16.0
 40
16.0
 40
16.0
 10
249.2540363960198
 20
-48.80373940837198
 30
0.0
 10
249.2540363960198
 20
-48.80373940837198
 30
0.0
 10
246.4462835755412
 20
-48.80373940837198
 30
0.0
 10
246.4462835755412
 20
-48.80373940837198
 30
0.0
 10
246.4462835755412
 20
-48.80373940837198
 30
0.0
 10
246.4462835755412
 20
-36.21346570275219
 30
0.0
 10
246.4462835755412
 20
-36.21346570275219
 30
0.0
 10
246.4462835755412
 20
-32.19579534785383
 30
0.0
 10
243.1772324695876
 20
-28.92708875144879
 30
0.0
 10
239.1592176051408
 20
-28.92708875144879
 30
0.0
 10
239.1592176051408
 20
-28.92708875144879
 30
0.0
 10
195.5298393608398
 20
-28.92708875144879
 30
0.0
 10
195.5298393608398
 20
-28.92708875144879
 30
0.0
 10
191.5121690059414
 20
-28.92708875144879
 30
0.0
 10
188.2434624095364
 20
-32.19579534785383
 30
0.0
 10
188.2434624095364
 20
-36.21346570275219
 30
0.0
 10
188.2434624095364
 20
-36.21346570275219
 30
0.0
 10
188.2434624095364
 20
-53.70955537936775
 30
0.0
 10
188.2434624095364
 20
-53.70955537936775
 30
0.0
 10
188.2434624095364
 20
-53.70955537936775
 30
0.0
 10
190.0073512979843
 20
-53.70955537936775
 30
0.0
 10
190.0073512979843
 20
-53.70955537936775
 30
0.0
 10
190.0073512979843
 20
-53.70955537936775
 30
0.0
 10
190.0073512979843
 20
-36.21346570275219
 30
0.0
 10
190.0073512979843
 20
-36.21346570275219
 30
0.0
 10
190.0073512979843
 20
-33.16834580333986
 30
0.0
 10
192.4847194614274
 20
-30.6909776398967
 30
0.0
 10
195.5298393608398
 20
-30.6909776398967
 30
0.0
 10
195.5298393608398
 20
-30.6909776398967
 30
0.0
 10
239.1592176051408
 20
-30.6909776398967
 30
0.0
 10
239.1592176051408
 20
-30.6909776398967
 30
0.0
 10
242.2046820141016
 20
-30.6909776398967
 30
0.0
 10
244.6823946870933
 20
-33.16834580333986
 30
0.0
 10
244.6823946870933
 20
-36.21346570275219
 30
0.0
 10
244.6823946870933
 20
-36.21346570275219
 30
0.0
 10
244.6823946870933
 20
-53.70955537936775
 30
0.0
 10
244.6823946870933
 20
-53.70955537936775
 30
0.0
 10
244.6823946870933
 20
-53.70955537936775
 30
0.0
 10
246.4462835755412
 20
-53.70955537936775
 30
0.0
 10
246.4462835755412
 20
-53.70955537936775
 30
0.0
 10
246.4462835755412
 20
-53.70955537936775
 30
0.0
 10
246.4462835755412
 20
-50.5676282968199
 30
0.0
 10
246.4462835755412
 20
-50.5676282968199
 30
0.0
 10
246.4462835755412
 20
-50.5676282968199
 30
0.0
 10
249.2540363960198
 20
-50.5676282968199
 30
0.0
 10
249.2540363960198
 20
-50.5676282968199
 30
0.0
 10
249.2540363960198
 20
-50.5676282968199
 30
0.0
 10
249.2540363960198
 20
-48.80373940837198
 30
0.0
 10
249.2540363960198
 20
-48.80373940837198
 30
0.0
  0
ENDBLK
  5
F2
330
EF
100
AcDbEntity
  8
0
100
AcDbBlockEnd
  0
BLOCK
  5
10A
330
108
100
AcDbEntity
  8
0
100
AcDbBlockBegin
  2
block 5
 70
     0
 71
     0
 10
0.0
 20
0.0
 30
0.0
  3
block 5
  1

  0
SPLINE
  5
10C
330
108
100
AcDbEntity
  8
Layer 1
370
     0
100
AcDbSpline
210
0.0
220
0.0
230
1.0
 70
    11
 71
     3
 72
    17
 73
    13
 74
     0
 42
0.0000000001
 43
0.0000000001
 40
0.0
 40
0.0
 40
0.0
 40
0.0
 40
1.0
 40
1.0
 40
1.0
 40
2.0
 40
2.0
 40
2.0
 40
3.0
 40
3.0
 40
3.0
 40
4.0
 40
4.0
 40
4.0
 40
4.0
 10
34.69245604601439
 20
-172.6495822051015
 30
0.0
 10
32.39836696238652
 20
-172.6495822051015
 30
0.0
 10
30.53870441944866
 20
-174.5089002384908
 30
0.0
 10
30.53870441944866
 20
-176.8029893221187
 30
0.0
 10
30.53870441944866
 20
-179.0974229152951
 30
0.0
 10
32.39836696238652
 20
-180.9567409486844
 30
0.0
 10
34.69245604601439
 20
-180.9567409486844
 30
0.0
 10
36.98654512964225
 20
-180.9567409486844
 30
0.0
 10
38.84586316303159
 20
-179.0974229152951
 30
0.0
 10
38.84586316303159
 20
-176.8029893221187
 30
0.0
 10
38.84586316303159
 20
-174.5089002384908
 30
0.0
 10
36.98654512964225
 20
-172.6495822051015
 30
0.0
 10
34.69245604601439
 20
-172.6495822051015
 30
0.0
  0
SPLINE
  5
10D
330
108
100
AcDbEntity
  8
Layer 1
370
     0
100
AcDbSpline
210
0.0
220
0.0
230
1.0
 70
    11
 71
     3
 72
    17
 73
    13
 74
     0
 42
0.0000000001
 43
0.0000000001
 40
0.0
 40
0.0
 40
0.0
 40
0.0
 40
1.0
 40
1.0
 40
1.0
 40
2.0
 40
2.0
 40
2.0
 40
3.0
 40
3.0
 40
3.0
 40
4.0
 40
4.0
 40
4.0
 40
4.0
 10
34.69245604601439
 20
-179.1928520602365
 30
0.0
 10
33.37470702290633
 20
-179.1928520602365
 30
0.0
 10
32.30259330789657
 20
-178.1207383452268
 30
0.0
 10
32.30259330789657
 20
-176.8029893221187
 30
0.0
 10
32.30259330789657
 20
-175.4852402990107
 30
0.0
 10
33.37470702290633
 20
-174.4134710935494
 30
0.0
 10
34.69245604601439
 20
-174.4134710935494
 30
0.0
 10
36.01003281434819
 20
-174.4134710935494
 30
0.0
 10
37.08197427458367
 20
-175.4852402990107
 30
0.0
 10
37.08197427458367
 20
-176.8029893221187
 30
0.0
 10
37.08197427458367
 20
-178.1207383452268
 30
0.0
 10
36.01003281434819
 20
-179.1928520602365
 30
0.0
 10
34.69245604601439
 20
-179.1928520602365
 30
0.0
  0
SPLINE
  5
10E
330
108
100
AcDbEntity
  8
Layer 1
370
     0
100
AcDbSpline
210
0.0
220
0.0
230
1.0
 70
    11
 71
     3
 72
    74
 73
    70
 74
     0
 42
0.0000000001
 43
0.0000000001
 40
0.0
 40
0.0
 40
0.0
 40
0.0
 40
1.0
 40
1.0
 40
1.0
 40
2.0
 40
2.0
 40
2.0
 40
3.0
 40
3.0
 40
3.0
 40
4.0
 40
4.0
 40
4.0
 40
5.0
 40
5.0
 40
5.0
 40
6.0
 40
6.0
 40
6.0
 40
7.0
 40
7.0
 40
7.0
 40
8.0
 40
8.0
 40
8.0
 40
9.0
 40
9.0
 40
9.0
 40
10.0
 40
10.0
 40
10.0
 40
11.0
 40
11.0
 40
11.0
 40
12.0
 40
12.0
 40
12.0
 40
13.0
 40
13.0
 40
13.0
 40
14.0
 40
14.0
 40
14.0
 40
15.0
 40
15.0
 40
15.0
 40
16.0
 40
16.0
 40
16.0
 40
17.0
 40
17.0
 40
17.0
 40
18.0
 40
18.0
 40
18.0
 40
19.0
 40
19.0
 40
19.0
 40
20.0
 40
20.0
 40
20.0
 40
21.0
 40
21.0
 40
21.0
 40
22.0
 40
22.0
 40
22.0
 40
23.0
 40
23.0
 40
23.0
 40
23.0
 10
70.429120533608
 20
-174.5433511933433
 30
0.0
 10
70.429120533608
 20
-171.6394802088263
 30
0.0
 10
68.06664630459792
 20
-169.2768337250419
 30
0.0
 10
65.16260306530657
 20
-169.2768337250419
 30
0.0
 10
65.16260306530657
 20
-169.2768337250419
 30
0.0
 10
50.56693927772285
 20
-169.2768337250419
 30
0.0
 10
50.56693927772285
 20
-169.2768337250419
 30
0.0
 10
50.56693927772285
 20
-169.2768337250419
 30
0.0
 10
43.94081487616758
 20
-164.4468098547216
 30
0.0
 10
43.94081487616758
 20
-164.4468098547216
 30
0.0
 10
44.27516139301108
 20
-164.1305500891757
 30
0.0
 10
44.58056910777847
 20
-163.783628973811
 30
0.0
 10
44.85445419885583
 20
-163.4077690563703
 30
0.0
 10
47.29892170041486
 20
-160.0536240919311
 30
0.0
 10
46.55925969973171
 20
-155.336599353527
 30
0.0
 10
43.20563149961526
 20
-152.8926486162907
 30
0.0
 10
41.90906981374148
 20
-151.9473144151382
 30
0.0
 10
40.37789712532219
 20
-151.447775569777
 30
0.0
 10
38.77782252719791
 20
-151.447775569777
 30
0.0
 10
36.37796901217287
 20
-151.447775569777
 30
0.0
 10
34.10231118939109
 20
-152.6039496146268
 30
0.0
 10
32.69033880476145
 20
-154.5407822964343
 30
0.0
 10
31.50591497693255
 20
-156.1654893272781
 30
0.0
 10
31.0253241567402
 20
-158.1543429509128
 30
0.0
 10
31.33676078860679
 20
-160.1404404981593
 30
0.0
 10
31.64819742047337
 20
-162.1265380454059
 30
0.0
 10
32.71445447315819
 20
-163.8725124373305
 30
0.0
 10
34.33898924922775
 20
-165.0565917556109
 30
0.0
 10
34.33898924922775
 20
-165.0565917556109
 30
0.0
 10
40.12864446696437
 20
-169.2768337250419
 30
0.0
 10
40.12864446696437
 20
-169.2768337250419
 30
0.0
 10
40.12864446696437
 20
-169.2768337250419
 30
0.0
 10
34.69245604601439
 20
-169.2768337250419
 30
0.0
 10
34.69245604601439
 20
-169.2768337250419
 30
0.0
 10
30.54232176970817
 20
-169.2768337250419
 30
0.0
 10
27.16595593938907
 20
-172.6530273005868
 30
0.0
 10
27.16595593938907
 20
-176.8029893221187
 30
0.0
 10
27.16595593938907
 20
-180.9529513436507
 30
0.0
 10
30.54232176970817
 20
-184.329489428744
 30
0.0
 10
34.69245604601439
 20
-184.329489428744
 30
0.0
 10
38.84241806754634
 20
-184.329489428744
 30
0.0
 10
42.21861164309118
 20
-180.9529513436507
 30
0.0
 10
42.21861164309118
 20
-176.8029893221187
 30
0.0
 10
42.21861164309118
 20
-176.33790143161
 30
0.0
 10
42.17640922339687
 20
-175.8776366747806
 30
0.0
 10
42.09252114833104
 20
-175.4252956375673
 30
0.0
 10
42.09252114833104
 20
-175.4252956375673
 30
0.0
 10
48.56361625305007
 20
-175.4252956375673
 30
0.0
 10
48.56361625305007
 20
-175.4252956375673
 30
0.0
 10
48.56361625305007
 20
-175.4252956375673
 30
0.0
 10
58.96177570140539
 20
-183.0048502146655
 30
0.0
 10
58.96177570140539
 20
-183.0048502146655
 30
0.0
 10
59.8692138522202
 20
-183.6663085478334
 30
0.0
 10
60.9406385481329
 20
-184.0156412300378
 30
0.0
 10
62.06046683561336
 20
-184.0156412300378
 30
0.0
 10
63.73977862989839
 20
-184.0156412300378
 30
0.0
 10
65.33210176318087
 20
-183.2063883005526
 30
0.0
 10
66.32015514835052
 20
-181.8507432271068
 30
0.0
 10
66.32015514835052
 20
-181.8507432271068
 30
0.0
 10
66.83950329275193
 20
-181.1379529712086
 30
0.0
 10
66.83950329275193
 20
-181.1379529712086
 30
0.0
 10
66.83950329275193
 20
-181.1379529712086
 30
0.0
 10
59.00225557335708
 20
-175.4252956375673
 30
0.0
 10
59.00225557335708
 20
-175.4252956375673
 30
0.0
 10
59.00225557335708
 20
-175.4252956375673
 30
0.0
 10
70.429120533608
 20
-175.4252956375673
 30
0.0
 10
70.429120533608
 20
-175.4252956375673
 30
0.0
 10
70.429120533608
 20
-175.4252956375673
 30
0.0
 10
70.429120533608
 20
-174.5433511933433
 30
0.0
 10
70.429120533608
 20
-174.5433511933433
 30
0.0
  0
SPLINE
  5
10F
330
108
100
AcDbEntity
  8
Layer 1
370
     0
100
AcDbSpline
210
0.0
220
0.0
230
1.0
 70
    11
 71
     3
 72
    29
 73
    25
 74
     0
 42
0.0000000001
 43
0.0000000001
 40
0.0
 40
0.0
 40
0.0
 40
0.0
 40
1.0
 40
1.0
 40
1.0
 40
2.0
 40
2.0
 40
2.0
 40
3.0
 40
3.0
 40
3.0
 40
4.0
 40
4.0
 40
4.0
 40
5.0
 40
5.0
 40
5.0
 40
6.0
 40
6.0
 40
6.0
 40
7.0
 40
7.0
 40
7.0
 40
8.0
 40
8.0
 40
8.0
 40
8.0
 10
39.6857774423355
 20
-173.6614067491194
 30
0.0
 10
39.6857774423355
 20
-173.6614067491194
 30
0.0
 10
40.11279702773222
 20
-174.8430745005601
 30
0.0
 10
40.11279702773222
 20
-174.8430745005601
 30
0.0
 10
40.33965656543592
 20
-175.4711154075211
 30
0.0
 10
40.45472275464326
 20
-176.1305066833979
 30
0.0
 10
40.45472275464326
 20
-176.8029893221187
 30
0.0
 10
40.45472275464326
 20
-179.9804008881646
 30
0.0
 10
37.86986761206031
 20
-182.5656005402961
 30
0.0
 10
34.69245604601439
 20
-182.5656005402961
 30
0.0
 10
31.5148722251942
 20
-182.5656005402961
 30
0.0
 10
28.92984482783698
 20
-179.9804008881646
 30
0.0
 10
28.92984482783698
 20
-176.8029893221187
 30
0.0
 10
28.92984482783698
 20
-173.6255777560728
 30
0.0
 10
31.5148722251942
 20
-171.0407226134898
 30
0.0
 10
34.69245604601439
 20
-171.0407226134898
 30
0.0
 10
34.69245604601439
 20
-171.0407226134898
 30
0.0
 10
42.54847953580386
 20
-171.0407226134898
 30
0.0
 10
42.54847953580386
 20
-171.0407226134898
 30
0.0
 10
42.54847953580386
 20
-171.0407226134898
 30
0.0
 10
46.14378118421058
 20
-173.6614067491194
 30
0.0
 10
46.14378118421058
 20
-173.6614067491194
 30
0.0
 10
46.14378118421058
 20
-173.6614067491194
 30
0.0
 10
39.6857774423355
 20
-173.6614067491194
 30
0.0
 10
39.6857774423355
 20
-173.6614067491194
 30
0.0
  0
SPLINE
  5
110
330
108
100
AcDbEntity
  8
Layer 1
370
     0
100
AcDbSpline
210
0.0
220
0.0
230
1.0
 70
    11
 71
     3
 72
    38
 73
    34
 74
     0
 42
0.0000000001
 43
0.0000000001
 40
0.0
 40
0.0
 40
0.0
 40
0.0
 40
1.0
 40
1.0
 40
1.0
 40
2.0
 40
2.0
 40
2.0
 40
3.0
 40
3.0
 40
3.0
 40
4.0
 40
4.0
 40
4.0
 40
5.0
 40
5.0
 40
5.0
 40
6.0
 40
6.0
 40
6.0
 40
7.0
 40
7.0
 40
7.0
 40
8.0
 40
8.0
 40
8.0
 40
9.0
 40
9.0
 40
9.0
 40
10.0
 40
10.0
 40
10.0
 40
11.0
 40
11.0
 40
11.0
 40
11.0
 10
62.06046683561336
 20
-182.2517523415898
 30
0.0
 10
61.31667072034792
 20
-182.2517523415898
 30
0.0
 10
60.60439722877251
 20
-182.0192083963355
 30
0.0
 10
60.00081649975674
 20
-181.5792697028691
 30
0.0
 10
60.00081649975674
 20
-181.5792697028691
 30
0.0
 10
35.3780300475791
 20
-163.6310112438145
 30
0.0
 10
35.3780300475791
 20
-163.6310112438145
 30
0.0
 10
34.13400606785539
 20
-162.7246066216453
 30
0.0
 10
33.31769069262544
 20
-161.3879095733683
 30
0.0
 10
33.07929008504615
 20
-159.867244426179
 30
0.0
 10
32.84088947746686
 20
-158.3465792789898
 30
0.0
 10
33.20882567529154
 20
-156.8241915840578
 30
0.0
 10
34.1155748070093
 20
-155.5798230947856
 30
0.0
 10
35.19681802505497
 20
-154.0970539979341
 30
0.0
 10
36.93969183104286
 20
-153.2116644582249
 30
0.0
 10
38.77782252719791
 20
-153.2116644582249
 30
0.0
 10
40.00186495310717
 20
-153.2116644582249
 30
0.0
 10
41.1737141824149
 20
-153.5940700570876
 30
0.0
 10
42.16659070126391
 20
-154.3178846185386
 30
0.0
 10
44.73422036642062
 20
-156.1892604861263
 30
0.0
 10
45.30059406419569
 20
-159.8007540833137
 30
0.0
 10
43.42904594183371
 20
-162.3687282580189
 30
0.0
 10
43.03303221580424
 20
-162.9120198160428
 30
0.0
 10
42.55158012174058
 20
-163.3771077065516
 30
0.0
 10
41.99795327726093
 20
-163.7515895857982
 30
0.0
 10
41.99795327726093
 20
-163.7515895857982
 30
0.0
 10
40.95718993116695
 20
-164.4550780838862
 30
0.0
 10
40.95718993116695
 20
-164.4550780838862
 30
0.0
 10
40.95718993116695
 20
-164.4550780838862
 30
0.0
 10
64.28324244269655
 20
-181.4576578322398
 30
0.0
 10
64.28324244269655
 20
-181.4576578322398
 30
0.0
 10
63.66295300057732
 20
-181.96443137812
 30
0.0
 10
62.87729897516609
 20
-182.2517523415898
 30
0.0
 10
62.06046683561336
 20
-182.2517523415898
 30
0.0
  0
SPLINE
  5
111
330
108
100
AcDbEntity
  8
Layer 1
370
     0
100
AcDbSpline
210
0.0
220
0.0
230
1.0
 70
    11
 71
     3
 72
    17
 73
    13
 74
     0
 42
0.0000000001
 43
0.0000000001
 40
0.0
 40
0.0
 40
0.0
 40
0.0
 40
1.0
 40
1.0
 40
1.0
 40
2.0
 40
2.0
 40
2.0
 40
3.0
 40
3.0
 40
3.0
 40
4.0
 40
4.0
 40
4.0
 40
4.0
 10
56.58224824974333
 20
-173.6614067491194
 30
0.0
 10
56.58224824974333
 20
-173.6614067491194
 30
0.0
 10
52.9869466013366
 20
-171.0407226134898
 30
0.0
 10
52.9869466013366
 20
-171.0407226134898
 30
0.0
 10
52.9869466013366
 20
-171.0407226134898
 30
0.0
 10
65.16260306530657
 20
-171.0407226134898
 30
0.0
 10
65.16260306530657
 20
-171.0407226134898
 30
0.0
 10
66.7895494082158
 20
-171.0407226134898
 30
0.0
 10
68.16086966611951
 20
-172.1555555125167
 30
0.0
 10
68.55274927756668
 20
-173.6614067491194
 30
0.0
 10
68.55274927756668
 20
-173.6614067491194
 30
0.0
 10
56.58224824974333
 20
-173.6614067491194
 30
0.0
 10
56.58224824974333
 20
-173.6614067491194
 30
0.0
  0
SPLINE
  5
112
330
108
100
AcDbEntity
  8
Layer 1
370
     0
100
AcDbSpline
210
0.0
220
0.0
230
1.0
 70
    11
 71
     3
 72
    23
 73
    19
 74
     0
 42
0.0000000001
 43
0.0000000001
 40
0.0
 40
0.0
 40
0.0
 40
0.0
 40
1.0
 40
1.0
 40
1.0
 40
2.0
 40
2.0
 40
2.0
 40
3.0
 40
3.0
 40
3.0
 40
4.0
 40
4.0
 40
4.0
 40
5.0
 40
5.0
 40
5.0
 40
6.0
 40
6.0
 40
6.0
 40
6.0
 10
42.12938367002321
 20
-161.4213269995752
 30
0.0
 10
43.48020560978967
 20
-159.5675211189623
 30
0.0
 10
43.07299532343314
 20
-156.9692301039869
 30
0.0
 10
41.2191894428202
 20
-155.6177191451233
 30
0.0
 10
40.48090548033117
 20
-155.0795952303273
 30
0.0
 10
39.62445474269806
 20
-154.8205240498365
 30
0.0
 10
38.77575546990676
 20
-154.8205240498365
 30
0.0
 10
37.49349093029677
 20
-154.8205240498365
 30
0.0
 10
36.22879637766155
 20
-155.4123914542025
 30
0.0
 10
35.41592609791685
 20
-156.5279133723264
 30
0.0
 10
34.06441513905335
 20
-158.3820637624878
 30
0.0
 10
34.47196993495839
 20
-160.9796657583662
 30
0.0
 10
36.32577581557133
 20
-162.3311767172297
 30
0.0
 10
37.06405977806038
 20
-162.8693006320257
 30
0.0
 10
37.92051051569349
 20
-163.1287163220651
 30
0.0
 10
38.76903753371052
 20
-163.1287163220651
 30
0.0
 10
40.05130207332051
 20
-163.1287163220651
 30
0.0
 10
41.31582437118146
 20
-162.5368489176991
 30
0.0
 10
42.12938367002321
 20
-161.4213269995752
 30
0.0
  0
SPLINE
  5
113
330
108
100
AcDbEntity
  8
Layer 1
370
     0
100
AcDbSpline
210
0.0
220
0.0
230
1.0
 70
    11
 71
     3
 72
    26
 73
    22
 74
     0
 42
0.0000000001
 43
0.0000000001
 40
0.0
 40
0.0
 40
0.0
 40
0.0
 40
1.0
 40
1.0
 40
1.0
 40
2.0
 40
2.0
 40
2.0
 40
3.0
 40
3.0
 40
3.0
 40
4.0
 40
4.0
 40
4.0
 40
5.0
 40
5.0
 40
5.0
 40
6.0
 40
6.0
 40
6.0
 40
7.0
 40
7.0
 40
7.0
 40
7.0
 10
40.70414766777535
 20
-160.3819416916754
 30
0.0
 10
40.24887829939959
 20
-161.0065375031512
 30
0.0
 10
39.54349499879469
 20
-161.3648274336171
 30
0.0
 10
38.76903753371052
 20
-161.3648274336171
 30
0.0
 10
38.26226398783027
 20
-161.3648274336171
 30
0.0
 10
37.7766777791843
 20
-161.2060085317471
 30
0.0
 10
37.36481661392268
 20
-160.9059407149819
 30
0.0
 10
36.84891356500653
 20
-160.5297362879926
 30
0.0
 10
36.51026067880647
 20
-159.9754204244159
 30
0.0
 10
36.41138643837979
 20
-159.3446234410666
 30
0.0
 10
36.31251219795313
 20
-158.7141709672659
 30
0.0
 10
36.46530218272395
 20
-158.0830294743681
 30
0.0
 10
36.84150660971324
 20
-157.5666096611292
 30
0.0
 10
37.29625921376621
 20
-156.9423583592019
 30
0.0
 10
38.00129800482259
 20
-156.5844129382845
 30
0.0
 10
38.77575546990676
 20
-156.5844129382845
 30
0.0
 10
39.28270127056127
 20
-156.5844129382845
 30
0.0
 10
39.76828747920724
 20
-156.742887330606
 30
0.0
 10
40.18014864446885
 20
-157.0432996569197
 30
0.0
 10
41.24502765895958
 20
-157.8194796697465
 30
0.0
 10
41.47998317105362
 20
-159.3174071867332
 30
0.0
 10
40.70414766777535
 20
-160.3819416916754
 30
0.0
  0
ENDBLK
  5
10B
330
108
100
AcDbEntity
  8
0
100
AcDbBlockEnd
  0
BLOCK
  5
116
330
114
100
AcDbEntity
  8
0
100
AcDbBlockBegin
  2
block 6
 70
     0
 71
     0
 10
0.0
 20
0.0
 30
0.0
  3
block 6
  1

  0
SPLINE
  5
118
330
114
100
AcDbEntity
  8
Layer 1
370
     0
100
AcDbSpline
210
0.0
220
0.0
230
1.0
 70
    11
 71
     3
 72
    26
 73
    22
 74
     0
 42
0.0000000001
 43
0.0000000001
 40
0.0
 40
0.0
 40
0.0
 40
0.0
 40
1.0
 40
1.0
 40
1.0
 40
2.0
 40
2.0
 40
2.0
 40
3.0
 40
3.0
 40
3.0
 40
4.0
 40
4.0
 40
4.0
 40
5.0
 40
5.0
 40
5.0
 40
6.0
 40
6.0
 40
6.0
 40
7.0
 40
7.0
 40
7.0
 40
7.0
 10
262.0298284935203
 20
-186.5360730870465
 30
0.0
 10
262.0298284935203
 20
-186.5360730870465
 30
0.0
 10
255.5888779742972
 20
-186.5360730870465
 30
0.0
 10
255.5888779742972
 20
-186.5360730870465
 30
0.0
 10
255.5888779742972
 20
-186.5360730870465
 30
0.0
 10
255.5888779742972
 20
-154.1459743538246
 30
0.0
 10
255.5888779742972
 20
-154.1459743538246
 30
0.0
 10
255.5888779742972
 20
-151.4415743979035
 30
0.0
 10
257.7896049702748
 20
-149.2408474019259
 30
0.0
 10
260.494693945293
 20
-149.2408474019259
 30
0.0
 10
260.494693945293
 20
-149.2408474019259
 30
0.0
 10
274.0449435078777
 20
-149.2408474019259
 30
0.0
 10
274.0449435078777
 20
-149.2408474019259
 30
0.0
 10
274.0449435078777
 20
-149.2408474019259
 30
0.0
 10
274.0449435078777
 20
-156.0008137630831
 30
0.0
 10
274.0449435078777
 20
-156.0008137630831
 30
0.0
 10
274.0449435078777
 20
-156.0008137630831
 30
0.0
 10
262.0298284935203
 20
-156.0008137630831
 30
0.0
 10
262.0298284935203
 20
-156.0008137630831
 30
0.0
 10
262.0298284935203
 20
-156.0008137630831
 30
0.0
 10
262.0298284935203
 20
-186.5360730870465
 30
0.0
 10
262.0298284935203
 20
-186.5360730870465
 30
0.0
  0
SPLINE
  5
119
330
114
100
AcDbEntity
  8
Layer 1
370
     0
100
AcDbSpline
210
0.0
220
0.0
230
1.0
 70
    11
 71
     3
 72
    26
 73
    22
 74
     0
 42
0.0000000001
 43
0.0000000001
 40
0.0
 40
0.0
 40
0.0
 40
0.0
 40
1.0
 40
1.0
 40
1.0
 40
2.0
 40
2.0
 40
2.0
 40
3.0
 40
3.0
 40
3.0
 40
4.0
 40
4.0
 40
4.0
 40
5.0
 40
5.0
 40
5.0
 40
6.0
 40
6.0
 40
6.0
 40
7.0
 40
7.0
 40
7.0
 40
7.0
 10
257.3527668627452
 20
-184.7721841985986
 30
0.0
 10
257.3527668627452
 20
-184.7721841985986
 30
0.0
 10
260.2659396050724
 20
-184.7721841985986
 30
0.0
 10
260.2659396050724
 20
-184.7721841985986
 30
0.0
 10
260.2659396050724
 20
-184.7721841985986
 30
0.0
 10
260.2659396050724
 20
-154.2369248746352
 30
0.0
 10
260.2659396050724
 20
-154.2369248746352
 30
0.0
 10
260.2659396050724
 20
-154.2369248746352
 30
0.0
 10
272.2810546194298
 20
-154.2369248746352
 30
0.0
 10
272.2810546194298
 20
-154.2369248746352
 30
0.0
 10
272.2810546194298
 20
-154.2369248746352
 30
0.0
 10
272.2810546194298
 20
-151.0047362903738
 30
0.0
 10
272.2810546194298
 20
-151.0047362903738
 30
0.0
 10
272.2810546194298
 20
-151.0047362903738
 30
0.0
 10
260.494693945293
 20
-151.0047362903738
 30
0.0
 10
260.494693945293
 20
-151.0047362903738
 30
0.0
 10
258.7618109162123
 20
-151.0047362903738
 30
0.0
 10
257.3527668627452
 20
-152.413780343841
 30
0.0
 10
257.3527668627452
 20
-154.1459743538246
 30
0.0
 10
257.3527668627452
 20
-154.1459743538246
 30
0.0
 10
257.3527668627452
 20
-184.7721841985986
 30
0.0
 10
257.3527668627452
 20
-184.7721841985986
 30
0.0
  0
ENDBLK
  5
117
330
114
100
AcDbEntity
  8
0
100
AcDbBlockEnd
  0
BLOCK
  5
11C
330
11A
100
AcDbEntity
  8
0
100
AcDbBlockBegin
  2
block 7
 70
     0
 71
     0
 10
0.0
 20
0.0
 30
0.0
  3
block 7
  1

  0
SPLINE
  5
11E
330
11A
100
AcDbEntity
  8
Layer 1
370
     0
100
AcDbSpline
210
0.0
220
0.0
230
1.0
 70
    11
 71
     3
 72
    50
 73
    46
 74
     0
 42
0.0000000001
 43
0.0000000001
 40
0.0
 40
0.0
 40
0.0
 40
0.0
 40
1.0
 40
1.0
 40
1.0
 40
2.0
 40
2.0
 40
2.0
 40
3.0
 40
3.0
 40
3.0
 40
4.0
 40
4.0
 40
4.0
 40
5.0
 40
5.0
 40
5.0
 40
6.0
 40
6.0
 40
6.0
 40
7.0
 40
7.0
 40
7.0
 40
8.0
 40
8.0
 40
8.0
 40
9.0
 40
9.0
 40
9.0
 40
10.0
 40
10.0
 40
10.0
 40
11.0
 40
11.0
 40
11.0
 40
12.0
 40
12.0
 40
12.0
 40
13.0
 40
13.0
 40
13.0
 40
14.0
 40
14.0
 40
14.0
 40
15.0
 40
15.0
 40
15.0
 40
15.0
 10
149.7727701448485
 20
-173.4733045356247
 30
0.0
 10
149.7727701448485
 20
-173.4733045356247
 30
0.0
 10
145.5831895252362
 20
-162.3039604628962
 30
0.0
 10
145.5831895252362
 20
-162.3039604628962
 30
0.0
 10
145.5831895252362
 20
-162.3039604628962
 30
0.0
 10
132.7054226013722
 20
-162.3039604628962
 30
0.0
 10
132.7054226013722
 20
-162.3039604628962
 30
0.0
 10
132.7054226013722
 20
-162.3039604628962
 30
0.0
 10
132.7054226013722
 20
-161.1436523034641
 30
0.0
 10
132.7054226013722
 20
-161.1436523034641
 30
0.0
 10
132.7054226013722
 20
-160.9097303200156
 30
0.0
 10
132.6125772780448
 20
-160.6854546039259
 30
0.0
 10
132.4470404399785
 20
-160.5200900206339
 30
0.0
 10
132.2816758566865
 20
-160.3547254373419
 30
0.0
 10
132.0574001405968
 20
-160.2617078592401
 30
0.0
 10
131.8234781571483
 20
-160.2617078592401
 30
0.0
 10
131.8234781571483
 20
-160.2617078592401
 30
0.0
 10
88.93755151856423
 20
-160.2620523687887
 30
0.0
 10
88.93755151856423
 20
-160.2620523687887
 30
0.0
 10
88.4504150169499
 20
-160.2620523687887
 30
0.0
 10
88.05560707434027
 20
-160.6568603113983
 30
0.0
 10
88.05560707434027
 20
-161.1439968130126
 30
0.0
 10
88.05560707434027
 20
-161.1439968130126
 30
0.0
 10
88.05491805524322
 20
-174.6332681855084
 30
0.0
 10
88.05491805524322
 20
-174.6332681855084
 30
0.0
 10
88.05491805524322
 20
-174.8671901689568
 30
0.0
 10
88.1477633785707
 20
-175.0914658850466
 30
0.0
 10
88.31330021663696
 20
-175.2568304683386
 30
0.0
 10
88.47866479992895
 20
-175.4221950516306
 30
0.0
 10
88.70294051601871
 20
-175.5152126297323
 30
0.0
 10
88.93686249946718
 20
-175.5152126297323
 30
0.0
 10
88.93686249946718
 20
-175.5152126297323
 30
0.0
 10
131.8234781571483
 20
-175.5155571392808
 30
0.0
 10
131.8234781571483
 20
-175.5155571392808
 30
0.0
 10
132.0574001405968
 20
-175.5155571392808
 30
0.0
 10
132.2816758566865
 20
-175.4225395611791
 30
0.0
 10
132.4470404399785
 20
-175.2571749778871
 30
0.0
 10
132.6125772780448
 20
-175.0918103945951
 30
0.0
 10
132.7054226013722
 20
-174.8675346785053
 30
0.0
 10
132.7054226013722
 20
-174.6336126950569
 30
0.0
 10
132.7054226013722
 20
-174.6336126950569
 30
0.0
 10
132.7054226013722
 20
-173.4736490451733
 30
0.0
 10
132.7054226013722
 20
-173.4736490451733
 30
0.0
 10
132.7054226013722
 20
-173.4736490451733
 30
0.0
 10
149.7727701448485
 20
-173.4733045356247
 30
0.0
 10
149.7727701448485
 20
-173.4733045356247
 30
0.0
  0
POLYLINE
  5
11F
330
11A
100
AcDbEntity
  8
Layer 1
370
     0
100
AcDb2dPolyline
 66
     1
 10
0.0
 20
0.0
 30
0.0
  0
VERTEX
  5
120
330
11F
100
AcDbEntity
  8
Layer 1
370
     0
100
AcDbVertex
100
AcDb2dVertex
 10
132.7061116204693
 20
-164.8540201410782
 30
0.0
  0
VERTEX
  5
121
330
11F
100
AcDbEntity
  8
Layer 1
370
     0
100
AcDbVertex
100
AcDb2dVertex
 10
135.2775308906598
 20
-171.7097601567253
 30
0.0
  0
VERTEX
  5
122
330
11F
100
AcDbEntity
  8
Layer 1
370
     0
100
AcDbVertex
100
AcDb2dVertex
 10
132.7054226013722
 20
-171.7097601567253
 30
0.0
  0
VERTEX
  5
123
330
11F
100
AcDbEntity
  8
Layer 1
370
     0
100
AcDbVertex
100
AcDb2dVertex
 10
132.7061116204693
 20
-164.8540201410782
 30
0.0
  0
SEQEND
  5
124
330
11F
100
AcDbEntity
  8
Layer 1
370
     0
  0
POLYLINE
  5
125
330
11A
100
AcDbEntity
  8
Layer 1
370
     0
100
AcDb2dPolyline
 66
     1
 10
0.0
 20
0.0
 30
0.0
  0
VERTEX
  5
126
330
125
100
AcDbEntity
  8
Layer 1
370
     0
100
AcDbVertex
100
AcDb2dVertex
 10
134.2951619130408
 20
-164.0678493513442
 30
0.0
  0
VERTEX
  5
127
330
125
100
AcDbEntity
  8
Layer 1
370
     0
100
AcDbVertex
100
AcDb2dVertex
 10
138.3550346876335
 20
-164.0678493513442
 30
0.0
  0
VERTEX
  5
128
330
125
100
AcDbEntity
  8
Layer 1
370
     0
100
AcDbVertex
100
AcDb2dVertex
 10
141.2211818765871
 20
-171.7094156471768
 30
0.0
  0
VERTEX
  5
129
330
125
100
AcDbEntity
  8
Layer 1
370
     0
100
AcDbVertex
100
AcDb2dVertex
 10
137.1614813567687
 20
-171.7097601567253
 30
0.0
  0
VERTEX
  5
12A
330
125
100
AcDbEntity
  8
Layer 1
370
     0
100
AcDbVertex
100
AcDb2dVertex
 10
134.2951619130408
 20
-164.0678493513442
 30
0.0
  0
SEQEND
  5
12B
330
125
100
AcDbEntity
  8
Layer 1
370
     0
  0
POLYLINE
  5
12C
330
11A
100
AcDbEntity
  8
Layer 1
370
     0
100
AcDb2dPolyline
 66
     1
 10
0.0
 20
0.0
 30
0.0
  0
VERTEX
  5
12D
330
12C
100
AcDbEntity
  8
Layer 1
370
     0
100
AcDbVertex
100
AcDb2dVertex
 10
147.2270168360231
 20
-171.7094156471768
 30
0.0
  0
VERTEX
  5
12E
330
12C
100
AcDbEntity
  8
Layer 1
370
     0
100
AcDbVertex
100
AcDb2dVertex
 10
143.105132342696
 20
-171.7094156471768
 30
0.0
  0
VERTEX
  5
12F
330
12C
100
AcDbEntity
  8
Layer 1
370
     0
100
AcDbVertex
100
AcDb2dVertex
 10
140.2389851537423
 20
-164.0678493513442
 30
0.0
  0
VERTEX
  5
130
330
12C
100
AcDbEntity
  8
Layer 1
370
     0
100
AcDbVertex
100
AcDb2dVertex
 10
144.3608696470695
 20
-164.0678493513442
 30
0.0
  0
VERTEX
  5
131
330
12C
100
AcDbEntity
  8
Layer 1
370
     0
100
AcDbVertex
100
AcDb2dVertex
 10
147.2270168360231
 20
-171.7094156471768
 30
0.0
  0
SEQEND
  5
132
330
12C
100
AcDbEntity
  8
Layer 1
370
     0
  0
POLYLINE
  5
133
330
11A
100
AcDbEntity
  8
Layer 1
370
     0
100
AcDb2dPolyline
 66
     1
 10
0.0
 20
0.0
 30
0.0
  0
VERTEX
  5
134
330
133
100
AcDbEntity
  8
Layer 1
370
     0
100
AcDbVertex
100
AcDb2dVertex
 10
130.9415337129244
 20
-173.7516682508329
 30
0.0
  0
VERTEX
  5
135
330
133
100
AcDbEntity
  8
Layer 1
370
     0
100
AcDbVertex
100
AcDb2dVertex
 10
89.81880694369113
 20
-173.7513237412844
 30
0.0
  0
VERTEX
  5
136
330
133
100
AcDbEntity
  8
Layer 1
370
     0
100
AcDbVertex
100
AcDb2dVertex
 10
89.81949596278818
 20
-162.0259412572366
 30
0.0
  0
VERTEX
  5
137
330
133
100
AcDbEntity
  8
Layer 1
370
     0
100
AcDbVertex
100
AcDb2dVertex
 10
130.9415337129244
 20
-162.025596747688
 30
0.0
  0
VERTEX
  5
138
330
133
100
AcDbEntity
  8
Layer 1
370
     0
100
AcDbVertex
100
AcDb2dVertex
 10
130.9415337129244
 20
-173.7516682508329
 30
0.0
  0
SEQEND
  5
139
330
133
100
AcDbEntity
  8
Layer 1
370
     0
  0
POLYLINE
  5
13A
330
11A
100
AcDbEntity
  8
Layer 1
370
     0
100
AcDb2dPolyline
 66
     1
 10
0.0
 20
0.0
 30
0.0
  0
VERTEX
  5
13B
330
13A
100
AcDbEntity
  8
Layer 1
370
     0
100
AcDbVertex
100
AcDb2dVertex
 10
100.0583197449507
 20
-171.1251274528784
 30
0.0
  0
VERTEX
  5
13C
330
13A
100
AcDbEntity
  8
Layer 1
370
     0
100
AcDbVertex
100
AcDb2dVertex
 10
101.8222086333986
 20
-171.1251274528784
 30
0.0
  0
VERTEX
  5
13D
330
13A
100
AcDbEntity
  8
Layer 1
370
     0
100
AcDbVertex
100
AcDb2dVertex
 10
101.8222086333986
 20
-164.6528265647396
 30
0.0
  0
VERTEX
  5
13E
330
13A
100
AcDbEntity
  8
Layer 1
370
     0
100
AcDbVertex
100
AcDb2dVertex
 10
100.0583197449507
 20
-164.6528265647396
 30
0.0
  0
VERTEX
  5
13F
330
13A
100
AcDbEntity
  8
Layer 1
370
     0
100
AcDbVertex
100
AcDb2dVertex
 10
100.0583197449507
 20
-171.1251274528784
 30
0.0
  0
SEQEND
  5
140
330
13A
100
AcDbEntity
  8
Layer 1
370
     0
  0
ENDBLK
  5
11D
330
11A
100
AcDbEntity
  8
0
100
AcDbBlockEnd
  0
BLOCK
  5
151
330
14F
100
AcDbEntity
  8
0
100
AcDbBlockBegin
  2
block 8
 70
     0
 71
     0
 10
0.0
 20
0.0
 30
0.0
  3
block 8
  1

  0
SPLINE
  5
153
330
14F
100
AcDbEntity
  8
Layer 1
370
     0
100
AcDbSpline
210
0.0
220
0.0
230
1.0
 70
    11
 71
     3
 72
    56
 73
    52
 74
     0
 42
0.0000000001
 43
0.0000000001
 40
0.0
 40
0.0
 40
0.0
 40
0.0
 40
1.0
 40
1.0
 40
1.0
 40
2.0
 40
2.0
 40
2.0
 40
3.0
 40
3.0
 40
3.0
 40
4.0
 40
4.0
 40
4.0
 40
5.0
 40
5.0
 40
5.0
 40
6.0
 40
6.0
 40
6.0
 40
7.0
 40
7.0
 40
7.0
 40
8.0
 40
8.0
 40
8.0
 40
9.0
 40
9.0
 40
9.0
 40
10.0
 40
10.0
 40
10.0
 40
11.0
 40
11.0
 40
11.0
 40
12.0
 40
12.0
 40
12.0
 40
13.0
 40
13.0
 40
13.0
 40
14.0
 40
14.0
 40
14.0
 40
15.0
 40
15.0
 40
15.0
 40
16.0
 40
16.0
 40
16.0
 40
17.0
 40
17.0
 40
17.0
 40
17.0
 10
88.13467201572675
 20
-226.6821152862114
 30
0.0
 10
88.45575491495204
 20
-226.6821152862114
 30
0.0
 10
88.75151636236073
 20
-226.5074489451092
 30
0.0
 10
88.90671791397124
 20
-226.2263291535129
 30
0.0
 10
89.06191946558175
 20
-225.945553871465
 30
0.0
 10
89.05210094344878
 20
-225.6020778515856
 30
0.0
 10
88.8812242073804
 20
-225.3302598177994
 30
0.0
 10
87.15316431197907
 20
-222.5838296969582
 30
0.0
 10
84.19262150672962
 20
-220.9439642459793
 30
0.0
 10
80.96163870588806
 20
-220.9439642459793
 30
0.0
 10
77.98128660159843
 20
-220.9439642459793
 30
0.0
 10
75.20488415003558
 20
-222.3519747708009
 30
0.0
 10
73.4408230068134
 20
-224.7342582988512
 30
0.0
 10
73.4408230068134
 20
-224.7342582988512
 30
0.0
 10
39.31008977966901
 20
-224.7342582988512
 30
0.0
 10
39.31008977966901
 20
-224.7342582988512
 30
0.0
 10
37.32123615603427
 20
-224.7342582988512
 30
0.0
 10
35.70307480661243
 20
-226.3527641578216
 30
0.0
 10
35.70307480661243
 20
-228.3412732719077
 30
0.0
 10
35.70307480661243
 20
-228.3412732719077
 30
0.0
 10
35.70307480661243
 20
-232.2617919341221
 30
0.0
 10
35.70307480661243
 20
-232.2617919341221
 30
0.0
 10
35.70307480661243
 20
-234.2506455577568
 30
0.0
 10
37.32123615603427
 20
-235.8688069071787
 30
0.0
 10
39.31008977966901
 20
-235.8688069071787
 30
0.0
 10
39.31008977966901
 20
-235.8688069071787
 30
0.0
 10
73.44116751636193
 20
-235.8688069071787
 30
0.0
 10
73.44116751636193
 20
-235.8688069071787
 30
0.0
 10
75.20540091435838
 20
-238.2514349447774
 30
0.0
 10
77.98163111114695
 20
-239.6597899791476
 30
0.0
 10
80.96163870588806
 20
-239.6597899791476
 30
0.0
 10
84.19279376150389
 20
-239.6597899791476
 30
0.0
 10
87.15333656675334
 20
-238.0195800186201
 30
0.0
 10
88.88087969783187
 20
-235.2724608786819
 30
0.0
 10
89.05175643390027
 20
-235.0006428448957
 30
0.0
 10
89.06157495603323
 20
-234.6575113345648
 30
0.0
 10
88.90637340442272
 20
-234.3763915429684
 30
0.0
 10
88.75099959803795
 20
-234.095271751372
 30
0.0
 10
88.45541040540351
 20
-233.9209499198184
 30
0.0
 10
88.13432750617822
 20
-233.9209499198184
 30
0.0
 10
88.13432750617822
 20
-233.9209499198184
 30
0.0
 10
81.93935680460197
 20
-233.9209499198184
 30
0.0
 10
81.93935680460197
 20
-233.9209499198184
 30
0.0
 10
81.93935680460197
 20
-233.9209499198184
 30
0.0
 10
80.01475421176715
 20
-230.3015326030149
 30
0.0
 10
80.01475421176715
 20
-230.3015326030149
 30
0.0
 10
80.01475421176715
 20
-230.3015326030149
 30
0.0
 10
81.93935680460197
 20
-226.6821152862114
 30
0.0
 10
81.93935680460197
 20
-226.6821152862114
 30
0.0
 10
81.93935680460197
 20
-226.6821152862114
 30
0.0
 10
88.13467201572675
 20
-226.6821152862114
 30
0.0
 10
88.13467201572675
 20
-226.6821152862114
 30
0.0
  0
SPLINE
  5
154
330
14F
100
AcDbEntity
  8
Layer 1
370
     0
100
AcDbSpline
210
0.0
220
0.0
230
1.0
 70
    11
 71
     3
 72
    62
 73
    58
 74
     0
 42
0.0000000001
 43
0.0000000001
 40
0.0
 40
0.0
 40
0.0
 40
0.0
 40
1.0
 40
1.0
 40
1.0
 40
2.0
 40
2.0
 40
2.0
 40
3.0
 40
3.0
 40
3.0
 40
4.0
 40
4.0
 40
4.0
 40
5.0
 40
5.0
 40
5.0
 40
6.0
 40
6.0
 40
6.0
 40
7.0
 40
7.0
 40
7.0
 40
8.0
 40
8.0
 40
8.0
 40
9.0
 40
9.0
 40
9.0
 40
10.0
 40
10.0
 40
10.0
 40
11.0
 40
11.0
 40
11.0
 40
12.0
 40
12.0
 40
12.0
 40
13.0
 40
13.0
 40
13.0
 40
14.0
 40
14.0
 40
14.0
 40
15.0
 40
15.0
 40
15.0
 40
16.0
 40
16.0
 40
16.0
 40
17.0
 40
17.0
 40
17.0
 40
18.0
 40
18.0
 40
18.0
 40
19.0
 40
19.0
 40
19.0
 40
19.0
 10
80.63073728452981
 20
-225.3860703646604
 30
0.0
 10
80.63073728452981
 20
-225.3860703646604
 30
0.0
 10
78.23708494137823
 20
-229.8874321256879
 30
0.0
 10
78.23708494137823
 20
-229.8874321256879
 30
0.0
 10
78.0994533767425
 20
-230.1461587966301
 30
0.0
 10
78.0994533767425
 20
-230.4565618998512
 30
0.0
 10
78.23708494137823
 20
-230.7152885707934
 30
0.0
 10
78.23708494137823
 20
-230.7152885707934
 30
0.0
 10
80.63073728452981
 20
-235.2169948413694
 30
0.0
 10
80.63073728452981
 20
-235.2169948413694
 30
0.0
 10
80.78387177884917
 20
-235.5050048239362
 30
0.0
 10
81.08342283129164
 20
-235.6848388082663
 30
0.0
 10
81.40950111897054
 20
-235.6848388082663
 30
0.0
 10
81.40950111897054
 20
-235.6848388082663
 30
0.0
 10
86.31083846583549
 20
-235.6848388082663
 30
0.0
 10
86.31083846583549
 20
-235.6848388082663
 30
0.0
 10
84.90437823398224
 20
-237.0911267853453
 30
0.0
 10
82.99906817586482
 20
-237.8959010906997
 30
0.0
 10
80.96163870588806
 20
-237.8959010906997
 30
0.0
 10
78.41209579202892
 20
-237.8959010906997
 30
0.0
 10
76.04600421275934
 20
-236.625005366191
 30
0.0
 10
74.6321370256128
 20
-234.4962808658551
 30
0.0
 10
74.4659111684495
 20
-234.2458224240774
 30
0.0
 10
74.1880642175641
 20
-234.1031954709881
 30
0.0
 10
73.89850394202885
 20
-234.1031954709881
 30
0.0
 10
73.88076170027982
 20
-234.1031954709881
 30
0.0
 10
73.86284720375652
 20
-234.1038844900852
 30
0.0
 10
73.84493270723321
 20
-234.1049180187307
 30
0.0
 10
73.84493270723321
 20
-234.1049180187307
 30
0.0
 10
39.31008977966901
 20
-234.1049180187307
 30
0.0
 10
39.31008977966901
 20
-234.1049180187307
 30
0.0
 10
38.2937866115203
 20
-234.1049180187307
 30
0.0
 10
37.46696369506034
 20
-233.2780951022708
 30
0.0
 10
37.46696369506034
 20
-232.2617919341221
 30
0.0
 10
37.46696369506034
 20
-232.2617919341221
 30
0.0
 10
37.46696369506034
 20
-228.3412732719077
 30
0.0
 10
37.46696369506034
 20
-228.3412732719077
 30
0.0
 10
37.46696369506034
 20
-227.3249701037591
 30
0.0
 10
38.2937866115203
 20
-226.4981471872991
 30
0.0
 10
39.31008977966901
 20
-226.4981471872991
 30
0.0
 10
39.31008977966901
 20
-226.4981471872991
 30
0.0
 10
73.83149683484073
 20
-226.4981471872991
 30
0.0
 10
73.83149683484073
 20
-226.4981471872991
 30
0.0
 10
74.14258895715881
 20
-226.5229518747929
 30
0.0
 10
74.45316431515407
 20
-226.3765353166698
 30
0.0
 10
74.6321370256128
 20
-226.1067843401747
 30
0.0
 10
76.04565970321082
 20
-223.9784043493873
 30
0.0
 10
78.41192353725467
 20
-222.7078531344272
 30
0.0
 10
80.96163870588806
 20
-222.7078531344272
 30
0.0
 10
82.99889592109055
 20
-222.7078531344272
 30
0.0
 10
84.90420597920799
 20
-223.5122829302331
 30
0.0
 10
86.31066621106123
 20
-224.9182263977635
 30
0.0
 10
86.31066621106123
 20
-224.9182263977635
 30
0.0
 10
81.40950111897054
 20
-224.9182263977635
 30
0.0
 10
81.40950111897054
 20
-224.9182263977635
 30
0.0
 10
81.08342283129164
 20
-224.9182263977635
 30
0.0
 10
80.78387177884917
 20
-225.0980603820936
 30
0.0
 10
80.63073728452981
 20
-225.3860703646604
 30
0.0
  0
POLYLINE
  5
155
330
14F
100
AcDbEntity
  8
Layer 1
370
     0
100
AcDb2dPolyline
 66
     1
 10
0.0
 20
0.0
 30
0.0
  0
VERTEX
  5
156
330
155
100
AcDbEntity
  8
Layer 1
370
     0
100
AcDbVertex
100
AcDb2dVertex
 10
243.898635464199
 20
-224.5434000089683
 30
0.0
  0
VERTEX
  5
157
330
155
100
AcDbEntity
  8
Layer 1
370
     0
100
AcDbVertex
100
AcDb2dVertex
 10
240.0842257429304
 20
-226.6366400258061
 30
0.0
  0
VERTEX
  5
158
330
155
100
AcDbEntity
  8
Layer 1
370
     0
100
AcDbVertex
100
AcDb2dVertex
 10
230.5054822557417
 20
-226.6366400258061
 30
0.0
  0
VERTEX
  5
159
330
155
100
AcDbEntity
  8
Layer 1
370
     0
100
AcDbVertex
100
AcDb2dVertex
 10
230.5054822557417
 20
-224.4235106860816
 30
0.0
  0
VERTEX
  5
15A
330
155
100
AcDbEntity
  8
Layer 1
370
     0
100
AcDbVertex
100
AcDb2dVertex
 10
219.2179714078691
 20
-224.4235106860816
 30
0.0
  0
VERTEX
  5
15B
330
155
100
AcDbEntity
  8
Layer 1
370
     0
100
AcDbVertex
100
AcDb2dVertex
 10
219.2179714078691
 20
-219.9200818677631
 30
0.0
  0
VERTEX
  5
15C
330
155
100
AcDbEntity
  8
Layer 1
370
     0
100
AcDbVertex
100
AcDb2dVertex
 10
217.4540825194212
 20
-219.9200818677631
 30
0.0
  0
VERTEX
  5
15D
330
155
100
AcDbEntity
  8
Layer 1
370
     0
100
AcDbVertex
100
AcDb2dVertex
 10
217.4540825194212
 20
-224.4235106860816
 30
0.0
  0
VERTEX
  5
15E
330
155
100
AcDbEntity
  8
Layer 1
370
     0
100
AcDbVertex
100
AcDb2dVertex
 10
217.4540825194212
 20
-236.1802435390452
 30
0.0
  0
VERTEX
  5
15F
330
155
100
AcDbEntity
  8
Layer 1
370
     0
100
AcDbVertex
100
AcDb2dVertex
 10
217.4540825194212
 20
-240.6836723573638
 30
0.0
  0
VERTEX
  5
160
330
155
100
AcDbEntity
  8
Layer 1
370
     0
100
AcDbVertex
100
AcDb2dVertex
 10
219.2179714078691
 20
-240.6836723573638
 30
0.0
  0
VERTEX
  5
161
330
155
100
AcDbEntity
  8
Layer 1
370
     0
100
AcDbVertex
100
AcDb2dVertex
 10
219.2179714078691
 20
-236.1802435390452
 30
0.0
  0
VERTEX
  5
162
330
155
100
AcDbEntity
  8
Layer 1
370
     0
100
AcDbVertex
100
AcDb2dVertex
 10
230.5054822557417
 20
-236.1802435390452
 30
0.0
  0
VERTEX
  5
163
330
155
100
AcDbEntity
  8
Layer 1
370
     0
100
AcDbVertex
100
AcDb2dVertex
 10
230.5054822557417
 20
-233.9678032184178
 30
0.0
  0
VERTEX
  5
164
330
155
100
AcDbEntity
  8
Layer 1
370
     0
100
AcDbVertex
100
AcDb2dVertex
 10
240.0842257429304
 20
-233.9678032184178
 30
0.0
  0
VERTEX
  5
165
330
155
100
AcDbEntity
  8
Layer 1
370
     0
100
AcDbVertex
100
AcDb2dVertex
 10
243.8989799737475
 20
-236.0603542161585
 30
0.0
  0
VERTEX
  5
166
330
155
100
AcDbEntity
  8
Layer 1
370
     0
100
AcDbVertex
100
AcDb2dVertex
 10
256.1528401052327
 20
-234.1145642860894
 30
0.0
  0
VERTEX
  5
167
330
155
100
AcDbEntity
  8
Layer 1
370
     0
100
AcDbVertex
100
AcDb2dVertex
 10
256.1528401052327
 20
-226.4898789581345
 30
0.0
  0
VERTEX
  5
168
330
155
100
AcDbEntity
  8
Layer 1
370
     0
100
AcDbVertex
100
AcDb2dVertex
 10
243.898635464199
 20
-224.5434000089683
 30
0.0
  0
SEQEND
  5
169
330
155
100
AcDbEntity
  8
Layer 1
370
     0
  0
POLYLINE
  5
16A
330
14F
100
AcDbEntity
  8
Layer 1
370
     0
100
AcDb2dPolyline
 66
     1
 10
0.0
 20
0.0
 30
0.0
  0
VERTEX
  5
16B
330
16A
100
AcDbEntity
  8
Layer 1
370
     0
100
AcDbVertex
100
AcDb2dVertex
 10
254.3889512167847
 20
-232.6083685399382
 30
0.0
  0
VERTEX
  5
16C
330
16A
100
AcDbEntity
  8
Layer 1
370
     0
100
AcDbVertex
100
AcDb2dVertex
 10
244.2179958156816
 20
-234.2234293034233
 30
0.0
  0
VERTEX
  5
16D
330
16A
100
AcDbEntity
  8
Layer 1
370
     0
100
AcDbVertex
100
AcDb2dVertex
 10
240.5362222705951
 20
-232.2039143299699
 30
0.0
  0
VERTEX
  5
16E
330
16A
100
AcDbEntity
  8
Layer 1
370
     0
100
AcDbVertex
100
AcDb2dVertex
 10
228.7415933672938
 20
-232.2039143299699
 30
0.0
  0
VERTEX
  5
16F
330
16A
100
AcDbEntity
  8
Layer 1
370
     0
100
AcDbVertex
100
AcDb2dVertex
 10
228.7415933672938
 20
-234.4163546505973
 30
0.0
  0
VERTEX
  5
170
330
16A
100
AcDbEntity
  8
Layer 1
370
     0
100
AcDbVertex
100
AcDb2dVertex
 10
219.2179714078691
 20
-234.4163546505973
 30
0.0
  0
VERTEX
  5
171
330
16A
100
AcDbEntity
  8
Layer 1
370
     0
100
AcDbVertex
100
AcDb2dVertex
 10
219.2179714078691
 20
-226.1873995745295
 30
0.0
  0
VERTEX
  5
172
330
16A
100
AcDbEntity
  8
Layer 1
370
     0
100
AcDbVertex
100
AcDb2dVertex
 10
228.7415933672938
 20
-226.1873995745295
 30
0.0
  0
VERTEX
  5
173
330
16A
100
AcDbEntity
  8
Layer 1
370
     0
100
AcDbVertex
100
AcDb2dVertex
 10
228.7415933672938
 20
-228.400528914254
 30
0.0
  0
VERTEX
  5
174
330
16A
100
AcDbEntity
  8
Layer 1
370
     0
100
AcDbVertex
100
AcDb2dVertex
 10
240.5362222705951
 20
-228.400528914254
 30
0.0
  0
VERTEX
  5
175
330
16A
100
AcDbEntity
  8
Layer 1
370
     0
100
AcDbVertex
100
AcDb2dVertex
 10
244.2183403252301
 20
-226.379980412155
 30
0.0
  0
VERTEX
  5
176
330
16A
100
AcDbEntity
  8
Layer 1
370
     0
100
AcDbVertex
100
AcDb2dVertex
 10
254.3889512167847
 20
-227.9957301947372
 30
0.0
  0
VERTEX
  5
177
330
16A
100
AcDbEntity
  8
Layer 1
370
     0
100
AcDbVertex
100
AcDb2dVertex
 10
254.3889512167847
 20
-232.6083685399382
 30
0.0
  0
SEQEND
  5
178
330
16A
100
AcDbEntity
  8
Layer 1
370
     0
  0
POLYLINE
  5
179
330
14F
100
AcDbEntity
  8
Layer 1
370
     0
100
AcDb2dPolyline
 66
     1
 10
0.0
 20
0.0
 30
0.0
  0
VERTEX
  5
17A
330
179
100
AcDbEntity
  8
Layer 1
370
     0
100
AcDbVertex
100
AcDb2dVertex
 10
173.5714897569543
 20
-226.0902478818455
 30
0.0
  0
VERTEX
  5
17B
330
179
100
AcDbEntity
  8
Layer 1
370
     0
100
AcDbVertex
100
AcDb2dVertex
 10
174.0159070745516
 20
-225.2503336025416
 30
0.0
  0
VERTEX
  5
17C
330
179
100
AcDbEntity
  8
Layer 1
370
     0
100
AcDbVertex
100
AcDb2dVertex
 10
172.4566568579275
 20
-224.4252332338243
 30
0.0
  0
VERTEX
  5
17D
330
179
100
AcDbEntity
  8
Layer 1
370
     0
100
AcDbVertex
100
AcDb2dVertex
 10
171.5754014328006
 20
-226.0902478818455
 30
0.0
  0
VERTEX
  5
17E
330
179
100
AcDbEntity
  8
Layer 1
370
     0
100
AcDbVertex
100
AcDb2dVertex
 10
167.4822834867753
 20
-226.0902478818455
 30
0.0
  0
VERTEX
  5
17F
330
179
100
AcDbEntity
  8
Layer 1
370
     0
100
AcDbVertex
100
AcDb2dVertex
 10
168.0445230699681
 20
-225.028124943743
 30
0.0
  0
VERTEX
  5
180
330
179
100
AcDbEntity
  8
Layer 1
370
     0
100
AcDbVertex
100
AcDb2dVertex
 10
166.485272853344
 20
-224.2030245750256
 30
0.0
  0
VERTEX
  5
181
330
179
100
AcDbEntity
  8
Layer 1
370
     0
100
AcDbVertex
100
AcDb2dVertex
 10
165.48653967217
 20
-226.0902478818455
 30
0.0
  0
VERTEX
  5
182
330
179
100
AcDbEntity
  8
Layer 1
370
     0
100
AcDbVertex
100
AcDb2dVertex
 10
161.5336371123944
 20
-226.0902478818455
 30
0.0
  0
VERTEX
  5
183
330
179
100
AcDbEntity
  8
Layer 1
370
     0
100
AcDbVertex
100
AcDb2dVertex
 10
162.0958766955872
 20
-225.028124943743
 30
0.0
  0
VERTEX
  5
184
330
179
100
AcDbEntity
  8
Layer 1
370
     0
100
AcDbVertex
100
AcDb2dVertex
 10
160.5366264789631
 20
-224.2030245750256
 30
0.0
  0
VERTEX
  5
185
330
179
100
AcDbEntity
  8
Layer 1
370
     0
100
AcDbVertex
100
AcDb2dVertex
 10
159.5375487882406
 20
-226.0902478818455
 30
0.0
  0
VERTEX
  5
186
330
179
100
AcDbEntity
  8
Layer 1
370
     0
100
AcDbVertex
100
AcDb2dVertex
 10
155.5846462284649
 20
-226.0902478818455
 30
0.0
  0
VERTEX
  5
187
330
179
100
AcDbEntity
  8
Layer 1
370
     0
100
AcDbVertex
100
AcDb2dVertex
 10
156.1468858116577
 20
-225.028124943743
 30
0.0
  0
VERTEX
  5
188
330
179
100
AcDbEntity
  8
Layer 1
370
     0
100
AcDbVertex
100
AcDb2dVertex
 10
154.5876355950336
 20
-224.2030245750256
 30
0.0
  0
VERTEX
  5
189
330
179
100
AcDbEntity
  8
Layer 1
370
     0
100
AcDbVertex
100
AcDb2dVertex
 10
153.5885579043112
 20
-226.0902478818455
 30
0.0
  0
VERTEX
  5
18A
330
179
100
AcDbEntity
  8
Layer 1
370
     0
100
AcDbVertex
100
AcDb2dVertex
 10
147.4004773937054
 20
-226.0902478818455
 30
0.0
  0
VERTEX
  5
18B
330
179
100
AcDbEntity
  8
Layer 1
370
     0
100
AcDbVertex
100
AcDb2dVertex
 10
147.4004773937054
 20
-223.5525905474105
 30
0.0
  0
VERTEX
  5
18C
330
179
100
AcDbEntity
  8
Layer 1
370
     0
100
AcDbVertex
100
AcDb2dVertex
 10
129.4933878256996
 20
-223.5525905474105
 30
0.0
  0
VERTEX
  5
18D
330
179
100
AcDbEntity
  8
Layer 1
370
     0
100
AcDbVertex
100
AcDb2dVertex
 10
129.4933878256996
 20
-219.7891682393235
 30
0.0
  0
VERTEX
  5
18E
330
179
100
AcDbEntity
  8
Layer 1
370
     0
100
AcDbVertex
100
AcDb2dVertex
 10
127.7294989372517
 20
-219.7891682393235
 30
0.0
  0
VERTEX
  5
18F
330
179
100
AcDbEntity
  8
Layer 1
370
     0
100
AcDbVertex
100
AcDb2dVertex
 10
127.7294989372517
 20
-223.5525905474105
 30
0.0
  0
VERTEX
  5
190
330
179
100
AcDbEntity
  8
Layer 1
370
     0
100
AcDbVertex
100
AcDb2dVertex
 10
127.7294989372517
 20
-236.9168049537917
 30
0.0
  0
VERTEX
  5
191
330
179
100
AcDbEntity
  8
Layer 1
370
     0
100
AcDbVertex
100
AcDb2dVertex
 10
127.7294989372517
 20
-240.8145859858033
 30
0.0
  0
VERTEX
  5
192
330
179
100
AcDbEntity
  8
Layer 1
370
     0
100
AcDbVertex
100
AcDb2dVertex
 10
129.4933878256996
 20
-240.8145859858033
 30
0.0
  0
VERTEX
  5
193
330
179
100
AcDbEntity
  8
Layer 1
370
     0
100
AcDbVertex
100
AcDb2dVertex
 10
129.4933878256996
 20
-236.9168049537917
 30
0.0
  0
VERTEX
  5
194
330
179
100
AcDbEntity
  8
Layer 1
370
     0
100
AcDbVertex
100
AcDb2dVertex
 10
147.4004773937054
 20
-236.9168049537917
 30
0.0
  0
VERTEX
  5
195
330
179
100
AcDbEntity
  8
Layer 1
370
     0
100
AcDbVertex
100
AcDb2dVertex
 10
147.4004773937054
 20
-234.3791476193566
 30
0.0
  0
VERTEX
  5
196
330
179
100
AcDbEntity
  8
Layer 1
370
     0
100
AcDbVertex
100
AcDb2dVertex
 10
149.200884294297
 20
-234.3791476193566
 30
0.0
  0
VERTEX
  5
197
330
179
100
AcDbEntity
  8
Layer 1
370
     0
100
AcDbVertex
100
AcDb2dVertex
 10
148.6386447111042
 20
-235.4409260479106
 30
0.0
  0
VERTEX
  5
198
330
179
100
AcDbEntity
  8
Layer 1
370
     0
100
AcDbVertex
100
AcDb2dVertex
 10
150.1978949277283
 20
-236.2663709261765
 30
0.0
  0
VERTEX
  5
199
330
179
100
AcDbEntity
  8
Layer 1
370
     0
100
AcDbVertex
100
AcDb2dVertex
 10
151.1969726184508
 20
-234.3791476193566
 30
0.0
  0
VERTEX
  5
19A
330
179
100
AcDbEntity
  8
Layer 1
370
     0
100
AcDbVertex
100
AcDb2dVertex
 10
155.1495306686779
 20
-234.3791476193566
 30
0.0
  0
VERTEX
  5
19B
330
179
100
AcDbEntity
  8
Layer 1
370
     0
100
AcDbVertex
100
AcDb2dVertex
 10
154.5876355950336
 20
-235.4409260479106
 30
0.0
  0
VERTEX
  5
19C
330
179
100
AcDbEntity
  8
Layer 1
370
     0
100
AcDbVertex
100
AcDb2dVertex
 10
156.1468858116577
 20
-236.2663709261765
 30
0.0
  0
VERTEX
  5
19D
330
179
100
AcDbEntity
  8
Layer 1
370
     0
100
AcDbVertex
100
AcDb2dVertex
 10
157.1459635023802
 20
-234.3791476193566
 30
0.0
  0
VERTEX
  5
19E
330
179
100
AcDbEntity
  8
Layer 1
370
     0
100
AcDbVertex
100
AcDb2dVertex
 10
161.0985215526073
 20
-234.3791476193566
 30
0.0
  0
VERTEX
  5
19F
330
179
100
AcDbEntity
  8
Layer 1
370
     0
100
AcDbVertex
100
AcDb2dVertex
 10
160.5366264789631
 20
-235.4409260479106
 30
0.0
  0
VERTEX
  5
1A0
330
179
100
AcDbEntity
  8
Layer 1
370
     0
100
AcDbVertex
100
AcDb2dVertex
 10
162.0958766955872
 20
-236.2663709261765
 30
0.0
  0
VERTEX
  5
1A1
330
179
100
AcDbEntity
  8
Layer 1
370
     0
100
AcDbVertex
100
AcDb2dVertex
 10
163.0949543863096
 20
-234.3791476193566
 30
0.0
  0
VERTEX
  5
1A2
330
179
100
AcDbEntity
  8
Layer 1
370
     0
100
AcDbVertex
100
AcDb2dVertex
 10
167.1873833132379
 20
-234.3791476193566
 30
0.0
  0
VERTEX
  5
1A3
330
179
100
AcDbEntity
  8
Layer 1
370
     0
100
AcDbVertex
100
AcDb2dVertex
 10
166.5080104835466
 20
-235.6627901971607
 30
0.0
  0
VERTEX
  5
1A4
330
179
100
AcDbEntity
  8
Layer 1
370
     0
100
AcDbVertex
100
AcDb2dVertex
 10
168.0672607001707
 20
-236.4882350754266
 30
0.0
  0
VERTEX
  5
1A5
330
179
100
AcDbEntity
  8
Layer 1
370
     0
100
AcDbVertex
100
AcDb2dVertex
 10
169.1838161469402
 20
-234.3791476193566
 30
0.0
  0
VERTEX
  5
1A6
330
179
100
AcDbEntity
  8
Layer 1
370
     0
100
AcDbVertex
100
AcDb2dVertex
 10
176.014406965545
 20
-234.3791476193566
 30
0.0
  0
VERTEX
  5
1A7
330
179
100
AcDbEntity
  8
Layer 1
370
     0
100
AcDbVertex
100
AcDb2dVertex
 10
179.4598469603434
 20
-230.2346977506011
 30
0.0
  0
VERTEX
  5
1A8
330
179
100
AcDbEntity
  8
Layer 1
370
     0
100
AcDbVertex
100
AcDb2dVertex
 10
176.014406965545
 20
-226.0902478818455
 30
0.0
  0
VERTEX
  5
1A9
330
179
100
AcDbEntity
  8
Layer 1
370
     0
100
AcDbVertex
100
AcDb2dVertex
 10
173.5714897569543
 20
-226.0902478818455
 30
0.0
  0
SEQEND
  5
1AA
330
179
100
AcDbEntity
  8
Layer 1
370
     0
  0
POLYLINE
  5
1AB
330
14F
100
AcDbEntity
  8
Layer 1
370
     0
100
AcDb2dPolyline
 66
     1
 10
0.0
 20
0.0
 30
0.0
  0
VERTEX
  5
1AC
330
1AB
100
AcDbEntity
  8
Layer 1
370
     0
100
AcDbVertex
100
AcDb2dVertex
 10
145.6365885052575
 20
-235.1529160653437
 30
0.0
  0
VERTEX
  5
1AD
330
1AB
100
AcDbEntity
  8
Layer 1
370
     0
100
AcDbVertex
100
AcDb2dVertex
 10
129.4933878256996
 20
-235.1529160653437
 30
0.0
  0
VERTEX
  5
1AE
330
1AB
100
AcDbEntity
  8
Layer 1
370
     0
100
AcDbVertex
100
AcDb2dVertex
 10
129.4933878256996
 20
-225.3164794358584
 30
0.0
  0
VERTEX
  5
1AF
330
1AB
100
AcDbEntity
  8
Layer 1
370
     0
100
AcDbVertex
100
AcDb2dVertex
 10
145.6365885052575
 20
-225.3164794358584
 30
0.0
  0
VERTEX
  5
1B0
330
1AB
100
AcDbEntity
  8
Layer 1
370
     0
100
AcDbVertex
100
AcDb2dVertex
 10
145.6365885052575
 20
-226.0902478818455
 30
0.0
  0
VERTEX
  5
1B1
330
1AB
100
AcDbEntity
  8
Layer 1
370
     0
100
AcDbVertex
100
AcDb2dVertex
 10
145.6365885052575
 20
-234.3791476193566
 30
0.0
  0
VERTEX
  5
1B2
330
1AB
100
AcDbEntity
  8
Layer 1
370
     0
100
AcDbVertex
100
AcDb2dVertex
 10
145.6365885052575
 20
-235.1529160653437
 30
0.0
  0
SEQEND
  5
1B3
330
1AB
100
AcDbEntity
  8
Layer 1
370
     0
  0
POLYLINE
  5
1B4
330
14F
100
AcDbEntity
  8
Layer 1
370
     0
100
AcDb2dPolyline
 66
     1
 10
0.0
 20
0.0
 30
0.0
  0
VERTEX
  5
1B5
330
1B4
100
AcDbEntity
  8
Layer 1
370
     0
100
AcDbVertex
100
AcDb2dVertex
 10
147.4004773937054
 20
-232.6152587309087
 30
0.0
  0
VERTEX
  5
1B6
330
1B4
100
AcDbEntity
  8
Layer 1
370
     0
100
AcDbVertex
100
AcDb2dVertex
 10
147.4004773937054
 20
-227.8541367702934
 30
0.0
  0
VERTEX
  5
1B7
330
1B4
100
AcDbEntity
  8
Layer 1
370
     0
100
AcDbVertex
100
AcDb2dVertex
 10
152.6549370278085
 20
-227.8541367702934
 30
0.0
  0
VERTEX
  5
1B8
330
1B4
100
AcDbEntity
  8
Layer 1
370
     0
100
AcDbVertex
100
AcDb2dVertex
 10
150.1345051707997
 20
-232.6152587309087
 30
0.0
  0
VERTEX
  5
1B9
330
1B4
100
AcDbEntity
  8
Layer 1
370
     0
100
AcDbVertex
100
AcDb2dVertex
 10
147.4004773937054
 20
-232.6152587309087
 30
0.0
  0
SEQEND
  5
1BA
330
1B4
100
AcDbEntity
  8
Layer 1
370
     0
  0
POLYLINE
  5
1BB
330
14F
100
AcDbEntity
  8
Layer 1
370
     0
100
AcDb2dPolyline
 66
     1
 10
0.0
 20
0.0
 30
0.0
  0
VERTEX
  5
1BC
330
1BB
100
AcDbEntity
  8
Layer 1
370
     0
100
AcDbVertex
100
AcDb2dVertex
 10
152.1305934949535
 20
-232.6152587309087
 30
0.0
  0
VERTEX
  5
1BD
330
1BB
100
AcDbEntity
  8
Layer 1
370
     0
100
AcDbVertex
100
AcDb2dVertex
 10
154.6510253519623
 20
-227.8541367702934
 30
0.0
  0
VERTEX
  5
1BE
330
1BB
100
AcDbEntity
  8
Layer 1
370
     0
100
AcDbVertex
100
AcDb2dVertex
 10
158.6039279117379
 20
-227.8541367702934
 30
0.0
  0
VERTEX
  5
1BF
330
1BB
100
AcDbEntity
  8
Layer 1
370
     0
100
AcDbVertex
100
AcDb2dVertex
 10
156.0834960547291
 20
-232.6152587309087
 30
0.0
  0
VERTEX
  5
1C0
330
1BB
100
AcDbEntity
  8
Layer 1
370
     0
100
AcDbVertex
100
AcDb2dVertex
 10
152.1305934949535
 20
-232.6152587309087
 30
0.0
  0
SEQEND
  5
1C1
330
1BB
100
AcDbEntity
  8
Layer 1
370
     0
  0
POLYLINE
  5
1C2
330
14F
100
AcDbEntity
  8
Layer 1
370
     0
100
AcDb2dPolyline
 66
     1
 10
0.0
 20
0.0
 30
0.0
  0
VERTEX
  5
1C3
330
1C2
100
AcDbEntity
  8
Layer 1
370
     0
100
AcDbVertex
100
AcDb2dVertex
 10
158.0795843788829
 20
-232.6152587309087
 30
0.0
  0
VERTEX
  5
1C4
330
1C2
100
AcDbEntity
  8
Layer 1
370
     0
100
AcDbVertex
100
AcDb2dVertex
 10
160.6000162358917
 20
-227.8541367702934
 30
0.0
  0
VERTEX
  5
1C5
330
1C2
100
AcDbEntity
  8
Layer 1
370
     0
100
AcDbVertex
100
AcDb2dVertex
 10
164.5525742861188
 20
-227.8541367702934
 30
0.0
  0
VERTEX
  5
1C6
330
1C2
100
AcDbEntity
  8
Layer 1
370
     0
100
AcDbVertex
100
AcDb2dVertex
 10
162.0324869386586
 20
-232.6152587309087
 30
0.0
  0
VERTEX
  5
1C7
330
1C2
100
AcDbEntity
  8
Layer 1
370
     0
100
AcDbVertex
100
AcDb2dVertex
 10
158.0795843788829
 20
-232.6152587309087
 30
0.0
  0
SEQEND
  5
1C8
330
1C2
100
AcDbEntity
  8
Layer 1
370
     0
  0
POLYLINE
  5
1C9
330
14F
100
AcDbEntity
  8
Layer 1
370
     0
100
AcDb2dPolyline
 66
     1
 10
0.0
 20
0.0
 30
0.0
  0
VERTEX
  5
1CA
330
1C9
100
AcDbEntity
  8
Layer 1
370
     0
100
AcDbVertex
100
AcDb2dVertex
 10
164.0285752628123
 20
-232.6152587309087
 30
0.0
  0
VERTEX
  5
1CB
330
1C9
100
AcDbEntity
  8
Layer 1
370
     0
100
AcDbVertex
100
AcDb2dVertex
 10
166.5486626102726
 20
-227.8541367702934
 30
0.0
  0
VERTEX
  5
1CC
330
1C9
100
AcDbEntity
  8
Layer 1
370
     0
100
AcDbVertex
100
AcDb2dVertex
 10
170.6417805562979
 20
-227.8541367702934
 30
0.0
  0
VERTEX
  5
1CD
330
1C9
100
AcDbEntity
  8
Layer 1
370
     0
100
AcDbVertex
100
AcDb2dVertex
 10
168.1213486992891
 20
-232.6152587309087
 30
0.0
  0
VERTEX
  5
1CE
330
1C9
100
AcDbEntity
  8
Layer 1
370
     0
100
AcDbVertex
100
AcDb2dVertex
 10
164.0285752628123
 20
-232.6152587309087
 30
0.0
  0
SEQEND
  5
1CF
330
1C9
100
AcDbEntity
  8
Layer 1
370
     0
  0
POLYLINE
  5
1D0
330
14F
100
AcDbEntity
  8
Layer 1
370
     0
100
AcDb2dPolyline
 66
     1
 10
0.0
 20
0.0
 30
0.0
  0
VERTEX
  5
1D1
330
1D0
100
AcDbEntity
  8
Layer 1
370
     0
100
AcDbVertex
100
AcDb2dVertex
 10
175.186895029988
 20
-232.6152587309087
 30
0.0
  0
VERTEX
  5
1D2
330
1D0
100
AcDbEntity
  8
Layer 1
370
     0
100
AcDbVertex
100
AcDb2dVertex
 10
170.1174370234429
 20
-232.6152587309087
 30
0.0
  0
VERTEX
  5
1D3
330
1D0
100
AcDbEntity
  8
Layer 1
370
     0
100
AcDbVertex
100
AcDb2dVertex
 10
172.6375243709031
 20
-227.8541367702934
 30
0.0
  0
VERTEX
  5
1D4
330
1D0
100
AcDbEntity
  8
Layer 1
370
     0
100
AcDbVertex
100
AcDb2dVertex
 10
175.186895029988
 20
-227.8541367702934
 30
0.0
  0
VERTEX
  5
1D5
330
1D0
100
AcDbEntity
  8
Layer 1
370
     0
100
AcDbVertex
100
AcDb2dVertex
 10
177.166102386264
 20
-230.2346977506011
 30
0.0
  0
VERTEX
  5
1D6
330
1D0
100
AcDbEntity
  8
Layer 1
370
     0
100
AcDbVertex
100
AcDb2dVertex
 10
175.186895029988
 20
-232.6152587309087
 30
0.0
  0
SEQEND
  5
1D7
330
1D0
100
AcDbEntity
  8
Layer 1
370
     0
  0
ENDBLK
  5
152
330
14F
100
AcDbEntity
  8
0
100
AcDbBlockEnd
  0
BLOCK
  5
1DA
330
1D8
100
AcDbEntity
  8
0
100
AcDbBlockBegin
  2
block 9
 70
     0
 71
     0
 10
0.0
 20
0.0
 30
0.0
  3
block 9
  1

  0
POLYLINE
  5
1DC
330
1D8
100
AcDbEntity
  8
Layer 1
370
     0
100
AcDb2dPolyline
 66
     1
 10
0.0
 20
0.0
 30
0.0
  0
VERTEX
  5
1DD
330
1DC
100
AcDbEntity
  8
Layer 1
370
     0
100
AcDbVertex
100
AcDb2dVertex
 10
293.5000867321805
 20
-323.973678846958
 30
0.0
  0
VERTEX
  5
1DE
330
1DC
100
AcDbEntity
  8
Layer 1
370
     0
100
AcDbVertex
100
AcDb2dVertex
 10
3.500044758239572
 20
-323.973678846958
 30
0.0
  0
VERTEX
  5
1DF
330
1DC
100
AcDbEntity
  8
Layer 1
370
     0
100
AcDbVertex
100
AcDb2dVertex
 10
3.500044758239572
 20
-263.9732068567498
 30
0.0
  0
VERTEX
  5
1E0
330
1DC
100
AcDbEntity
  8
Layer 1
370
     0
100
AcDbVertex
100
AcDb2dVertex
 10
293.5000867321805
 20
-263.9732068567498
 30
0.0
  0
VERTEX
  5
1E1
330
1DC
100
AcDbEntity
  8
Layer 1
370
     0
100
AcDbVertex
100
AcDb2dVertex
 10
293.5000867321805
 20
-323.973678846958
 30
0.0
  0
SEQEND
  5
1E2
330
1DC
100
AcDbEntity
  8
Layer 1
370
     0
  0
HATCH
  5
1E3
330
1D8
100
AcDbEntity
  8
Layer 1
 62
     7
420
 16777215
100
AcDbHatch
 10
0.0
 20
0.0
 30
0.0
210
0.0
220
0.0
230
1.0
  2
SOLID
 70
     1
 71
     0
 91
        1
 92
        1
 93
        4
 72
     1
 10
293.5000867321805
 20
-323.973678846958
 11
3.500044758239596
 21
-323.973678846958
 72
     1
 10
3.500044758239572
 20
-323.973678846958
 11
3.500044758239572
 21
-263.9732068567498
 72
     1
 10
3.500044758239572
 20
-263.9732068567498
 11
293.5000867321805
 21
-263.9732068567498
 72
     1
 10
293.5000867321805
 20
-263.9732068567498
 11
293.5000867321805
 21
-323.973678846958
 97
        0
 75
     2
 76
     1
 98
        0
  0
ENDBLK
  5
1DB
330
1D8
100
AcDbEntity
  8
0
100
AcDbBlockEnd
  0
BLOCK
  5
1E6
330
1E4
100
AcDbEntity
  8
0
100
AcDbBlockBegin
  2
block 10
 70
     0
 71
     0
 10
0.0
 20
0.0
 30
0.0
  3
block 10
  1

  0
SPLINE
  5
1E8
330
1E4
100
AcDbEntity
  8
Layer 1
370
     0
100
AcDbSpline
210
0.0
220
0.0
230
1.0
 70
    11
 71
     3
 72
    35
 73
    31
 74
     0
 42
0.0000000001
 43
0.0000000001
 40
0.0
 40
0.0
 40
0.0
 40
0.0
 40
1.0
 40
1.0
 40
1.0
 40
2.0
 40
2.0
 40
2.0
 40
3.0
 40
3.0
 40
3.0
 40
4.0
 40
4.0
 40
4.0
 40
5.0
 40
5.0
 40
5.0
 40
6.0
 40
6.0
 40
6.0
 40
7.0
 40
7.0
 40
7.0
 40
8.0
 40
8.0
 40
8.0
 40
9.0
 40
9.0
 40
9.0
 40
10.0
 40
10.0
 40
10.0
 40
10.0
 10
82.72483857523893
 20
-286.6074841948412
 30
0.0
 10
82.72483857523893
 20
-286.6074841948412
 30
0.0
 10
53.42051186815529
 20
-286.6074841948412
 30
0.0
 10
53.42051186815529
 20
-286.6074841948412
 30
0.0
 10
50.85494926028974
 20
-286.6074841948412
 30
0.0
 10
48.76756590577686
 20
-288.6952120589026
 30
0.0
 10
48.76756590577686
 20
-291.2611191763167
 30
0.0
 10
48.76756590577686
 20
-291.2611191763167
 30
0.0
 10
48.76756590577686
 20
-296.6857665273911
 30
0.0
 10
48.76756590577686
 20
-296.6857665273911
 30
0.0
 10
48.76756590577686
 20
-299.2513291352566
 30
0.0
 10
50.85494926028974
 20
-301.3387124897695
 30
0.0
 10
53.42051186815529
 20
-301.3387124897695
 30
0.0
 10
53.42051186815529
 20
-301.3387124897695
 30
0.0
 10
82.72483857523893
 20
-301.3387124897695
 30
0.0
 10
82.72483857523893
 20
-301.3387124897695
 30
0.0
 10
82.72483857523893
 20
-301.3387124897695
 30
0.0
 10
82.72483857523893
 20
-300.0337103199569
 30
0.0
 10
82.72483857523893
 20
-300.0337103199569
 30
0.0
 10
82.72483857523893
 20
-300.0337103199569
 30
0.0
 10
139.5430758657219
 20
-300.0337103199569
 30
0.0
 10
139.5430758657219
 20
-300.0337103199569
 30
0.0
 10
139.5430758657219
 20
-300.0337103199569
 30
0.0
 10
139.5430758657219
 20
-287.9124863646538
 30
0.0
 10
139.5430758657219
 20
-287.9124863646538
 30
0.0
 10
139.5430758657219
 20
-287.9124863646538
 30
0.0
 10
82.72483857523893
 20
-287.9124863646538
 30
0.0
 10
82.72483857523893
 20
-287.9124863646538
 30
0.0
 10
82.72483857523893
 20
-287.9124863646538
 30
0.0
 10
82.72483857523893
 20
-286.6074841948412
 30
0.0
 10
82.72483857523893
 20
-286.6074841948412
 30
0.0
  0
SPLINE
  5
1E9
330
1E4
100
AcDbEntity
  8
Layer 1
370
     0
100
AcDbSpline
210
0.0
220
0.0
230
1.0
 70
    11
 71
     3
 72
    23
 73
    19
 74
     0
 42
0.0000000001
 43
0.0000000001
 40
0.0
 40
0.0
 40
0.0
 40
0.0
 40
1.0
 40
1.0
 40
1.0
 40
2.0
 40
2.0
 40
2.0
 40
3.0
 40
3.0
 40
3.0
 40
4.0
 40
4.0
 40
4.0
 40
5.0
 40
5.0
 40
5.0
 40
6.0
 40
6.0
 40
6.0
 40
6.0
 10
50.53145479422478
 20
-296.6857665273911
 30
0.0
 10
50.53145479422478
 20
-296.6857665273911
 30
0.0
 10
50.53145479422478
 20
-291.2611191763167
 30
0.0
 10
50.53145479422478
 20
-291.2611191763167
 30
0.0
 10
50.53145479422478
 20
-289.6681070239371
 30
0.0
 10
51.82749971577577
 20
-288.3713730832891
 30
0.0
 10
53.42051186815529
 20
-288.3713730832891
 30
0.0
 10
53.42051186815529
 20
-288.3713730832891
 30
0.0
 10
80.96094968679101
 20
-288.3713730832891
 30
0.0
 10
80.96094968679101
 20
-288.3713730832891
 30
0.0
 10
80.96094968679101
 20
-288.3713730832891
 30
0.0
 10
80.96094968679101
 20
-299.5748236013216
 30
0.0
 10
80.96094968679101
 20
-299.5748236013216
 30
0.0
 10
80.96094968679101
 20
-299.5748236013216
 30
0.0
 10
53.42051186815529
 20
-299.5748236013216
 30
0.0
 10
53.42051186815529
 20
-299.5748236013216
 30
0.0
 10
51.82749971577577
 20
-299.5748236013216
 30
0.0
 10
50.53145479422478
 20
-298.2787786797706
 30
0.0
 10
50.53145479422478
 20
-296.6857665273911
 30
0.0
  0
POLYLINE
  5
1EA
330
1E4
100
AcDbEntity
  8
Layer 1
370
     0
100
AcDb2dPolyline
 66
     1
 10
0.0
 20
0.0
 30
0.0
  0
VERTEX
  5
1EB
330
1EA
100
AcDbEntity
  8
Layer 1
370
     0
100
AcDbVertex
100
AcDb2dVertex
 10
107.2246351185932
 20
-298.2698214315089
 30
0.0
  0
VERTEX
  5
1EC
330
1EA
100
AcDbEntity
  8
Layer 1
370
     0
100
AcDbVertex
100
AcDb2dVertex
 10
103.8611883963437
 20
-298.2698214315089
 30
0.0
  0
VERTEX
  5
1ED
330
1EA
100
AcDbEntity
  8
Layer 1
370
     0
100
AcDbVertex
100
AcDb2dVertex
 10
105.5429117574684
 20
-295.6246771179341
 30
0.0
  0
VERTEX
  5
1EE
330
1EA
100
AcDbEntity
  8
Layer 1
370
     0
100
AcDbVertex
100
AcDb2dVertex
 10
107.2246351185932
 20
-298.2698214315089
 30
0.0
  0
SEQEND
  5
1EF
330
1EA
100
AcDbEntity
  8
Layer 1
370
     0
  0
POLYLINE
  5
1F0
330
1E4
100
AcDbEntity
  8
Layer 1
370
     0
100
AcDb2dPolyline
 66
     1
 10
0.0
 20
0.0
 30
0.0
  0
VERTEX
  5
1F1
330
1F0
100
AcDbEntity
  8
Layer 1
370
     0
100
AcDbVertex
100
AcDb2dVertex
 10
106.587981472919
 20
-293.9806775523729
 30
0.0
  0
VERTEX
  5
1F2
330
1F0
100
AcDbEntity
  8
Layer 1
370
     0
100
AcDbVertex
100
AcDb2dVertex
 10
108.6481485730984
 20
-290.7402207389469
 30
0.0
  0
VERTEX
  5
1F3
330
1F0
100
AcDbEntity
  8
Layer 1
370
     0
100
AcDbVertex
100
AcDb2dVertex
 10
110.7083156732778
 20
-293.9806775523729
 30
0.0
  0
VERTEX
  5
1F4
330
1F0
100
AcDbEntity
  8
Layer 1
370
     0
100
AcDbVertex
100
AcDb2dVertex
 10
108.6481485730984
 20
-297.2211343657989
 30
0.0
  0
VERTEX
  5
1F5
330
1F0
100
AcDbEntity
  8
Layer 1
370
     0
100
AcDbVertex
100
AcDb2dVertex
 10
106.587981472919
 20
-293.9806775523729
 30
0.0
  0
SEQEND
  5
1F6
330
1F0
100
AcDbEntity
  8
Layer 1
370
     0
  0
POLYLINE
  5
1F7
330
1E4
100
AcDbEntity
  8
Layer 1
370
     0
100
AcDb2dPolyline
 66
     1
 10
0.0
 20
0.0
 30
0.0
  0
VERTEX
  5
1F8
330
1F7
100
AcDbEntity
  8
Layer 1
370
     0
100
AcDbVertex
100
AcDb2dVertex
 10
111.7535576435026
 20
-295.6246771179341
 30
0.0
  0
VERTEX
  5
1F9
330
1F7
100
AcDbEntity
  8
Layer 1
370
     0
100
AcDbVertex
100
AcDb2dVertex
 10
113.4352810046273
 20
-298.2698214315089
 30
0.0
  0
VERTEX
  5
1FA
330
1F7
100
AcDbEntity
  8
Layer 1
370
     0
100
AcDbVertex
100
AcDb2dVertex
 10
110.0718342823779
 20
-298.2698214315089
 30
0.0
  0
VERTEX
  5
1FB
330
1F7
100
AcDbEntity
  8
Layer 1
370
     0
100
AcDbVertex
100
AcDb2dVertex
 10
111.7535576435026
 20
-295.6246771179341
 30
0.0
  0
SEQEND
  5
1FC
330
1F7
100
AcDbEntity
  8
Layer 1
370
     0
  0
POLYLINE
  5
1FD
330
1E4
100
AcDbEntity
  8
Layer 1
370
     0
100
AcDb2dPolyline
 66
     1
 10
0.0
 20
0.0
 30
0.0
  0
VERTEX
  5
1FE
330
1FD
100
AcDbEntity
  8
Layer 1
370
     0
100
AcDbVertex
100
AcDb2dVertex
 10
112.7987996137274
 20
-293.9806775523729
 30
0.0
  0
VERTEX
  5
1FF
330
1FD
100
AcDbEntity
  8
Layer 1
370
     0
100
AcDbVertex
100
AcDb2dVertex
 10
114.8587944591325
 20
-290.7405652484954
 30
0.0
  0
VERTEX
  5
200
330
1FD
100
AcDbEntity
  8
Layer 1
370
     0
100
AcDbVertex
100
AcDb2dVertex
 10
116.9191338140862
 20
-293.9813665714699
 30
0.0
  0
VERTEX
  5
201
330
1FD
100
AcDbEntity
  8
Layer 1
370
     0
100
AcDbVertex
100
AcDb2dVertex
 10
114.8591389686811
 20
-297.2214788753474
 30
0.0
  0
VERTEX
  5
202
330
1FD
100
AcDbEntity
  8
Layer 1
370
     0
100
AcDbVertex
100
AcDb2dVertex
 10
112.7987996137274
 20
-293.9806775523729
 30
0.0
  0
SEQEND
  5
203
330
1FD
100
AcDbEntity
  8
Layer 1
370
     0
  0
POLYLINE
  5
204
330
1E4
100
AcDbEntity
  8
Layer 1
370
     0
100
AcDb2dPolyline
 66
     1
 10
0.0
 20
0.0
 30
0.0
  0
VERTEX
  5
205
330
204
100
AcDbEntity
  8
Layer 1
370
     0
100
AcDbVertex
100
AcDb2dVertex
 10
117.964375784311
 20
-295.6253661370312
 30
0.0
  0
VERTEX
  5
206
330
204
100
AcDbEntity
  8
Layer 1
370
     0
100
AcDbVertex
100
AcDb2dVertex
 10
119.6457546358872
 20
-298.2698214315089
 30
0.0
  0
VERTEX
  5
207
330
204
100
AcDbEntity
  8
Layer 1
370
     0
100
AcDbVertex
100
AcDb2dVertex
 10
116.2829969327348
 20
-298.2698214315089
 30
0.0
  0
VERTEX
  5
208
330
204
100
AcDbEntity
  8
Layer 1
370
     0
100
AcDbVertex
100
AcDb2dVertex
 10
117.964375784311
 20
-295.6253661370312
 30
0.0
  0
SEQEND
  5
209
330
204
100
AcDbEntity
  8
Layer 1
370
     0
  0
POLYLINE
  5
20A
330
1E4
100
AcDbEntity
  8
Layer 1
370
     0
100
AcDb2dPolyline
 66
     1
 10
0.0
 20
0.0
 30
0.0
  0
VERTEX
  5
20B
330
20A
100
AcDbEntity
  8
Layer 1
370
     0
100
AcDbVertex
100
AcDb2dVertex
 10
119.0096177545358
 20
-293.9813665714699
 30
0.0
  0
VERTEX
  5
20C
330
20A
100
AcDbEntity
  8
Layer 1
370
     0
100
AcDbVertex
100
AcDb2dVertex
 10
121.0699571094895
 20
-290.7405652484954
 30
0.0
  0
VERTEX
  5
20D
330
20A
100
AcDbEntity
  8
Layer 1
370
     0
100
AcDbVertex
100
AcDb2dVertex
 10
123.1299519548946
 20
-293.9806775523729
 30
0.0
  0
VERTEX
  5
20E
330
20A
100
AcDbEntity
  8
Layer 1
370
     0
100
AcDbVertex
100
AcDb2dVertex
 10
121.0696125999409
 20
-297.2214788753474
 30
0.0
  0
VERTEX
  5
20F
330
20A
100
AcDbEntity
  8
Layer 1
370
     0
100
AcDbVertex
100
AcDb2dVertex
 10
119.0096177545358
 20
-293.9813665714699
 30
0.0
  0
SEQEND
  5
210
330
20A
100
AcDbEntity
  8
Layer 1
370
     0
  0
POLYLINE
  5
211
330
1E4
100
AcDbEntity
  8
Layer 1
370
     0
100
AcDb2dPolyline
 66
     1
 10
0.0
 20
0.0
 30
0.0
  0
VERTEX
  5
212
330
211
100
AcDbEntity
  8
Layer 1
370
     0
100
AcDbVertex
100
AcDb2dVertex
 10
124.1751939251194
 20
-295.6246771179341
 30
0.0
  0
VERTEX
  5
213
330
211
100
AcDbEntity
  8
Layer 1
370
     0
100
AcDbVertex
100
AcDb2dVertex
 10
125.8569172862441
 20
-298.2698214315089
 30
0.0
  0
VERTEX
  5
214
330
211
100
AcDbEntity
  8
Layer 1
370
     0
100
AcDbVertex
100
AcDb2dVertex
 10
122.4934705639947
 20
-298.2698214315089
 30
0.0
  0
VERTEX
  5
215
330
211
100
AcDbEntity
  8
Layer 1
370
     0
100
AcDbVertex
100
AcDb2dVertex
 10
124.1751939251194
 20
-295.6246771179341
 30
0.0
  0
SEQEND
  5
216
330
211
100
AcDbEntity
  8
Layer 1
370
     0
  0
POLYLINE
  5
217
330
1E4
100
AcDbEntity
  8
Layer 1
370
     0
100
AcDb2dPolyline
 66
     1
 10
0.0
 20
0.0
 30
0.0
  0
VERTEX
  5
218
330
217
100
AcDbEntity
  8
Layer 1
370
     0
100
AcDbVertex
100
AcDb2dVertex
 10
125.2204358953442
 20
-293.9806775523729
 30
0.0
  0
VERTEX
  5
219
330
217
100
AcDbEntity
  8
Layer 1
370
     0
100
AcDbVertex
100
AcDb2dVertex
 10
127.2806029955236
 20
-290.7402207389469
 30
0.0
  0
VERTEX
  5
21A
330
217
100
AcDbEntity
  8
Layer 1
370
     0
100
AcDbVertex
100
AcDb2dVertex
 10
132.0677354270525
 20
-298.2698214315089
 30
0.0
  0
VERTEX
  5
21B
330
217
100
AcDbEntity
  8
Layer 1
370
     0
100
AcDbVertex
100
AcDb2dVertex
 10
127.9474012266937
 20
-298.2698214315089
 30
0.0
  0
VERTEX
  5
21C
330
217
100
AcDbEntity
  8
Layer 1
370
     0
100
AcDbVertex
100
AcDb2dVertex
 10
125.2204358953442
 20
-293.9806775523729
 30
0.0
  0
SEQEND
  5
21D
330
217
100
AcDbEntity
  8
Layer 1
370
     0
  0
POLYLINE
  5
21E
330
1E4
100
AcDbEntity
  8
Layer 1
370
     0
100
AcDb2dPolyline
 66
     1
 10
0.0
 20
0.0
 30
0.0
  0
VERTEX
  5
21F
330
21E
100
AcDbEntity
  8
Layer 1
370
     0
100
AcDbVertex
100
AcDb2dVertex
 10
124.1751939251194
 20
-292.3366779868117
 30
0.0
  0
VERTEX
  5
220
330
21E
100
AcDbEntity
  8
Layer 1
370
     0
100
AcDbVertex
100
AcDb2dVertex
 10
122.483824296636
 20
-289.6763752531018
 30
0.0
  0
VERTEX
  5
221
330
21E
100
AcDbEntity
  8
Layer 1
370
     0
100
AcDbVertex
100
AcDb2dVertex
 10
125.8665635536028
 20
-289.6763752531018
 30
0.0
  0
VERTEX
  5
222
330
21E
100
AcDbEntity
  8
Layer 1
370
     0
100
AcDbVertex
100
AcDb2dVertex
 10
124.1751939251194
 20
-292.3366779868117
 30
0.0
  0
SEQEND
  5
223
330
21E
100
AcDbEntity
  8
Layer 1
370
     0
  0
POLYLINE
  5
224
330
1E4
100
AcDbEntity
  8
Layer 1
370
     0
100
AcDb2dPolyline
 66
     1
 10
0.0
 20
0.0
 30
0.0
  0
VERTEX
  5
225
330
224
100
AcDbEntity
  8
Layer 1
370
     0
100
AcDbVertex
100
AcDb2dVertex
 10
117.964375784311
 20
-292.3373670059087
 30
0.0
  0
VERTEX
  5
226
330
224
100
AcDbEntity
  8
Layer 1
370
     0
100
AcDbVertex
100
AcDb2dVertex
 10
116.2726616462791
 20
-289.6763752531018
 30
0.0
  0
VERTEX
  5
227
330
224
100
AcDbEntity
  8
Layer 1
370
     0
100
AcDbVertex
100
AcDb2dVertex
 10
119.6560899223429
 20
-289.6763752531018
 30
0.0
  0
VERTEX
  5
228
330
224
100
AcDbEntity
  8
Layer 1
370
     0
100
AcDbVertex
100
AcDb2dVertex
 10
117.964375784311
 20
-292.3373670059087
 30
0.0
  0
SEQEND
  5
229
330
224
100
AcDbEntity
  8
Layer 1
370
     0
  0
POLYLINE
  5
22A
330
1E4
100
AcDbEntity
  8
Layer 1
370
     0
100
AcDb2dPolyline
 66
     1
 10
0.0
 20
0.0
 30
0.0
  0
VERTEX
  5
22B
330
22A
100
AcDbEntity
  8
Layer 1
370
     0
100
AcDbVertex
100
AcDb2dVertex
 10
111.7535576435026
 20
-292.3366779868117
 30
0.0
  0
VERTEX
  5
22C
330
22A
100
AcDbEntity
  8
Layer 1
370
     0
100
AcDbVertex
100
AcDb2dVertex
 10
110.0621880150192
 20
-289.6763752531018
 30
0.0
  0
VERTEX
  5
22D
330
22A
100
AcDbEntity
  8
Layer 1
370
     0
100
AcDbVertex
100
AcDb2dVertex
 10
113.444927271986
 20
-289.6763752531018
 30
0.0
  0
VERTEX
  5
22E
330
22A
100
AcDbEntity
  8
Layer 1
370
     0
100
AcDbVertex
100
AcDb2dVertex
 10
111.7535576435026
 20
-292.3366779868117
 30
0.0
  0
SEQEND
  5
22F
330
22A
100
AcDbEntity
  8
Layer 1
370
     0
  0
POLYLINE
  5
230
330
1E4
100
AcDbEntity
  8
Layer 1
370
     0
100
AcDb2dPolyline
 66
     1
 10
0.0
 20
0.0
 30
0.0
  0
VERTEX
  5
231
330
230
100
AcDbEntity
  8
Layer 1
370
     0
100
AcDbVertex
100
AcDb2dVertex
 10
105.5429117574684
 20
-292.3366779868117
 30
0.0
  0
VERTEX
  5
232
330
230
100
AcDbEntity
  8
Layer 1
370
     0
100
AcDbVertex
100
AcDb2dVertex
 10
103.851542128985
 20
-289.6763752531018
 30
0.0
  0
VERTEX
  5
233
330
230
100
AcDbEntity
  8
Layer 1
370
     0
100
AcDbVertex
100
AcDb2dVertex
 10
107.2342813859518
 20
-289.6763752531018
 30
0.0
  0
VERTEX
  5
234
330
230
100
AcDbEntity
  8
Layer 1
370
     0
100
AcDbVertex
100
AcDb2dVertex
 10
105.5429117574684
 20
-292.3366779868117
 30
0.0
  0
SEQEND
  5
235
330
230
100
AcDbEntity
  8
Layer 1
370
     0
  0
POLYLINE
  5
236
330
1E4
100
AcDbEntity
  8
Layer 1
370
     0
100
AcDb2dPolyline
 66
     1
 10
0.0
 20
0.0
 30
0.0
  0
VERTEX
  5
237
330
236
100
AcDbEntity
  8
Layer 1
370
     0
100
AcDbVertex
100
AcDb2dVertex
 10
104.4978420420179
 20
-293.9806775523729
 30
0.0
  0
VERTEX
  5
238
330
236
100
AcDbEntity
  8
Layer 1
370
     0
100
AcDbVertex
100
AcDb2dVertex
 10
102.4375026870642
 20
-297.2214788753474
 30
0.0
  0
VERTEX
  5
239
330
236
100
AcDbEntity
  8
Layer 1
370
     0
100
AcDbVertex
100
AcDb2dVertex
 10
97.64055173340236
 20
-289.6763752531018
 30
0.0
  0
VERTEX
  5
23A
330
236
100
AcDbEntity
  8
Layer 1
370
     0
100
AcDbVertex
100
AcDb2dVertex
 10
101.761402698084
 20
-289.6763752531018
 30
0.0
  0
VERTEX
  5
23B
330
236
100
AcDbEntity
  8
Layer 1
370
     0
100
AcDbVertex
100
AcDb2dVertex
 10
104.4978420420179
 20
-293.9806775523729
 30
0.0
  0
SEQEND
  5
23C
330
236
100
AcDbEntity
  8
Layer 1
370
     0
  0
POLYLINE
  5
23D
330
1E4
100
AcDbEntity
  8
Layer 1
370
     0
100
AcDb2dPolyline
 66
     1
 10
0.0
 20
0.0
 30
0.0
  0
VERTEX
  5
23E
330
23D
100
AcDbEntity
  8
Layer 1
370
     0
100
AcDbVertex
100
AcDb2dVertex
 10
101.0136447230105
 20
-298.2698214315089
 30
0.0
  0
VERTEX
  5
23F
330
23D
100
AcDbEntity
  8
Layer 1
370
     0
100
AcDbVertex
100
AcDb2dVertex
 10
96.8936550322002
 20
-298.2698214315089
 30
0.0
  0
VERTEX
  5
240
330
23D
100
AcDbEntity
  8
Layer 1
370
     0
100
AcDbVertex
100
AcDb2dVertex
 10
91.42973359259396
 20
-289.6763752531018
 30
0.0
  0
VERTEX
  5
241
330
23D
100
AcDbEntity
  8
Layer 1
370
     0
100
AcDbVertex
100
AcDb2dVertex
 10
95.55024004772703
 20
-289.6763752531018
 30
0.0
  0
VERTEX
  5
242
330
23D
100
AcDbEntity
  8
Layer 1
370
     0
100
AcDbVertex
100
AcDb2dVertex
 10
101.0136447230105
 20
-298.2698214315089
 30
0.0
  0
SEQEND
  5
243
330
23D
100
AcDbEntity
  8
Layer 1
370
     0
  0
POLYLINE
  5
244
330
1E4
100
AcDbEntity
  8
Layer 1
370
     0
100
AcDb2dPolyline
 66
     1
 10
0.0
 20
0.0
 30
0.0
  0
VERTEX
  5
245
330
244
100
AcDbEntity
  8
Layer 1
370
     0
100
AcDbVertex
100
AcDb2dVertex
 10
137.779186977274
 20
-298.2698214315089
 30
0.0
  0
VERTEX
  5
246
330
244
100
AcDbEntity
  8
Layer 1
370
     0
100
AcDbVertex
100
AcDb2dVertex
 10
134.1582193675021
 20
-298.2698214315089
 30
0.0
  0
VERTEX
  5
247
330
244
100
AcDbEntity
  8
Layer 1
370
     0
100
AcDbVertex
100
AcDb2dVertex
 10
128.6946424374444
 20
-289.6763752531018
 30
0.0
  0
VERTEX
  5
248
330
244
100
AcDbEntity
  8
Layer 1
370
     0
100
AcDbVertex
100
AcDb2dVertex
 10
137.779186977274
 20
-289.6763752531018
 30
0.0
  0
VERTEX
  5
249
330
244
100
AcDbEntity
  8
Layer 1
370
     0
100
AcDbVertex
100
AcDb2dVertex
 10
137.779186977274
 20
-298.2698214315089
 30
0.0
  0
SEQEND
  5
24A
330
244
100
AcDbEntity
  8
Layer 1
370
     0
  0
POLYLINE
  5
24B
330
1E4
100
AcDbEntity
  8
Layer 1
370
     0
100
AcDb2dPolyline
 66
     1
 10
0.0
 20
0.0
 30
0.0
  0
VERTEX
  5
24C
330
24B
100
AcDbEntity
  8
Layer 1
370
     0
100
AcDbVertex
100
AcDb2dVertex
 10
89.33942190691862
 20
-289.6763752531018
 30
0.0
  0
VERTEX
  5
24D
330
24B
100
AcDbEntity
  8
Layer 1
370
     0
100
AcDbVertex
100
AcDb2dVertex
 10
94.8031710917506
 20
-298.2698214315089
 30
0.0
  0
VERTEX
  5
24E
330
24B
100
AcDbEntity
  8
Layer 1
370
     0
100
AcDbVertex
100
AcDb2dVertex
 10
82.72483857523893
 20
-298.2698214315089
 30
0.0
  0
VERTEX
  5
24F
330
24B
100
AcDbEntity
  8
Layer 1
370
     0
100
AcDbVertex
100
AcDb2dVertex
 10
82.72483857523893
 20
-289.6763752531018
 30
0.0
  0
VERTEX
  5
250
330
24B
100
AcDbEntity
  8
Layer 1
370
     0
100
AcDbVertex
100
AcDb2dVertex
 10
89.33942190691862
 20
-289.6763752531018
 30
0.0
  0
SEQEND
  5
251
330
24B
100
AcDbEntity
  8
Layer 1
370
     0
  0
SPLINE
  5
252
330
1E4
100
AcDbEntity
  8
Layer 1
370
     0
100
AcDbSpline
210
0.0
220
0.0
230
1.0
 70
    11
 71
     3
 72
    65
 73
    61
 74
     0
 42
0.0000000001
 43
0.0000000001
 40
0.0
 40
0.0
 40
0.0
 40
0.0
 40
1.0
 40
1.0
 40
1.0
 40
2.0
 40
2.0
 40
2.0
 40
3.0
 40
3.0
 40
3.0
 40
4.0
 40
4.0
 40
4.0
 40
5.0
 40
5.0
 40
5.0
 40
6.0
 40
6.0
 40
6.0
 40
7.0
 40
7.0
 40
7.0
 40
8.0
 40
8.0
 40
8.0
 40
9.0
 40
9.0
 40
9.0
 40
10.0
 40
10.0
 40
10.0
 40
11.0
 40
11.0
 40
11.0
 40
12.0
 40
12.0
 40
12.0
 40
13.0
 40
13.0
 40
13.0
 40
14.0
 40
14.0
 40
14.0
 40
15.0
 40
15.0
 40
15.0
 40
16.0
 40
16.0
 40
16.0
 40
17.0
 40
17.0
 40
17.0
 40
18.0
 40
18.0
 40
18.0
 40
19.0
 40
19.0
 40
19.0
 40
20.0
 40
20.0
 40
20.0
 40
20.0
 10
238.6576117024884
 20
-287.6286104966692
 30
0.0
 10
238.6576117024884
 20
-287.6286104966692
 30
0.0
 10
234.5861978580201
 20
-291.0799071537925
 30
0.0
 10
234.5861978580201
 20
-291.0799071537925
 30
0.0
 10
234.5861978580201
 20
-291.0799071537925
 30
0.0
 10
209.5189940882453
 20
-291.0799071537925
 30
0.0
 10
209.5189940882453
 20
-291.0799071537925
 30
0.0
 10
209.5189940882453
 20
-291.0799071537925
 30
0.0
 10
209.5189940882453
 20
-288.9012287689205
 30
0.0
 10
209.5189940882453
 20
-288.9012287689205
 30
0.0
 10
209.5189940882453
 20
-288.9012287689205
 30
0.0
 10
206.4797308511579
 20
-288.9012287689205
 30
0.0
 10
206.4797308511579
 20
-288.9012287689205
 30
0.0
 10
206.4797308511579
 20
-288.9012287689205
 30
0.0
 10
206.4797308511579
 20
-287.0753281617381
 30
0.0
 10
206.4797308511579
 20
-287.0753281617381
 30
0.0
 10
206.4797308511579
 20
-287.0753281617381
 30
0.0
 10
179.2262694864434
 20
-287.0753281617381
 30
0.0
 10
179.2262694864434
 20
-287.0753281617381
 30
0.0
 10
176.8105685321863
 20
-287.0753281617381
 30
0.0
 10
174.8454860673997
 20
-289.0410996456217
 30
0.0
 10
174.8454860673997
 20
-291.4568005998789
 30
0.0
 10
174.8454860673997
 20
-291.4568005998789
 30
0.0
 10
174.8454860673997
 20
-296.4900851038289
 30
0.0
 10
174.8454860673997
 20
-296.4900851038289
 30
0.0
 10
174.8454860673997
 20
-298.9057860580861
 30
0.0
 10
176.8105685321863
 20
-300.8708685228726
 30
0.0
 10
179.2262694864434
 20
-300.8708685228726
 30
0.0
 10
179.2262694864434
 20
-300.8708685228726
 30
0.0
 10
206.4797308511579
 20
-300.8708685228726
 30
0.0
 10
206.4797308511579
 20
-300.8708685228726
 30
0.0
 10
206.4797308511579
 20
-300.8708685228726
 30
0.0
 10
206.4797308511579
 20
-299.0449679156902
 30
0.0
 10
206.4797308511579
 20
-299.0449679156902
 30
0.0
 10
206.4797308511579
 20
-299.0449679156902
 30
0.0
 10
209.5189940882453
 20
-299.0449679156902
 30
0.0
 10
209.5189940882453
 20
-299.0449679156902
 30
0.0
 10
209.5189940882453
 20
-299.0449679156902
 30
0.0
 10
209.5189940882453
 20
-296.8669785499152
 30
0.0
 10
209.5189940882453
 20
-296.8669785499152
 30
0.0
 10
209.5189940882453
 20
-296.8669785499152
 30
0.0
 10
234.9603352277182
 20
-296.8669785499152
 30
0.0
 10
234.9603352277182
 20
-296.8669785499152
 30
0.0
 10
234.9603352277182
 20
-296.8669785499152
 30
0.0
 10
238.66656895075
 20
-300.008905632463
 30
0.0
 10
238.66656895075
 20
-300.008905632463
 30
0.0
 10
238.66656895075
 20
-300.008905632463
 30
0.0
 10
250.5101182099419
 20
-297.559787251999
 30
0.0
 10
250.5101182099419
 20
-297.559787251999
 30
0.0
 10
250.5101182099419
 20
-297.559787251999
 30
0.0
 10
250.5101182099419
 20
-294.7468667882924
 30
0.0
 10
250.5101182099419
 20
-294.7468667882924
 30
0.0
 10
250.5101182099419
 20
-294.7468667882924
 30
0.0
 10
250.5101182099419
 20
-292.8823811116753
 30
0.0
 10
250.5101182099419
 20
-292.8823811116753
 30
0.0
 10
250.5101182099419
 20
-292.8823811116753
 30
0.0
 10
250.5101182099419
 20
-289.8186576966426
 30
0.0
 10
250.5101182099419
 20
-289.8186576966426
 30
0.0
 10
250.5101182099419
 20
-289.8186576966426
 30
0.0
 10
238.6576117024884
 20
-287.6286104966692
 30
0.0
 10
238.6576117024884
 20
-287.6286104966692
 30
0.0
  0
SPLINE
  5
253
330
1E4
100
AcDbEntity
  8
Layer 1
370
     0
100
AcDbSpline
210
0.0
220
0.0
230
1.0
 70
    11
 71
     3
 72
    53
 73
    49
 74
     0
 42
0.0000000001
 43
0.0000000001
 40
0.0
 40
0.0
 40
0.0
 40
0.0
 40
1.0
 40
1.0
 40
1.0
 40
2.0
 40
2.0
 40
2.0
 40
3.0
 40
3.0
 40
3.0
 40
4.0
 40
4.0
 40
4.0
 40
5.0
 40
5.0
 40
5.0
 40
6.0
 40
6.0
 40
6.0
 40
7.0
 40
7.0
 40
7.0
 40
8.0
 40
8.0
 40
8.0
 40
9.0
 40
9.0
 40
9.0
 40
10.0
 40
10.0
 40
10.0
 40
11.0
 40
11.0
 40
11.0
 40
12.0
 40
12.0
 40
12.0
 40
13.0
 40
13.0
 40
13.0
 40
14.0
 40
14.0
 40
14.0
 40
15.0
 40
15.0
 40
15.0
 40
16.0
 40
16.0
 40
16.0
 40
16.0
 10
204.7158419627099
 20
-299.1069796344246
 30
0.0
 10
204.7158419627099
 20
-299.1069796344246
 30
0.0
 10
179.2262694864434
 20
-299.1069796344246
 30
0.0
 10
179.2262694864434
 20
-299.1069796344246
 30
0.0
 10
178.0928330717962
 20
-299.1069796344246
 30
0.0
 10
177.1288953550233
 20
-298.381442525231
 30
0.0
 10
176.765782290878
 20
-297.3720295480529
 30
0.0
 10
176.765782290878
 20
-297.3720295480529
 30
0.0
 10
196.4028265568021
 20
-297.3720295480529
 30
0.0
 10
196.4028265568021
 20
-297.3720295480529
 30
0.0
 10
196.8899630584164
 20
-297.3720295480529
 30
0.0
 10
197.284771001026
 20
-296.9772216054432
 30
0.0
 10
197.284771001026
 20
-296.4900851038289
 30
0.0
 10
197.284771001026
 20
-296.0029486022145
 30
0.0
 10
196.8899630584164
 20
-295.6081406596049
 30
0.0
 10
196.4028265568021
 20
-295.6081406596049
 30
0.0
 10
196.4028265568021
 20
-295.6081406596049
 30
0.0
 10
176.6093749558477
 20
-295.6081406596049
 30
0.0
 10
176.6093749558477
 20
-295.6081406596049
 30
0.0
 10
176.6093749558477
 20
-295.6081406596049
 30
0.0
 10
176.6093749558477
 20
-292.3387450441028
 30
0.0
 10
176.6093749558477
 20
-292.3387450441028
 30
0.0
 10
176.6093749558477
 20
-292.3387450441028
 30
0.0
 10
196.4028265568021
 20
-292.3387450441028
 30
0.0
 10
196.4028265568021
 20
-292.3387450441028
 30
0.0
 10
196.8899630584164
 20
-292.3387450441028
 30
0.0
 10
197.284771001026
 20
-291.9439371014932
 30
0.0
 10
197.284771001026
 20
-291.4568005998789
 30
0.0
 10
197.284771001026
 20
-290.9696640982646
 30
0.0
 10
196.8899630584164
 20
-290.5748561556549
 30
0.0
 10
196.4028265568021
 20
-290.5748561556549
 30
0.0
 10
196.4028265568021
 20
-290.5748561556549
 30
0.0
 10
176.765093271781
 20
-290.5748561556549
 30
0.0
 10
176.765093271781
 20
-290.5748561556549
 30
0.0
 10
177.1282063359263
 20
-289.5647541593797
 30
0.0
 10
178.0928330717962
 20
-288.8392170501861
 30
0.0
 10
179.2262694864434
 20
-288.8392170501861
 30
0.0
 10
179.2262694864434
 20
-288.8392170501861
 30
0.0
 10
204.7158419627099
 20
-288.8392170501861
 30
0.0
 10
204.7158419627099
 20
-288.8392170501861
 30
0.0
 10
204.7158419627099
 20
-288.8392170501861
 30
0.0
 10
204.7158419627099
 20
-288.9012287689205
 30
0.0
 10
204.7158419627099
 20
-288.9012287689205
 30
0.0
 10
204.7158419627099
 20
-288.9012287689205
 30
0.0
 10
204.7158419627099
 20
-299.0449679156902
 30
0.0
 10
204.7158419627099
 20
-299.0449679156902
 30
0.0
 10
204.7158419627099
 20
-299.0449679156902
 30
0.0
 10
204.7158419627099
 20
-299.1069796344246
 30
0.0
 10
204.7158419627099
 20
-299.1069796344246
 30
0.0
  0
POLYLINE
  5
254
330
1E4
100
AcDbEntity
  8
Layer 1
370
     0
100
AcDb2dPolyline
 66
     1
 10
0.0
 20
0.0
 30
0.0
  0
VERTEX
  5
255
330
254
100
AcDbEntity
  8
Layer 1
370
     0
100
AcDbVertex
100
AcDb2dVertex
 10
207.7551051997974
 20
-297.2810790272422
 30
0.0
  0
VERTEX
  5
256
330
254
100
AcDbEntity
  8
Layer 1
370
     0
100
AcDbVertex
100
AcDb2dVertex
 10
206.4797308511579
 20
-297.2810790272422
 30
0.0
  0
VERTEX
  5
257
330
254
100
AcDbEntity
  8
Layer 1
370
     0
100
AcDbVertex
100
AcDb2dVertex
 10
206.4797308511579
 20
-290.6651176573685
 30
0.0
  0
VERTEX
  5
258
330
254
100
AcDbEntity
  8
Layer 1
370
     0
100
AcDbVertex
100
AcDb2dVertex
 10
207.7551051997974
 20
-290.6651176573685
 30
0.0
  0
VERTEX
  5
259
330
254
100
AcDbEntity
  8
Layer 1
370
     0
100
AcDbVertex
100
AcDb2dVertex
 10
207.7551051997974
 20
-291.0799071537925
 30
0.0
  0
VERTEX
  5
25A
330
254
100
AcDbEntity
  8
Layer 1
370
     0
100
AcDbVertex
100
AcDb2dVertex
 10
207.7551051997974
 20
-296.8669785499152
 30
0.0
  0
VERTEX
  5
25B
330
254
100
AcDbEntity
  8
Layer 1
370
     0
100
AcDbVertex
100
AcDb2dVertex
 10
207.7551051997974
 20
-297.2810790272422
 30
0.0
  0
SEQEND
  5
25C
330
254
100
AcDbEntity
  8
Layer 1
370
     0
  0
POLYLINE
  5
25D
330
1E4
100
AcDbEntity
  8
Layer 1
370
     0
100
AcDb2dPolyline
 66
     1
 10
0.0
 20
0.0
 30
0.0
  0
VERTEX
  5
25E
330
25D
100
AcDbEntity
  8
Layer 1
370
     0
100
AcDbVertex
100
AcDb2dVertex
 10
234.0866590126589
 20
-295.1030896614673
 30
0.0
  0
VERTEX
  5
25F
330
25D
100
AcDbEntity
  8
Layer 1
370
     0
100
AcDbVertex
100
AcDb2dVertex
 10
209.5189940882453
 20
-295.1030896614673
 30
0.0
  0
VERTEX
  5
260
330
25D
100
AcDbEntity
  8
Layer 1
370
     0
100
AcDbVertex
100
AcDb2dVertex
 10
209.5189940882453
 20
-292.8437960422405
 30
0.0
  0
VERTEX
  5
261
330
25D
100
AcDbEntity
  8
Layer 1
370
     0
100
AcDbVertex
100
AcDb2dVertex
 10
234.0866590126589
 20
-292.8437960422405
 30
0.0
  0
VERTEX
  5
262
330
25D
100
AcDbEntity
  8
Layer 1
370
     0
100
AcDbVertex
100
AcDb2dVertex
 10
234.0866590126589
 20
-295.1030896614673
 30
0.0
  0
SEQEND
  5
263
330
25D
100
AcDbEntity
  8
Layer 1
370
     0
  0
POLYLINE
  5
264
330
1E4
100
AcDbEntity
  8
Layer 1
370
     0
100
AcDb2dPolyline
 66
     1
 10
0.0
 20
0.0
 30
0.0
  0
VERTEX
  5
265
330
264
100
AcDbEntity
  8
Layer 1
370
     0
100
AcDbVertex
100
AcDb2dVertex
 10
248.746229321494
 20
-296.1231824346498
 30
0.0
  0
VERTEX
  5
266
330
264
100
AcDbEntity
  8
Layer 1
370
     0
100
AcDbVertex
100
AcDb2dVertex
 10
239.1516383950732
 20
-298.1072129246052
 30
0.0
  0
VERTEX
  5
267
330
264
100
AcDbEntity
  8
Layer 1
370
     0
100
AcDbVertex
100
AcDb2dVertex
 10
235.8505479011068
 20
-295.3091063714853
 30
0.0
  0
VERTEX
  5
268
330
264
100
AcDbEntity
  8
Layer 1
370
     0
100
AcDbVertex
100
AcDb2dVertex
 10
235.8505479011068
 20
-292.3208305475795
 30
0.0
  0
VERTEX
  5
269
330
264
100
AcDbEntity
  8
Layer 1
370
     0
100
AcDbVertex
100
AcDb2dVertex
 10
239.1599066242378
 20
-289.5151447843921
 30
0.0
  0
VERTEX
  5
26A
330
264
100
AcDbEntity
  8
Layer 1
370
     0
100
AcDbVertex
100
AcDb2dVertex
 10
248.746229321494
 20
-291.2866128829075
 30
0.0
  0
VERTEX
  5
26B
330
264
100
AcDbEntity
  8
Layer 1
370
     0
100
AcDbVertex
100
AcDb2dVertex
 10
248.746229321494
 20
-292.8823811116753
 30
0.0
  0
VERTEX
  5
26C
330
264
100
AcDbEntity
  8
Layer 1
370
     0
100
AcDbVertex
100
AcDb2dVertex
 10
248.746229321494
 20
-294.7468667882924
 30
0.0
  0
VERTEX
  5
26D
330
264
100
AcDbEntity
  8
Layer 1
370
     0
100
AcDbVertex
100
AcDb2dVertex
 10
248.746229321494
 20
-296.1231824346498
 30
0.0
  0
SEQEND
  5
26E
330
264
100
AcDbEntity
  8
Layer 1
370
     0
  0
ENDBLK
  5
1E7
330
1E4
100
AcDbEntity
  8
0
100
AcDbBlockEnd
  0
BLOCK
  5
271
330
26F
100
AcDbEntity
  8
0
100
AcDbBlockBegin
  2
block 11
 70
     0
 71
     0
 10
0.0
 20
0.0
 30
0.0
  3
block 11
  1

  0
POLYLINE
  5
273
330
26F
100
AcDbEntity
  8
Layer 1
370
     0
100
AcDb2dPolyline
 66
     1
 10
0.0
 20
0.0
 30
0.0
  0
VERTEX
  5
274
330
273
100
AcDbEntity
  8
Layer 1
370
     0
100
AcDbVertex
100
AcDb2dVertex
 10
293.5000867321805
 20
-387.8846787224733
 30
0.0
  0
VERTEX
  5
275
330
273
100
AcDbEntity
  8
Layer 1
370
     0
100
AcDbVertex
100
AcDb2dVertex
 10
3.500044758239572
 20
-387.8846787224733
 30
0.0
  0
VERTEX
  5
276
330
273
100
AcDbEntity
  8
Layer 1
370
     0
100
AcDbVertex
100
AcDb2dVertex
 10
3.500044758239572
 20
-327.8842067322651
 30
0.0
  0
VERTEX
  5
277
330
273
100
AcDbEntity
  8
Layer 1
370
     0
100
AcDbVertex
100
AcDb2dVertex
 10
293.5000867321805
 20
-327.8842067322651
 30
0.0
  0
VERTEX
  5
278
330
273
100
AcDbEntity
  8
Layer 1
370
     0
100
AcDbVertex
100
AcDb2dVertex
 10
293.5000867321805
 20
-387.8846787224733
 30
0.0
  0
SEQEND
  5
279
330
273
100
AcDbEntity
  8
Layer 1
370
     0
  0
HATCH
  5
27A
330
26F
100
AcDbEntity
  8
Layer 1
 62
     7
420
 16777215
100
AcDbHatch
 10
0.0
 20
0.0
 30
0.0
210
0.0
220
0.0
230
1.0
  2
SOLID
 70
     1
 71
     0
 91
        1
 92
        1
 93
        4
 72
     1
 10
293.5000867321805
 20
-387.8846787224733
 11
3.500044758239596
 21
-387.8846787224733
 72
     1
 10
3.500044758239572
 20
-387.8846787224733
 11
3.500044758239572
 21
-327.8842067322651
 72
     1
 10
3.500044758239572
 20
-327.8842067322651
 11
293.5000867321805
 21
-327.8842067322651
 72
     1
 10
293.5000867321805
 20
-327.8842067322651
 11
293.5000867321805
 21
-387.8846787224733
 97
        0
 75
     2
 76
     1
 98
        0
  0
ENDBLK
  5
272
330
26F
100
AcDbEntity
  8
0
100
AcDbBlockEnd
  0
BLOCK
  5
27D
330
27B
100
AcDbEntity
  8
0
100
AcDbBlockBegin
  2
block 12
 70
     0
 71
     0
 10
0.0
 20
0.0
 30
0.0
  3
block 12
  1

  0
POLYLINE
  5
27F
330
27B
100
AcDbEntity
  8
Layer 1
370
     0
100
AcDb2dPolyline
 66
     1
 10
0.0
 20
0.0
 30
0.0
  0
VERTEX
  5
280
330
27F
100
AcDbEntity
  8
Layer 1
370
     0
100
AcDbVertex
100
AcDb2dVertex
 10
115.2010646955921
 20
-351.3642550119853
 30
0.0
  0
VERTEX
  5
281
330
27F
100
AcDbEntity
  8
Layer 1
370
     0
100
AcDbVertex
100
AcDb2dVertex
 10
109.5862480737319
 20
-341.4647731351199
 30
0.0
  0
VERTEX
  5
282
330
27F
100
AcDbEntity
  8
Layer 1
370
     0
100
AcDbVertex
100
AcDb2dVertex
 10
103.2765556924968
 20
-341.4647731351199
 30
0.0
  0
VERTEX
  5
283
330
27F
100
AcDbEntity
  8
Layer 1
370
     0
100
AcDbVertex
100
AcDb2dVertex
 10
103.2765556924968
 20
-354.400417663136
 30
0.0
  0
VERTEX
  5
284
330
27F
100
AcDbEntity
  8
Layer 1
370
     0
100
AcDbVertex
100
AcDb2dVertex
 10
46.83831243403695
 20
-354.400417663136
 30
0.0
  0
VERTEX
  5
285
330
27F
100
AcDbEntity
  8
Layer 1
370
     0
100
AcDbVertex
100
AcDb2dVertex
 10
46.83831243403695
 20
-366.2880641445391
 30
0.0
  0
VERTEX
  5
286
330
27F
100
AcDbEntity
  8
Layer 1
370
     0
100
AcDbVertex
100
AcDb2dVertex
 10
103.2765556924968
 20
-366.2880641445391
 30
0.0
  0
VERTEX
  5
287
330
27F
100
AcDbEntity
  8
Layer 1
370
     0
100
AcDbVertex
100
AcDb2dVertex
 10
103.2765556924968
 20
-374.3034233005214
 30
0.0
  0
VERTEX
  5
288
330
27F
100
AcDbEntity
  8
Layer 1
370
     0
100
AcDbVertex
100
AcDb2dVertex
 10
115.2010646955921
 20
-374.3034233005214
 30
0.0
  0
VERTEX
  5
289
330
27F
100
AcDbEntity
  8
Layer 1
370
     0
100
AcDbVertex
100
AcDb2dVertex
 10
115.2010646955921
 20
-366.2880641445391
 30
0.0
  0
VERTEX
  5
28A
330
27F
100
AcDbEntity
  8
Layer 1
370
     0
100
AcDbVertex
100
AcDb2dVertex
 10
117.8303615699348
 20
-366.2880641445391
 30
0.0
  0
VERTEX
  5
28B
330
27F
100
AcDbEntity
  8
Layer 1
370
     0
100
AcDbVertex
100
AcDb2dVertex
 10
117.8303615699348
 20
-354.400417663136
 30
0.0
  0
VERTEX
  5
28C
330
27F
100
AcDbEntity
  8
Layer 1
370
     0
100
AcDbVertex
100
AcDb2dVertex
 10
115.2010646955921
 20
-354.400417663136
 30
0.0
  0
VERTEX
  5
28D
330
27F
100
AcDbEntity
  8
Layer 1
370
     0
100
AcDbVertex
100
AcDb2dVertex
 10
115.2010646955921
 20
-351.3642550119853
 30
0.0
  0
SEQEND
  5
28E
330
27F
100
AcDbEntity
  8
Layer 1
370
     0
  0
POLYLINE
  5
28F
330
27B
100
AcDbEntity
  8
Layer 1
370
     0
100
AcDb2dPolyline
 66
     1
 10
0.0
 20
0.0
 30
0.0
  0
VERTEX
  5
290
330
28F
100
AcDbEntity
  8
Layer 1
370
     0
100
AcDbVertex
100
AcDb2dVertex
 10
48.60220132248487
 20
-364.5241752560912
 30
0.0
  0
VERTEX
  5
291
330
28F
100
AcDbEntity
  8
Layer 1
370
     0
100
AcDbVertex
100
AcDb2dVertex
 10
48.60220132248487
 20
-356.1643065515839
 30
0.0
  0
VERTEX
  5
292
330
28F
100
AcDbEntity
  8
Layer 1
370
     0
100
AcDbVertex
100
AcDb2dVertex
 10
103.2765556924968
 20
-356.1643065515839
 30
0.0
  0
VERTEX
  5
293
330
28F
100
AcDbEntity
  8
Layer 1
370
     0
100
AcDbVertex
100
AcDb2dVertex
 10
103.2765556924968
 20
-364.5241752560912
 30
0.0
  0
VERTEX
  5
294
330
28F
100
AcDbEntity
  8
Layer 1
370
     0
100
AcDbVertex
100
AcDb2dVertex
 10
48.60220132248487
 20
-364.5241752560912
 30
0.0
  0
SEQEND
  5
295
330
28F
100
AcDbEntity
  8
Layer 1
370
     0
  0
POLYLINE
  5
296
330
27B
100
AcDbEntity
  8
Layer 1
370
     0
100
AcDb2dPolyline
 66
     1
 10
0.0
 20
0.0
 30
0.0
  0
VERTEX
  5
297
330
296
100
AcDbEntity
  8
Layer 1
370
     0
100
AcDbVertex
100
AcDb2dVertex
 10
113.4371758071442
 20
-372.5395344120735
 30
0.0
  0
VERTEX
  5
298
330
296
100
AcDbEntity
  8
Layer 1
370
     0
100
AcDbVertex
100
AcDb2dVertex
 10
105.0404445809448
 20
-372.5395344120735
 30
0.0
  0
VERTEX
  5
299
330
296
100
AcDbEntity
  8
Layer 1
370
     0
100
AcDbVertex
100
AcDb2dVertex
 10
105.0404445809448
 20
-366.2880641445391
 30
0.0
  0
VERTEX
  5
29A
330
296
100
AcDbEntity
  8
Layer 1
370
     0
100
AcDbVertex
100
AcDb2dVertex
 10
105.0404445809448
 20
-354.400417663136
 30
0.0
  0
VERTEX
  5
29B
330
296
100
AcDbEntity
  8
Layer 1
370
     0
100
AcDbVertex
100
AcDb2dVertex
 10
105.0404445809448
 20
-343.2286620235678
 30
0.0
  0
VERTEX
  5
29C
330
296
100
AcDbEntity
  8
Layer 1
370
     0
100
AcDbVertex
100
AcDb2dVertex
 10
108.5589206000304
 20
-343.2286620235678
 30
0.0
  0
VERTEX
  5
29D
330
296
100
AcDbEntity
  8
Layer 1
370
     0
100
AcDbVertex
100
AcDb2dVertex
 10
113.4371758071442
 20
-351.8296874120426
 30
0.0
  0
VERTEX
  5
29E
330
296
100
AcDbEntity
  8
Layer 1
370
     0
100
AcDbVertex
100
AcDb2dVertex
 10
113.4371758071442
 20
-354.400417663136
 30
0.0
  0
VERTEX
  5
29F
330
296
100
AcDbEntity
  8
Layer 1
370
     0
100
AcDbVertex
100
AcDb2dVertex
 10
113.4371758071442
 20
-366.2880641445391
 30
0.0
  0
VERTEX
  5
2A0
330
296
100
AcDbEntity
  8
Layer 1
370
     0
100
AcDbVertex
100
AcDb2dVertex
 10
113.4371758071442
 20
-372.5395344120735
 30
0.0
  0
SEQEND
  5
2A1
330
296
100
AcDbEntity
  8
Layer 1
370
     0
  0
POLYLINE
  5
2A2
330
27B
100
AcDbEntity
  8
Layer 1
370
     0
100
AcDb2dPolyline
 66
     1
 10
0.0
 20
0.0
 30
0.0
  0
VERTEX
  5
2A3
330
2A2
100
AcDbEntity
  8
Layer 1
370
     0
100
AcDbVertex
100
AcDb2dVertex
 10
116.0664726814869
 20
-356.1643065515839
 30
0.0
  0
VERTEX
  5
2A4
330
2A2
100
AcDbEntity
  8
Layer 1
370
     0
100
AcDbVertex
100
AcDb2dVertex
 10
116.0664726814869
 20
-364.5241752560912
 30
0.0
  0
VERTEX
  5
2A5
330
2A2
100
AcDbEntity
  8
Layer 1
370
     0
100
AcDbVertex
100
AcDb2dVertex
 10
115.2010646955921
 20
-364.5241752560912
 30
0.0
  0
VERTEX
  5
2A6
330
2A2
100
AcDbEntity
  8
Layer 1
370
     0
100
AcDbVertex
100
AcDb2dVertex
 10
115.2010646955921
 20
-356.1643065515839
 30
0.0
  0
VERTEX
  5
2A7
330
2A2
100
AcDbEntity
  8
Layer 1
370
     0
100
AcDbVertex
100
AcDb2dVertex
 10
116.0664726814869
 20
-356.1643065515839
 30
0.0
  0
SEQEND
  5
2A8
330
2A2
100
AcDbEntity
  8
Layer 1
370
     0
  0
SPLINE
  5
2A9
330
27B
100
AcDbEntity
  8
Layer 1
370
     0
100
AcDbSpline
210
0.0
220
0.0
230
1.0
 70
    11
 71
     3
 72
   113
 73
   109
 74
     0
 42
0.0000000001
 43
0.0000000001
 40
0.0
 40
0.0
 40
0.0
 40
0.0
 40
1.0
 40
1.0
 40
1.0
 40
2.0
 40
2.0
 40
2.0
 40
3.0
 40
3.0
 40
3.0
 40
4.0
 40
4.0
 40
4.0
 40
5.0
 40
5.0
 40
5.0
 40
6.0
 40
6.0
 40
6.0
 40
7.0
 40
7.0
 40
7.0
 40
8.0
 40
8.0
 40
8.0
 40
9.0
 40
9.0
 40
9.0
 40
10.0
 40
10.0
 40
10.0
 40
11.0
 40
11.0
 40
11.0
 40
12.0
 40
12.0
 40
12.0
 40
13.0
 40
13.0
 40
13.0
 40
14.0
 40
14.0
 40
14.0
 40
15.0
 40
15.0
 40
15.0
 40
16.0
 40
16.0
 40
16.0
 40
17.0
 40
17.0
 40
17.0
 40
18.0
 40
18.0
 40
18.0
 40
19.0
 40
19.0
 40
19.0
 40
20.0
 40
20.0
 40
20.0
 40
21.0
 40
21.0
 40
21.0
 40
22.0
 40
22.0
 40
22.0
 40
23.0
 40
23.0
 40
23.0
 40
24.0
 40
24.0
 40
24.0
 40
25.0
 40
25.0
 40
25.0
 40
26.0
 40
26.0
 40
26.0
 40
27.0
 40
27.0
 40
27.0
 40
28.0
 40
28.0
 40
28.0
 40
29.0
 40
29.0
 40
29.0
 40
30.0
 40
30.0
 40
30.0
 40
31.0
 40
31.0
 40
31.0
 40
32.0
 40
32.0
 40
32.0
 40
33.0
 40
33.0
 40
33.0
 40
34.0
 40
34.0
 40
34.0
 40
35.0
 40
35.0
 40
35.0
 40
36.0
 40
36.0
 40
36.0
 40
36.0
 10
233.0855142646453
 20
-368.1446261015403
 30
0.0
 10
233.0986056274892
 20
-368.0843369305484
 30
0.0
 10
233.1061848375568
 20
-368.0219807022654
 30
0.0
 10
233.1061848375568
 20
-367.9575574166912
 30
0.0
 10
233.1061848375568
 20
-367.9575574166912
 30
0.0
 10
233.1061848375568
 20
-347.8106390189502
 30
0.0
 10
233.1061848375568
 20
-347.8106390189502
 30
0.0
 10
233.1061848375568
 20
-347.7465602429245
 30
0.0
 10
233.0986056274892
 20
-347.6842040146415
 30
0.0
 10
233.0855142646453
 20
-347.6239148436496
 30
0.0
 10
233.0827581882571
 20
-347.6135795571938
 30
0.0
 10
233.0786240736748
 20
-347.6039332898351
 30
0.0
 10
233.0758679972866
 20
-347.5935980033794
 30
0.0
 10
233.0613985962486
 20
-347.5364094183242
 30
0.0
 10
233.0414170424341
 20
-347.4812878905602
 30
0.0
 10
233.0159233358432
 20
-347.4289224391845
 30
0.0
 10
233.011789221261
 20
-347.4209987195684
 30
0.0
 10
233.0111002021639
 20
-347.4123859808553
 30
0.0
 10
233.0069660875816
 20
-347.4041177516906
 30
0.0
 10
233.0069660875816
 20
-347.4041177516906
 30
0.0
 10
229.7479057585353
 20
-341.1292208348566
 30
0.0
 10
229.7479057585353
 20
-341.1292208348566
 30
0.0
 10
229.5956325380872
 20
-340.8370767377074
 30
0.0
 10
229.2945311926764
 20
-340.6537976578921
 30
0.0
 10
228.9651800642865
 20
-340.6537976578921
 30
0.0
 10
228.9651800642865
 20
-340.6537976578921
 30
0.0
 10
215.981993218574
 20
-340.6537976578921
 30
0.0
 10
215.981993218574
 20
-340.6537976578921
 30
0.0
 10
215.6526420901841
 20
-340.6537976578921
 30
0.0
 10
215.3508517256762
 20
-340.8370767377074
 30
0.0
 10
215.1992675243252
 20
-341.1292208348566
 30
0.0
 10
215.1992675243252
 20
-341.1292208348566
 30
0.0
 10
211.9402071952788
 20
-347.4041177516906
 30
0.0
 10
211.9402071952788
 20
-347.4041177516906
 30
0.0
 10
211.9360730806966
 20
-347.4123859808553
 30
0.0
 10
211.9346950425025
 20
-347.4209987195684
 30
0.0
 10
211.9312499470172
 20
-347.4289224391845
 30
0.0
 10
211.9057562404263
 20
-347.4812878905602
 30
0.0
 10
211.8857746866119
 20
-347.5360649087757
 30
0.0
 10
211.8713052855738
 20
-347.5935980033794
 30
0.0
 10
211.8685492091857
 20
-347.6039332898351
 30
0.0
 10
211.8637260755063
 20
-347.6135795571938
 30
0.0
 10
211.8616590182152
 20
-347.6239148436496
 30
0.0
 10
211.8485676553712
 20
-347.6842040146415
 30
0.0
 10
211.8409884453037
 20
-347.7465602429245
 30
0.0
 10
211.8409884453037
 20
-347.8106390189502
 30
0.0
 10
211.8409884453037
 20
-347.8106390189502
 30
0.0
 10
211.8409884453037
 20
-354.6153916214156
 30
0.0
 10
211.8409884453037
 20
-354.6153916214156
 30
0.0
 10
211.8409884453037
 20
-354.6153916214156
 30
0.0
 10
194.801546175258
 20
-354.6153916214156
 30
0.0
 10
194.801546175258
 20
-354.6153916214156
 30
0.0
 10
194.801546175258
 20
-354.6153916214156
 30
0.0
 10
194.801546175258
 20
-351.9406194866676
 30
0.0
 10
194.801546175258
 20
-351.9406194866676
 30
0.0
 10
194.801546175258
 20
-351.9406194866676
 30
0.0
 10
155.6507920617817
 20
-351.9406194866676
 30
0.0
 10
155.6507920617817
 20
-351.9406194866676
 30
0.0
 10
155.6507920617817
 20
-351.9406194866676
 30
0.0
 10
155.6507920617817
 20
-363.8282659680708
 30
0.0
 10
155.6507920617817
 20
-363.8282659680708
 30
0.0
 10
155.6507920617817
 20
-363.8282659680708
 30
0.0
 10
194.801546175258
 20
-363.8282659680708
 30
0.0
 10
194.801546175258
 20
-363.8282659680708
 30
0.0
 10
194.801546175258
 20
-363.8282659680708
 30
0.0
 10
194.801546175258
 20
-361.1534938333227
 30
0.0
 10
194.801546175258
 20
-361.1534938333227
 30
0.0
 10
194.801546175258
 20
-361.1534938333227
 30
0.0
 10
211.8409884453037
 20
-361.1534938333227
 30
0.0
 10
211.8409884453037
 20
-361.1534938333227
 30
0.0
 10
211.8409884453037
 20
-361.1534938333227
 30
0.0
 10
211.8409884453037
 20
-367.9575574166912
 30
0.0
 10
211.8409884453037
 20
-367.9575574166912
 30
0.0
 10
211.8409884453037
 20
-368.0219807022654
 30
0.0
 10
211.8485676553712
 20
-368.0843369305484
 30
0.0
 10
211.8616590182152
 20
-368.1446261015403
 30
0.0
 10
211.8637260755063
 20
-368.154961387996
 30
0.0
 10
211.8685492091857
 20
-368.1642631458062
 30
0.0
 10
211.8706162664768
 20
-368.1742539227134
 30
0.0
 10
211.8857746866119
 20
-368.2321315268656
 30
0.0
 10
211.9057562404263
 20
-368.2869085450811
 30
0.0
 10
211.9312499470172
 20
-368.3392739964569
 30
0.0
 10
211.9346950425025
 20
-368.3475422256215
 30
0.0
 10
211.9360730806966
 20
-368.3561549643346
 30
0.0
 10
211.9402071952788
 20
-368.3640786839507
 30
0.0
 10
211.9402071952788
 20
-368.3640786839507
 30
0.0
 10
215.1992675243252
 20
-374.6396646198818
 30
0.0
 10
215.1992675243252
 20
-374.6396646198818
 30
0.0
 10
215.3508517256762
 20
-374.9318087170309
 30
0.0
 10
215.6526420901841
 20
-375.1150877968462
 30
0.0
 10
215.981993218574
 20
-375.1150877968462
 30
0.0
 10
215.981993218574
 20
-375.1150877968462
 30
0.0
 10
228.9651800642865
 20
-375.1150877968462
 30
0.0
 10
228.9651800642865
 20
-375.1150877968462
 30
0.0
 10
229.2945311926764
 20
-375.1150877968462
 30
0.0
 10
229.5963215571843
 20
-374.9318087170309
 30
0.0
 10
229.7479057585353
 20
-374.6396646198818
 30
0.0
 10
229.7479057585353
 20
-374.6396646198818
 30
0.0
 10
233.0069660875816
 20
-368.3640786839507
 30
0.0
 10
233.0069660875816
 20
-368.3640786839507
 30
0.0
 10
233.0111002021639
 20
-368.3561549643346
 30
0.0
 10
233.011789221261
 20
-368.3475422256215
 30
0.0
 10
233.0159233358432
 20
-368.3392739964569
 30
0.0
 10
233.0414170424341
 20
-368.2869085450811
 30
0.0
 10
233.0613985962486
 20
-368.2317870173171
 30
0.0
 10
233.0758679972866
 20
-368.1742539227134
 30
0.0
 10
233.0786240736748
 20
-368.1642631458062
 30
0.0
 10
233.0827581882571
 20
-368.1546168784475
 30
0.0
 10
233.0855142646453
 20
-368.1446261015403
 30
0.0
  0
POLYLINE
  5
2AA
330
27B
100
AcDbEntity
  8
Layer 1
370
     0
100
AcDb2dPolyline
 66
     1
 10
0.0
 20
0.0
 30
0.0
  0
VERTEX
  5
2AB
330
2AA
100
AcDbEntity
  8
Layer 1
370
     0
100
AcDbVertex
100
AcDb2dVertex
 10
216.5173610569818
 20
-342.4176865463401
 30
0.0
  0
VERTEX
  5
2AC
330
2AA
100
AcDbEntity
  8
Layer 1
370
     0
100
AcDbVertex
100
AcDb2dVertex
 10
228.4291232067816
 20
-342.4176865463401
 30
0.0
  0
VERTEX
  5
2AD
330
2AA
100
AcDbEntity
  8
Layer 1
370
     0
100
AcDbVertex
100
AcDb2dVertex
 10
230.7724771558485
 20
-346.9286945747262
 30
0.0
  0
VERTEX
  5
2AE
330
2AA
100
AcDbEntity
  8
Layer 1
370
     0
100
AcDbVertex
100
AcDb2dVertex
 10
214.1746961270119
 20
-346.9286945747262
 30
0.0
  0
VERTEX
  5
2AF
330
2AA
100
AcDbEntity
  8
Layer 1
370
     0
100
AcDbVertex
100
AcDb2dVertex
 10
216.5173610569818
 20
-342.4176865463401
 30
0.0
  0
SEQEND
  5
2B0
330
2AA
100
AcDbEntity
  8
Layer 1
370
     0
  0
POLYLINE
  5
2B1
330
27B
100
AcDbEntity
  8
Layer 1
370
     0
100
AcDb2dPolyline
 66
     1
 10
0.0
 20
0.0
 30
0.0
  0
VERTEX
  5
2B2
330
2B1
100
AcDbEntity
  8
Layer 1
370
     0
100
AcDbVertex
100
AcDb2dVertex
 10
193.03765728681
 20
-362.0643770796228
 30
0.0
  0
VERTEX
  5
2B3
330
2B1
100
AcDbEntity
  8
Layer 1
370
     0
100
AcDbVertex
100
AcDb2dVertex
 10
157.4146809502297
 20
-362.0643770796228
 30
0.0
  0
VERTEX
  5
2B4
330
2B1
100
AcDbEntity
  8
Layer 1
370
     0
100
AcDbVertex
100
AcDb2dVertex
 10
157.4146809502297
 20
-353.7045083751156
 30
0.0
  0
VERTEX
  5
2B5
330
2B1
100
AcDbEntity
  8
Layer 1
370
     0
100
AcDbVertex
100
AcDb2dVertex
 10
193.03765728681
 20
-353.7045083751156
 30
0.0
  0
VERTEX
  5
2B6
330
2B1
100
AcDbEntity
  8
Layer 1
370
     0
100
AcDbVertex
100
AcDb2dVertex
 10
193.03765728681
 20
-354.6153916214156
 30
0.0
  0
VERTEX
  5
2B7
330
2B1
100
AcDbEntity
  8
Layer 1
370
     0
100
AcDbVertex
100
AcDb2dVertex
 10
193.03765728681
 20
-361.1534938333227
 30
0.0
  0
VERTEX
  5
2B8
330
2B1
100
AcDbEntity
  8
Layer 1
370
     0
100
AcDbVertex
100
AcDb2dVertex
 10
193.03765728681
 20
-362.0643770796228
 30
0.0
  0
SEQEND
  5
2B9
330
2B1
100
AcDbEntity
  8
Layer 1
370
     0
  0
POLYLINE
  5
2BA
330
27B
100
AcDbEntity
  8
Layer 1
370
     0
100
AcDb2dPolyline
 66
     1
 10
0.0
 20
0.0
 30
0.0
  0
VERTEX
  5
2BB
330
2BA
100
AcDbEntity
  8
Layer 1
370
     0
100
AcDbVertex
100
AcDb2dVertex
 10
194.801546175258
 20
-359.3896049448749
 30
0.0
  0
VERTEX
  5
2BC
330
2BA
100
AcDbEntity
  8
Layer 1
370
     0
100
AcDbVertex
100
AcDb2dVertex
 10
194.801546175258
 20
-356.3792805098635
 30
0.0
  0
VERTEX
  5
2BD
330
2BA
100
AcDbEntity
  8
Layer 1
370
     0
100
AcDbVertex
100
AcDb2dVertex
 10
211.8409884453037
 20
-356.3792805098635
 30
0.0
  0
VERTEX
  5
2BE
330
2BA
100
AcDbEntity
  8
Layer 1
370
     0
100
AcDbVertex
100
AcDb2dVertex
 10
211.8409884453037
 20
-359.3896049448749
 30
0.0
  0
VERTEX
  5
2BF
330
2BA
100
AcDbEntity
  8
Layer 1
370
     0
100
AcDbVertex
100
AcDb2dVertex
 10
194.801546175258
 20
-359.3896049448749
 30
0.0
  0
SEQEND
  5
2C0
330
2BA
100
AcDbEntity
  8
Layer 1
370
     0
  0
POLYLINE
  5
2C1
330
27B
100
AcDbEntity
  8
Layer 1
370
     0
100
AcDb2dPolyline
 66
     1
 10
0.0
 20
0.0
 30
0.0
  0
VERTEX
  5
2C2
330
2C1
100
AcDbEntity
  8
Layer 1
370
     0
100
AcDbVertex
100
AcDb2dVertex
 10
213.6048773337516
 20
-354.6153916214156
 30
0.0
  0
VERTEX
  5
2C3
330
2C1
100
AcDbEntity
  8
Layer 1
370
     0
100
AcDbVertex
100
AcDb2dVertex
 10
213.6048773337516
 20
-348.6925834631741
 30
0.0
  0
VERTEX
  5
2C4
330
2C1
100
AcDbEntity
  8
Layer 1
370
     0
100
AcDbVertex
100
AcDb2dVertex
 10
231.3422959491089
 20
-348.6925834631741
 30
0.0
  0
VERTEX
  5
2C5
330
2C1
100
AcDbEntity
  8
Layer 1
370
     0
100
AcDbVertex
100
AcDb2dVertex
 10
231.3422959491089
 20
-367.0756129724672
 30
0.0
  0
VERTEX
  5
2C6
330
2C1
100
AcDbEntity
  8
Layer 1
370
     0
100
AcDbVertex
100
AcDb2dVertex
 10
213.6048773337516
 20
-367.0756129724672
 30
0.0
  0
VERTEX
  5
2C7
330
2C1
100
AcDbEntity
  8
Layer 1
370
     0
100
AcDbVertex
100
AcDb2dVertex
 10
213.6048773337516
 20
-361.1534938333227
 30
0.0
  0
VERTEX
  5
2C8
330
2C1
100
AcDbEntity
  8
Layer 1
370
     0
100
AcDbVertex
100
AcDb2dVertex
 10
213.6048773337516
 20
-354.6153916214156
 30
0.0
  0
SEQEND
  5
2C9
330
2C1
100
AcDbEntity
  8
Layer 1
370
     0
  0
POLYLINE
  5
2CA
330
27B
100
AcDbEntity
  8
Layer 1
370
     0
100
AcDb2dPolyline
 66
     1
 10
0.0
 20
0.0
 30
0.0
  0
VERTEX
  5
2CB
330
2CA
100
AcDbEntity
  8
Layer 1
370
     0
100
AcDbVertex
100
AcDb2dVertex
 10
228.4291232067816
 20
-373.3511989083983
 30
0.0
  0
VERTEX
  5
2CC
330
2CA
100
AcDbEntity
  8
Layer 1
370
     0
100
AcDbVertex
100
AcDb2dVertex
 10
216.5173610569818
 20
-373.3511989083983
 30
0.0
  0
VERTEX
  5
2CD
330
2CA
100
AcDbEntity
  8
Layer 1
370
     0
100
AcDbVertex
100
AcDb2dVertex
 10
214.1746961270119
 20
-368.8395018609152
 30
0.0
  0
VERTEX
  5
2CE
330
2CA
100
AcDbEntity
  8
Layer 1
370
     0
100
AcDbVertex
100
AcDb2dVertex
 10
230.7724771558485
 20
-368.8395018609152
 30
0.0
  0
VERTEX
  5
2CF
330
2CA
100
AcDbEntity
  8
Layer 1
370
     0
100
AcDbVertex
100
AcDb2dVertex
 10
228.4291232067816
 20
-373.3511989083983
 30
0.0
  0
SEQEND
  5
2D0
330
2CA
100
AcDbEntity
  8
Layer 1
370
     0
  0
ENDBLK
  5
27E
330
27B
100
AcDbEntity
  8
0
100
AcDbBlockEnd
  0
ENDSEC
  0
SECTION
  2
ENTITIES
  0
POLYLINE
  5
3C
330
1F
100
AcDbEntity
  8
Layer 1
370
     0
100
AcDb2dPolyline
 66
     1
 10
0.0
 20
0.0
 30
0.0
  0
VERTEX
  5
3D
330
3C
100
AcDbEntity
  8
Layer 1
370
     0
100
AcDbVertex
100
AcDb2dVertex
 10
293.7040363849073
 20
-134.9654052396962
 30
0.0
  0
VERTEX
  5
3E
330
3C
100
AcDbEntity
  8
Layer 1
370
     0
100
AcDbVertex
100
AcDb2dVertex
 10
3.704166665740625
 20
-134.9654052396962
 30
0.0
  0
VERTEX
  5
3F
330
3C
100
AcDbEntity
  8
Layer 1
370
     0
100
AcDbVertex
100
AcDb2dVertex
 10
3.704166665740625
 20
-74.96527775903647
 30
0.0
  0
VERTEX
  5
40
330
3C
100
AcDbEntity
  8
Layer 1
370
     0
100
AcDbVertex
100
AcDb2dVertex
 10
293.7040363849073
 20
-74.96527775903647
 30
0.0
  0
VERTEX
  5
41
330
3C
100
AcDbEntity
  8
Layer 1
370
     0
100
AcDbVertex
100
AcDb2dVertex
 10
293.7040363849073
 20
-134.9654052396962
 30
0.0
  0
SEQEND
  5
42
330
3C
100
AcDbEntity
  8
Layer 1
370
     0
  0
HATCH
  5
43
330
1F
100
AcDbEntity
  8
Layer 1
 62
     7
420
 16777215
100
AcDbHatch
 10
0.0
 20
0.0
 30
0.0
210
0.0
220
0.0
230
1.0
  2
SOLID
 70
     1
 71
     0
 91
        1
 92
        1
 93
        4
 72
     1
 10
293.7040363849073
 20
-134.9654052396962
 11
3.704166665740615
 21
-134.9654052396962
 72
     1
 10
3.704166665740625
 20
-134.9654052396962
 11
3.704166665740625
 21
-74.96527775903647
 72
     1
 10
3.704166665740625
 20
-74.96527775903647
 11
293.7040363849073
 21
-74.96527775903647
 72
     1
 10
293.7040363849073
 20
-74.96527775903647
 11
293.7040363849073
 21
-134.9654052396962
 97
        0
 75
     2
 76
     1
 98
        0
  0
INSERT
  5
45
330
1F
100
AcDbEntity
  8
Layer 1
100
AcDbBlockReference
  2
block 2
 10
0.0
 20
0.0
 30
0.0
  0
POLYLINE
  5
53
330
1F
100
AcDbEntity
  8
Layer 1
370
     0
100
AcDb2dPolyline
 66
     1
 10
0.0
 20
0.0
 30
0.0
  0
VERTEX
  5
54
330
53
100
AcDbEntity
  8
Layer 1
370
     0
100
AcDbVertex
100
AcDb2dVertex
 10
99.5963324403787
 20
-94.10278317959931
 30
0.0
  0
VERTEX
  5
55
330
53
100
AcDbEntity
  8
Layer 1
370
     0
100
AcDbVertex
100
AcDb2dVertex
 10
99.5963324403787
 20
-110.7522406407147
 30
0.0
  0
VERTEX
  5
56
330
53
100
AcDbEntity
  8
Layer 1
370
     0
100
AcDbVertex
100
AcDb2dVertex
 10
169.6371907127991
 20
-110.7522406407147
 30
0.0
  0
VERTEX
  5
57
330
53
100
AcDbEntity
  8
Layer 1
370
     0
100
AcDbVertex
100
AcDb2dVertex
 10
169.6371907127991
 20
-94.10278317959931
 30
0.0
  0
VERTEX
  5
58
330
53
100
AcDbEntity
  8
Layer 1
370
     0
100
AcDbVertex
100
AcDb2dVertex
 10
99.5963324403787
 20
-94.10278317959931
 30
0.0
  0
SEQEND
  5
59
330
53
100
AcDbEntity
  8
Layer 1
370
     0
  0
POLYLINE
  5
5A
330
1F
100
AcDbEntity
  8
Layer 1
370
     0
100
AcDb2dPolyline
 66
     1
 10
0.0
 20
0.0
 30
0.0
  0
VERTEX
  5
5B
330
5A
100
AcDbEntity
  8
Layer 1
370
     0
100
AcDbVertex
100
AcDb2dVertex
 10
167.8733018243511
 20
-108.9883517522668
 30
0.0
  0
VERTEX
  5
5C
330
5A
100
AcDbEntity
  8
Layer 1
370
     0
100
AcDbVertex
100
AcDb2dVertex
 10
101.3602213288266
 20
-108.9883517522668
 30
0.0
  0
VERTEX
  5
5D
330
5A
100
AcDbEntity
  8
Layer 1
370
     0
100
AcDbVertex
100
AcDb2dVertex
 10
101.3602213288266
 20
-95.86667206804722
 30
0.0
  0
VERTEX
  5
5E
330
5A
100
AcDbEntity
  8
Layer 1
370
     0
100
AcDbVertex
100
AcDb2dVertex
 10
104.7703490949012
 20
-95.86667206804722
 30
0.0
  0
VERTEX
  5
5F
330
5A
100
AcDbEntity
  8
Layer 1
370
     0
100
AcDbVertex
100
AcDb2dVertex
 10
104.7703490949012
 20
-102.9887179647042
 30
0.0
  0
VERTEX
  5
60
330
5A
100
AcDbEntity
  8
Layer 1
370
     0
100
AcDbVertex
100
AcDb2dVertex
 10
106.5342379833491
 20
-102.9887179647042
 30
0.0
  0
VERTEX
  5
61
330
5A
100
AcDbEntity
  8
Layer 1
370
     0
100
AcDbVertex
100
AcDb2dVertex
 10
106.5342379833491
 20
-95.86667206804722
 30
0.0
  0
VERTEX
  5
62
330
5A
100
AcDbEntity
  8
Layer 1
370
     0
100
AcDbVertex
100
AcDb2dVertex
 10
109.3564602048658
 20
-95.86667206804722
 30
0.0
  0
VERTEX
  5
63
330
5A
100
AcDbEntity
  8
Layer 1
370
     0
100
AcDbVertex
100
AcDb2dVertex
 10
109.3564602048658
 20
-100.1587442783457
 30
0.0
  0
VERTEX
  5
64
330
5A
100
AcDbEntity
  8
Layer 1
370
     0
100
AcDbVertex
100
AcDb2dVertex
 10
111.1203490933137
 20
-100.1587442783457
 30
0.0
  0
VERTEX
  5
65
330
5A
100
AcDbEntity
  8
Layer 1
370
     0
100
AcDbVertex
100
AcDb2dVertex
 10
111.1203490933137
 20
-95.86667206804722
 30
0.0
  0
VERTEX
  5
66
330
5A
100
AcDbEntity
  8
Layer 1
370
     0
100
AcDbVertex
100
AcDb2dVertex
 10
113.6681694594302
 20
-95.86667206804722
 30
0.0
  0
VERTEX
  5
67
330
5A
100
AcDbEntity
  8
Layer 1
370
     0
100
AcDbVertex
100
AcDb2dVertex
 10
113.6681694594302
 20
-102.9887179647042
 30
0.0
  0
VERTEX
  5
68
330
5A
100
AcDbEntity
  8
Layer 1
370
     0
100
AcDbVertex
100
AcDb2dVertex
 10
115.4320583478781
 20
-102.9887179647042
 30
0.0
  0
VERTEX
  5
69
330
5A
100
AcDbEntity
  8
Layer 1
370
     0
100
AcDbVertex
100
AcDb2dVertex
 10
115.4320583478781
 20
-95.86667206804722
 30
0.0
  0
VERTEX
  5
6A
330
5A
100
AcDbEntity
  8
Layer 1
370
     0
100
AcDbVertex
100
AcDb2dVertex
 10
118.2542805693948
 20
-95.86667206804722
 30
0.0
  0
VERTEX
  5
6B
330
5A
100
AcDbEntity
  8
Layer 1
370
     0
100
AcDbVertex
100
AcDb2dVertex
 10
118.2542805693948
 20
-100.1587442783457
 30
0.0
  0
VERTEX
  5
6C
330
5A
100
AcDbEntity
  8
Layer 1
370
     0
100
AcDbVertex
100
AcDb2dVertex
 10
120.0181694578427
 20
-100.1587442783457
 30
0.0
  0
VERTEX
  5
6D
330
5A
100
AcDbEntity
  8
Layer 1
370
     0
100
AcDbVertex
100
AcDb2dVertex
 10
120.0181694578427
 20
-95.86667206804722
 30
0.0
  0
VERTEX
  5
6E
330
5A
100
AcDbEntity
  8
Layer 1
370
     0
100
AcDbVertex
100
AcDb2dVertex
 10
122.5659898239592
 20
-95.86667206804722
 30
0.0
  0
VERTEX
  5
6F
330
5A
100
AcDbEntity
  8
Layer 1
370
     0
100
AcDbVertex
100
AcDb2dVertex
 10
122.5659898239592
 20
-102.9887179647042
 30
0.0
  0
VERTEX
  5
70
330
5A
100
AcDbEntity
  8
Layer 1
370
     0
100
AcDbVertex
100
AcDb2dVertex
 10
124.3298787124071
 20
-102.9887179647042
 30
0.0
  0
VERTEX
  5
71
330
5A
100
AcDbEntity
  8
Layer 1
370
     0
100
AcDbVertex
100
AcDb2dVertex
 10
124.3298787124071
 20
-95.86667206804722
 30
0.0
  0
VERTEX
  5
72
330
5A
100
AcDbEntity
  8
Layer 1
370
     0
100
AcDbVertex
100
AcDb2dVertex
 10
127.1521009339238
 20
-95.86667206804722
 30
0.0
  0
VERTEX
  5
73
330
5A
100
AcDbEntity
  8
Layer 1
370
     0
100
AcDbVertex
100
AcDb2dVertex
 10
127.1521009339238
 20
-100.1587442783457
 30
0.0
  0
VERTEX
  5
74
330
5A
100
AcDbEntity
  8
Layer 1
370
     0
100
AcDbVertex
100
AcDb2dVertex
 10
128.9159898223717
 20
-100.1587442783457
 30
0.0
  0
VERTEX
  5
75
330
5A
100
AcDbEntity
  8
Layer 1
370
     0
100
AcDbVertex
100
AcDb2dVertex
 10
128.9159898223717
 20
-95.86667206804722
 30
0.0
  0
VERTEX
  5
76
330
5A
100
AcDbEntity
  8
Layer 1
370
     0
100
AcDbVertex
100
AcDb2dVertex
 10
131.4639824432625
 20
-95.86667206804722
 30
0.0
  0
VERTEX
  5
77
330
5A
100
AcDbEntity
  8
Layer 1
370
     0
100
AcDbVertex
100
AcDb2dVertex
 10
131.4639824432625
 20
-102.9887179647042
 30
0.0
  0
VERTEX
  5
78
330
5A
100
AcDbEntity
  8
Layer 1
370
     0
100
AcDbVertex
100
AcDb2dVertex
 10
133.2278713317104
 20
-102.9887179647042
 30
0.0
  0
VERTEX
  5
79
330
5A
100
AcDbEntity
  8
Layer 1
370
     0
100
AcDbVertex
100
AcDb2dVertex
 10
133.2278713317104
 20
-95.86667206804722
 30
0.0
  0
VERTEX
  5
7A
330
5A
100
AcDbEntity
  8
Layer 1
370
     0
100
AcDbVertex
100
AcDb2dVertex
 10
136.0500935532271
 20
-95.86667206804722
 30
0.0
  0
VERTEX
  5
7B
330
5A
100
AcDbEntity
  8
Layer 1
370
     0
100
AcDbVertex
100
AcDb2dVertex
 10
136.0500935532271
 20
-100.1587442783457
 30
0.0
  0
VERTEX
  5
7C
330
5A
100
AcDbEntity
  8
Layer 1
370
     0
100
AcDbVertex
100
AcDb2dVertex
 10
137.813982441675
 20
-100.1587442783457
 30
0.0
  0
VERTEX
  5
7D
330
5A
100
AcDbEntity
  8
Layer 1
370
     0
100
AcDbVertex
100
AcDb2dVertex
 10
137.813982441675
 20
-95.86667206804722
 30
0.0
  0
VERTEX
  5
7E
330
5A
100
AcDbEntity
  8
Layer 1
370
     0
100
AcDbVertex
100
AcDb2dVertex
 10
140.3618028077915
 20
-95.86667206804722
 30
0.0
  0
VERTEX
  5
7F
330
5A
100
AcDbEntity
  8
Layer 1
370
     0
100
AcDbVertex
100
AcDb2dVertex
 10
140.3618028077915
 20
-102.9887179647042
 30
0.0
  0
VERTEX
  5
80
330
5A
100
AcDbEntity
  8
Layer 1
370
     0
100
AcDbVertex
100
AcDb2dVertex
 10
142.1256916962394
 20
-102.9887179647042
 30
0.0
  0
VERTEX
  5
81
330
5A
100
AcDbEntity
  8
Layer 1
370
     0
100
AcDbVertex
100
AcDb2dVertex
 10
142.1256916962394
 20
-95.86667206804722
 30
0.0
  0
VERTEX
  5
82
330
5A
100
AcDbEntity
  8
Layer 1
370
     0
100
AcDbVertex
100
AcDb2dVertex
 10
144.9479139177561
 20
-95.86667206804722
 30
0.0
  0
VERTEX
  5
83
330
5A
100
AcDbEntity
  8
Layer 1
370
     0
100
AcDbVertex
100
AcDb2dVertex
 10
144.9479139177561
 20
-100.1587442783457
 30
0.0
  0
VERTEX
  5
84
330
5A
100
AcDbEntity
  8
Layer 1
370
     0
100
AcDbVertex
100
AcDb2dVertex
 10
146.711802806204
 20
-100.1587442783457
 30
0.0
  0
VERTEX
  5
85
330
5A
100
AcDbEntity
  8
Layer 1
370
     0
100
AcDbVertex
100
AcDb2dVertex
 10
146.711802806204
 20
-95.86667206804722
 30
0.0
  0
VERTEX
  5
86
330
5A
100
AcDbEntity
  8
Layer 1
370
     0
100
AcDbVertex
100
AcDb2dVertex
 10
149.2594509175462
 20
-95.86667206804722
 30
0.0
  0
VERTEX
  5
87
330
5A
100
AcDbEntity
  8
Layer 1
370
     0
100
AcDbVertex
100
AcDb2dVertex
 10
149.2594509175462
 20
-102.9887179647042
 30
0.0
  0
VERTEX
  5
88
330
5A
100
AcDbEntity
  8
Layer 1
370
     0
100
AcDbVertex
100
AcDb2dVertex
 10
151.0233398059942
 20
-102.9887179647042
 30
0.0
  0
VERTEX
  5
89
330
5A
100
AcDbEntity
  8
Layer 1
370
     0
100
AcDbVertex
100
AcDb2dVertex
 10
151.0233398059942
 20
-95.86667206804722
 30
0.0
  0
VERTEX
  5
8A
330
5A
100
AcDbEntity
  8
Layer 1
370
     0
100
AcDbVertex
100
AcDb2dVertex
 10
153.8455620275109
 20
-95.86667206804722
 30
0.0
  0
VERTEX
  5
8B
330
5A
100
AcDbEntity
  8
Layer 1
370
     0
100
AcDbVertex
100
AcDb2dVertex
 10
153.8455620275109
 20
-100.1587442783457
 30
0.0
  0
VERTEX
  5
8C
330
5A
100
AcDbEntity
  8
Layer 1
370
     0
100
AcDbVertex
100
AcDb2dVertex
 10
155.6094509159587
 20
-100.1587442783457
 30
0.0
  0
VERTEX
  5
8D
330
5A
100
AcDbEntity
  8
Layer 1
370
     0
100
AcDbVertex
100
AcDb2dVertex
 10
155.6094509159587
 20
-95.86667206804722
 30
0.0
  0
VERTEX
  5
8E
330
5A
100
AcDbEntity
  8
Layer 1
370
     0
100
AcDbVertex
100
AcDb2dVertex
 10
158.1574435368495
 20
-95.86667206804722
 30
0.0
  0
VERTEX
  5
8F
330
5A
100
AcDbEntity
  8
Layer 1
370
     0
100
AcDbVertex
100
AcDb2dVertex
 10
158.1574435368495
 20
-102.9887179647042
 30
0.0
  0
VERTEX
  5
90
330
5A
100
AcDbEntity
  8
Layer 1
370
     0
100
AcDbVertex
100
AcDb2dVertex
 10
159.9213324252975
 20
-102.9887179647042
 30
0.0
  0
VERTEX
  5
91
330
5A
100
AcDbEntity
  8
Layer 1
370
     0
100
AcDbVertex
100
AcDb2dVertex
 10
159.9213324252975
 20
-95.86667206804722
 30
0.0
  0
VERTEX
  5
92
330
5A
100
AcDbEntity
  8
Layer 1
370
     0
100
AcDbVertex
100
AcDb2dVertex
 10
162.7435546468141
 20
-95.86667206804722
 30
0.0
  0
VERTEX
  5
93
330
5A
100
AcDbEntity
  8
Layer 1
370
     0
100
AcDbVertex
100
AcDb2dVertex
 10
162.7435546468141
 20
-100.1587442783457
 30
0.0
  0
VERTEX
  5
94
330
5A
100
AcDbEntity
  8
Layer 1
370
     0
100
AcDbVertex
100
AcDb2dVertex
 10
164.507443535262
 20
-100.1587442783457
 30
0.0
  0
VERTEX
  5
95
330
5A
100
AcDbEntity
  8
Layer 1
370
     0
100
AcDbVertex
100
AcDb2dVertex
 10
164.507443535262
 20
-95.86667206804722
 30
0.0
  0
VERTEX
  5
96
330
5A
100
AcDbEntity
  8
Layer 1
370
     0
100
AcDbVertex
100
AcDb2dVertex
 10
167.8733018243511
 20
-95.86667206804722
 30
0.0
  0
VERTEX
  5
97
330
5A
100
AcDbEntity
  8
Layer 1
370
     0
100
AcDbVertex
100
AcDb2dVertex
 10
167.8733018243511
 20
-108.9883517522668
 30
0.0
  0
SEQEND
  5
98
330
5A
100
AcDbEntity
  8
Layer 1
370
     0
  0
INSERT
  5
9A
330
1F
100
AcDbEntity
  8
Layer 1
100
AcDbBlockReference
  2
block 3
 10
0.0
 20
0.0
 30
0.0
  0
POLYLINE
  5
E7
330
1F
100
AcDbEntity
  8
Layer 1
370
     0
100
AcDb2dPolyline
 66
     1
 10
0.0
 20
0.0
 30
0.0
  0
VERTEX
  5
E8
330
E7
100
AcDbEntity
  8
Layer 1
370
     0
100
AcDbVertex
100
AcDb2dVertex
 10
293.7040363849073
 20
-71.75944415523722
 30
0.0
  0
VERTEX
  5
E9
330
E7
100
AcDbEntity
  8
Layer 1
370
     0
100
AcDbVertex
100
AcDb2dVertex
 10
3.703994410966363
 20
-71.75944415523722
 30
0.0
  0
VERTEX
  5
EA
330
E7
100
AcDbEntity
  8
Layer 1
370
     0
100
AcDbVertex
100
AcDb2dVertex
 10
3.703994410966363
 20
-11.75931667457753
 30
0.0
  0
VERTEX
  5
EB
330
E7
100
AcDbEntity
  8
Layer 1
370
     0
100
AcDbVertex
100
AcDb2dVertex
 10
293.7040363849073
 20
-11.75931667457753
 30
0.0
  0
VERTEX
  5
EC
330
E7
100
AcDbEntity
  8
Layer 1
370
     0
100
AcDbVertex
100
AcDb2dVertex
 10
293.7040363849073
 20
-71.75944415523722
 30
0.0
  0
SEQEND
  5
ED
330
E7
100
AcDbEntity
  8
Layer 1
370
     0
  0
HATCH
  5
EE
330
1F
100
AcDbEntity
  8
Layer 1
 62
     7
420
 16777215
100
AcDbHatch
 10
0.0
 20
0.0
 30
0.0
210
0.0
220
0.0
230
1.0
  2
SOLID
 70
     1
 71
     0
 91
        1
 92
        1
 93
        4
 72
     1
 10
293.7040363849073
 20
-71.75944415523722
 11
3.703994410966345
 21
-71.75944415523722
 72
     1
 10
3.703994410966363
 20
-71.75944415523722
 11
3.703994410966363
 21
-11.75931667457753
 72
     1
 10
3.703994410966363
 20
-11.75931667457753
 11
293.7040363849073
 21
-11.75931667457753
 72
     1
 10
293.7040363849073
 20
-11.75931667457753
 11
293.7040363849073
 21
-71.75944415523722
 97
        0
 75
     2
 76
     1
 98
        0
  0
INSERT
  5
F0
330
1F
100
AcDbEntity
  8
Layer 1
100
AcDbBlockReference
  2
block 4
 10
0.0
 20
0.0
 30
0.0
  0
POLYLINE
  5
100
330
1F
100
AcDbEntity
  8
Layer 1
370
     0
100
AcDb2dPolyline
 66
     1
 10
0.0
 20
0.0
 30
0.0
  0
VERTEX
  5
101
330
100
100
AcDbEntity
  8
Layer 1
370
     0
100
AcDbVertex
100
AcDb2dVertex
 10
293.5000867321805
 20
-197.8886962395903
 30
0.0
  0
VERTEX
  5
102
330
100
100
AcDbEntity
  8
Layer 1
370
     0
100
AcDbVertex
100
AcDb2dVertex
 10
3.49987250346531
 20
-197.8886962395903
 30
0.0
  0
VERTEX
  5
103
330
100
100
AcDbEntity
  8
Layer 1
370
     0
100
AcDbVertex
100
AcDb2dVertex
 10
3.49987250346531
 20
-137.8885687589306
 30
0.0
  0
VERTEX
  5
104
330
100
100
AcDbEntity
  8
Layer 1
370
     0
100
AcDbVertex
100
AcDb2dVertex
 10
293.5000867321805
 20
-137.8885687589306
 30
0.0
  0
VERTEX
  5
105
330
100
100
AcDbEntity
  8
Layer 1
370
     0
100
AcDbVertex
100
AcDb2dVertex
 10
293.5000867321805
 20
-197.8886962395903
 30
0.0
  0
SEQEND
  5
106
330
100
100
AcDbEntity
  8
Layer 1
370
     0
  0
HATCH
  5
107
330
1F
100
AcDbEntity
  8
Layer 1
 62
     7
420
 16777215
100
AcDbHatch
 10
0.0
 20
0.0
 30
0.0
210
0.0
220
0.0
230
1.0
  2
SOLID
 70
     1
 71
     0
 91
        1
 92
        1
 93
        4
 72
     1
 10
293.5000867321805
 20
-197.8886962395903
 11
3.499872503465326
 21
-197.8886962395903
 72
     1
 10
3.49987250346531
 20
-197.8886962395903
 11
3.49987250346531
 21
-137.8885687589306
 72
     1
 10
3.49987250346531
 20
-137.8885687589306
 11
293.5000867321805
 21
-137.8885687589306
 72
     1
 10
293.5000867321805
 20
-137.8885687589306
 11
293.5000867321805
 21
-197.8886962395903
 97
        0
 75
     2
 76
     1
 98
        0
  0
INSERT
  5
109
330
1F
100
AcDbEntity
  8
Layer 1
100
AcDbBlockReference
  2
block 5
 10
0.0
 20
0.0
 30
0.0
  0
INSERT
  5
115
330
1F
100
AcDbEntity
  8
Layer 1
100
AcDbBlockReference
  2
block 6
 10
0.0
 20
0.0
 30
0.0
  0
INSERT
  5
11B
330
1F
100
AcDbEntity
  8
Layer 1
100
AcDbBlockReference
  2
block 7
 10
0.0
 20
0.0
 30
0.0
  0
SPLINE
  5
141
330
1F
100
AcDbEntity
  8
Layer 1
370
     0
100
AcDbSpline
210
0.0
220
0.0
230
1.0
 70
    11
 71
     3
 72
    89
 73
    85
 74
     0
 42
0.0000000001
 43
0.0000000001
 40
0.0
 40
0.0
 40
0.0
 40
0.0
 40
1.0
 40
1.0
 40
1.0
 40
2.0
 40
2.0
 40
2.0
 40
3.0
 40
3.0
 40
3.0
 40
4.0
 40
4.0
 40
4.0
 40
5.0
 40
5.0
 40
5.0
 40
6.0
 40
6.0
 40
6.0
 40
7.0
 40
7.0
 40
7.0
 40
8.0
 40
8.0
 40
8.0
 40
9.0
 40
9.0
 40
9.0
 40
10.0
 40
10.0
 40
10.0
 40
11.0
 40
11.0
 40
11.0
 40
12.0
 40
12.0
 40
12.0
 40
13.0
 40
13.0
 40
13.0
 40
14.0
 40
14.0
 40
14.0
 40
15.0
 40
15.0
 40
15.0
 40
16.0
 40
16.0
 40
16.0
 40
17.0
 40
17.0
 40
17.0
 40
18.0
 40
18.0
 40
18.0
 40
19.0
 40
19.0
 40
19.0
 40
20.0
 40
20.0
 40
20.0
 40
21.0
 40
21.0
 40
21.0
 40
22.0
 40
22.0
 40
22.0
 40
23.0
 40
23.0
 40
23.0
 40
24.0
 40
24.0
 40
24.0
 40
25.0
 40
25.0
 40
25.0
 40
26.0
 40
26.0
 40
26.0
 40
27.0
 40
27.0
 40
27.0
 40
28.0
 40
28.0
 40
28.0
 40
28.0
 10
232.0981498985727
 20
-164.9938910177793
 30
0.0
 10
232.0981498985727
 20
-164.9938910177793
 30
0.0
 10
219.0929144417546
 20
-160.1066785624039
 30
0.0
 10
219.0929144417546
 20
-160.1066785624039
 30
0.0
 10
219.0929144417546
 20
-160.1066785624039
 30
0.0
 10
212.8614257280346
 20
-162.0231851808484
 30
0.0
 10
212.8614257280346
 20
-162.0231851808484
 30
0.0
 10
212.8614257280346
 20
-162.0231851808484
 30
0.0
 10
212.8669378808111
 20
-160.2858235276369
 30
0.0
 10
212.8669378808111
 20
-160.2858235276369
 30
0.0
 10
212.8669378808111
 20
-160.2858235276369
 30
0.0
 10
199.9705674413268
 20
-160.1590440137797
 30
0.0
 10
199.9705674413268
 20
-160.1590440137797
 30
0.0
 10
198.6566080232525
 20
-159.094164999289
 30
0.0
 10
192.5870387973393
 20
-154.5490505255989
 30
0.0
 10
184.5200032090783
 20
-154.3998778910875
 30
0.0
 10
175.5124565533441
 20
-154.2283121359221
 30
0.0
 10
169.2155110254045
 20
-156.4727918445624
 30
0.0
 10
168.9619519976901
 20
-156.56443138447
 30
0.0
 10
168.9619519976901
 20
-156.56443138447
 30
0.0
 10
168.3804198797799
 20
-156.7752712281673
 30
0.0
 10
168.3804198797799
 20
-156.7752712281673
 30
0.0
 10
168.3804198797799
 20
-156.7752712281673
 30
0.0
 10
168.3804198797799
 20
-160.2375921908434
 30
0.0
 10
168.3804198797799
 20
-160.2375921908434
 30
0.0
 10
168.3804198797799
 20
-160.2375921908434
 30
0.0
 10
169.2706325531685
 20
-160.2293239616788
 30
0.0
 10
169.2706325531685
 20
-160.2293239616788
 30
0.0
 10
169.2940592024682
 20
-160.2286349425817
 30
0.0
 10
171.6263888459823
 20
-160.2065863314761
 30
0.0
 10
174.7462673174246
 20
-160.2065863314761
 30
0.0
 10
178.6288899293011
 20
-160.2065863314761
 30
0.0
 10
181.9554741298584
 20
-160.239314738586
 30
0.0
 10
184.6330023409945
 20
-160.3037380241602
 30
0.0
 10
190.4634819402314
 20
-160.4446424295069
 30
0.0
 10
194.292361062538
 20
-166.2926920157185
 30
0.0
 10
195.229427034526
 20
-167.8891492635833
 30
0.0
 10
194.2944281198292
 20
-169.4880180782877
 30
0.0
 10
190.4786403603665
 20
-175.3326225690141
 30
0.0
 10
184.6330023409945
 20
-175.4735269743608
 30
0.0
 10
181.9534070725672
 20
-175.537950259935
 30
0.0
 10
178.6247558147188
 20
-175.5706786670448
 30
0.0
 10
174.738688107357
 20
-175.5706786670448
 30
0.0
 10
174.738688107357
 20
-175.5706786670448
 30
0.0
 10
174.73799908826
 20
-175.5706786670448
 30
0.0
 10
174.7373100691629
 20
-175.5706786670448
 30
0.0
 10
171.6229437504971
 20
-175.5706786670448
 30
0.0
 10
169.2940592024682
 20
-175.5486300559392
 30
0.0
 10
169.2706325531685
 20
-175.5482855463907
 30
0.0
 10
169.2706325531685
 20
-175.5482855463907
 30
0.0
 10
168.3804198797799
 20
-175.5396728076776
 30
0.0
 10
168.3804198797799
 20
-175.5396728076776
 30
0.0
 10
168.3804198797799
 20
-175.5396728076776
 30
0.0
 10
168.3804198797799
 20
-179.0023382799022
 30
0.0
 10
168.3804198797799
 20
-179.0023382799022
 30
0.0
 10
168.3804198797799
 20
-179.0023382799022
 30
0.0
 10
168.9619519976901
 20
-179.212833614051
 30
0.0
 10
168.9619519976901
 20
-179.212833614051
 30
0.0
 10
169.2065537771428
 20
-179.3017170775704
 30
0.0
 10
175.0604600256793
 20
-181.3859998461466
 30
0.0
 10
183.5698458742464
 20
-181.3859998461466
 30
0.0
 10
183.8826605443071
 20
-181.3859998461466
 30
0.0
 10
184.2002983480472
 20
-181.3832437697584
 30
0.0
 10
184.5200032090783
 20
-181.3773871074334
 30
0.0
 10
192.5870387973393
 20
-181.2282144729221
 30
0.0
 10
198.6566080232525
 20
-176.6834445087805
 30
0.0
 10
199.9705674413268
 20
-175.6182209847413
 30
0.0
 10
199.9705674413268
 20
-175.6182209847413
 30
0.0
 10
212.8669378808111
 20
-175.4914414708841
 30
0.0
 10
212.8669378808111
 20
-175.4914414708841
 30
0.0
 10
212.8669378808111
 20
-175.4914414708841
 30
0.0
 10
212.8614257280346
 20
-173.7540798176726
 30
0.0
 10
212.8614257280346
 20
-173.7540798176726
 30
0.0
 10
212.8614257280346
 20
-173.7540798176726
 30
0.0
 10
219.0929144417546
 20
-175.6709309456656
 30
0.0
 10
219.0929144417546
 20
-175.6709309456656
 30
0.0
 10
219.0929144417546
 20
-175.6709309456656
 30
0.0
 10
232.0981498985727
 20
-170.7833739807417
 30
0.0
 10
232.0981498985727
 20
-170.7833739807417
 30
0.0
 10
232.0981498985727
 20
-170.7833739807417
 30
0.0
 10
232.0974608794756
 20
-167.8884602444862
 30
0.0
 10
232.0974608794756
 20
-167.8884602444862
 30
0.0
 10
232.0974608794756
 20
-167.8884602444862
 30
0.0
 10
232.0981498985727
 20
-164.9938910177793
 30
0.0
 10
232.0981498985727
 20
-164.9938910177793
 30
0.0
  0
SPLINE
  5
142
330
1F
100
AcDbEntity
  8
Layer 1
370
     0
100
AcDbSpline
210
0.0
220
0.0
230
1.0
 70
    11
 71
     3
 72
    38
 73
    34
 74
     0
 42
0.0000000001
 43
0.0000000001
 40
0.0
 40
0.0
 40
0.0
 40
0.0
 40
1.0
 40
1.0
 40
1.0
 40
2.0
 40
2.0
 40
2.0
 40
3.0
 40
3.0
 40
3.0
 40
4.0
 40
4.0
 40
4.0
 40
5.0
 40
5.0
 40
5.0
 40
6.0
 40
6.0
 40
6.0
 40
7.0
 40
7.0
 40
7.0
 40
8.0
 40
8.0
 40
8.0
 40
9.0
 40
9.0
 40
9.0
 40
10.0
 40
10.0
 40
10.0
 40
11.0
 40
11.0
 40
11.0
 40
11.0
 10
199.3132432227411
 20
-173.8605332681668
 30
0.0
 10
199.3132432227411
 20
-173.8605332681668
 30
0.0
 10
199.0679524241914
 20
-174.0748182073494
 30
0.0
 10
199.0679524241914
 20
-174.0748182073494
 30
0.0
 10
199.0059407054569
 20
-174.1285616969193
 30
0.0
 10
192.7971896219396
 20
-179.4601914698919
 30
0.0
 10
184.487619311517
 20
-179.6134982189855
 30
0.0
 10
177.3390461796236
 20
-179.7488904715559
 30
0.0
 10
171.8806368927937
 20
-178.2771456802571
 30
0.0
 10
170.1443087682278
 20
-177.7431558800434
 30
0.0
 10
170.1443087682278
 20
-177.7431558800434
 30
0.0
 10
170.1443087682278
 20
-177.3190646258091
 30
0.0
 10
170.1443087682278
 20
-177.3190646258091
 30
0.0
 10
171.1048013895155
 20
-177.3256103072311
 30
0.0
 10
172.7639593752118
 20
-177.3345675554928
 30
0.0
 10
174.7373100691629
 20
-177.3345675554928
 30
0.0
 10
174.73799908826
 20
-177.3345675554928
 30
0.0
 10
174.73799908826
 20
-177.3345675554928
 30
0.0
 10
174.738688107357
 20
-177.3345675554928
 30
0.0
 10
178.6385361966598
 20
-177.3345675554928
 30
0.0
 10
181.9816568555462
 20
-177.3018391483829
 30
0.0
 10
184.6757215250116
 20
-177.2367268437117
 30
0.0
 10
191.4797851083801
 20
-177.0727402986138
 30
0.0
 10
195.6910698295495
 20
-170.6211099833864
 30
0.0
 10
196.7611164872681
 20
-168.7704046887102
 30
0.0
 10
196.7611164872681
 20
-168.7704046887102
 30
0.0
 10
211.0823784194516
 20
-168.7710937078072
 30
0.0
 10
211.0823784194516
 20
-168.7710937078072
 30
0.0
 10
211.0823784194516
 20
-168.7710937078072
 30
0.0
 10
211.0975368395867
 20
-173.7447780598624
 30
0.0
 10
211.0975368395867
 20
-173.7447780598624
 30
0.0
 10
211.0975368395867
 20
-173.7447780598624
 30
0.0
 10
199.3132432227411
 20
-173.8605332681668
 30
0.0
 10
199.3132432227411
 20
-173.8605332681668
 30
0.0
  0
SPLINE
  5
143
330
1F
100
AcDbEntity
  8
Layer 1
370
     0
100
AcDbSpline
210
0.0
220
0.0
230
1.0
 70
    11
 71
     3
 72
    35
 73
    31
 74
     0
 42
0.0000000001
 43
0.0000000001
 40
0.0
 40
0.0
 40
0.0
 40
0.0
 40
1.0
 40
1.0
 40
1.0
 40
2.0
 40
2.0
 40
2.0
 40
3.0
 40
3.0
 40
3.0
 40
4.0
 40
4.0
 40
4.0
 40
5.0
 40
5.0
 40
5.0
 40
6.0
 40
6.0
 40
6.0
 40
7.0
 40
7.0
 40
7.0
 40
8.0
 40
8.0
 40
8.0
 40
9.0
 40
9.0
 40
9.0
 40
10.0
 40
10.0
 40
10.0
 40
10.0
 10
211.0823784194516
 20
-167.0065158002623
 30
0.0
 10
211.0823784194516
 20
-167.0065158002623
 30
0.0
 10
196.7611164872681
 20
-167.0065158002623
 30
0.0
 10
196.7611164872681
 20
-167.0065158002623
 30
0.0
 10
195.6910698295495
 20
-165.1561550151346
 30
0.0
 10
191.4797851083801
 20
-158.7045246999072
 30
0.0
 10
184.6757215250116
 20
-158.5405381548093
 30
0.0
 10
181.9837239128374
 20
-158.4757703596866
 30
0.0
 10
178.6433593303392
 20
-158.4426974430282
 30
0.0
 10
174.7462673174246
 20
-158.4426974430282
 30
0.0
 10
172.7687825088911
 20
-158.4426974430282
 30
0.0
 10
171.1061794277096
 20
-158.4516546912899
 30
0.0
 10
170.1443087682278
 20
-158.4582003727118
 30
0.0
 10
170.1443087682278
 20
-158.4582003727118
 30
0.0
 10
170.1443087682278
 20
-158.0334200993805
 30
0.0
 10
170.1443087682278
 20
-158.0334200993805
 30
0.0
 10
171.8771917973085
 20
-157.4994302991668
 30
0.0
 10
177.3225097212944
 20
-156.0331976606445
 30
0.0
 10
184.487619311517
 20
-156.1634222699869
 30
0.0
 10
192.7737629726399
 20
-156.3170735286291
 30
0.0
 10
199.0059407054569
 20
-161.6493923206988
 30
0.0
 10
199.0679524241914
 20
-161.7027913007202
 30
0.0
 10
199.0679524241914
 20
-161.7027913007202
 30
0.0
 10
199.3132432227411
 20
-161.9167317303541
 30
0.0
 10
199.3132432227411
 20
-161.9167317303541
 30
0.0
 10
199.3132432227411
 20
-161.9167317303541
 30
0.0
 10
211.0975368395867
 20
-162.0324869386586
 30
0.0
 10
211.0975368395867
 20
-162.0324869386586
 30
0.0
 10
211.0975368395867
 20
-162.0324869386586
 30
0.0
 10
211.0823784194516
 20
-167.0065158002623
 30
0.0
 10
211.0823784194516
 20
-167.0065158002623
 30
0.0
  0
SPLINE
  5
144
330
1F
100
AcDbEntity
  8
Layer 1
370
     0
100
AcDbSpline
210
0.0
220
0.0
230
1.0
 70
    11
 71
     3
 72
    29
 73
    25
 74
     0
 42
0.0000000001
 43
0.0000000001
 40
0.0
 40
0.0
 40
0.0
 40
0.0
 40
1.0
 40
1.0
 40
1.0
 40
2.0
 40
2.0
 40
2.0
 40
3.0
 40
3.0
 40
3.0
 40
4.0
 40
4.0
 40
4.0
 40
5.0
 40
5.0
 40
5.0
 40
6.0
 40
6.0
 40
6.0
 40
7.0
 40
7.0
 40
7.0
 40
8.0
 40
8.0
 40
8.0
 40
8.0
 10
230.3335719910277
 20
-169.5617431216721
 30
0.0
 10
230.3335719910277
 20
-169.5617431216721
 30
0.0
 10
219.0357258566994
 20
-173.8078233072425
 30
0.0
 10
219.0357258566994
 20
-173.8078233072425
 30
0.0
 10
219.0357258566994
 20
-173.8078233072425
 30
0.0
 10
212.8559135752583
 20
-171.9068196184816
 30
0.0
 10
212.8559135752583
 20
-171.9068196184816
 30
0.0
 10
212.8559135752583
 20
-171.9068196184816
 30
0.0
 10
212.8462673078996
 20
-168.7707491982587
 30
0.0
 10
212.8462673078996
 20
-168.7707491982587
 30
0.0
 10
212.8462673078996
 20
-168.7707491982587
 30
0.0
 10
217.0506618380984
 20
-168.7707491982587
 30
0.0
 10
217.0506618380984
 20
-168.7707491982587
 30
0.0
 10
217.4372015515435
 20
-170.1518879782954
 30
0.0
 10
218.7036186519213
 20
-171.1688801655411
 30
0.0
 10
220.2063693025873
 20
-171.1688801655411
 30
0.0
 10
221.7084309341562
 20
-171.1688801655411
 30
0.0
 10
222.9755370536311
 20
-170.1518879782954
 30
0.0
 10
223.3620767670762
 20
-168.7707491982587
 30
0.0
 10
223.3620767670762
 20
-168.7707491982587
 30
0.0
 10
230.3335719910277
 20
-168.7707491982587
 30
0.0
 10
230.3335719910277
 20
-168.7707491982587
 30
0.0
 10
230.3335719910277
 20
-168.7707491982587
 30
0.0
 10
230.3335719910277
 20
-169.5617431216721
 30
0.0
 10
230.3335719910277
 20
-169.5617431216721
 30
0.0
  0
SPLINE
  5
145
330
1F
100
AcDbEntity
  8
Layer 1
370
     0
100
AcDbSpline
210
0.0
220
0.0
230
1.0
 70
    11
 71
     3
 72
    17
 73
    13
 74
     0
 42
0.0000000001
 43
0.0000000001
 40
0.0
 40
0.0
 40
0.0
 40
0.0
 40
1.0
 40
1.0
 40
1.0
 40
2.0
 40
2.0
 40
2.0
 40
3.0
 40
3.0
 40
3.0
 40
4.0
 40
4.0
 40
4.0
 40
4.0
 10
218.6905272890774
 20
-167.8891492635833
 30
0.0
 10
218.6905272890774
 20
-167.0526800797646
 30
0.0
 10
219.3705891378657
 20
-166.3726182309763
 30
0.0
 10
220.2063693025873
 20
-166.3726182309763
 30
0.0
 10
221.0421494673089
 20
-166.3726182309763
 30
0.0
 10
221.7222113160972
 20
-167.0526800797646
 30
0.0
 10
221.7222113160972
 20
-167.8884602444862
 30
0.0
 10
221.7222113160972
 20
-168.7245849187564
 30
0.0
 10
221.0421494673089
 20
-169.4049912770932
 30
0.0
 10
220.2063693025873
 20
-169.4049912770932
 30
0.0
 10
219.3705891378657
 20
-169.4049912770932
 30
0.0
 10
218.6905272890774
 20
-168.7245849187564
 30
0.0
 10
218.6905272890774
 20
-167.8891492635833
 30
0.0
  0
SPLINE
  5
146
330
1F
100
AcDbEntity
  8
Layer 1
370
     0
100
AcDbSpline
210
0.0
220
0.0
230
1.0
 70
    11
 71
     3
 72
    29
 73
    25
 74
     0
 42
0.0000000001
 43
0.0000000001
 40
0.0
 40
0.0
 40
0.0
 40
0.0
 40
1.0
 40
1.0
 40
1.0
 40
2.0
 40
2.0
 40
2.0
 40
3.0
 40
3.0
 40
3.0
 40
4.0
 40
4.0
 40
4.0
 40
5.0
 40
5.0
 40
5.0
 40
6.0
 40
6.0
 40
6.0
 40
7.0
 40
7.0
 40
7.0
 40
8.0
 40
8.0
 40
8.0
 40
8.0
 10
230.3335719910277
 20
-167.0065158002623
 30
0.0
 10
230.3335719910277
 20
-167.0065158002623
 30
0.0
 10
223.3620767670762
 20
-167.0065158002623
 30
0.0
 10
223.3620767670762
 20
-167.0065158002623
 30
0.0
 10
222.9755370536311
 20
-165.6257215297741
 30
0.0
 10
221.7084309341562
 20
-164.6087293425284
 30
0.0
 10
220.2063693025873
 20
-164.6087293425284
 30
0.0
 10
218.7043076710184
 20
-164.6087293425284
 30
0.0
 10
217.4378905706405
 20
-165.6257215297741
 30
0.0
 10
217.0506618380984
 20
-167.0065158002623
 30
0.0
 10
217.0506618380984
 20
-167.0065158002623
 30
0.0
 10
212.8462673078996
 20
-167.0065158002623
 30
0.0
 10
212.8462673078996
 20
-167.0065158002623
 30
0.0
 10
212.8462673078996
 20
-167.0065158002623
 30
0.0
 10
212.8559135752583
 20
-163.8707898895879
 30
0.0
 10
212.8559135752583
 20
-163.8707898895879
 30
0.0
 10
212.8559135752583
 20
-163.8707898895879
 30
0.0
 10
219.0357258566994
 20
-161.969786200827
 30
0.0
 10
219.0357258566994
 20
-161.969786200827
 30
0.0
 10
219.0357258566994
 20
-161.969786200827
 30
0.0
 10
230.3335719910277
 20
-166.2151773673004
 30
0.0
 10
230.3335719910277
 20
-166.2151773673004
 30
0.0
 10
230.3335719910277
 20
-166.2151773673004
 30
0.0
 10
230.3335719910277
 20
-167.0065158002623
 30
0.0
 10
230.3335719910277
 20
-167.0065158002623
 30
0.0
  0
POLYLINE
  5
147
330
1F
100
AcDbEntity
  8
Layer 1
370
     0
100
AcDb2dPolyline
 66
     1
 10
0.0
 20
0.0
 30
0.0
  0
VERTEX
  5
148
330
147
100
AcDbEntity
  8
Layer 1
370
     0
100
AcDbVertex
100
AcDb2dVertex
 10
293.499742222632
 20
-260.3021131076675
 30
0.0
  0
VERTEX
  5
149
330
147
100
AcDbEntity
  8
Layer 1
370
     0
100
AcDbVertex
100
AcDb2dVertex
 10
3.500044758239572
 20
-260.3021131076675
 30
0.0
  0
VERTEX
  5
14A
330
147
100
AcDbEntity
  8
Layer 1
370
     0
100
AcDbVertex
100
AcDb2dVertex
 10
3.500044758239572
 20
-200.3016411174593
 30
0.0
  0
VERTEX
  5
14B
330
147
100
AcDbEntity
  8
Layer 1
370
     0
100
AcDbVertex
100
AcDb2dVertex
 10
293.499742222632
 20
-200.3016411174593
 30
0.0
  0
VERTEX
  5
14C
330
147
100
AcDbEntity
  8
Layer 1
370
     0
100
AcDbVertex
100
AcDb2dVertex
 10
293.499742222632
 20
-260.3021131076675
 30
0.0
  0
SEQEND
  5
14D
330
147
100
AcDbEntity
  8
Layer 1
370
     0
  0
HATCH
  5
14E
330
1F
100
AcDbEntity
  8
Layer 1
 62
     7
420
 16777215
100
AcDbHatch
 10
0.0
 20
0.0
 30
0.0
210
0.0
220
0.0
230
1.0
  2
SOLID
 70
     1
 71
     0
 91
        1
 92
        1
 93
        4
 72
     1
 10
293.499742222632
 20
-260.3021131076675
 11
3.500044758239596
 21
-260.3021131076675
 72
     1
 10
3.500044758239572
 20
-260.3021131076675
 11
3.500044758239572
 21
-200.3016411174593
 72
     1
 10
3.500044758239572
 20
-200.3016411174593
 11
293.499742222632
 21
-200.3016411174593
 72
     1
 10
293.499742222632
 20
-200.3016411174593
 11
293.499742222632
 21
-260.3021131076675
 97
        0
 75
     2
 76
     1
 98
        0
  0
INSERT
  5
150
330
1F
100
AcDbEntity
  8
Layer 1
100
AcDbBlockReference
  2
block 8
 10
0.0
 20
0.0
 30
0.0
  0
INSERT
  5
1D9
330
1F
100
AcDbEntity
  8
Layer 1
100
AcDbBlockReference
  2
block 9
 10
0.0
 20
0.0
 30
0.0
  0
INSERT
  5
1E5
330
1F
100
AcDbEntity
  8
Layer 1
100
AcDbBlockReference
  2
block 10
 10
0.0
 20
0.0
 30
0.0
  0
INSERT
  5
270
330
1F
100
AcDbEntity
  8
Layer 1
100
AcDbBlockReference
  2
block 11
 10
0.0
 20
0.0
 30
0.0
  0
INSERT
  5
27C
330
1F
100
AcDbEntity
  8
Layer 1
100
AcDbBlockReference
  2
block 12
 10
0.0
 20
0.0
 30
0.0
  0
ENDSEC
  0
SECTION
  2
OBJECTS
  0
DICTIONARY
  5
C
330
0
100
AcDbDictionary
281
     1
  3
ACAD_GROUP
350
D
  3
ACAD_LAYOUT
350
1A
  3
ACAD_MLINESTYLE
350
17
  3
ACAD_PLOTSETTINGS
350
19
  3
ACAD_PLOTSTYLENAME
350
E
  3
ACAD_TABLESTYLE
350
2D1
  3
ACAD_VISUALSTYLE
350
2A
  0
DICTIONARY
  5
D
102
{ACAD_REACTORS
330
C
102
}
330
C
100
AcDbDictionary
281
     1
  0
DICTIONARY
  5
1A
102
{ACAD_REACTORS
330
C
102
}
330
C
100
AcDbDictionary
281
     1
  3
Layout1
350
1E
  3
Layout2
350
26
  3
Model
350
22
  0
DICTIONARY
  5
17
102
{ACAD_REACTORS
330
C
102
}
330
C
100
AcDbDictionary
281
     1
  3
Standard
350
18
  0
DICTIONARY
  5
19
102
{ACAD_REACTORS
330
C
102
}
330
C
100
AcDbDictionary
281
     1
  0
ACDBDICTIONARYWDFLT
  5
E
102
{ACAD_REACTORS
330
C
102
}
330
C
100
AcDbDictionary
281
     1
  3
Normal
350
F
100
AcDbDictionaryWithDefault
340
F
  0
DICTIONARY
  5
2D1
102
{ACAD_REACTORS
330
C
102
}
330
C
100
AcDbDictionary
281
     1
  0
DICTIONARY
  5
2A
102
{ACAD_REACTORS
330
C
102
}
330
C
100
AcDbDictionary
281
     1
  3
2dWireframe
350
2F
  3
3D Hidden
350
31
  3
3dWireframe
350
30
  3
Basic
350
32
  3
Brighten
350
36
  3
ColorChange
350
3A
  3
Conceptual
350
34
  3
Dim
350
35
  3
Facepattern
350
39
  3
Flat
350
2B
  3
FlatWithEdges
350
2C
  3
Gouraud
350
2D
  3
GouraudWithEdges
350
2E
  3
Linepattern
350
38
  3
Realistic
350
33
  3
Thicken
350
37
  0
LAYOUT
  5
1E
102
{ACAD_REACTORS
330
1A
102
}
330
1A
100
AcDbPlotSettings
  1

  2
none_device
  4

  6

 40
0.0
 41
0.0
 42
0.0
 43
0.0
 44
0.0
 45
0.0
 46
0.0
 47
0.0
 48
0.0
 49
0.0
140
0.0
141
0.0
142
1.0
143
1.0
 70
   688
 72
     0
 73
     0
 74
     5
  7

 75
    16
 76
     0
 77
     2
 78
   300
147
1.0
148
0.0
149
0.0
100
AcDbLayout
  1
Layout1
 70
     1
 71
     1
 10
0.0
 20
0.0
 11
12.0
 21
9.0
 12
0.0
 22
0.0
 32
0.0
 14
1.000000000000000E+20
 24
1.000000000000000E+20
 34
1.000000000000000E+20
 15
-1.000000000000000E+20
 25
-1.000000000000000E+20
 35
-1.000000000000000E+20
146
0.0
 13
0.0
 23
0.0
 33
0.0
 16
1.0
 26
0.0
 36
0.0
 17
0.0
 27
1.0
 37
0.0
 76
     0
330
1B
  0
LAYOUT
  5
26
102
{ACAD_REACTORS
330
1A
102
}
330
1A
100
AcDbPlotSettings
  1

  2
none_device
  4

  6

 40
0.0
 41
0.0
 42
0.0
 43
0.0
 44
0.0
 45
0.0
 46
0.0
 47
0.0
 48
0.0
 49
0.0
140
0.0
141
0.0
142
1.0
143
1.0
 70
   688
 72
     0
 73
     0
 74
     5
  7

 75
    16
 76
     0
 77
     2
 78
   300
147
1.0
148
0.0
149
0.0
100
AcDbLayout
  1
Layout2
 70
     1
 71
     2
 10
0.0
 20
0.0
 11
0.0
 21
0.0
 12
0.0
 22
0.0
 32
0.0
 14
0.0
 24
0.0
 34
0.0
 15
0.0
 25
0.0
 35
0.0
146
0.0
 13
0.0
 23
0.0
 33
0.0
 16
1.0
 26
0.0
 36
0.0
 17
0.0
 27
1.0
 37
0.0
 76
     0
330
23
  0
LAYOUT
  5
22
102
{ACAD_REACTORS
330
1A
102
}
330
1A
100
AcDbPlotSettings
  1

  2
none_device
  4

  6

 40
0.0
 41
0.0
 42
0.0
 43
0.0
 44
0.0
 45
0.0
 46
0.0
 47
0.0
 48
0.0
 49
0.0
140
0.0
141
0.0
142
1.0
143
1.0
 70
  1712
 72
     0
 73
     0
 74
     0
  7

 75
     0
 76
     0
 77
     2
 78
   300
147
1.0
148
0.0
149
0.0
100
AcDbLayout
  1
Model
 70
     1
 71
     0
 10
0.0
 20
0.0
 11
12.0
 21
9.0
 12
0.0
 22
0.0
 32
0.0
 14
1.000000000000000E+20
 24
1.000000000000000E+20
 34
1.000000000000000E+20
 15
-1.000000000000000E+20
 25
-1.000000000000000E+20
 35
-1.000000000000000E+20
146
0.0
 13
0.0
 23
0.0
 33
0.0
 16
1.0
 26
0.0
 36
0.0
 17
0.0
 27
1.0
 37
0.0
 76
     0
330
1F
331
29
  0
MLINESTYLE
  5
18
102
{ACAD_REACTORS
330
17
102
}
330
17
100
AcDbMlineStyle
  2
Standard
 70
     0
  3

 62
   256
 51
90.0
 52
90.0
 71
     2
 49
0.5
 62
   256
  6
BYLAYER
 49
-0.5
 62
   256
  6
BYLAYER
  0
ACDBPLACEHOLDER
  5
F
102
{ACAD_REACTORS
330
E
102
}
330
E
  0
VISUALSTYLE
  5
2F
102
{ACAD_REACTORS
330
2A
102
}
330
2A
100
AcDbVisualStyle
  2
2dWireframe
 70
     4
 71
     0
 72
     2
 73
     0
 90
        0
 40
-0.6
 41
-30.0
 62
     5
 63
     7
421
 16777215
 74
     1
 91
        4
 64
     7
 65
   257
 75
     1
175
     1
 42
1.0
 92
        0
 66
   257
 43
1.0
 76
     1
 77
     6
 78
     2
 67
     7
 79
     5
170
     0
171
     0
290
     0
174
     0
 93
        1
 44
0.0
173
     0
291
     0
 45
0.0
1001
ACAD
1000
AcDbSavedByObjectVersion
1070
     0
  0
VISUALSTYLE
  5
31
102
{ACAD_REACTORS
330
2A
102
}
330
2A
100
AcDbVisualStyle
  2
3D Hidden
 70
     6
 71
     1
 72
     2
 73
     2
 90
        0
 40
-0.6
 41
-30.0
 62
     5
 63
     7
421
 16777215
 74
     2
 91
        2
 64
     7
 65
   257
 75
     2
175
     1
 42
40.0
 92
        0
 66
   257
 43
1.0
 76
     1
 77
     6
 78
     2
 67
     7
 79
     3
170
     0
171
     0
290
     0
174
     0
 93
        1
 44
0.0
173
     0
291
     0
 45
0.0
1001
ACAD
1000
AcDbSavedByObjectVersion
1070
     0
  0
VISUALSTYLE
  5
30
102
{ACAD_REACTORS
330
2A
102
}
330
2A
100
AcDbVisualStyle
  2
3dWireframe
 70
     5
 71
     0
 72
     2
 73
     0
 90
        0
 40
-0.6
 41
-30.0
 62
     5
 63
     7
421
 16777215
 74
     1
 91
        4
 64
     7
 65
   257
 75
     1
175
     1
 42
1.0
 92
        0
 66
   257
 43
1.0
 76
     1
 77
     6
 78
     2
 67
     7
 79
     5
170
     0
171
     0
290
     0
174
     0
 93
        1
 44
0.0
173
     0
291
     0
 45
0.0
1001
ACAD
1000
AcDbSavedByObjectVersion
1070
     0
  0
VISUALSTYLE
  5
32
102
{ACAD_REACTORS
330
2A
102
}
330
2A
100
AcDbVisualStyle
  2
Basic
 70
     7
 71
     1
 72
     0
 73
     1
 90
        0
 40
-0.6
 41
-30.0
 62
     5
 63
     7
421
 16777215
 74
     0
 91
        4
 64
     7
 65
   257
 75
     1
175
     1
 42
1.0
 92
        8
 66
     7
 43
1.0
 76
     1
 77
     6
 78
     2
 67
     7
 79
     5
170
     0
171
     0
290
     0
174
     0
 93
        1
 44
0.0
173
     0
291
     1
 45
0.0
1001
ACAD
1000
AcDbSavedByObjectVersion
1070
     0
  0
VISUALSTYLE
  5
36
102
{ACAD_REACTORS
330
2A
102
}
330
2A
100
AcDbVisualStyle
  2
Brighten
 70
    12
 71
     2
 72
     2
 73
     0
 90
        0
 40
-0.6
 41
-30.0
 62
     5
 63
     7
421
 16777215
 74
     1
 91
        4
 64
     7
 65
   257
 75
     1
175
     1
 42
1.0
 92
        8
 66
     7
 43
1.0
 76
     1
 77
     6
 78
     2
 67
     7
 79
     5
170
     0
171
     0
290
     0
174
     0
 93
        1
 44
50.0
173
     0
291
     1
 45
0.0
1001
ACAD
1000
AcDbSavedByObjectVersion
1070
     0
  0
VISUALSTYLE
  5
3A
102
{ACAD_REACTORS
330
2A
102
}
330
2A
100
AcDbVisualStyle
  2
ColorChange
 70
    16
 71
     2
 72
     2
 73
     3
 90
        0
 40
-0.6
 41
-30.0
 62
     5
 63
     8
421
  8421504
 74
     1
 91
        4
 64
     7
 65
   257
 75
     1
175
     1
 42
1.0
 92
        8
 66
     8
424
  8421504
 43
1.0
 76
     1
 77
     6
 78
     2
 67
     7
 79
     5
170
     0
171
     0
290
     0
174
     0
 93
        1
 44
0.0
173
     0
291
     1
 45
0.0
1001
ACAD
1000
AcDbSavedByObjectVersion
1070
     0
  0
VISUALSTYLE
  5
34
102
{ACAD_REACTORS
330
2A
102
}
330
2A
100
AcDbVisualStyle
  2
Conceptual
 70
     9
 71
     3
 72
     2
 73
     0
 90
        0
 40
-0.6
 41
-30.0
 62
     5
 63
     7
421
 16777215
 74
     2
 91
        2
 64
     7
 65
   257
 75
     1
175
     1
 42
40.0
 92
        8
 66
     7
 43
1.0
 76
     1
 77
     6
 78
     2
 67
     7
 79
     3
170
     0
171
     0
290
     0
174
     0
 93
        1
 44
0.0
173
     0
291
     0
 45
0.0
1001
ACAD
1000
AcDbSavedByObjectVersion
1070
     0
  0
VISUALSTYLE
  5
35
102
{ACAD_REACTORS
330
2A
102
}
330
2A
100
AcDbVisualStyle
  2
Dim
 70
    11
 71
     2
 72
     2
 73
     0
 90
        0
 40
-0.6
 41
-30.0
 62
     5
 63
     7
421
 16777215
 74
     1
 91
        4
 64
     7
 65
   257
 75
     1
175
     1
 42
1.0
 92
        8
 66
     7
 43
1.0
 76
     1
 77
     6
 78
     2
 67
     7
 79
     5
170
     0
171
     0
290
     0
174
     0
 93
        1
 44
-50.0
173
     0
291
     1
 45
0.0
1001
ACAD
1000
AcDbSavedByObjectVersion
1070
     0
  0
VISUALSTYLE
  5
39
102
{ACAD_REACTORS
330
2A
102
}
330
2A
100
AcDbVisualStyle
  2
Facepattern
 70
    15
 71
     2
 72
     2
 73
     0
 90
        0
 40
-0.6
 41
-30.0
 62
     5
 63
     7
421
 16777215
 74
     1
 91
        4
 64
     7
 65
   257
 75
     1
175
     1
 42
1.0
 92
        8
 66
     7
 43
1.0
 76
     1
 77
     6
 78
     2
 67
     7
 79
     5
170
     0
171
     0
290
     0
174
     0
 93
        1
 44
0.0
173
     0
291
     1
 45
0.0
1001
ACAD
1000
AcDbSavedByObjectVersion
1070
     0
  0
VISUALSTYLE
  5
2B
102
{ACAD_REACTORS
330
2A
102
}
330
2A
100
AcDbVisualStyle
  2
Flat
 70
     0
 71
     2
 72
     1
 73
     1
 90
        2
 40
-0.6
 41
30.0
 62
     5
 63
     7
421
 16777215
 74
     0
 91
        4
 64
     7
 65
   257
 75
     1
175
     1
 42
1.0
 92
        8
 66
     7
 43
1.0
 76
     1
 77
     6
 78
     2
 67
     7
 79
     5
170
     0
171
     0
290
     0
174
     0
 93
       13
 44
0.0
173
     0
291
     1
 45
0.0
1001
ACAD
1000
AcDbSavedByObjectVersion
1070
     0
  0
VISUALSTYLE
  5
2C
102
{ACAD_REACTORS
330
2A
102
}
330
2A
100
AcDbVisualStyle
  2
FlatWithEdges
 70
     1
 71
     2
 72
     1
 73
     1
 90
        2
 40
-0.6
 41
30.0
 62
     5
 63
     7
421
 16777215
 74
     1
 91
        4
 64
     7
 65
   257
 75
     1
175
     1
 42
1.0
 92
        0
 66
   257
 43
1.0
 76
     1
 77
     6
 78
     2
 67
     7
 79
     5
170
     0
171
     0
290
     0
174
     0
 93
       13
 44
0.0
173
     0
291
     1
 45
0.0
1001
ACAD
1000
AcDbSavedByObjectVersion
1070
     0
  0
VISUALSTYLE
  5
2D
102
{ACAD_REACTORS
330
2A
102
}
330
2A
100
AcDbVisualStyle
  2
Gouraud
 70
     2
 71
     2
 72
     2
 73
     1
 90
        2
 40
-0.6
 41
30.0
 62
     5
 63
     7
421
 16777215
 74
     0
 91
        4
 64
     7
 65
   257
 75
     1
175
     1
 42
1.0
 92
        0
 66
     7
 43
1.0
 76
     1
 77
     6
 78
     2
 67
     7
 79
     5
170
     0
171
     0
290
     0
174
     0
 93
       13
 44
0.0
173
     0
291
     1
 45
0.0
1001
ACAD
1000
AcDbSavedByObjectVersion
1070
     0
  0
VISUALSTYLE
  5
2E
102
{ACAD_REACTORS
330
2A
102
}
330
2A
100
AcDbVisualStyle
  2
GouraudWithEdges
 70
     3
 71
     2
 72
     2
 73
     1
 90
        2
 40
-0.6
 41
30.0
 62
     5
 63
     7
421
 16777215
 74
     1
 91
        4
 64
     7
 65
   257
 75
     1
175
     1
 42
1.0
 92
        0
 66
   257
 43
1.0
 76
     1
 77
     6
 78
     2
 67
     7
 79
     5
170
     0
171
     0
290
     0
174
     0
 93
       13
 44
0.0
173
     0
291
     1
 45
0.0
1001
ACAD
1000
AcDbSavedByObjectVersion
1070
     0
  0
VISUALSTYLE
  5
38
102
{ACAD_REACTORS
330
2A
102
}
330
2A
100
AcDbVisualStyle
  2
Linepattern
 70
    14
 71
     2
 72
     2
 73
     0
 90
        0
 40
-0.6
 41
-30.0
 62
     5
 63
     7
421
 16777215
 74
     1
 91
        4
 64
     7
 65
   257
 75
     7
175
     7
 42
1.0
 92
        8
 66
     7
 43
1.0
 76
     1
 77
     6
 78
     2
 67
     7
 79
     5
170
     0
171
     0
290
     0
174
     0
 93
        1
 44
0.0
173
     0
291
     1
 45
0.0
1001
ACAD
1000
AcDbSavedByObjectVersion
1070
     0
  0
VISUALSTYLE
  5
33
102
{ACAD_REACTORS
330
2A
102
}
330
2A
100
AcDbVisualStyle
  2
Realistic
 70
     8
 71
     2
 72
     2
 73
     0
 90
        0
 40
-0.6
 41
-30.0
 62
     5
 63
     7
421
 16777215
 74
     1
 91
        0
 64
     7
 65
   257
 75
     1
175
     1
 42
1.0
 92
        8
 66
     8
424
  7895160
 43
1.0
 76
     1
 77
     6
 78
     2
 67
     7
 79
     5
170
     0
171
     0
290
     0
174
     0
 93
       13
 44
0.0
173
     0
291
     0
 45
0.0
1001
ACAD
1000
AcDbSavedByObjectVersion
1070
     0
  0
VISUALSTYLE
  5
37
102
{ACAD_REACTORS
330
2A
102
}
330
2A
100
AcDbVisualStyle
  2
Thicken
 70
    13
 71
     2
 72
     2
 73
     0
 90
        0
 40
-0.6
 41
-30.0
 62
     5
 63
     7
421
 16777215
 74
     1
 91
        4
 64
     7
 65
   257
 75
     1
175
     1
 42
1.0
 92
       12
 66
     7
 43
1.0
 76
     1
 77
     6
 78
     2
 67
     7
 79
     5
170
     0
171
     0
290
     0
174
     0
 93
        1
 44
0.0
173
     0
291
     1
 45
0.0
1001
ACAD
1000
AcDbSavedByObjectVersion
1070
     0
  0
ENDSEC
  0
EOF
