  0
SECTION
  2
HEADER
  9
$ACADVER
  1
AC1024
  9
$ACADMAINTVER
 70
     6
  9
$DWGCODEPAGE
  3
ANSI_1252
  9
$INSBASE
 10
0.0
 20
0.0
 30
0.0
  9
$EXTMIN
 10
1.000000000000000E+20
 20
1.000000000000000E+20
 30
1.000000000000000E+20
  9
$EXTMAX
 10
-1.000000000000000E+20
 20
-1.000000000000000E+20
 30
-1.000000000000000E+20
  9
$LIMMIN
 10
0.0
 20
0.0
  9
$LIMMAX
 10
12.0
 20
9.0
  9
$ORTHOMODE
 70
     0
  9
$REGENMODE
 70
     1
  9
$FILLMODE
 70
     1
  9
$QTEXTMODE
 70
     0
  9
$MIRRTEXT
 70
     1
  9
$LTSCALE
 40
1.0
  9
$ATTMODE
 70
     1
  9
$TEXTSIZE
 40
0.2
  9
$TRACEWID
 40
0.05
  9
$TEXTSTYLE
  7
Standard
  9
$CLAYER
  8
0
  9
$CELTYPE
  6
ByLayer
  9
$CECOLOR
 62
   256
  9
$CELTSCALE
 40
1.0
  9
$DISPSILH
 70
     0
  9
$DIMSCALE
 40
1.0
  9
$DIMASZ
 40
0.18
  9
$DIMEXO
 40
0.0625
  9
$DIMDLI
 40
0.38
  9
$DIMRND
 40
0.0
  9
$DIMDLE
 40
0.0
  9
$DIMEXE
 40
0.18
  9
$DIMTP
 40
0.0
  9
$DIMTM
 40
0.0
  9
$DIMTXT
 40
0.18
  9
$DIMCEN
 40
0.09
  9
$DIMTSZ
 40
0.0
  9
$DIMTOL
 70
     0
  9
$DIMLIM
 70
     0
  9
$DIMTIH
 70
     1
  9
$DIMTOH
 70
     1
  9
$DIMSE1
 70
     0
  9
$DIMSE2
 70
     0
  9
$DIMTAD
 70
     0
  9
$DIMZIN
 70
     0
  9
$DIMBLK
  1

  9
$DIMASO
 70
     1
  9
$DIMSHO
 70
     1
  9
$DIMPOST
  1

  9
$DIMAPOST
  1

  9
$DIMALT
 70
     0
  9
$DIMALTD
 70
     2
  9
$DIMALTF
 40
25.4
  9
$DIMLFAC
 40
1.0
  9
$DIMTOFL
 70
     0
  9
$DIMTVP
 40
0.0
  9
$DIMTIX
 70
     0
  9
$DIMSOXD
 70
     0
  9
$DIMSAH
 70
     0
  9
$DIMBLK1
  1

  9
$DIMBLK2
  1

  9
$DIMSTYLE
  2
Standard
  9
$DIMCLRD
 70
     0
  9
$DIMCLRE
 70
     0
  9
$DIMCLRT
 70
     0
  9
$DIMTFAC
 40
1.0
  9
$DIMGAP
 40
0.09
  9
$DIMJUST
 70
     0
  9
$DIMSD1
 70
     0
  9
$DIMSD2
 70
     0
  9
$DIMTOLJ
 70
     1
  9
$DIMTZIN
 70
     0
  9
$DIMALTZ
 70
     0
  9
$DIMALTTZ
 70
     0
  9
$DIMUPT
 70
     0
  9
$DIMDEC
 70
     4
  9
$DIMTDEC
 70
     4
  9
$DIMALTU
 70
     2
  9
$DIMALTTD
 70
     2
  9
$DIMTXSTY
  7
Standard
  9
$DIMAUNIT
 70
     0
  9
$DIMADEC
 70
     0
  9
$DIMALTRND
 40
0.0
  9
$DIMAZIN
 70
     0
  9
$DIMDSEP
 70
    46
  9
$DIMATFIT
 70
     3
  9
$DIMFRAC
 70
     0
  9
$DIMLDRBLK
  1

  9
$DIMLUNIT
 70
     2
  9
$DIMLWD
 70
    -2
  9
$DIMLWE
 70
    -2
  9
$DIMTMOVE
 70
     0
  9
$DIMFXL
 40
1.0
  9
$DIMFXLON
 70
     0
  9
$DIMJOGANG
 40
0.7853981633974483
  9
$DIMTFILL
 70
     0
  9
$DIMTFILLCLR
 70
     0
  9
$DIMARCSYM
 70
     0
  9
$DIMLTYPE
  6

  9
$DIMLTEX1
  6

  9
$DIMLTEX2
  6

  9
$DIMTXTDIRECTION
 70
     0
  9
$LUNITS
 70
     2
  9
$LUPREC
 70
     4
  9
$SKETCHINC
 40
0.1
  9
$FILLETRAD
 40
0.5
  9
$AUNITS
 70
     0
  9
$AUPREC
 70
     0
  9
$MENU
  1
.
  9
$ELEVATION
 40
0.0
  9
$PELEVATION
 40
0.0
  9
$THICKNESS
 40
0.0
  9
$LIMCHECK
 70
     0
  9
$CHAMFERA
 40
0.5
  9
$CHAMFERB
 40
0.5
  9
$CHAMFERC
 40
1.0
  9
$CHAMFERD
 40
0.0
  9
$SKPOLY
 70
     0
  9
$TDCREATE
 40
2457463.610823924
  9
$TDUCREATE
 40
2457463.569157257
  9
$TDUPDATE
 40
2457463.610824005
  9
$TDUUPDATE
 40
2457463.569157338
  9
$TDINDWG
 40
0.0000000116
  9
$TDUSRTIMER
 40
0.0000000116
  9
$USRTIMER
 70
     1
  9
$ANGBASE
 50
0.0
  9
$ANGDIR
 70
     0
  9
$PDMODE
 70
     0
  9
$PDSIZE
 40
0.0
  9
$PLINEWID
 40
0.0
  9
$SPLFRAME
 70
     0
  9
$SPLINETYPE
 70
     6
  9
$SPLINESEGS
 70
     8
  9
$HANDSEED
  5
1EE
  9
$SURFTAB1
 70
     6
  9
$SURFTAB2
 70
     6
  9
$SURFTYPE
 70
     6
  9
$SURFU
 70
     6
  9
$SURFV
 70
     6
  9
$UCSBASE
  2

  9
$UCSNAME
  2

  9
$UCSORG
 10
0.0
 20
0.0
 30
0.0
  9
$UCSXDIR
 10
1.0
 20
0.0
 30
0.0
  9
$UCSYDIR
 10
0.0
 20
1.0
 30
0.0
  9
$UCSORTHOREF
  2

  9
$UCSORTHOVIEW
 70
     0
  9
$UCSORGTOP
 10
0.0
 20
0.0
 30
0.0
  9
$UCSORGBOTTOM
 10
0.0
 20
0.0
 30
0.0
  9
$UCSORGLEFT
 10
0.0
 20
0.0
 30
0.0
  9
$UCSORGRIGHT
 10
0.0
 20
0.0
 30
0.0
  9
$UCSORGFRONT
 10
0.0
 20
0.0
 30
0.0
  9
$UCSORGBACK
 10
0.0
 20
0.0
 30
0.0
  9
$PUCSBASE
  2

  9
$PUCSNAME
  2

  9
$PUCSORG
 10
0.0
 20
0.0
 30
0.0
  9
$PUCSXDIR
 10
1.0
 20
0.0
 30
0.0
  9
$PUCSYDIR
 10
0.0
 20
1.0
 30
0.0
  9
$PUCSORTHOREF
  2

  9
$PUCSORTHOVIEW
 70
     0
  9
$PUCSORGTOP
 10
0.0
 20
0.0
 30
0.0
  9
$PUCSORGBOTTOM
 10
0.0
 20
0.0
 30
0.0
  9
$PUCSORGLEFT
 10
0.0
 20
0.0
 30
0.0
  9
$PUCSORGRIGHT
 10
0.0
 20
0.0
 30
0.0
  9
$PUCSORGFRONT
 10
0.0
 20
0.0
 30
0.0
  9
$PUCSORGBACK
 10
0.0
 20
0.0
 30
0.0
  9
$USERI1
 70
     0
  9
$USERI2
 70
     0
  9
$USERI3
 70
     0
  9
$USERI4
 70
     0
  9
$USERI5
 70
     0
  9
$USERR1
 40
0.0
  9
$USERR2
 40
0.0
  9
$USERR3
 40
0.0
  9
$USERR4
 40
0.0
  9
$USERR5
 40
0.0
  9
$WORLDVIEW
 70
     1
  9
$SHADEDGE
 70
     3
  9
$SHADEDIF
 70
    70
  9
$TILEMODE
 70
     1
  9
$MAXACTVP
 70
    64
  9
$PINSBASE
 10
0.0
 20
0.0
 30
0.0
  9
$PLIMCHECK
 70
     0
  9
$PEXTMIN
 10
1.000000000000000E+20
 20
1.000000000000000E+20
 30
1.000000000000000E+20
  9
$PEXTMAX
 10
-1.000000000000000E+20
 20
-1.000000000000000E+20
 30
-1.000000000000000E+20
  9
$PLIMMIN
 10
0.0
 20
0.0
  9
$PLIMMAX
 10
12.0
 20
9.0
  9
$UNITMODE
 70
     0
  9
$VISRETAIN
 70
     1
  9
$PLINEGEN
 70
     0
  9
$PSLTSCALE
 70
     1
  9
$TREEDEPTH
 70
  3020
  9
$CMLSTYLE
  2
Standard
  9
$CMLJUST
 70
     0
  9
$CMLSCALE
 40
1.0
  9
$PROXYGRAPHICS
 70
     1
  9
$MEASUREMENT
 70
     0
  9
$CELWEIGHT
370
    -1
  9
$ENDCAPS
280
     0
  9
$JOINSTYLE
280
     0
  9
$LWDISPLAY
290
     1
  9
$INSUNITS
 70
     1
  9
$HYPERLINKBASE
  1

  9
$STYLESHEET
  1

  9
$XEDIT
290
     1
  9
$CEPSNTYPE
380
     0
  9
$PSTYLEMODE
290
     1
  9
$FINGERPRINTGUID
  2
{E9DDC251-4A19-44A0-86CB-B5B7653C494F}
  9
$VERSIONGUID
  2
{FAEB1C32-E019-11D5-929B-00C0DF256EC4}
  9
$EXTNAMES
290
     1
  9
$PSVPSCALE
 40
0.0
  9
$OLESTARTUP
290
     0
  9
$SORTENTS
280
   127
  9
$INDEXCTL
280
     0
  9
$HIDETEXT
280
     1
  9
$XCLIPFRAME
280
     2
  9
$HALOGAP
280
     0
  9
$OBSCOLOR
 70
   257
  9
$OBSLTYPE
280
     0
  9
$INTERSECTIONDISPLAY
280
     0
  9
$INTERSECTIONCOLOR
 70
   257
  9
$DIMASSOC
280
     2
  9
$PROJECTNAME
  1

  9
$CAMERADISPLAY
290
     0
  9
$LENSLENGTH
 40
50.0
  9
$CAMERAHEIGHT
 40
0.0
  9
$STEPSPERSEC
 40
2.0
  9
$STEPSIZE
 40
6.0
  9
$3DDWFPREC
 40
2.0
  9
$PSOLWIDTH
 40
0.25
  9
$PSOLHEIGHT
 40
4.0
  9
$LOFTANG1
 40
1.570796326794897
  9
$LOFTANG2
 40
1.570796326794897
  9
$LOFTMAG1
 40
0.0
  9
$LOFTMAG2
 40
0.0
  9
$LOFTPARAM
 70
     7
  9
$LOFTNORMALS
280
     1
  9
$LATITUDE
 40
37.795
  9
$LONGITUDE
 40
-122.394
  9
$NORTHDIRECTION
 40
0.0
  9
$TIMEZONE
 70
 -8000
  9
$LIGHTGLYPHDISPLAY
280
     1
  9
$TILEMODELIGHTSYNCH
280
     1
  9
$CMATERIAL
347
3C
  9
$SOLIDHIST
280
     1
  9
$SHOWHIST
280
     1
  9
$DWFFRAME
280
     2
  9
$DGNFRAME
280
     2
  9
$REALWORLDSCALE
290
     1
  9
$INTERFERECOLOR
 62
   256
  9
$CSHADOW
280
     0
  9
$SHADOWPLANELOCATION
 40
0.0
  0
ENDSEC
  0
SECTION
  2
CLASSES
  0
CLASS
  1
ACDBDICTIONARYWDFLT
  2
AcDbDictionaryWithDefault
  3
ObjectDBX Classes
 90
        0
 91
        4
280
     0
281
     0
  0
CLASS
  1
VISUALSTYLE
  2
AcDbVisualStyle
  3
ObjectDBX Classes
 90
     4095
 91
        4
280
     0
281
     0
  0
CLASS
  1
MATERIAL
  2
AcDbMaterial
  3
ObjectDBX Classes
 90
     1153
 91
        4
280
     0
281
     0
  0
CLASS
  1
SUN
  2
AcDbSun
  3
SCENEOE
 90
     1024
 91
        4
280
     0
281
     0
  0
ENDSEC
  0
SECTION
  2
TABLES
  0
TABLE
  2
VPORT
  5
8
330
0
100
AcDbSymbolTable
 70
     1
  0
VPORT
  5
29
330
8
100
AcDbSymbolTableRecord
100
AcDbViewportTableRecord
  2
*Active
 70
     0
 10
0.0
 20
0.0
 11
1.0
 21
1.0
 12
0.0
 22
0.0
 13
0.0
 23
0.0
 14
0.5
 24
0.5
 15
0.5
 25
0.5
 16
0.0
 26
0.0
 36
1.0
 17
105.0007777515277
 27
148.5000416295419
 37
0.0
 40
1199.9999997
 41
1.916666666666667
 42
50.0
 43
0.0
 44
0.0
 50
0.0
 51
0.0
 71
     0
 72
   100
 73
     1
 74
     3
 75
     0
 76
     0
 77
     0
 78
     0
281
     0
 65
     1
110
0.0
120
0.0
130
0.0
111
1.0
121
0.0
131
0.0
112
0.0
122
1.0
132
0.0
 79
     0
146
0.0
 60
     3
 61
     5
292
     1
282
     1
141
0.0
142
0.0
 63
   250
361
3F
  0
ENDTAB
  0
TABLE
  2
LTYPE
  5
5
330
0
100
AcDbSymbolTable
 70
     1
  0
LTYPE
  5
14
330
5
100
AcDbSymbolTableRecord
100
AcDbLinetypeTableRecord
  2
ByBlock
 70
     0
  3

 72
    65
 73
     0
 40
0.0
  0
LTYPE
  5
15
330
5
100
AcDbSymbolTableRecord
100
AcDbLinetypeTableRecord
  2
ByLayer
 70
     0
  3

 72
    65
 73
     0
 40
0.0
  0
LTYPE
  5
16
330
5
100
AcDbSymbolTableRecord
100
AcDbLinetypeTableRecord
  2
Continuous
 70
     0
  3
Solid line
 72
    65
 73
     0
 40
0.0
  0
ENDTAB
  0
TABLE
  2
LAYER
  5
2
330
0
100
AcDbSymbolTable
 70
     1
  0
LAYER
  5
10
330
2
100
AcDbSymbolTableRecord
100
AcDbLayerTableRecord
  2
0
 70
     0
 62
     7
  6
Continuous
370
    -3
390
F
347
3E
  0
ENDTAB
  0
TABLE
  2
STYLE
  5
3
330
0
100
AcDbSymbolTable
 70
     1
  0
STYLE
  5
11
330
3
100
AcDbSymbolTableRecord
100
AcDbTextStyleTableRecord
  2
Standard
 70
     0
 40
0.0
 41
1.0
 50
0.0
 71
     0
 42
0.2
  3
txt
  4

  0
ENDTAB
  0
TABLE
  2
VIEW
  5
6
330
0
100
AcDbSymbolTable
 70
     0
  0
ENDTAB
  0
TABLE
  2
UCS
  5
7
330
0
100
AcDbSymbolTable
 70
     0
  0
ENDTAB
  0
TABLE
  2
APPID
  5
9
330
0
100
AcDbSymbolTable
 70
     1
  0
APPID
  5
12
330
9
100
AcDbSymbolTableRecord
100
AcDbRegAppTableRecord
  2
ACAD
 70
     0
  0
ENDTAB
  0
TABLE
  2
DIMSTYLE
  5
A
330
0
100
AcDbSymbolTable
 70
     1
100
AcDbDimStyleTable
  0
DIMSTYLE
105
27
330
A
100
AcDbSymbolTableRecord
100
AcDbDimStyleTableRecord
  2
Standard
 70
     0
178
     0
340
11
  0
ENDTAB
  0
TABLE
  2
BLOCK_RECORD
  5
1
330
0
100
AcDbSymbolTable
 70
    93
  0
BLOCK_RECORD
  5
1F
330
1
100
AcDbSymbolTableRecord
100
AcDbBlockTableRecord
  2
*Model_Space
340
22
 70
     0
280
     1
281
     0
  0
BLOCK_RECORD
  5
1B
330
1
100
AcDbSymbolTableRecord
100
AcDbBlockTableRecord
  2
*Paper_Space
340
1E
 70
     0
280
     1
281
     0
  0
BLOCK_RECORD
  5
23
330
1
100
AcDbSymbolTableRecord
100
AcDbBlockTableRecord
  2
*Paper_Space0
340
26
 70
     0
280
     1
281
     0
  0
BLOCK_RECORD
  5
40
330
1
100
AcDbSymbolTableRecord
100
AcDbBlockTableRecord
  2
block 2
340
0
102
{BLKREFS
331
41
102
}
 70
     0
280
     1
281
     0
  0
BLOCK_RECORD
  5
44
330
1
100
AcDbSymbolTableRecord
100
AcDbBlockTableRecord
  2
block 3
340
0
102
{BLKREFS
331
45
102
}
 70
     0
280
     1
281
     0
  0
BLOCK_RECORD
  5
49
330
1
100
AcDbSymbolTableRecord
100
AcDbBlockTableRecord
  2
block 4
340
0
102
{BLKREFS
331
4A
102
}
 70
     0
280
     1
281
     0
  0
BLOCK_RECORD
  5
4E
330
1
100
AcDbSymbolTableRecord
100
AcDbBlockTableRecord
  2
block 5
340
0
102
{BLKREFS
331
4F
102
}
 70
     0
280
     1
281
     0
  0
BLOCK_RECORD
  5
53
330
1
100
AcDbSymbolTableRecord
100
AcDbBlockTableRecord
  2
block 6
340
0
102
{BLKREFS
331
54
102
}
 70
     0
280
     1
281
     0
  0
BLOCK_RECORD
  5
57
330
1
100
AcDbSymbolTableRecord
100
AcDbBlockTableRecord
  2
block 7
340
0
102
{BLKREFS
331
58
102
}
 70
     0
280
     1
281
     0
  0
BLOCK_RECORD
  5
5C
330
1
100
AcDbSymbolTableRecord
100
AcDbBlockTableRecord
  2
block 8
340
0
102
{BLKREFS
331
5D
102
}
 70
     0
280
     1
281
     0
  0
BLOCK_RECORD
  5
61
330
1
100
AcDbSymbolTableRecord
100
AcDbBlockTableRecord
  2
block 9
340
0
102
{BLKREFS
331
62
102
}
 70
     0
280
     1
281
     0
  0
BLOCK_RECORD
  5
66
330
1
100
AcDbSymbolTableRecord
100
AcDbBlockTableRecord
  2
block 10
340
0
102
{BLKREFS
331
67
102
}
 70
     0
280
     1
281
     0
  0
BLOCK_RECORD
  5
6A
330
1
100
AcDbSymbolTableRecord
100
AcDbBlockTableRecord
  2
block 11
340
0
102
{BLKREFS
331
6B
102
}
 70
     0
280
     1
281
     0
  0
BLOCK_RECORD
  5
6F
330
1
100
AcDbSymbolTableRecord
100
AcDbBlockTableRecord
  2
block 12
340
0
102
{BLKREFS
331
70
102
}
 70
     0
280
     1
281
     0
  0
BLOCK_RECORD
  5
74
330
1
100
AcDbSymbolTableRecord
100
AcDbBlockTableRecord
  2
block 13
340
0
102
{BLKREFS
331
75
102
}
 70
     0
280
     1
281
     0
  0
BLOCK_RECORD
  5
79
330
1
100
AcDbSymbolTableRecord
100
AcDbBlockTableRecord
  2
block 14
340
0
102
{BLKREFS
331
7A
102
}
 70
     0
280
     1
281
     0
  0
BLOCK_RECORD
  5
7D
330
1
100
AcDbSymbolTableRecord
100
AcDbBlockTableRecord
  2
block 15
340
0
102
{BLKREFS
331
7E
102
}
 70
     0
280
     1
281
     0
  0
BLOCK_RECORD
  5
82
330
1
100
AcDbSymbolTableRecord
100
AcDbBlockTableRecord
  2
block 16
340
0
102
{BLKREFS
331
83
102
}
 70
     0
280
     1
281
     0
  0
BLOCK_RECORD
  5
87
330
1
100
AcDbSymbolTableRecord
100
AcDbBlockTableRecord
  2
block 17
340
0
102
{BLKREFS
331
88
102
}
 70
     0
280
     1
281
     0
  0
BLOCK_RECORD
  5
8C
330
1
100
AcDbSymbolTableRecord
100
AcDbBlockTableRecord
  2
block 18
340
0
102
{BLKREFS
331
8D
102
}
 70
     0
280
     1
281
     0
  0
BLOCK_RECORD
  5
91
330
1
100
AcDbSymbolTableRecord
100
AcDbBlockTableRecord
  2
block 19
340
0
102
{BLKREFS
331
92
102
}
 70
     0
280
     1
281
     0
  0
BLOCK_RECORD
  5
95
330
1
100
AcDbSymbolTableRecord
100
AcDbBlockTableRecord
  2
block 20
340
0
102
{BLKREFS
331
96
102
}
 70
     0
280
     1
281
     0
  0
BLOCK_RECORD
  5
9A
330
1
100
AcDbSymbolTableRecord
100
AcDbBlockTableRecord
  2
block 21
340
0
102
{BLKREFS
331
9B
102
}
 70
     0
280
     1
281
     0
  0
BLOCK_RECORD
  5
9F
330
1
100
AcDbSymbolTableRecord
100
AcDbBlockTableRecord
  2
block 22
340
0
102
{BLKREFS
331
A0
102
}
 70
     0
280
     1
281
     0
  0
BLOCK_RECORD
  5
A4
330
1
100
AcDbSymbolTableRecord
100
AcDbBlockTableRecord
  2
block 23
340
0
102
{BLKREFS
331
A5
102
}
 70
     0
280
     1
281
     0
  0
BLOCK_RECORD
  5
A8
330
1
100
AcDbSymbolTableRecord
100
AcDbBlockTableRecord
  2
block 24
340
0
102
{BLKREFS
331
A9
102
}
 70
     0
280
     1
281
     0
  0
BLOCK_RECORD
  5
AD
330
1
100
AcDbSymbolTableRecord
100
AcDbBlockTableRecord
  2
block 25
340
0
102
{BLKREFS
331
AE
102
}
 70
     0
280
     1
281
     0
  0
BLOCK_RECORD
  5
B2
330
1
100
AcDbSymbolTableRecord
100
AcDbBlockTableRecord
  2
block 26
340
0
102
{BLKREFS
331
B3
102
}
 70
     0
280
     1
281
     0
  0
BLOCK_RECORD
  5
B7
330
1
100
AcDbSymbolTableRecord
100
AcDbBlockTableRecord
  2
block 27
340
0
102
{BLKREFS
331
B8
102
}
 70
     0
280
     1
281
     0
  0
BLOCK_RECORD
  5
BB
330
1
100
AcDbSymbolTableRecord
100
AcDbBlockTableRecord
  2
block 28
340
0
102
{BLKREFS
331
BC
102
}
 70
     0
280
     1
281
     0
  0
BLOCK_RECORD
  5
C0
330
1
100
AcDbSymbolTableRecord
100
AcDbBlockTableRecord
  2
block 29
340
0
102
{BLKREFS
331
C1
102
}
 70
     0
280
     1
281
     0
  0
BLOCK_RECORD
  5
C5
330
1
100
AcDbSymbolTableRecord
100
AcDbBlockTableRecord
  2
block 30
340
0
102
{BLKREFS
331
C6
102
}
 70
     0
280
     1
281
     0
  0
BLOCK_RECORD
  5
CA
330
1
100
AcDbSymbolTableRecord
100
AcDbBlockTableRecord
  2
block 31
340
0
102
{BLKREFS
331
CB
102
}
 70
     0
280
     1
281
     0
  0
BLOCK_RECORD
  5
CE
330
1
100
AcDbSymbolTableRecord
100
AcDbBlockTableRecord
  2
block 32
340
0
102
{BLKREFS
331
CF
102
}
 70
     0
280
     1
281
     0
  0
BLOCK_RECORD
  5
D3
330
1
100
AcDbSymbolTableRecord
100
AcDbBlockTableRecord
  2
block 33
340
0
102
{BLKREFS
331
D4
102
}
 70
     0
280
     1
281
     0
  0
BLOCK_RECORD
  5
D8
330
1
100
AcDbSymbolTableRecord
100
AcDbBlockTableRecord
  2
block 34
340
0
102
{BLKREFS
331
D9
102
}
 70
     0
280
     1
281
     0
  0
BLOCK_RECORD
  5
DD
330
1
100
AcDbSymbolTableRecord
100
AcDbBlockTableRecord
  2
block 35
340
0
102
{BLKREFS
331
DE
102
}
 70
     0
280
     1
281
     0
  0
BLOCK_RECORD
  5
E1
330
1
100
AcDbSymbolTableRecord
100
AcDbBlockTableRecord
  2
block 36
340
0
102
{BLKREFS
331
E2
102
}
 70
     0
280
     1
281
     0
  0
BLOCK_RECORD
  5
E6
330
1
100
AcDbSymbolTableRecord
100
AcDbBlockTableRecord
  2
block 37
340
0
102
{BLKREFS
331
E7
102
}
 70
     0
280
     1
281
     0
  0
BLOCK_RECORD
  5
EB
330
1
100
AcDbSymbolTableRecord
100
AcDbBlockTableRecord
  2
block 38
340
0
102
{BLKREFS
331
EC
102
}
 70
     0
280
     1
281
     0
  0
BLOCK_RECORD
  5
F0
330
1
100
AcDbSymbolTableRecord
100
AcDbBlockTableRecord
  2
block 39
340
0
102
{BLKREFS
331
F1
102
}
 70
     0
280
     1
281
     0
  0
BLOCK_RECORD
  5
F4
330
1
100
AcDbSymbolTableRecord
100
AcDbBlockTableRecord
  2
block 40
340
0
102
{BLKREFS
331
F5
102
}
 70
     0
280
     1
281
     0
  0
BLOCK_RECORD
  5
F9
330
1
100
AcDbSymbolTableRecord
100
AcDbBlockTableRecord
  2
block 41
340
0
102
{BLKREFS
331
FA
102
}
 70
     0
280
     1
281
     0
  0
BLOCK_RECORD
  5
FE
330
1
100
AcDbSymbolTableRecord
100
AcDbBlockTableRecord
  2
block 42
340
0
102
{BLKREFS
331
FF
102
}
 70
     0
280
     1
281
     0
  0
BLOCK_RECORD
  5
103
330
1
100
AcDbSymbolTableRecord
100
AcDbBlockTableRecord
  2
block 43
340
0
102
{BLKREFS
331
104
102
}
 70
     0
280
     1
281
     0
  0
BLOCK_RECORD
  5
108
330
1
100
AcDbSymbolTableRecord
100
AcDbBlockTableRecord
  2
block 44
340
0
102
{BLKREFS
331
109
102
}
 70
     0
280
     1
281
     0
  0
BLOCK_RECORD
  5
10C
330
1
100
AcDbSymbolTableRecord
100
AcDbBlockTableRecord
  2
block 45
340
0
102
{BLKREFS
331
10D
102
}
 70
     0
280
     1
281
     0
  0
BLOCK_RECORD
  5
111
330
1
100
AcDbSymbolTableRecord
100
AcDbBlockTableRecord
  2
block 46
340
0
102
{BLKREFS
331
112
102
}
 70
     0
280
     1
281
     0
  0
BLOCK_RECORD
  5
116
330
1
100
AcDbSymbolTableRecord
100
AcDbBlockTableRecord
  2
block 47
340
0
102
{BLKREFS
331
117
102
}
 70
     0
280
     1
281
     0
  0
BLOCK_RECORD
  5
11B
330
1
100
AcDbSymbolTableRecord
100
AcDbBlockTableRecord
  2
block 48
340
0
102
{BLKREFS
331
11C
102
}
 70
     0
280
     1
281
     0
  0
BLOCK_RECORD
  5
120
330
1
100
AcDbSymbolTableRecord
100
AcDbBlockTableRecord
  2
block 49
340
0
102
{BLKREFS
331
121
102
}
 70
     0
280
     1
281
     0
  0
BLOCK_RECORD
  5
124
330
1
100
AcDbSymbolTableRecord
100
AcDbBlockTableRecord
  2
block 50
340
0
102
{BLKREFS
331
125
102
}
 70
     0
280
     1
281
     0
  0
BLOCK_RECORD
  5
129
330
1
100
AcDbSymbolTableRecord
100
AcDbBlockTableRecord
  2
block 51
340
0
102
{BLKREFS
331
12A
102
}
 70
     0
280
     1
281
     0
  0
BLOCK_RECORD
  5
12E
330
1
100
AcDbSymbolTableRecord
100
AcDbBlockTableRecord
  2
block 52
340
0
102
{BLKREFS
331
12F
102
}
 70
     0
280
     1
281
     0
  0
BLOCK_RECORD
  5
133
330
1
100
AcDbSymbolTableRecord
100
AcDbBlockTableRecord
  2
block 53
340
0
102
{BLKREFS
331
134
102
}
 70
     0
280
     1
281
     0
  0
BLOCK_RECORD
  5
138
330
1
100
AcDbSymbolTableRecord
100
AcDbBlockTableRecord
  2
block 54
340
0
102
{BLKREFS
331
139
102
}
 70
     0
280
     1
281
     0
  0
BLOCK_RECORD
  5
13C
330
1
100
AcDbSymbolTableRecord
100
AcDbBlockTableRecord
  2
block 55
340
0
102
{BLKREFS
331
13D
102
}
 70
     0
280
     1
281
     0
  0
BLOCK_RECORD
  5
141
330
1
100
AcDbSymbolTableRecord
100
AcDbBlockTableRecord
  2
block 56
340
0
102
{BLKREFS
331
142
102
}
 70
     0
280
     1
281
     0
  0
BLOCK_RECORD
  5
145
330
1
100
AcDbSymbolTableRecord
100
AcDbBlockTableRecord
  2
block 57
340
0
102
{BLKREFS
331
146
102
}
 70
     0
280
     1
281
     0
  0
BLOCK_RECORD
  5
14A
330
1
100
AcDbSymbolTableRecord
100
AcDbBlockTableRecord
  2
block 58
340
0
102
{BLKREFS
331
14B
102
}
 70
     0
280
     1
281
     0
  0
BLOCK_RECORD
  5
14E
330
1
100
AcDbSymbolTableRecord
100
AcDbBlockTableRecord
  2
block 59
340
0
102
{BLKREFS
331
14F
102
}
 70
     0
280
     1
281
     0
  0
BLOCK_RECORD
  5
153
330
1
100
AcDbSymbolTableRecord
100
AcDbBlockTableRecord
  2
block 60
340
0
102
{BLKREFS
331
154
102
}
 70
     0
280
     1
281
     0
  0
BLOCK_RECORD
  5
157
330
1
100
AcDbSymbolTableRecord
100
AcDbBlockTableRecord
  2
block 61
340
0
102
{BLKREFS
331
158
102
}
 70
     0
280
     1
281
     0
  0
BLOCK_RECORD
  5
15C
330
1
100
AcDbSymbolTableRecord
100
AcDbBlockTableRecord
  2
block 62
340
0
102
{BLKREFS
331
15D
102
}
 70
     0
280
     1
281
     0
  0
BLOCK_RECORD
  5
160
330
1
100
AcDbSymbolTableRecord
100
AcDbBlockTableRecord
  2
block 63
340
0
102
{BLKREFS
331
161
102
}
 70
     0
280
     1
281
     0
  0
BLOCK_RECORD
  5
165
330
1
100
AcDbSymbolTableRecord
100
AcDbBlockTableRecord
  2
block 64
340
0
102
{BLKREFS
331
166
102
}
 70
     0
280
     1
281
     0
  0
BLOCK_RECORD
  5
169
330
1
100
AcDbSymbolTableRecord
100
AcDbBlockTableRecord
  2
block 65
340
0
102
{BLKREFS
331
16A
102
}
 70
     0
280
     1
281
     0
  0
BLOCK_RECORD
  5
16E
330
1
100
AcDbSymbolTableRecord
100
AcDbBlockTableRecord
  2
block 66
340
0
102
{BLKREFS
331
16F
102
}
 70
     0
280
     1
281
     0
  0
BLOCK_RECORD
  5
172
330
1
100
AcDbSymbolTableRecord
100
AcDbBlockTableRecord
  2
block 67
340
0
102
{BLKREFS
331
173
102
}
 70
     0
280
     1
281
     0
  0
BLOCK_RECORD
  5
177
330
1
100
AcDbSymbolTableRecord
100
AcDbBlockTableRecord
  2
block 68
340
0
102
{BLKREFS
331
178
102
}
 70
     0
280
     1
281
     0
  0
BLOCK_RECORD
  5
17B
330
1
100
AcDbSymbolTableRecord
100
AcDbBlockTableRecord
  2
block 69
340
0
102
{BLKREFS
331
17C
102
}
 70
     0
280
     1
281
     0
  0
BLOCK_RECORD
  5
180
330
1
100
AcDbSymbolTableRecord
100
AcDbBlockTableRecord
  2
block 70
340
0
102
{BLKREFS
331
181
102
}
 70
     0
280
     1
281
     0
  0
BLOCK_RECORD
  5
184
330
1
100
AcDbSymbolTableRecord
100
AcDbBlockTableRecord
  2
block 71
340
0
102
{BLKREFS
331
185
102
}
 70
     0
280
     1
281
     0
  0
BLOCK_RECORD
  5
189
330
1
100
AcDbSymbolTableRecord
100
AcDbBlockTableRecord
  2
block 72
340
0
102
{BLKREFS
331
18A
102
}
 70
     0
280
     1
281
     0
  0
BLOCK_RECORD
  5
18D
330
1
100
AcDbSymbolTableRecord
100
AcDbBlockTableRecord
  2
block 73
340
0
102
{BLKREFS
331
18E
102
}
 70
     0
280
     1
281
     0
  0
BLOCK_RECORD
  5
192
330
1
100
AcDbSymbolTableRecord
100
AcDbBlockTableRecord
  2
block 74
340
0
102
{BLKREFS
331
193
102
}
 70
     0
280
     1
281
     0
  0
BLOCK_RECORD
  5
196
330
1
100
AcDbSymbolTableRecord
100
AcDbBlockTableRecord
  2
block 75
340
0
102
{BLKREFS
331
197
102
}
 70
     0
280
     1
281
     0
  0
BLOCK_RECORD
  5
19B
330
1
100
AcDbSymbolTableRecord
100
AcDbBlockTableRecord
  2
block 76
340
0
102
{BLKREFS
331
19C
102
}
 70
     0
280
     1
281
     0
  0
BLOCK_RECORD
  5
19F
330
1
100
AcDbSymbolTableRecord
100
AcDbBlockTableRecord
  2
block 77
340
0
102
{BLKREFS
331
1A0
102
}
 70
     0
280
     1
281
     0
  0
BLOCK_RECORD
  5
1A4
330
1
100
AcDbSymbolTableRecord
100
AcDbBlockTableRecord
  2
block 78
340
0
102
{BLKREFS
331
1A5
102
}
 70
     0
280
     1
281
     0
  0
BLOCK_RECORD
  5
1A8
330
1
100
AcDbSymbolTableRecord
100
AcDbBlockTableRecord
  2
block 79
340
0
102
{BLKREFS
331
1A9
102
}
 70
     0
280
     1
281
     0
  0
BLOCK_RECORD
  5
1AD
330
1
100
AcDbSymbolTableRecord
100
AcDbBlockTableRecord
  2
block 80
340
0
102
{BLKREFS
331
1AE
102
}
 70
     0
280
     1
281
     0
  0
BLOCK_RECORD
  5
1B1
330
1
100
AcDbSymbolTableRecord
100
AcDbBlockTableRecord
  2
block 81
340
0
102
{BLKREFS
331
1B2
102
}
 70
     0
280
     1
281
     0
  0
BLOCK_RECORD
  5
1B6
330
1
100
AcDbSymbolTableRecord
100
AcDbBlockTableRecord
  2
block 82
340
0
102
{BLKREFS
331
1B7
102
}
 70
     0
280
     1
281
     0
  0
BLOCK_RECORD
  5
1BA
330
1
100
AcDbSymbolTableRecord
100
AcDbBlockTableRecord
  2
block 83
340
0
102
{BLKREFS
331
1BB
102
}
 70
     0
280
     1
281
     0
  0
BLOCK_RECORD
  5
1BF
330
1
100
AcDbSymbolTableRecord
100
AcDbBlockTableRecord
  2
block 84
340
0
102
{BLKREFS
331
1C0
102
}
 70
     0
280
     1
281
     0
  0
BLOCK_RECORD
  5
1C3
330
1
100
AcDbSymbolTableRecord
100
AcDbBlockTableRecord
  2
block 85
340
0
102
{BLKREFS
331
1C4
102
}
 70
     0
280
     1
281
     0
  0
BLOCK_RECORD
  5
1C8
330
1
100
AcDbSymbolTableRecord
100
AcDbBlockTableRecord
  2
block 86
340
0
102
{BLKREFS
331
1C9
102
}
 70
     0
280
     1
281
     0
  0
BLOCK_RECORD
  5
1CC
330
1
100
AcDbSymbolTableRecord
100
AcDbBlockTableRecord
  2
block 87
340
0
102
{BLKREFS
331
1CD
102
}
 70
     0
280
     1
281
     0
  0
BLOCK_RECORD
  5
1D1
330
1
100
AcDbSymbolTableRecord
100
AcDbBlockTableRecord
  2
block 88
340
0
102
{BLKREFS
331
1D2
102
}
 70
     0
280
     1
281
     0
  0
BLOCK_RECORD
  5
1D5
330
1
100
AcDbSymbolTableRecord
100
AcDbBlockTableRecord
  2
block 89
340
0
102
{BLKREFS
331
1D6
102
}
 70
     0
280
     1
281
     0
  0
BLOCK_RECORD
  5
1DA
330
1
100
AcDbSymbolTableRecord
100
AcDbBlockTableRecord
  2
block 90
340
0
102
{BLKREFS
331
1DB
102
}
 70
     0
280
     1
281
     0
  0
BLOCK_RECORD
  5
1DE
330
1
100
AcDbSymbolTableRecord
100
AcDbBlockTableRecord
  2
block 91
340
0
102
{BLKREFS
331
1DF
102
}
 70
     0
280
     1
281
     0
  0
BLOCK_RECORD
  5
1E3
330
1
100
AcDbSymbolTableRecord
100
AcDbBlockTableRecord
  2
block 92
340
0
102
{BLKREFS
331
1E4
102
}
 70
     0
280
     1
281
     0
  0
BLOCK_RECORD
  5
1E7
330
1
100
AcDbSymbolTableRecord
100
AcDbBlockTableRecord
  2
block 93
340
0
102
{BLKREFS
331
1E8
102
}
 70
     0
280
     1
281
     0
  0
ENDTAB
  0
ENDSEC
  0
SECTION
  2
BLOCKS
  0
BLOCK
  5
20
330
1F
100
AcDbEntity
  8
0
100
AcDbBlockBegin
  2
*Model_Space
 70
     0
 10
0.0
 20
0.0
 30
0.0
  3
*Model_Space
  1

  0
ENDBLK
  5
21
330
1F
100
AcDbEntity
  8
0
100
AcDbBlockEnd
  0
BLOCK
  5
1C
330
1B
100
AcDbEntity
 67
     1
  8
0
100
AcDbBlockBegin
  2
*Paper_Space
 70
     0
 10
0.0
 20
0.0
 30
0.0
  3
*Paper_Space
  1

  0
ENDBLK
  5
1D
330
1B
100
AcDbEntity
 67
     1
  8
0
100
AcDbBlockEnd
  0
BLOCK
  5
24
330
23
100
AcDbEntity
  8
0
100
AcDbBlockBegin
  2
*Paper_Space0
 70
     0
 10
0.0
 20
0.0
 30
0.0
  3
*Paper_Space0
  1

  0
ENDBLK
  5
25
330
23
100
AcDbEntity
  8
0
100
AcDbBlockEnd
  0
BLOCK
  5
42
330
40
100
AcDbEntity
  8
0
100
AcDbBlockBegin
  2
block 2
 70
     0
 10
0.0
 20
0.0
 30
0.0
  3
block 2
  1

  0
INSERT
  5
45
330
40
100
AcDbEntity
  8
0
100
AcDbBlockReference
  2
block 3
 10
0.0
 20
0.0
 30
0.0
  0
INSERT
  5
4A
330
40
100
AcDbEntity
  8
0
100
AcDbBlockReference
  2
block 4
 10
0.0
 20
0.0
 30
0.0
  0
INSERT
  5
4F
330
40
100
AcDbEntity
  8
0
100
AcDbBlockReference
  2
block 5
 10
0.0
 20
0.0
 30
0.0
  0
ENDBLK
  5
43
330
40
100
AcDbEntity
  8
0
100
AcDbBlockEnd
  0
BLOCK
  5
46
330
44
100
AcDbEntity
  8
0
100
AcDbBlockBegin
  2
block 3
 70
     0
 10
0.0
 20
0.0
 30
0.0
  3
block 3
  1

  0
SPLINE
  5
48
330
44
100
AcDbEntity
  8
0
 62
     7
420
 16777215
370
   106
100
AcDbSpline
210
0.0
220
0.0
230
1.0
 70
    11
 71
     3
 72
    53
 73
    49
 74
     0
 42
0.0000000001
 43
0.0000000001
 12
1.0
 22
0.0
 32
0.0
 13
1.0
 23
0.0
 33
0.0
 40
0.0
 40
0.0
 40
0.0
 40
0.0
 40
1.0
 40
1.0
 40
1.0
 40
2.0
 40
2.0
 40
2.0
 40
3.0
 40
3.0
 40
3.0
 40
4.0
 40
4.0
 40
4.0
 40
5.0
 40
5.0
 40
5.0
 40
6.0
 40
6.0
 40
6.0
 40
7.0
 40
7.0
 40
7.0
 40
8.0
 40
8.0
 40
8.0
 40
9.0
 40
9.0
 40
9.0
 40
10.0
 40
10.0
 40
10.0
 40
11.0
 40
11.0
 40
11.0
 40
12.0
 40
12.0
 40
12.0
 40
13.0
 40
13.0
 40
13.0
 40
14.0
 40
14.0
 40
14.0
 40
15.0
 40
15.0
 40
15.0
 40
16.0
 40
16.0
 40
16.0
 40
16.0
 10
35.90940221048761
 20
-331.8775260710514
 30
0.0
 10
35.90940221048761
 20
-331.8775260710514
 30
0.0
 10
35.90940221181785
 20
-317.0525260710507
 30
0.0
 10
35.90940221181785
 20
-317.0525260710507
 30
0.0
 10
35.03265017146197
 20
-317.0525260709724
 30
0.0
 10
34.32190221188232
 20
-316.3417781112651
 30
0.0
 10
34.32190221196061
 20
-315.4650260709086
 30
0.0
 10
34.32190221203922
 20
-314.5882740305527
 30
0.0
 10
35.03265017174689
 20
-313.877526070973
 30
0.0
 10
35.90940221210276
 20
-313.8775260710514
 30
0.0
 10
36.78615425245993
 20
-313.8775260711296
 30
0.0
 10
37.49690221203989
 20
-314.5882740308376
 30
0.0
 10
37.49690221196064
 20
-315.4650260711935
 30
0.0
 10
37.49690221196064
 20
-315.4650260711935
 30
0.0
 10
46.32190221196039
 20
-315.465026071986
 30
0.0
 10
46.32190221196039
 20
-315.465026071986
 30
0.0
 10
46.32190221203965
 20
-314.5882740316295
 30
0.0
 10
47.03265017174667
 20
-313.8775260720498
 30
0.0
 10
47.90940221210319
 20
-313.8775260721294
 30
0.0
 10
48.78615425245907
 20
-313.8775260722077
 30
0.0
 10
49.49690221203968
 20
-314.5882740319157
 30
0.0
 10
49.49690221196107
 20
-315.4650260722715
 30
0.0
 10
49.49690221188214
 20
-316.341778112628
 30
0.0
 10
48.78615425217416
 20
-317.0525260722077
 30
0.0
 10
47.90940221181827
 20
-317.0525260721294
 30
0.0
 10
47.90940221181827
 20
-317.0525260721288
 30
0.0
 10
47.90940221048739
 20
-331.8775260721288
 30
0.0
 10
47.90940221048739
 20
-331.8775260721288
 30
0.0
 10
48.78615425084391
 20
-331.877526072207
 30
0.0
 10
49.49690221042356
 20
-332.588274031915
 30
0.0
 10
49.49690221034463
 20
-333.4650260722715
 30
0.0
 10
49.49690221026602
 20
-334.341778112628
 30
0.0
 10
48.78615425055803
 20
-335.0525260722077
 30
0.0
 10
47.90940221020151
 20
-335.0525260721294
 30
0.0
 10
47.03265016984563
 20
-335.0525260720498
 30
0.0
 10
46.32190221026599
 20
-334.3417781123425
 30
0.0
 10
46.32190221034524
 20
-333.465026071986
 30
0.0
 10
46.32190221034524
 20
-333.465026071986
 30
0.0
 10
37.49690221034485
 20
-333.4650260711941
 30
0.0
 10
37.49690221034485
 20
-333.4650260711941
 30
0.0
 10
37.49690221026624
 20
-334.34177811155
 30
0.0
 10
36.78615425055825
 20
-335.0525260711296
 30
0.0
 10
35.90940221020173
 20
-335.0525260710514
 30
0.0
 10
35.03265016984521
 20
-335.0525260709731
 30
0.0
 10
34.32190221026556
 20
-334.3417781112651
 30
0.0
 10
34.32190221034482
 20
-333.4650260709086
 30
0.0
 10
34.3219022104231
 20
-332.588274030552
 30
0.0
 10
35.03265017013045
 20
-331.8775260709724
 30
0.0
 10
35.90940221048761
 20
-331.8775260710514
 30
0.0
  0
ENDBLK
  5
47
330
44
100
AcDbEntity
  8
0
100
AcDbBlockEnd
  0
BLOCK
  5
4B
330
49
100
AcDbEntity
  8
0
100
AcDbBlockBegin
  2
block 4
 70
     0
 10
0.0
 20
0.0
 30
0.0
  3
block 4
  1

  0
SPLINE
  5
4D
330
49
100
AcDbEntity
  8
0
 62
     7
420
 16777215
370
   106
100
AcDbSpline
210
0.0
220
0.0
230
1.0
 70
    11
 71
     3
 72
    53
 73
    49
 74
     0
 42
0.0000000001
 43
0.0000000001
 12
1.0
 22
0.0
 32
0.0
 13
1.0
 23
0.0
 33
0.0
 40
0.0
 40
0.0
 40
0.0
 40
0.0
 40
1.0
 40
1.0
 40
1.0
 40
2.0
 40
2.0
 40
2.0
 40
3.0
 40
3.0
 40
3.0
 40
4.0
 40
4.0
 40
4.0
 40
5.0
 40
5.0
 40
5.0
 40
6.0
 40
6.0
 40
6.0
 40
7.0
 40
7.0
 40
7.0
 40
8.0
 40
8.0
 40
8.0
 40
9.0
 40
9.0
 40
9.0
 40
10.0
 40
10.0
 40
10.0
 40
11.0
 40
11.0
 40
11.0
 40
12.0
 40
12.0
 40
12.0
 40
13.0
 40
13.0
 40
13.0
 40
14.0
 40
14.0
 40
14.0
 40
15.0
 40
15.0
 40
15.0
 40
16.0
 40
16.0
 40
16.0
 40
16.0
 10
-1013.090597789513
 20
-331.8775259768582
 30
0.0
 10
-1013.090597789513
 20
-331.8775259768582
 30
0.0
 10
-1013.090597788181
 20
-317.0525259768583
 30
0.0
 10
-1013.090597788181
 20
-317.0525259768583
 30
0.0
 10
-1013.967349828538
 20
-317.05252597678
 30
0.0
 10
-1014.678097788118
 20
-316.341778017072
 30
0.0
 10
-1014.678097788039
 20
-315.4650259767155
 30
0.0
 10
-1014.678097787961
 20
-314.588273936359
 30
0.0
 10
-1013.967349828253
 20
-313.8775259767793
 30
0.0
 10
-1013.090597787896
 20
-313.8775259768576
 30
0.0
 10
-1012.21384574754
 20
-313.8775259769372
 30
0.0
 10
-1011.503097787961
 20
-314.5882739366452
 30
0.0
 10
-1011.503097788039
 20
-315.4650259770011
 30
0.0
 10
-1011.503097788039
 20
-315.4650259770011
 30
0.0
 10
-1002.678097788039
 20
-315.4650259777929
 30
0.0
 10
-1002.678097788039
 20
-315.4650259777929
 30
0.0
 10
-1002.67809778796
 20
-314.5882739374371
 30
0.0
 10
-1001.967349828253
 20
-313.8775259778574
 30
0.0
 10
-1001.090597787897
 20
-313.8775259779363
 30
0.0
 10
-1000.21384574754
 20
-313.8775259780146
 30
0.0
 10
-999.5030977879601
 20
-314.588273937722
 30
0.0
 10
-999.5030977880388
 20
-315.4650259780785
 30
0.0
 10
-999.5030977881177
 20
-316.341778018435
 30
0.0
 10
-1000.213845747825
 20
-317.0525259780146
 30
0.0
 10
-1001.090597788182
 20
-317.0525259779363
 30
0.0
 10
-1001.090597788182
 20
-317.0525259779363
 30
0.0
 10
-1001.090597789513
 20
-331.8775259779363
 30
0.0
 10
-1001.090597789513
 20
-331.8775259779363
 30
0.0
 10
-1000.213845749157
 20
-331.8775259780146
 30
0.0
 10
-999.5030977895763
 20
-332.588273937722
 30
0.0
 10
-999.5030977896552
 20
-333.4650259780785
 30
0.0
 10
-999.5030977897338
 20
-334.3417780184344
 30
0.0
 10
-1000.213845749442
 20
-335.052525978014
 30
0.0
 10
-1001.090597789798
 20
-335.0525259779357
 30
0.0
 10
-1001.967349830154
 20
-335.0525259778574
 30
0.0
 10
-1002.678097789734
 20
-334.3417780181495
 30
0.0
 10
-1002.678097789655
 20
-333.4650259777929
 30
0.0
 10
-1002.678097789655
 20
-333.4650259777929
 30
0.0
 10
-1011.503097789656
 20
-333.4650259770011
 30
0.0
 10
-1011.503097789656
 20
-333.4650259770011
 30
0.0
 10
-1011.503097789734
 20
-334.3417780173576
 30
0.0
 10
-1012.213845749442
 20
-335.0525259769372
 30
0.0
 10
-1013.090597789798
 20
-335.0525259768576
 30
0.0
 10
-1013.967349830155
 20
-335.0525259767794
 30
0.0
 10
-1014.678097789734
 20
-334.341778017072
 30
0.0
 10
-1014.678097789656
 20
-333.4650259767155
 30
0.0
 10
-1014.678097789577
 20
-332.588273936359
 30
0.0
 10
-1013.967349829869
 20
-331.87752597678
 30
0.0
 10
-1013.090597789513
 20
-331.8775259768582
 30
0.0
  0
ENDBLK
  5
4C
330
49
100
AcDbEntity
  8
0
100
AcDbBlockEnd
  0
BLOCK
  5
50
330
4E
100
AcDbEntity
  8
0
100
AcDbBlockBegin
  2
block 5
 70
     0
 10
0.0
 20
0.0
 30
0.0
  3
block 5
  1

  0
SPLINE
  5
52
330
4E
100
AcDbEntity
  8
0
 62
     7
420
 16777215
370
   106
100
AcDbSpline
210
0.0
220
0.0
230
1.0
 70
    11
 71
     3
 72
   113
 73
   109
 74
     0
 42
0.0000000001
 43
0.0000000001
 12
1.0
 22
0.0
 32
0.0
 13
1.0
 23
0.0
 33
0.0
 40
0.0
 40
0.0
 40
0.0
 40
0.0
 40
1.0
 40
1.0
 40
1.0
 40
2.0
 40
2.0
 40
2.0
 40
3.0
 40
3.0
 40
3.0
 40
4.0
 40
4.0
 40
4.0
 40
5.0
 40
5.0
 40
5.0
 40
6.0
 40
6.0
 40
6.0
 40
7.0
 40
7.0
 40
7.0
 40
8.0
 40
8.0
 40
8.0
 40
9.0
 40
9.0
 40
9.0
 40
10.0
 40
10.0
 40
10.0
 40
11.0
 40
11.0
 40
11.0
 40
12.0
 40
12.0
 40
12.0
 40
13.0
 40
13.0
 40
13.0
 40
14.0
 40
14.0
 40
14.0
 40
15.0
 40
15.0
 40
15.0
 40
16.0
 40
16.0
 40
16.0
 40
17.0
 40
17.0
 40
17.0
 40
18.0
 40
18.0
 40
18.0
 40
19.0
 40
19.0
 40
19.0
 40
20.0
 40
20.0
 40
20.0
 40
21.0
 40
21.0
 40
21.0
 40
22.0
 40
22.0
 40
22.0
 40
23.0
 40
23.0
 40
23.0
 40
24.0
 40
24.0
 40
24.0
 40
25.0
 40
25.0
 40
25.0
 40
26.0
 40
26.0
 40
26.0
 40
27.0
 40
27.0
 40
27.0
 40
28.0
 40
28.0
 40
28.0
 40
29.0
 40
29.0
 40
29.0
 40
30.0
 40
30.0
 40
30.0
 40
31.0
 40
31.0
 40
31.0
 40
32.0
 40
32.0
 40
32.0
 40
33.0
 40
33.0
 40
33.0
 40
34.0
 40
34.0
 40
34.0
 40
35.0
 40
35.0
 40
35.0
 40
36.0
 40
36.0
 40
36.0
 40
36.0
 10
12.40940220321248
 20
-412.8935260689415
 30
0.0
 10
15.17082595236661
 20
-412.8935260691892
 30
0.0
 10
17.40940220341319
 20
-410.654949818544
 30
0.0
 10
17.4094022036612
 20
-407.8935260693905
 30
0.0
 10
17.4094022036612
 20
-407.8935260693905
 30
0.0
 10
17.40940220980547
 20
-339.4735260693906
 30
0.0
 10
17.40940220980547
 20
-339.4735260693906
 30
0.0
 10
17.40940220980547
 20
-339.4735260693906
 30
0.0
 10
47.40940220980524
 20
-339.4735260720845
 30
0.0
 10
47.40940220980524
 20
-339.4735260720845
 30
0.0
 10
50.17082595895938
 20
-339.4735260723322
 30
0.0
 10
52.40940221000595
 20
-337.234949821687
 30
0.0
 10
52.40940221025365
 20
-334.4735260725328
 30
0.0
 10
52.40940221025365
 20
-334.4735260725328
 30
0.0
 10
52.40940221205073
 20
-314.4565260725326
 30
0.0
 10
52.40940221205073
 20
-314.4565260725326
 30
0.0
 10
52.40940221229938
 20
-311.6951023233785
 30
0.0
 10
50.17082596165451
 20
-309.4565260723315
 30
0.0
 10
47.40940221250038
 20
-309.4565260720839
 30
0.0
 10
47.40940221250038
 20
-309.4565260720839
 30
0.0
 10
17.40940221250061
 20
-309.45652606939
 30
0.0
 10
17.40940221250061
 20
-309.45652606939
 30
0.0
 10
17.40940221250061
 20
-309.45652606939
 30
0.0
 10
17.40940223045823
 20
-109.4645260693906
 30
0.0
 10
17.40940223045823
 20
-109.4645260693906
 30
0.0
 10
17.40940223070593
 20
-106.7031023202364
 30
0.0
 10
15.17082598006138
 20
-104.4645260691889
 30
0.0
 10
12.40940223090789
 20
-104.4645260689405
 30
0.0
 10
12.40940223090789
 20
-104.4645260689405
 30
0.0
 10
-7.590597769092818
 20
-104.4645260671457
 30
0.0
 10
-7.590597769092818
 20
-104.4645260671457
 30
0.0
 10
-10.35202151824695
 20
-104.4645260668967
 30
0.0
 10
-12.59059776889182
 20
-102.2259498158498
 30
0.0
 10
-12.59059776864413
 20
-99.46452606669571
 30
0.0
 10
-12.59059776864413
 20
-99.46452606669571
 30
0.0
 10
-12.59059776684833
 20
-79.46452606669628
 30
0.0
 10
-12.59059776684833
 20
-79.46452606669628
 30
0.0
 10
-12.59059776659999
 20
-76.70310231754215
 30
0.0
 10
-10.35202151555246
 20
-74.46452606689697
 30
0.0
 10
-7.590597766398323
 20
-74.46452606714594
 30
0.0
 10
-7.590597766398323
 20
-74.46452606714594
 30
0.0
 10
12.4094022336011
 20
-74.46452606894077
 30
0.0
 10
12.4094022336011
 20
-74.46452606894077
 30
0.0
 10
15.17082598275523
 20
-74.4645260691891
 30
0.0
 10
17.40940223380245
 20
-72.22594981854456
 30
0.0
 10
17.4094022340495
 20
-69.46452606939043
 30
0.0
 10
17.4094022340495
 20
-69.46452606939043
 30
0.0
 10
17.40940225663956
 20
182.1064739306098
 30
0.0
 10
17.40940225663956
 20
182.1064739306098
 30
0.0
 10
17.40940225688725
 20
184.8678976797639
 30
0.0
 10
15.17082600624174
 20
187.1064739308102
 30
0.0
 10
12.40940225708825
 20
187.1064739310585
 30
0.0
 10
12.40940225708825
 20
187.1064739310585
 30
0.0
 10
-977.590597742912
 20
187.1064740199543
 30
0.0
 10
-977.590597742912
 20
187.1064740199543
 30
0.0
 10
-980.3520214920655
 20
187.1064740202014
 30
0.0
 10
-982.5905977431121
 20
184.8678977695562
 30
0.0
 10
-982.5905977433605
 20
182.1064740204033
 30
0.0
 10
-982.5905977433605
 20
182.1064740204033
 30
0.0
 10
-982.5905977659498
 20
-69.46452597959684
 30
0.0
 10
-982.5905977659498
 20
-69.46452597959684
 30
0.0
 10
-982.5905977661976
 20
-72.22594972875098
 30
0.0
 10
-980.3520215155527
 20
-74.46452597979787
 30
0.0
 10
-977.5905977663992
 20
-74.46452598004684
 30
0.0
 10
-977.5905977663992
 20
-74.46452598004684
 30
0.0
 10
-957.5905977663991
 20
-74.46452598184167
 30
0.0
 10
-957.5905977663991
 20
-74.46452598184167
 30
0.0
 10
-954.829174017245
 20
-74.46452598209002
 30
0.0
 10
-952.5905977665998
 20
-76.7031022331369
 30
0.0
 10
-952.5905977668482
 20
-79.46452598228976
 30
0.0
 10
-952.5905977668482
 20
-79.46452598228976
 30
0.0
 10
-952.590597768644
 20
-99.46452598229047
 30
0.0
 10
-952.590597768644
 20
-99.46452598229047
 30
0.0
 10
-952.5905977688916
 20
-102.2259497314446
 30
0.0
 10
-954.8291740199388
 20
-104.4645259820898
 30
0.0
 10
-957.5905977690929
 20
-104.4645259818415
 30
0.0
 10
-957.5905977690929
 20
-104.4645259818415
 30
0.0
 10
-977.590597769093
 20
-104.4645259800466
 30
0.0
 10
-977.590597769093
 20
-104.4645259800466
 30
0.0
 10
-980.3520215182465
 20
-104.4645259797976
 30
0.0
 10
-982.5905977692935
 20
-106.7031022304428
 30
0.0
 10
-982.5905977695411
 20
-109.464525979597
 30
0.0
 10
-982.5905977695411
 20
-109.464525979597
 30
0.0
 10
-982.5905977874994
 20
-309.4565259795971
 30
0.0
 10
-982.5905977874994
 20
-309.4565259795971
 30
0.0
 10
-982.5905977874994
 20
-309.4565259795971
 30
0.0
 10
-1012.5905977875
 20
-309.4565259769032
 30
0.0
 10
-1012.5905977875
 20
-309.4565259769032
 30
0.0
 10
-1015.352021536653
 20
-309.4565259766555
 30
0.0
 10
-1017.590597787701
 20
-311.6951022273007
 30
0.0
 10
-1017.590597787949
 20
-314.4565259764548
 30
0.0
 10
-1017.590597787949
 20
-314.4565259764548
 30
0.0
 10
-1017.590597789746
 20
-334.4735259764545
 30
0.0
 10
-1017.590597789746
 20
-334.4735259764545
 30
0.0
 10
-1017.590597789994
 20
-337.2349497256086
 30
0.0
 10
-1015.352021539348
 20
-339.4735259766555
 30
0.0
 10
-1012.590597790195
 20
-339.4735259769032
 30
0.0
 10
-1012.590597790195
 20
-339.4735259769032
 30
0.0
 10
-982.5905977901946
 20
-339.473525979597
 30
0.0
 10
-982.5905977901946
 20
-339.473525979597
 30
0.0
 10
-982.5905977901946
 20
-339.473525979597
 30
0.0
 10
-982.5905977963382
 20
-407.8935259795969
 30
0.0
 10
-982.5905977963382
 20
-407.8935259795969
 30
0.0
 10
-982.5905977965862
 20
-410.6549497287511
 30
0.0
 10
-980.3520215459413
 20
-412.893525979798
 30
0.0
 10
-977.5905977967878
 20
-412.8935259800457
 30
0.0
 10
-977.5905977967878
 20
-412.8935259800457
 30
0.0
 10
12.40940220321248
 20
-412.8935260689415
 30
0.0
 10
12.40940220321248
 20
-412.8935260689415
 30
0.0
  0
ENDBLK
  5
51
330
4E
100
AcDbEntity
  8
0
100
AcDbBlockEnd
  0
BLOCK
  5
55
330
53
100
AcDbEntity
  8
0
100
AcDbBlockBegin
  2
block 6
 70
     0
 10
0.0
 20
0.0
 30
0.0
  3
block 6
  1

  0
INSERT
  5
58
330
53
100
AcDbEntity
  8
0
100
AcDbBlockReference
  2
block 7
 10
0.0
 20
0.0
 30
0.0
  0
INSERT
  5
5D
330
53
100
AcDbEntity
  8
0
100
AcDbBlockReference
  2
block 8
 10
0.0
 20
0.0
 30
0.0
  0
INSERT
  5
62
330
53
100
AcDbEntity
  8
0
100
AcDbBlockReference
  2
block 9
 10
0.0
 20
0.0
 30
0.0
  0
ENDBLK
  5
56
330
53
100
AcDbEntity
  8
0
100
AcDbBlockEnd
  0
BLOCK
  5
59
330
57
100
AcDbEntity
  8
0
100
AcDbBlockBegin
  2
block 7
 70
     0
 10
0.0
 20
0.0
 30
0.0
  3
block 7
  1

  0
SPLINE
  5
5B
330
57
100
AcDbEntity
  8
0
 62
     7
420
 16777215
370
   106
100
AcDbSpline
210
0.0
220
0.0
230
1.0
 70
    11
 71
     3
 72
    53
 73
    49
 74
     0
 42
0.0000000001
 43
0.0000000001
 12
1.0
 22
0.0
 32
0.0
 13
1.0
 23
0.0
 33
0.0
 40
0.0
 40
0.0
 40
0.0
 40
0.0
 40
1.0
 40
1.0
 40
1.0
 40
2.0
 40
2.0
 40
2.0
 40
3.0
 40
3.0
 40
3.0
 40
4.0
 40
4.0
 40
4.0
 40
5.0
 40
5.0
 40
5.0
 40
6.0
 40
6.0
 40
6.0
 40
7.0
 40
7.0
 40
7.0
 40
8.0
 40
8.0
 40
8.0
 40
9.0
 40
9.0
 40
9.0
 40
10.0
 40
10.0
 40
10.0
 40
11.0
 40
11.0
 40
11.0
 40
12.0
 40
12.0
 40
12.0
 40
13.0
 40
13.0
 40
13.0
 40
14.0
 40
14.0
 40
14.0
 40
15.0
 40
15.0
 40
15.0
 40
16.0
 40
16.0
 40
16.0
 40
16.0
 10
82.40940225663736
 20
678.4728008846572
 30
0.0
 10
82.40940225663736
 20
678.4728008846572
 30
0.0
 10
82.409402258634
 20
693.2978008846571
 30
0.0
 10
82.409402258634
 20
693.2978008846571
 30
0.0
 10
81.53265021827812
 20
693.2978008847758
 30
0.0
 10
80.82190225873025
 20
694.0085488445146
 30
0.0
 10
80.82190225884928
 20
694.8853008848718
 30
0.0
 10
80.82190225896703
 20
695.7620529252276
 30
0.0
 10
81.5326502187055
 20
696.4728008847759
 30
0.0
 10
82.40940225906138
 20
696.4728008846572
 30
0.0
 10
83.28615429941982
 20
696.4728008845398
 30
0.0
 10
83.99690225896641
 20
695.7620529248003
 30
0.0
 10
83.99690225884866
 20
694.8853008844438
 30
0.0
 10
83.99690225884866
 20
694.8853008844438
 30
0.0
 10
92.82190225884841
 20
694.8853008832554
 30
0.0
 10
92.82190225884841
 20
694.8853008832554
 30
0.0
 10
92.82190225896618
 20
695.7620529236112
 30
0.0
 10
93.53265021870592
 20
696.4728008831595
 30
0.0
 10
94.40940225906179
 20
696.4728008830414
 30
0.0
 10
95.28615429941767
 20
696.472800882922
 30
0.0
 10
95.99690225896556
 20
695.7620529231839
 30
0.0
 10
95.99690225884781
 20
694.885300882828
 30
0.0
 10
95.99690225873006
 20
694.0085488424709
 30
0.0
 10
95.28615429899031
 20
693.2978008829226
 30
0.0
 10
94.40940225863443
 20
693.2978008830413
 30
0.0
 10
94.40940225863443
 20
693.2978008830413
 30
0.0
 10
94.40940225663778
 20
678.4728008830414
 30
0.0
 10
94.40940225663778
 20
678.4728008830414
 30
0.0
 10
95.28615429699366
 20
678.4728008829227
 30
0.0
 10
95.99690225654155
 20
677.7620529231846
 30
0.0
 10
95.9969022564238
 20
676.8853008828287
 30
0.0
 10
95.99690225630636
 20
676.0085488424714
 30
0.0
 10
95.2861542965663
 20
675.2978008829233
 30
0.0
 10
94.40940225621041
 20
675.2978008830413
 30
0.0
 10
93.53265021585453
 20
675.2978008831594
 30
0.0
 10
92.82190225630569
 20
676.0085488428989
 30
0.0
 10
92.82190225642312
 20
676.885300883256
 30
0.0
 10
92.82190225642312
 20
676.885300883256
 30
0.0
 10
83.99690225642465
 20
676.8853008844444
 30
0.0
 10
83.99690225642465
 20
676.8853008844444
 30
0.0
 10
83.99690225630722
 20
676.008548844088
 30
0.0
 10
83.28615429656715
 20
675.2978008845397
 30
0.0
 10
82.40940225620999
 20
675.2978008846578
 30
0.0
 10
81.5326502158541
 20
675.2978008847758
 30
0.0
 10
80.82190225630654
 20
676.0085488445153
 30
0.0
 10
80.82190225642398
 20
676.8853008848712
 30
0.0
 10
80.82190225654173
 20
677.7620529252277
 30
0.0
 10
81.53265021628148
 20
678.4728008847759
 30
0.0
 10
82.40940225663736
 20
678.4728008846572
 30
0.0
  0
ENDBLK
  5
5A
330
57
100
AcDbEntity
  8
0
100
AcDbBlockEnd
  0
BLOCK
  5
5E
330
5C
100
AcDbEntity
  8
0
100
AcDbBlockBegin
  2
block 8
 70
     0
 10
0.0
 20
0.0
 30
0.0
  3
block 8
  1

  0
SPLINE
  5
60
330
5C
100
AcDbEntity
  8
0
 62
     7
420
 16777215
370
   106
100
AcDbSpline
210
0.0
220
0.0
230
1.0
 70
    11
 71
     3
 72
    53
 73
    49
 74
     0
 42
0.0000000001
 43
0.0000000001
 12
1.0
 22
0.0
 32
0.0
 13
1.0
 23
0.0
 33
0.0
 40
0.0
 40
0.0
 40
0.0
 40
0.0
 40
1.0
 40
1.0
 40
1.0
 40
2.0
 40
2.0
 40
2.0
 40
3.0
 40
3.0
 40
3.0
 40
4.0
 40
4.0
 40
4.0
 40
5.0
 40
5.0
 40
5.0
 40
6.0
 40
6.0
 40
6.0
 40
7.0
 40
7.0
 40
7.0
 40
8.0
 40
8.0
 40
8.0
 40
9.0
 40
9.0
 40
9.0
 40
10.0
 40
10.0
 40
10.0
 40
11.0
 40
11.0
 40
11.0
 40
12.0
 40
12.0
 40
12.0
 40
13.0
 40
13.0
 40
13.0
 40
14.0
 40
14.0
 40
14.0
 40
15.0
 40
15.0
 40
15.0
 40
16.0
 40
16.0
 40
16.0
 40
16.0
 10
-990.5905977413657
 20
693.2978010291794
 30
0.0
 10
-990.5905977413657
 20
693.2978010291794
 30
0.0
 10
-990.5905977433623
 20
678.4728010291793
 30
0.0
 10
-990.5905977433623
 20
678.4728010291793
 30
0.0
 10
-989.7138457030052
 20
678.4728010290626
 30
0.0
 10
-989.0030977434592
 20
677.7620530693225
 30
0.0
 10
-989.0030977435777
 20
676.8853010289666
 30
0.0
 10
-989.0030977436944
 20
676.0085489886101
 30
0.0
 10
-989.7138457034325
 20
675.2978010290619
 30
0.0
 10
-990.5905977437903
 20
675.2978010291806
 30
0.0
 10
-991.4673497841469
 20
675.2978010292981
 30
0.0
 10
-992.1780977436938
 20
676.0085489890381
 30
0.0
 10
-992.1780977435764
 20
676.8853010293947
 30
0.0
 10
-992.1780977435764
 20
676.8853010293947
 30
0.0
 10
-1001.003097743577
 20
676.885301030583
 30
0.0
 10
-1001.003097743577
 20
676.885301030583
 30
0.0
 10
-1001.003097743694
 20
676.0085489902272
 30
0.0
 10
-1001.713845703434
 20
675.2978010306776
 30
0.0
 10
-1002.590597743791
 20
675.2978010307964
 30
0.0
 10
-1003.467349784147
 20
675.2978010309145
 30
0.0
 10
-1004.178097743694
 20
676.0085489906545
 30
0.0
 10
-1004.178097743577
 20
676.8853010310104
 30
0.0
 10
-1004.178097743458
 20
677.7620530713663
 30
0.0
 10
-1003.467349783719
 20
678.4728010309145
 30
0.0
 10
-1002.590597743363
 20
678.4728010307971
 30
0.0
 10
-1002.590597743363
 20
678.4728010307971
 30
0.0
 10
-1002.590597741367
 20
693.297801030797
 30
0.0
 10
-1002.590597741367
 20
693.297801030797
 30
0.0
 10
-1003.467349781723
 20
693.2978010309145
 30
0.0
 10
-1004.17809774127
 20
694.0085489906545
 30
0.0
 10
-1004.178097741152
 20
694.8853010310111
 30
0.0
 10
-1004.178097741034
 20
695.7620530713663
 30
0.0
 10
-1003.467349781295
 20
696.4728010309151
 30
0.0
 10
-1002.590597740939
 20
696.4728010307958
 30
0.0
 10
-1001.713845700582
 20
696.4728010306784
 30
0.0
 10
-1001.003097741034
 20
695.7620530709389
 30
0.0
 10
-1001.003097741151
 20
694.8853010305824
 30
0.0
 10
-1001.003097741151
 20
694.8853010305824
 30
0.0
 10
-992.1780977411511
 20
694.885301029394
 30
0.0
 10
-992.1780977411511
 20
694.885301029394
 30
0.0
 10
-992.1780977410333
 20
695.7620530697506
 30
0.0
 10
-991.4673497812936
 20
696.4728010292974
 30
0.0
 10
-990.5905977409383
 20
696.4728010291793
 30
0.0
 10
-989.7138457005811
 20
696.4728010290632
 30
0.0
 10
-989.0030977410346
 20
695.7620530693225
 30
0.0
 10
-989.0030977411523
 20
694.885301028966
 30
0.0
 10
-989.00309774127
 20
694.0085489886094
 30
0.0
 10
-989.7138457010085
 20
693.2978010290625
 30
0.0
 10
-990.5905977413657
 20
693.2978010291794
 30
0.0
  0
ENDBLK
  5
5F
330
5C
100
AcDbEntity
  8
0
100
AcDbBlockEnd
  0
BLOCK
  5
63
330
61
100
AcDbEntity
  8
0
100
AcDbBlockBegin
  2
block 9
 70
     0
 10
0.0
 20
0.0
 30
0.0
  3
block 9
  1

  0
SPLINE
  5
65
330
61
100
AcDbEntity
  8
0
 62
     7
420
 16777215
370
   106
100
AcDbSpline
210
0.0
220
0.0
230
1.0
 70
    11
 71
     3
 72
    65
 73
    61
 74
     0
 42
0.0000000001
 43
0.0000000001
 12
1.0
 22
0.0
 32
0.0
 13
1.0
 23
0.0
 33
0.0
 40
0.0
 40
0.0
 40
0.0
 40
0.0
 40
1.0
 40
1.0
 40
1.0
 40
2.0
 40
2.0
 40
2.0
 40
3.0
 40
3.0
 40
3.0
 40
4.0
 40
4.0
 40
4.0
 40
5.0
 40
5.0
 40
5.0
 40
6.0
 40
6.0
 40
6.0
 40
7.0
 40
7.0
 40
7.0
 40
8.0
 40
8.0
 40
8.0
 40
9.0
 40
9.0
 40
9.0
 40
10.0
 40
10.0
 40
10.0
 40
11.0
 40
11.0
 40
11.0
 40
12.0
 40
12.0
 40
12.0
 40
13.0
 40
13.0
 40
13.0
 40
14.0
 40
14.0
 40
14.0
 40
15.0
 40
15.0
 40
15.0
 40
16.0
 40
16.0
 40
16.0
 40
17.0
 40
17.0
 40
17.0
 40
18.0
 40
18.0
 40
18.0
 40
19.0
 40
19.0
 40
19.0
 40
20.0
 40
20.0
 40
20.0
 40
20.0
 10
63.90940226066689
 20
708.38530088715
 30
0.0
 10
63.90940226103844
 20
711.1467246363035
 30
0.0
 10
61.67082601049528
 20
713.3853008874511
 30
0.0
 10
58.90940226134114
 20
713.3853008878233
 30
0.0
 10
58.90940226134114
 20
713.3853008878233
 30
0.0
 10
-967.0905977386594
 20
713.3853010260151
 30
0.0
 10
-967.0905977386594
 20
713.3853010260151
 30
0.0
 10
-969.8520214878135
 20
713.3853010263873
 30
0.0
 10
-972.0905977389625
 20
711.1467247758428
 30
0.0
 10
-972.090597739334
 20
708.3853010266881
 30
0.0
 10
-972.090597739334
 20
708.3853010266881
 30
0.0
 10
-972.0905977400072
 20
703.3853010266886
 30
0.0
 10
-972.0905977400072
 20
703.3853010266886
 30
0.0
 10
-972.0905977400072
 20
703.3853010266886
 30
0.0
 10
-1002.090597740008
 20
703.3853010307287
 30
0.0
 10
-1002.090597740008
 20
703.3853010307287
 30
0.0
 10
-1004.852021489162
 20
703.3853010311009
 30
0.0
 10
-1007.090597740308
 20
701.1467247805564
 30
0.0
 10
-1007.09059774068
 20
698.3853010314017
 30
0.0
 10
-1007.09059774068
 20
698.3853010314017
 30
0.0
 10
-1007.090597744047
 20
673.3853010314015
 30
0.0
 10
-1007.090597744047
 20
673.3853010314015
 30
0.0
 10
-1007.090597744419
 20
670.6238772822479
 30
0.0
 10
-1004.852021493875
 20
668.3853010311009
 30
0.0
 10
-1002.090597744721
 20
668.3853010307281
 30
0.0
 10
-1002.090597744721
 20
668.3853010307281
 30
0.0
 10
-972.0905977447214
 20
668.3853010266886
 30
0.0
 10
-972.0905977447214
 20
668.3853010266886
 30
0.0
 10
-972.0905977447214
 20
668.3853010266886
 30
0.0
 10
-972.0905977453953
 20
663.3853010266885
 30
0.0
 10
-972.0905977453953
 20
663.3853010266885
 30
0.0
 10
-972.0905977457668
 20
660.6238772775349
 30
0.0
 10
-969.8520214952221
 20
658.3853010263873
 30
0.0
 10
-967.0905977460673
 20
658.3853010260151
 30
0.0
 10
-967.0905977460673
 20
658.3853010260151
 30
0.0
 10
58.90940225393337
 20
658.3853008878233
 30
0.0
 10
58.90940225393337
 20
658.3853008878233
 30
0.0
 10
61.67082600308622
 20
658.3853008874511
 30
0.0
 10
63.90940225423354
 20
660.6238771379956
 30
0.0
 10
63.90940225460508
 20
663.3853008871497
 30
0.0
 10
63.90940225460508
 20
663.3853008871497
 30
0.0
 10
63.90940225527887
 20
668.3853008871498
 30
0.0
 10
63.90940225527887
 20
668.3853008871498
 30
0.0
 10
63.90940225527887
 20
668.3853008871498
 30
0.0
 10
93.90940225527736
 20
668.3853008831085
 30
0.0
 10
93.90940225527736
 20
668.3853008831085
 30
0.0
 10
96.67082600443278
 20
668.3853008827375
 30
0.0
 10
98.90940225558138
 20
670.6238771332813
 30
0.0
 10
98.90940225595293
 20
673.3853008824349
 30
0.0
 10
98.90940225595293
 20
673.3853008824349
 30
0.0
 10
98.90940225932025
 20
698.3853008824351
 30
0.0
 10
98.90940225932025
 20
698.3853008824351
 30
0.0
 10
98.90940225969307
 20
701.1467246315892
 30
0.0
 10
96.67082600914702
 20
703.3853008827368
 30
0.0
 10
93.90940225999289
 20
703.385300883109
 30
0.0
 10
93.90940225999289
 20
703.385300883109
 30
0.0
 10
63.90940225999311
 20
703.3853008871498
 30
0.0
 10
63.90940225999311
 20
703.3853008871498
 30
0.0
 10
63.90940225999311
 20
703.3853008871498
 30
0.0
 10
63.90940226066689
 20
708.3853008871494
 30
0.0
 10
63.90940226066689
 20
708.38530088715
 30
0.0
  0
ENDBLK
  5
64
330
61
100
AcDbEntity
  8
0
100
AcDbBlockEnd
  0
BLOCK
  5
68
330
66
100
AcDbEntity
  8
0
100
AcDbBlockBegin
  2
block 10
 70
     0
 10
0.0
 20
0.0
 30
0.0
  3
block 10
  1

  0
INSERT
  5
6B
330
66
100
AcDbEntity
  8
0
100
AcDbBlockReference
  2
block 11
 10
0.0
 20
0.0
 30
0.0
  0
INSERT
  5
70
330
66
100
AcDbEntity
  8
0
100
AcDbBlockReference
  2
block 12
 10
0.0
 20
0.0
 30
0.0
  0
INSERT
  5
75
330
66
100
AcDbEntity
  8
0
100
AcDbBlockReference
  2
block 13
 10
0.0
 20
0.0
 30
0.0
  0
ENDBLK
  5
69
330
66
100
AcDbEntity
  8
0
100
AcDbBlockEnd
  0
BLOCK
  5
6C
330
6A
100
AcDbEntity
  8
0
100
AcDbBlockBegin
  2
block 11
 70
     0
 10
0.0
 20
0.0
 30
0.0
  3
block 11
  1

  0
SPLINE
  5
6E
330
6A
100
AcDbEntity
  8
0
 62
     7
420
 16777215
370
   106
100
AcDbSpline
210
0.0
220
0.0
230
1.0
 70
    11
 71
     3
 72
    53
 73
    49
 74
     0
 42
0.0000000001
 43
0.0000000001
 12
1.0
 22
0.0
 32
0.0
 13
1.0
 23
0.0
 33
0.0
 40
0.0
 40
0.0
 40
0.0
 40
0.0
 40
1.0
 40
1.0
 40
1.0
 40
2.0
 40
2.0
 40
2.0
 40
3.0
 40
3.0
 40
3.0
 40
4.0
 40
4.0
 40
4.0
 40
5.0
 40
5.0
 40
5.0
 40
6.0
 40
6.0
 40
6.0
 40
7.0
 40
7.0
 40
7.0
 40
8.0
 40
8.0
 40
8.0
 40
9.0
 40
9.0
 40
9.0
 40
10.0
 40
10.0
 40
10.0
 40
11.0
 40
11.0
 40
11.0
 40
12.0
 40
12.0
 40
12.0
 40
13.0
 40
13.0
 40
13.0
 40
14.0
 40
14.0
 40
14.0
 40
15.0
 40
15.0
 40
15.0
 40
16.0
 40
16.0
 40
16.0
 40
16.0
 10
1198.2460315847
 20
197.4227080360535
 30
0.0
 10
1198.2460315847
 20
197.4227080360535
 30
0.0
 10
1198.246031585365
 20
212.2477080360541
 30
0.0
 10
1198.246031585365
 20
212.2477080360541
 30
0.0
 10
1197.369279545009
 20
212.2477080360933
 30
0.0
 10
1196.658531585397
 20
212.9584559957692
 30
0.0
 10
1196.658531585437
 20
213.8352080361251
 30
0.0
 10
1196.658531585475
 20
214.7119600764822
 30
0.0
 10
1197.369279545152
 20
215.4227080360933
 30
0.0
 10
1198.246031585508
 20
215.4227080360535
 30
0.0
 10
1199.122783625864
 20
215.4227080360137
 30
0.0
 10
1199.833531585477
 20
214.7119600763385
 30
0.0
 10
1199.833531585437
 20
213.8352080359826
 30
0.0
 10
1199.833531585437
 20
213.8352080359826
 30
0.0
 10
1208.658531585437
 20
213.8352080355854
 30
0.0
 10
1208.658531585437
 20
213.8352080355854
 30
0.0
 10
1208.658531585476
 20
214.7119600759419
 30
0.0
 10
1209.369279545152
 20
215.422708035553
 30
0.0
 10
1210.246031585508
 20
215.4227080355139
 30
0.0
 10
1211.122783625865
 20
215.4227080354747
 30
0.0
 10
1211.833531585476
 20
214.7119600757995
 30
0.0
 10
1211.833531585437
 20
213.8352080354429
 30
0.0
 10
1211.833531585397
 20
212.9584559950877
 30
0.0
 10
1211.122783625722
 20
212.2477080354753
 30
0.0
 10
1210.246031585366
 20
212.2477080355145
 30
0.0
 10
1210.246031585366
 20
212.2477080355145
 30
0.0
 10
1210.2460315847
 20
197.4227080355151
 30
0.0
 10
1210.2460315847
 20
197.4227080355151
 30
0.0
 10
1211.122783625055
 20
197.422708035476
 30
0.0
 10
1211.833531584669
 20
196.7119600758001
 30
0.0
 10
1211.833531584628
 20
195.8352080354442
 30
0.0
 10
1211.833531584589
 20
194.9584559950871
 30
0.0
 10
1211.122783624912
 20
194.2477080354753
 30
0.0
 10
1210.246031584558
 20
194.2477080355145
 30
0.0
 10
1209.369279544201
 20
194.2477080355536
 30
0.0
 10
1208.658531584589
 20
194.9584559952289
 30
0.0
 10
1208.658531584628
 20
195.835208035586
 30
0.0
 10
1208.658531584628
 20
195.835208035586
 30
0.0
 10
1199.833531584628
 20
195.8352080359832
 30
0.0
 10
1199.833531584628
 20
195.8352080359832
 30
0.0
 10
1199.83353158459
 20
194.9584559956261
 30
0.0
 10
1199.122783624913
 20
194.2477080360137
 30
0.0
 10
1198.246031584557
 20
194.2477080360535
 30
0.0
 10
1197.3692795442
 20
194.2477080360927
 30
0.0
 10
1196.658531584589
 20
194.9584559957686
 30
0.0
 10
1196.658531584629
 20
195.8352080361244
 30
0.0
 10
1196.658531584669
 20
196.7119600764816
 30
0.0
 10
1197.369279544343
 20
197.4227080360933
 30
0.0
 10
1198.2460315847
 20
197.4227080360535
 30
0.0
  0
ENDBLK
  5
6D
330
6A
100
AcDbEntity
  8
0
100
AcDbBlockEnd
  0
BLOCK
  5
71
330
6F
100
AcDbEntity
  8
0
100
AcDbBlockBegin
  2
block 12
 70
     0
 10
0.0
 20
0.0
 30
0.0
  3
block 12
  1

  0
SPLINE
  5
73
330
6F
100
AcDbEntity
  8
0
 62
     7
420
 16777215
370
   106
100
AcDbSpline
210
0.0
220
0.0
230
1.0
 70
    11
 71
     3
 72
    53
 73
    49
 74
     0
 42
0.0000000001
 43
0.0000000001
 12
1.0
 22
0.0
 32
0.0
 13
1.0
 23
0.0
 33
0.0
 40
0.0
 40
0.0
 40
0.0
 40
0.0
 40
1.0
 40
1.0
 40
1.0
 40
2.0
 40
2.0
 40
2.0
 40
3.0
 40
3.0
 40
3.0
 40
4.0
 40
4.0
 40
4.0
 40
5.0
 40
5.0
 40
5.0
 40
6.0
 40
6.0
 40
6.0
 40
7.0
 40
7.0
 40
7.0
 40
8.0
 40
8.0
 40
8.0
 40
9.0
 40
9.0
 40
9.0
 40
10.0
 40
10.0
 40
10.0
 40
11.0
 40
11.0
 40
11.0
 40
12.0
 40
12.0
 40
12.0
 40
13.0
 40
13.0
 40
13.0
 40
14.0
 40
14.0
 40
14.0
 40
15.0
 40
15.0
 40
15.0
 40
16.0
 40
16.0
 40
16.0
 40
16.0
 10
125.2460315853653
 20
212.2477080842278
 30
0.0
 10
125.2460315853653
 20
212.2477080842278
 30
0.0
 10
125.2460315847025
 20
197.4811493624966
 30
0.0
 10
125.2460315847025
 20
197.4811493624966
 30
0.0
 10
126.1550598518063
 20
197.4811493624561
 30
0.0
 10
126.8919728629375
 20
196.7442363512582
 30
0.0
 10
126.8919728628971
 20
195.8352080841537
 30
0.0
 10
126.8919728628561
 20
194.9261798170485
 30
0.0
 10
126.1550598516587
 20
194.1892668059186
 30
0.0
 10
125.2460315845542
 20
194.189266805959
 30
0.0
 10
124.3370033174491
 20
194.1892668060001
 30
0.0
 10
123.6000903063185
 20
194.9261798171961
 30
0.0
 10
123.6000903063596
 20
195.8352080843013
 30
0.0
 10
123.6000903063596
 20
195.8352080843013
 30
0.0
 10
114.8335315846279
 20
195.8352080846959
 30
0.0
 10
114.8335315846279
 20
195.8352080846959
 30
0.0
 10
114.8335315845888
 20
194.9584560443388
 30
0.0
 10
114.1227836249135
 20
194.247708084727
 30
0.0
 10
113.2460315845577
 20
194.2477080847662
 30
0.0
 10
112.3692795442005
 20
194.2477080848059
 30
0.0
 10
111.6585315845888
 20
194.9584560444806
 30
0.0
 10
111.6585315846273
 20
195.8352080848384
 30
0.0
 10
111.6585315846677
 20
196.7119601251943
 30
0.0
 10
112.3692795443442
 20
197.4227080848054
 30
0.0
 10
113.2460315847001
 20
197.4227080847662
 30
0.0
 10
113.2460315847001
 20
197.4227080847662
 30
0.0
 10
113.2460315853649
 20
212.2477080847661
 30
0.0
 10
113.2460315853649
 20
212.2477080847661
 30
0.0
 10
112.369279545009
 20
212.2477080848053
 30
0.0
 10
111.6585315853967
 20
212.9584560444812
 30
0.0
 10
111.6585315854358
 20
213.8352080848377
 30
0.0
 10
111.6585315854756
 20
214.7119601251936
 30
0.0
 10
112.3692795451515
 20
215.4227080848053
 30
0.0
 10
113.2460315855087
 20
215.4227080847662
 30
0.0
 10
114.1227836258639
 20
215.422708084727
 30
0.0
 10
114.8335315854756
 20
214.7119601250518
 30
0.0
 10
114.8335315854365
 20
213.8352080846946
 30
0.0
 10
114.8335315854365
 20
213.8352080846946
 30
0.0
 10
123.6585315854362
 20
213.835208084298
 30
0.0
 10
123.6585315854362
 20
213.835208084298
 30
0.0
 10
123.6585315854747
 20
214.7119601246546
 30
0.0
 10
124.3692795451513
 20
215.422708084267
 30
0.0
 10
125.2460315855078
 20
215.4227080842272
 30
0.0
 10
126.1227836258643
 20
215.422708084188
 30
0.0
 10
126.8335315854761
 20
214.7119601245121
 30
0.0
 10
126.8335315854376
 20
213.8352080841556
 30
0.0
 10
126.8335315853971
 20
212.9584560438004
 30
0.0
 10
126.1227836257219
 20
212.247708084188
 30
0.0
 10
125.2460315853653
 20
212.2477080842278
 30
0.0
  0
ENDBLK
  5
72
330
6F
100
AcDbEntity
  8
0
100
AcDbBlockEnd
  0
BLOCK
  5
76
330
74
100
AcDbEntity
  8
0
100
AcDbBlockBegin
  2
block 13
 70
     0
 10
0.0
 20
0.0
 30
0.0
  3
block 13
  1

  0
SPLINE
  5
78
330
74
100
AcDbEntity
  8
0
 62
     7
420
 16777215
370
   106
100
AcDbSpline
210
0.0
220
0.0
230
1.0
 70
    11
 71
     3
 72
    65
 73
    61
 74
     0
 42
0.0000000001
 43
0.0000000001
 12
1.0
 22
0.0
 32
0.0
 13
1.0
 23
0.0
 33
0.0
 40
0.0
 40
0.0
 40
0.0
 40
0.0
 40
1.0
 40
1.0
 40
1.0
 40
2.0
 40
2.0
 40
2.0
 40
3.0
 40
3.0
 40
3.0
 40
4.0
 40
4.0
 40
4.0
 40
5.0
 40
5.0
 40
5.0
 40
6.0
 40
6.0
 40
6.0
 40
7.0
 40
7.0
 40
7.0
 40
8.0
 40
8.0
 40
8.0
 40
9.0
 40
9.0
 40
9.0
 40
10.0
 40
10.0
 40
10.0
 40
11.0
 40
11.0
 40
11.0
 40
12.0
 40
12.0
 40
12.0
 40
13.0
 40
13.0
 40
13.0
 40
14.0
 40
14.0
 40
14.0
 40
15.0
 40
15.0
 40
15.0
 40
16.0
 40
16.0
 40
16.0
 40
17.0
 40
17.0
 40
17.0
 40
18.0
 40
18.0
 40
18.0
 40
19.0
 40
19.0
 40
19.0
 40
20.0
 40
20.0
 40
20.0
 40
20.0
 10
143.7460315807673
 20
109.8352080833973
 30
0.0
 10
143.7460315806434
 20
107.0737843342425
 30
0.0
 10
145.9846078313887
 20
104.8352080832964
 30
0.0
 10
148.7460315805428
 20
104.8352080831725
 30
0.0
 10
148.7460315805428
 20
104.8352080831725
 30
0.0
 10
1174.746031580543
 20
104.8352080371088
 30
0.0
 10
1174.746031580543
 20
104.8352080371088
 30
0.0
 10
1177.507455329697
 20
104.8352080369849
 30
0.0
 10
1179.746031580643
 20
107.0737842877302
 30
0.0
 10
1179.746031580767
 20
109.8352080368837
 30
0.0
 10
1179.746031580767
 20
109.8352080368837
 30
0.0
 10
1179.746031584247
 20
187.3352080368836
 30
0.0
 10
1179.746031584247
 20
187.3352080368836
 30
0.0
 10
1179.746031584247
 20
187.3352080368836
 30
0.0
 10
1209.746031584248
 20
187.3352080355367
 30
0.0
 10
1209.746031584248
 20
187.3352080355367
 30
0.0
 10
1212.507455333401
 20
187.3352080354128
 30
0.0
 10
1214.746031584347
 20
189.5737842861587
 30
0.0
 10
1214.746031584471
 20
192.3352080353122
 30
0.0
 10
1214.746031584471
 20
192.3352080353122
 30
0.0
 10
1214.746031585594
 20
217.3352080353125
 30
0.0
 10
1214.746031585594
 20
217.3352080353125
 30
0.0
 10
1214.746031585717
 20
220.0966317844666
 30
0.0
 10
1212.507455334973
 20
222.3352080354134
 30
0.0
 10
1209.746031585818
 20
222.3352080355372
 30
0.0
 10
1209.746031585818
 20
222.3352080355372
 30
0.0
 10
1179.746031585818
 20
222.3352080368848
 30
0.0
 10
1179.746031585818
 20
222.3352080368848
 30
0.0
 10
1179.746031585818
 20
222.3352080368848
 30
0.0
 10
1179.746031591542
 20
349.8352080368832
 30
0.0
 10
1179.746031591542
 20
349.8352080368832
 30
0.0
 10
1179.746031591666
 20
352.5966317860373
 30
0.0
 10
1177.507455340922
 20
354.8352080369854
 30
0.0
 10
1174.746031591767
 20
354.8352080371093
 30
0.0
 10
1174.746031591767
 20
354.8352080371093
 30
0.0
 10
148.7460315917668
 20
354.835208083173
 30
0.0
 10
148.7460315917668
 20
354.835208083173
 30
0.0
 10
145.9846078426127
 20
354.8352080832968
 30
0.0
 10
143.7460315916665
 20
352.5966318325503
 30
0.0
 10
143.7460315915427
 20
349.8352080833961
 30
0.0
 10
143.7460315915427
 20
349.8352080833961
 30
0.0
 10
143.7460315858181
 20
222.3352080833971
 30
0.0
 10
143.7460315858181
 20
222.3352080833971
 30
0.0
 10
143.7460315858181
 20
222.3352080833971
 30
0.0
 10
113.746031585817
 20
222.335208084744
 30
0.0
 10
113.746031585817
 20
222.335208084744
 30
0.0
 10
110.9846078366642
 20
222.3352080848685
 30
0.0
 10
108.7460315857174
 20
220.0966318341226
 30
0.0
 10
108.7460315855929
 20
217.3352080849671
 30
0.0
 10
108.7460315855929
 20
217.3352080849671
 30
0.0
 10
108.7460315844712
 20
192.3352080849682
 30
0.0
 10
108.7460315844712
 20
192.3352080849682
 30
0.0
 10
108.7460315843467
 20
189.5737843358141
 30
0.0
 10
110.9846078350926
 20
187.3352080848673
 30
0.0
 10
113.7460315842461
 20
187.3352080847434
 30
0.0
 10
113.7460315842461
 20
187.3352080847434
 30
0.0
 10
143.7460315842472
 20
187.3352080833971
 30
0.0
 10
143.7460315842472
 20
187.3352080833971
 30
0.0
 10
143.7460315842472
 20
187.3352080833971
 30
0.0
 10
143.7460315807673
 20
109.8352080833973
 30
0.0
 10
143.7460315807673
 20
109.8352080833973
 30
0.0
  0
ENDBLK
  5
77
330
74
100
AcDbEntity
  8
0
100
AcDbBlockEnd
  0
BLOCK
  5
7B
330
79
100
AcDbEntity
  8
0
100
AcDbBlockBegin
  2
block 14
 70
     0
 10
0.0
 20
0.0
 30
0.0
  3
block 14
  1

  0
INSERT
  5
7E
330
79
100
AcDbEntity
  8
0
100
AcDbBlockReference
  2
block 15
 10
0.0
 20
0.0
 30
0.0
  0
INSERT
  5
83
330
79
100
AcDbEntity
  8
0
100
AcDbBlockReference
  2
block 16
 10
0.0
 20
0.0
 30
0.0
  0
INSERT
  5
88
330
79
100
AcDbEntity
  8
0
100
AcDbBlockReference
  2
block 17
 10
0.0
 20
0.0
 30
0.0
  0
INSERT
  5
8D
330
79
100
AcDbEntity
  8
0
100
AcDbBlockReference
  2
block 18
 10
0.0
 20
0.0
 30
0.0
  0
ENDBLK
  5
7C
330
79
100
AcDbEntity
  8
0
100
AcDbBlockEnd
  0
BLOCK
  5
7F
330
7D
100
AcDbEntity
  8
0
100
AcDbBlockBegin
  2
block 15
 70
     0
 10
0.0
 20
0.0
 30
0.0
  3
block 15
  1

  0
SPLINE
  5
81
330
7D
100
AcDbEntity
  8
0
 62
     7
420
 16777215
370
   106
100
AcDbSpline
210
0.0
220
0.0
230
1.0
 70
    11
 71
     3
 72
    35
 73
    31
 74
     0
 42
0.0000000001
 43
0.0000000001
 12
1.0
 22
0.0
 32
0.0
 13
1.0
 23
0.0
 33
0.0
 40
0.0
 40
0.0
 40
0.0
 40
0.0
 40
1.0
 40
1.0
 40
1.0
 40
2.0
 40
2.0
 40
2.0
 40
3.0
 40
3.0
 40
3.0
 40
4.0
 40
4.0
 40
4.0
 40
5.0
 40
5.0
 40
5.0
 40
6.0
 40
6.0
 40
6.0
 40
7.0
 40
7.0
 40
7.0
 40
8.0
 40
8.0
 40
8.0
 40
9.0
 40
9.0
 40
9.0
 40
10.0
 40
10.0
 40
10.0
 40
10.0
 10
-1017.120943484509
 20
548.512592360081
 30
0.0
 10
-1018.287971589049
 20
551.0152922073675
 30
0.0
 10
-1017.205195704635
 20
553.99019449918
 30
0.0
 10
-1014.702495857349
 20
555.1572226037204
 30
0.0
 10
-1014.040783553665
 20
555.4657841183415
 30
0.0
 10
-1013.319523293153
 20
555.6256836683966
 30
0.0
 10
-1012.589404548598
 20
555.6256836683222
 30
0.0
 10
-1012.589404548598
 20
555.6256836683222
 30
0.0
 10
392.010927082453
 20
555.6256835246842
 30
0.0
 10
392.010927082453
 20
555.6256835246842
 30
0.0
 10
393.9540832130268
 20
555.6256835244853
 30
0.0
 10
395.7212527513274
 20
554.4998723655747
 30
0.0
 10
396.5424660173412
 20
552.7387748329243
 30
0.0
 10
396.5424660173412
 20
552.7387748329243
 30
0.0
 10
421.4626677521742
 20
499.2972297378105
 30
0.0
 10
421.4626677521742
 20
499.2972297378105
 30
0.0
 10
422.6296958567153
 20
496.7945298905248
 30
0.0
 10
421.5469199723011
 20
493.8196275987122
 30
0.0
 10
419.0442201250154
 20
492.6525994941712
 30
0.0
 10
418.382507821333
 20
492.3440379795501
 30
0.0
 10
417.6612475608195
 20
492.184138429495
 30
0.0
 10
416.9311288162644
 20
492.184138429572
 30
0.0
 10
416.9311288162644
 20
492.184138429572
 30
0.0
 10
-987.6692028147853
 20
492.184138573208
 30
0.0
 10
-987.6692028147853
 20
492.184138573208
 30
0.0
 10
-989.6123589453598
 20
492.1841385734056
 30
0.0
 10
-991.37952848366
 20
493.3099497323162
 30
0.0
 10
-992.2007417496735
 20
495.0710472649673
 30
0.0
 10
-992.2007417496739
 20
495.0710472649673
 30
0.0
 10
-1017.120943484509
 20
548.512592360081
 30
0.0
 10
-1017.120943484509
 20
548.512592360081
 30
0.0
  0
ENDBLK
  5
80
330
7D
100
AcDbEntity
  8
0
100
AcDbBlockEnd
  0
BLOCK
  5
84
330
82
100
AcDbEntity
  8
0
100
AcDbBlockBegin
  2
block 16
 70
     0
 10
0.0
 20
0.0
 30
0.0
  3
block 16
  1

  0
SPLINE
  5
86
330
82
100
AcDbEntity
  8
0
 62
     7
420
 16777215
370
   106
100
AcDbSpline
210
0.0
220
0.0
230
1.0
 70
    11
 71
     3
 72
    53
 73
    49
 74
     0
 42
0.0000000001
 43
0.0000000001
 12
1.0
 22
0.0
 32
0.0
 13
1.0
 23
0.0
 33
0.0
 40
0.0
 40
0.0
 40
0.0
 40
0.0
 40
1.0
 40
1.0
 40
1.0
 40
2.0
 40
2.0
 40
2.0
 40
3.0
 40
3.0
 40
3.0
 40
4.0
 40
4.0
 40
4.0
 40
5.0
 40
5.0
 40
5.0
 40
6.0
 40
6.0
 40
6.0
 40
7.0
 40
7.0
 40
7.0
 40
8.0
 40
8.0
 40
8.0
 40
9.0
 40
9.0
 40
9.0
 40
10.0
 40
10.0
 40
10.0
 40
11.0
 40
11.0
 40
11.0
 40
12.0
 40
12.0
 40
12.0
 40
13.0
 40
13.0
 40
13.0
 40
14.0
 40
14.0
 40
14.0
 40
15.0
 40
15.0
 40
15.0
 40
16.0
 40
16.0
 40
16.0
 40
16.0
 10
-634.6308756992469
 20
533.5818681731125
 30
0.0
 10
-634.6308756992469
 20
533.5818681731125
 30
0.0
 10
-622.5228625030314
 20
507.6161500732743
 30
0.0
 10
-622.5228625030314
 20
507.6161500732743
 30
0.0
 10
-624.1120769060568
 20
506.8750872268911
 30
0.0
 10
-624.7996395926609
 20
504.9860242715894
 30
0.0
 10
-624.0585767462767
 20
503.3968098685634
 30
0.0
 10
-623.3175138998935
 20
501.8075954655373
 30
0.0
 10
-621.4284509445928
 20
501.1200327789348
 30
0.0
 10
-619.8392365415667
 20
501.8610956253174
 30
0.0
 10
-618.25002213854
 20
502.6021584717013
 30
0.0
 10
-617.5624594519369
 20
504.4912214270017
 30
0.0
 10
-618.3035222983208
 20
506.0804358300284
 30
0.0
 10
-618.3035222983208
 20
506.0804358300284
 30
0.0
 10
-607.7450365788401
 20
511.0039385782277
 30
0.0
 10
-607.7450365788401
 20
511.0039385782277
 30
0.0
 10
-607.0039737324556
 20
509.4147241752011
 30
0.0
 10
-605.1149107771545
 20
508.7271614885985
 30
0.0
 10
-603.5256963741284
 20
509.4682243349824
 30
0.0
 10
-601.9364819711021
 20
510.2092871813663
 30
0.0
 10
-601.2489192844989
 20
512.0983501366667
 30
0.0
 10
-601.9899821308825
 20
513.6875645396927
 30
0.0
 10
-602.7310449772664
 20
515.2767789427195
 30
0.0
 10
-604.6201079325668
 20
515.9643416293238
 30
0.0
 10
-606.2093223355935
 20
515.2232787829394
 30
0.0
 10
-606.2093223355935
 20
515.2232787829394
 30
0.0
 10
-618.3173355318096
 20
541.1889968827776
 30
0.0
 10
-618.3173355318096
 20
541.1889968827776
 30
0.0
 10
-616.7281211287823
 20
541.9300597291601
 30
0.0
 10
-616.0405584421798
 20
543.8191226844625
 30
0.0
 10
-616.7816212885626
 20
545.4083370874886
 30
0.0
 10
-617.5226841349465
 20
546.9975514905146
 30
0.0
 10
-619.4117470902476
 20
547.685114177117
 30
0.0
 10
-621.000961493274
 20
546.9440513307345
 30
0.0
 10
-622.5901758963
 20
546.2029884843506
 30
0.0
 10
-623.277738582904
 20
544.3139255290502
 30
0.0
 10
-622.5366757365199
 20
542.7247111260235
 30
0.0
 10
-622.5366757365199
 20
542.7247111260235
 30
0.0
 10
-633.0951614560009
 20
537.8012083778242
 30
0.0
 10
-633.0951614560009
 20
537.8012083778242
 30
0.0
 10
-633.8362243023844
 20
539.3904227808503
 30
0.0
 10
-635.7252872576859
 20
540.0779854674527
 30
0.0
 10
-637.3145016607119
 20
539.3369226210694
 30
0.0
 10
-638.9037160637386
 20
538.5958597746857
 30
0.0
 10
-639.591278750342
 20
536.7067968193852
 30
0.0
 10
-638.8502159039579
 20
535.1175824163585
 30
0.0
 10
-638.1091530575746
 20
533.5283680133325
 30
0.0
 10
-636.2200901022735
 20
532.8408053267287
 30
0.0
 10
-634.6308756992469
 20
533.5818681731125
 30
0.0
  0
ENDBLK
  5
85
330
82
100
AcDbEntity
  8
0
100
AcDbBlockEnd
  0
BLOCK
  5
89
330
87
100
AcDbEntity
  8
0
100
AcDbBlockBegin
  2
block 17
 70
     0
 10
0.0
 20
0.0
 30
0.0
  3
block 17
  1

  0
SPLINE
  5
8B
330
87
100
AcDbEntity
  8
0
 62
     7
420
 16777215
370
   106
100
AcDbSpline
210
0.0
220
0.0
230
1.0
 70
    11
 71
     3
 72
    53
 73
    49
 74
     0
 42
0.0000000001
 43
0.0000000001
 12
1.0
 22
0.0
 32
0.0
 13
1.0
 23
0.0
 33
0.0
 40
0.0
 40
0.0
 40
0.0
 40
0.0
 40
1.0
 40
1.0
 40
1.0
 40
2.0
 40
2.0
 40
2.0
 40
3.0
 40
3.0
 40
3.0
 40
4.0
 40
4.0
 40
4.0
 40
5.0
 40
5.0
 40
5.0
 40
6.0
 40
6.0
 40
6.0
 40
7.0
 40
7.0
 40
7.0
 40
8.0
 40
8.0
 40
8.0
 40
9.0
 40
9.0
 40
9.0
 40
10.0
 40
10.0
 40
10.0
 40
11.0
 40
11.0
 40
11.0
 40
12.0
 40
12.0
 40
12.0
 40
13.0
 40
13.0
 40
13.0
 40
14.0
 40
14.0
 40
14.0
 40
15.0
 40
15.0
 40
15.0
 40
16.0
 40
16.0
 40
16.0
 40
16.0
 10
-960.9477497099205
 20
542.227048764539
 30
0.0
 10
-960.9477497099205
 20
542.227048764539
 30
0.0
 10
-971.5062354294005
 20
537.3035460163389
 30
0.0
 10
-971.5062354294005
 20
537.3035460163389
 30
0.0
 10
-972.247298275784
 20
538.8927604193657
 30
0.0
 10
-974.1363612310857
 20
539.5803231059695
 30
0.0
 10
-975.7255756341118
 20
538.8392602595856
 30
0.0
 10
-977.3147900371384
 20
538.0981974132017
 30
0.0
 10
-978.0023527237415
 20
536.2091344579012
 30
0.0
 10
-977.2612898773581
 20
534.6199200548746
 30
0.0
 10
-976.5202270309742
 20
533.0307056518479
 30
0.0
 10
-974.6311640756734
 20
532.3431429652447
 30
0.0
 10
-973.0419496726468
 20
533.0842058116286
 30
0.0
 10
-973.0419496726468
 20
533.0842058116286
 30
0.0
 10
-960.9339364764306
 20
507.1184877117891
 30
0.0
 10
-960.9339364764306
 20
507.1184877117891
 30
0.0
 10
-962.5231508794577
 20
506.3774248654066
 30
0.0
 10
-963.2107135660608
 20
504.4883619101048
 30
0.0
 10
-962.4696507196776
 20
502.89914750708
 30
0.0
 10
-961.728587873294
 20
501.3099331040534
 30
0.0
 10
-959.8395249179923
 20
500.6223704174496
 30
0.0
 10
-958.2503105149659
 20
501.3634332638322
 30
0.0
 10
-956.66109611194
 20
502.1044961102167
 30
0.0
 10
-955.9735334253368
 20
503.9935590655178
 30
0.0
 10
-956.71459627172
 20
505.5827734685445
 30
0.0
 10
-956.71459627172
 20
505.5827734685445
 30
0.0
 10
-946.1561105522393
 20
510.5062762167438
 30
0.0
 10
-946.1561105522393
 20
510.5062762167438
 30
0.0
 10
-945.4150477058558
 20
508.9170618137171
 30
0.0
 10
-943.5259847505547
 20
508.229499127114
 30
0.0
 10
-941.9367703475277
 20
508.9705619734972
 30
0.0
 10
-940.347555944502
 20
509.7116248198811
 30
0.0
 10
-939.6599932578989
 20
511.6006877751822
 30
0.0
 10
-940.4010561042827
 20
513.1899021782094
 30
0.0
 10
-941.1421189506663
 20
514.7791165812355
 30
0.0
 10
-943.0311819059674
 20
515.466679267838
 30
0.0
 10
-944.6203963089933
 20
514.7256164214541
 30
0.0
 10
-944.6203963089933
 20
514.7256164214541
 30
0.0
 10
-956.7284095052091
 20
540.691334521293
 30
0.0
 10
-956.7284095052091
 20
540.691334521293
 30
0.0
 10
-955.1391951021834
 20
541.4323973676762
 30
0.0
 10
-954.4516324155796
 20
543.3214603229779
 30
0.0
 10
-955.1926952619632
 20
544.9106747260033
 30
0.0
 10
-955.9337581083468
 20
546.4998891290294
 30
0.0
 10
-957.8228210636478
 20
547.1874518156332
 30
0.0
 10
-959.4120354666738
 20
546.4463889692506
 30
0.0
 10
-961.0012498697008
 20
545.7053261228667
 30
0.0
 10
-961.6888125563037
 20
543.816263167565
 30
0.0
 10
-960.9477497099205
 20
542.227048764539
 30
0.0
  0
ENDBLK
  5
8A
330
87
100
AcDbEntity
  8
0
100
AcDbBlockEnd
  0
BLOCK
  5
8E
330
8C
100
AcDbEntity
  8
0
100
AcDbBlockBegin
  2
block 18
 70
     0
 10
0.0
 20
0.0
 30
0.0
  3
block 18
  1

  0
SPLINE
  5
90
330
8C
100
AcDbEntity
  8
0
 62
     7
420
 16777215
370
   106
100
AcDbSpline
210
0.0
220
0.0
230
1.0
 70
    11
 71
     3
 72
    53
 73
    49
 74
     0
 42
0.0000000001
 43
0.0000000001
 12
1.0
 22
0.0
 32
0.0
 13
1.0
 23
0.0
 33
0.0
 40
0.0
 40
0.0
 40
0.0
 40
0.0
 40
1.0
 40
1.0
 40
1.0
 40
2.0
 40
2.0
 40
2.0
 40
3.0
 40
3.0
 40
3.0
 40
4.0
 40
4.0
 40
4.0
 40
5.0
 40
5.0
 40
5.0
 40
6.0
 40
6.0
 40
6.0
 40
7.0
 40
7.0
 40
7.0
 40
8.0
 40
8.0
 40
8.0
 40
9.0
 40
9.0
 40
9.0
 40
10.0
 40
10.0
 40
10.0
 40
11.0
 40
11.0
 40
11.0
 40
12.0
 40
12.0
 40
12.0
 40
13.0
 40
13.0
 40
13.0
 40
14.0
 40
14.0
 40
14.0
 40
15.0
 40
15.0
 40
15.0
 40
16.0
 40
16.0
 40
16.0
 40
16.0
 10
-344.6323999073485
 20
542.2270487015126
 30
0.0
 10
-344.6323999073485
 20
542.2270487015126
 30
0.0
 10
-355.1908856268289
 20
537.3035459533132
 30
0.0
 10
-355.1908856268289
 20
537.3035459533132
 30
0.0
 10
-355.9319484732127
 20
538.8927603563399
 30
0.0
 10
-357.8210114285132
 20
539.5803230429431
 30
0.0
 10
-359.4102258315399
 20
538.8392601965598
 30
0.0
 10
-360.9994402345662
 20
538.0981973501766
 30
0.0
 10
-361.6870029211693
 20
536.2091343948755
 30
0.0
 10
-360.9459400747855
 20
534.6199199918489
 30
0.0
 10
-360.2048772284019
 20
533.0307055888221
 30
0.0
 10
-358.3158142731024
 20
532.3431429022197
 30
0.0
 10
-356.7265998700758
 20
533.0842057486035
 30
0.0
 10
-356.7265998700758
 20
533.0842057486035
 30
0.0
 10
-344.6185866738594
 20
507.1184876487646
 30
0.0
 10
-344.6185866738594
 20
507.1184876487646
 30
0.0
 10
-346.2078010768861
 20
506.3774248023814
 30
0.0
 10
-346.8953637634885
 20
504.488361847079
 30
0.0
 10
-346.1543009171057
 20
502.8991474440537
 30
0.0
 10
-345.4132380707221
 20
501.309933041027
 30
0.0
 10
-343.5241751154207
 20
500.6223703544239
 30
0.0
 10
-341.9349607123943
 20
501.3634332008071
 30
0.0
 10
-340.3457463093683
 20
502.1044960471909
 30
0.0
 10
-339.6581836227659
 20
503.9935590024914
 30
0.0
 10
-340.3992464691491
 20
505.5827734055181
 30
0.0
 10
-340.3992464691491
 20
505.5827734055181
 30
0.0
 10
-329.840760749668
 20
510.5062761537187
 30
0.0
 10
-329.840760749668
 20
510.5062761537187
 30
0.0
 10
-329.0996979032848
 20
508.917061750692
 30
0.0
 10
-327.2106349479828
 20
508.2294990640883
 30
0.0
 10
-325.6214205449568
 20
508.9705619104702
 30
0.0
 10
-324.0322061419307
 20
509.7116247568547
 30
0.0
 10
-323.3446434553269
 20
511.6006877121558
 30
0.0
 10
-324.0857063017108
 20
513.189902115183
 30
0.0
 10
-324.826769148094
 20
514.7791165182091
 30
0.0
 10
-326.7158321033961
 20
515.4666792048122
 30
0.0
 10
-328.3050465064218
 20
514.7256163584277
 30
0.0
 10
-328.3050465064218
 20
514.7256163584277
 30
0.0
 10
-340.4130597026376
 20
540.6913344582659
 30
0.0
 10
-340.4130597026376
 20
540.6913344582659
 30
0.0
 10
-338.8238452996112
 20
541.4323973046498
 30
0.0
 10
-338.1362826130071
 20
543.321460259951
 30
0.0
 10
-338.8773454593909
 20
544.9106746629776
 30
0.0
 10
-339.6184083057751
 20
546.4998890660042
 30
0.0
 10
-341.5074712610759
 20
547.187451752608
 30
0.0
 10
-343.0966856641023
 20
546.4463889062242
 30
0.0
 10
-344.6859000671283
 20
545.705326059841
 30
0.0
 10
-345.3734627537324
 20
543.8162631045392
 30
0.0
 10
-344.6323999073485
 20
542.2270487015126
 30
0.0
  0
ENDBLK
  5
8F
330
8C
100
AcDbEntity
  8
0
100
AcDbBlockEnd
  0
BLOCK
  5
93
330
91
100
AcDbEntity
  8
0
100
AcDbBlockBegin
  2
block 19
 70
     0
 10
0.0
 20
0.0
 30
0.0
  3
block 19
  1

  0
INSERT
  5
96
330
91
100
AcDbEntity
  8
0
100
AcDbBlockReference
  2
block 20
 10
0.0
 20
0.0
 30
0.0
  0
INSERT
  5
9B
330
91
100
AcDbEntity
  8
0
100
AcDbBlockReference
  2
block 21
 10
0.0
 20
0.0
 30
0.0
  0
INSERT
  5
A0
330
91
100
AcDbEntity
  8
0
100
AcDbBlockReference
  2
block 22
 10
0.0
 20
0.0
 30
0.0
  0
ENDBLK
  5
94
330
91
100
AcDbEntity
  8
0
100
AcDbBlockEnd
  0
BLOCK
  5
97
330
95
100
AcDbEntity
  8
0
100
AcDbBlockBegin
  2
block 20
 70
     0
 10
0.0
 20
0.0
 30
0.0
  3
block 20
  1

  0
SPLINE
  5
99
330
95
100
AcDbEntity
  8
0
 62
     7
420
 16777215
370
   106
100
AcDbSpline
210
0.0
220
0.0
230
1.0
 70
    11
 71
     3
 72
    53
 73
    49
 74
     0
 42
0.0000000001
 43
0.0000000001
 12
1.0
 22
0.0
 32
0.0
 13
1.0
 23
0.0
 33
0.0
 40
0.0
 40
0.0
 40
0.0
 40
0.0
 40
1.0
 40
1.0
 40
1.0
 40
2.0
 40
2.0
 40
2.0
 40
3.0
 40
3.0
 40
3.0
 40
4.0
 40
4.0
 40
4.0
 40
5.0
 40
5.0
 40
5.0
 40
6.0
 40
6.0
 40
6.0
 40
7.0
 40
7.0
 40
7.0
 40
8.0
 40
8.0
 40
8.0
 40
9.0
 40
9.0
 40
9.0
 40
10.0
 40
10.0
 40
10.0
 40
11.0
 40
11.0
 40
11.0
 40
12.0
 40
12.0
 40
12.0
 40
13.0
 40
13.0
 40
13.0
 40
14.0
 40
14.0
 40
14.0
 40
15.0
 40
15.0
 40
15.0
 40
16.0
 40
16.0
 40
16.0
 40
16.0
 10
569.160064650269
 20
555.8730471813927
 30
0.0
 10
569.160064650269
 20
555.8730471813927
 30
0.0
 10
569.1600646496036
 20
541.0480471813928
 30
0.0
 10
569.1600646496036
 20
541.0480471813928
 30
0.0
 10
570.0368166899601
 20
541.048047181353
 30
0.0
 10
570.7475646495725
 20
540.3372992216783
 30
0.0
 10
570.7475646495327
 20
539.4605471813212
 30
0.0
 10
570.7475646494935
 20
538.5837951409653
 30
0.0
 10
570.0368166898177
 20
537.873047181353
 30
0.0
 10
569.1600646494611
 20
537.8730471813927
 30
0.0
 10
568.2833126091045
 20
537.8730471814318
 30
0.0
 10
567.5725646494928
 20
538.5837951411078
 30
0.0
 10
567.572564649532
 20
539.4605471814637
 30
0.0
 10
567.572564649532
 20
539.4605471814637
 30
0.0
 10
558.7475646495323
 20
539.4605471818596
 30
0.0
 10
558.7475646495323
 20
539.4605471818596
 30
0.0
 10
558.7475646494931
 20
538.5837951415037
 30
0.0
 10
558.0368166898172
 20
537.8730471818919
 30
0.0
 10
557.1600646494613
 20
537.8730471819312
 30
0.0
 10
556.2833126091048
 20
537.873047181971
 30
0.0
 10
555.5725646494931
 20
538.5837951416462
 30
0.0
 10
555.5725646495322
 20
539.4605471820021
 30
0.0
 10
555.5725646495727
 20
540.3372992223592
 30
0.0
 10
556.2833126092472
 20
541.0480471819709
 30
0.0
 10
557.1600646496038
 20
541.0480471819311
 30
0.0
 10
557.1600646496038
 20
541.0480471819311
 30
0.0
 10
557.1600646502692
 20
555.8730471819312
 30
0.0
 10
557.1600646502692
 20
555.8730471819312
 30
0.0
 10
556.2833126099127
 20
555.8730471819708
 30
0.0
 10
555.5725646503009
 20
556.5837951416462
 30
0.0
 10
555.5725646503407
 20
557.4605471820021
 30
0.0
 10
555.57256465038
 20
558.3372992223585
 30
0.0
 10
556.2833126100558
 20
559.0480471819709
 30
0.0
 10
557.1600646504123
 20
559.0480471819311
 30
0.0
 10
558.0368166907682
 20
559.048047181892
 30
0.0
 10
558.7475646503799
 20
558.3372992222161
 30
0.0
 10
558.7475646503408
 20
557.4605471818595
 30
0.0
 10
558.7475646503408
 20
557.4605471818595
 30
0.0
 10
567.5725646503405
 20
557.4605471814637
 30
0.0
 10
567.5725646503405
 20
557.4605471814637
 30
0.0
 10
567.5725646503797
 20
558.3372992218201
 30
0.0
 10
568.2833126100555
 20
559.0480471814319
 30
0.0
 10
569.1600646504121
 20
559.0480471813928
 30
0.0
 10
570.0368166907687
 20
559.048047181353
 30
0.0
 10
570.7475646503804
 20
558.3372992216777
 30
0.0
 10
570.7475646503412
 20
557.4605471813212
 30
0.0
 10
570.7475646503015
 20
556.5837951409653
 30
0.0
 10
570.0368166906255
 20
555.873047181353
 30
0.0
 10
569.160064650269
 20
555.8730471813927
 30
0.0
  0
ENDBLK
  5
98
330
95
100
AcDbEntity
  8
0
100
AcDbBlockEnd
  0
BLOCK
  5
9C
330
9A
100
AcDbEntity
  8
0
100
AcDbBlockBegin
  2
block 21
 70
     0
 10
0.0
 20
0.0
 30
0.0
  3
block 21
  1

  0
SPLINE
  5
9E
330
9A
100
AcDbEntity
  8
0
 62
     7
420
 16777215
370
   106
100
AcDbSpline
210
0.0
220
0.0
230
1.0
 70
    11
 71
     3
 72
    53
 73
    49
 74
     0
 42
0.0000000001
 43
0.0000000001
 12
1.0
 22
0.0
 32
0.0
 13
1.0
 23
0.0
 33
0.0
 40
0.0
 40
0.0
 40
0.0
 40
0.0
 40
1.0
 40
1.0
 40
1.0
 40
2.0
 40
2.0
 40
2.0
 40
3.0
 40
3.0
 40
3.0
 40
4.0
 40
4.0
 40
4.0
 40
5.0
 40
5.0
 40
5.0
 40
6.0
 40
6.0
 40
6.0
 40
7.0
 40
7.0
 40
7.0
 40
8.0
 40
8.0
 40
8.0
 40
9.0
 40
9.0
 40
9.0
 40
10.0
 40
10.0
 40
10.0
 40
11.0
 40
11.0
 40
11.0
 40
12.0
 40
12.0
 40
12.0
 40
13.0
 40
13.0
 40
13.0
 40
14.0
 40
14.0
 40
14.0
 40
15.0
 40
15.0
 40
15.0
 40
16.0
 40
16.0
 40
16.0
 40
16.0
 10
606.1600646496036
 20
541.0480471797314
 30
0.0
 10
606.1600646496036
 20
541.0480471797314
 30
0.0
 10
606.1600646502691
 20
555.8730471797313
 30
0.0
 10
606.1600646502691
 20
555.8730471797313
 30
0.0
 10
605.2833126099132
 20
555.8730471797705
 30
0.0
 10
604.5725646503014
 20
556.5837951394464
 30
0.0
 10
604.5725646503412
 20
557.4605471798022
 30
0.0
 10
604.5725646503804
 20
558.3372992201588
 30
0.0
 10
605.2833126100562
 20
559.0480471797705
 30
0.0
 10
606.1600646504121
 20
559.0480471797314
 30
0.0
 10
607.036816690768
 20
559.0480471796923
 30
0.0
 10
607.7475646503798
 20
558.3372992200163
 30
0.0
 10
607.7475646503406
 20
557.4605471796598
 30
0.0
 10
607.7475646503406
 20
557.4605471796598
 30
0.0
 10
616.5725646503404
 20
557.4605471792639
 30
0.0
 10
616.5725646503404
 20
557.4605471792639
 30
0.0
 10
616.5725646503795
 20
558.3372992196204
 30
0.0
 10
617.2833126100554
 20
559.0480471792322
 30
0.0
 10
618.1600646504126
 20
559.048047179193
 30
0.0
 10
619.0368166907684
 20
559.0480471791532
 30
0.0
 10
619.7475646503801
 20
558.3372992194774
 30
0.0
 10
619.747564650341
 20
557.4605471791208
 30
0.0
 10
619.7475646503012
 20
556.5837951387649
 30
0.0
 10
619.0368166906253
 20
555.8730471791532
 30
0.0
 10
618.1600646502694
 20
555.873047179193
 30
0.0
 10
618.1600646502694
 20
555.873047179193
 30
0.0
 10
618.160064649604
 20
541.048047179193
 30
0.0
 10
618.160064649604
 20
541.048047179193
 30
0.0
 10
619.0368166899599
 20
541.0480471791532
 30
0.0
 10
619.7475646495723
 20
540.3372992194779
 30
0.0
 10
619.7475646495325
 20
539.4605471791208
 30
0.0
 10
619.7475646494934
 20
538.5837951387649
 30
0.0
 10
619.0368166898174
 20
537.8730471791532
 30
0.0
 10
618.1600646494616
 20
537.873047179193
 30
0.0
 10
617.2833126091044
 20
537.8730471792321
 30
0.0
 10
616.5725646494926
 20
538.583795138908
 30
0.0
 10
616.5725646495318
 20
539.4605471792639
 30
0.0
 10
616.5725646495318
 20
539.4605471792639
 30
0.0
 10
607.747564649532
 20
539.4605471796598
 30
0.0
 10
607.747564649532
 20
539.4605471796598
 30
0.0
 10
607.7475646494929
 20
538.5837951393039
 30
0.0
 10
607.036816689817
 20
537.8730471796922
 30
0.0
 10
606.1600646494611
 20
537.8730471797313
 30
0.0
 10
605.2833126091052
 20
537.8730471797705
 30
0.0
 10
604.5725646494935
 20
538.5837951394464
 30
0.0
 10
604.5725646495326
 20
539.4605471798022
 30
0.0
 10
604.5725646495724
 20
540.3372992201595
 30
0.0
 10
605.2833126092477
 20
541.0480471797705
 30
0.0
 10
606.1600646496036
 20
541.0480471797314
 30
0.0
  0
ENDBLK
  5
9D
330
9A
100
AcDbEntity
  8
0
100
AcDbBlockEnd
  0
BLOCK
  5
A1
330
9F
100
AcDbEntity
  8
0
100
AcDbBlockBegin
  2
block 22
 70
     0
 10
0.0
 20
0.0
 30
0.0
  3
block 22
  1

  0
SPLINE
  5
A3
330
9F
100
AcDbEntity
  8
0
 62
     7
420
 16777215
370
   106
100
AcDbSpline
210
0.0
220
0.0
230
1.0
 70
    11
 71
     3
 72
    29
 73
    25
 74
     0
 42
0.0000000001
 43
0.0000000001
 12
1.0
 22
0.0
 32
0.0
 13
1.0
 23
0.0
 33
0.0
 40
0.0
 40
0.0
 40
0.0
 40
0.0
 40
1.0
 40
1.0
 40
1.0
 40
2.0
 40
2.0
 40
2.0
 40
3.0
 40
3.0
 40
3.0
 40
4.0
 40
4.0
 40
4.0
 40
5.0
 40
5.0
 40
5.0
 40
6.0
 40
6.0
 40
6.0
 40
7.0
 40
7.0
 40
7.0
 40
8.0
 40
8.0
 40
8.0
 40
8.0
 10
552.6600646493748
 20
535.9605471821332
 30
0.0
 10
552.660064649251
 20
533.199123432979
 30
0.0
 10
554.898640899997
 20
530.9605471820335
 30
0.0
 10
557.6600646491504
 20
530.960547181909
 30
0.0
 10
557.6600646491504
 20
530.960547181909
 30
0.0
 10
617.6600646491506
 20
530.9605471792152
 30
0.0
 10
617.6600646491506
 20
530.9605471792152
 30
0.0
 10
620.4214883983047
 20
530.9605471790913
 30
0.0
 10
622.6600646492509
 20
533.1991234298366
 30
0.0
 10
622.6600646493747
 20
535.9605471789907
 30
0.0
 10
622.6600646493747
 20
535.9605471789907
 30
0.0
 10
622.6600646504971
 20
560.960547178991
 30
0.0
 10
622.6600646504971
 20
560.960547178991
 30
0.0
 10
622.6600646506216
 20
563.7219709281451
 30
0.0
 10
620.4214883998762
 20
565.9605471790912
 30
0.0
 10
617.6600646507221
 20
565.9605471792152
 30
0.0
 10
617.6600646507221
 20
565.9605471792152
 30
0.0
 10
557.660064650722
 20
565.960547181909
 30
0.0
 10
557.660064650722
 20
565.960547181909
 30
0.0
 10
554.8986409015685
 20
565.9605471820335
 30
0.0
 10
552.6600646506216
 20
563.7219709312875
 30
0.0
 10
552.6600646504971
 20
560.9605471821334
 30
0.0
 10
552.6600646504971
 20
560.9605471821334
 30
0.0
 10
552.6600646493748
 20
535.9605471821332
 30
0.0
 10
552.6600646493748
 20
535.9605471821332
 30
0.0
  0
ENDBLK
  5
A2
330
9F
100
AcDbEntity
  8
0
100
AcDbBlockEnd
  0
BLOCK
  5
A6
330
A4
100
AcDbEntity
  8
0
100
AcDbBlockBegin
  2
block 23
 70
     0
 10
0.0
 20
0.0
 30
0.0
  3
block 23
  1

  0
INSERT
  5
A9
330
A4
100
AcDbEntity
  8
0
100
AcDbBlockReference
  2
block 24
 10
0.0
 20
0.0
 30
0.0
  0
INSERT
  5
AE
330
A4
100
AcDbEntity
  8
0
100
AcDbBlockReference
  2
block 25
 10
0.0
 20
0.0
 30
0.0
  0
INSERT
  5
B3
330
A4
100
AcDbEntity
  8
0
100
AcDbBlockReference
  2
block 26
 10
0.0
 20
0.0
 30
0.0
  0
ENDBLK
  5
A7
330
A4
100
AcDbEntity
  8
0
100
AcDbBlockEnd
  0
BLOCK
  5
AA
330
A8
100
AcDbEntity
  8
0
100
AcDbBlockBegin
  2
block 24
 70
     0
 10
0.0
 20
0.0
 30
0.0
  3
block 24
  1

  0
SPLINE
  5
AC
330
A8
100
AcDbEntity
  8
0
 62
     7
420
 16777215
370
   106
100
AcDbSpline
210
0.0
220
0.0
230
1.0
 70
    11
 71
     3
 72
    53
 73
    49
 74
     0
 42
0.0000000001
 43
0.0000000001
 12
1.0
 22
0.0
 32
0.0
 13
1.0
 23
0.0
 33
0.0
 40
0.0
 40
0.0
 40
0.0
 40
0.0
 40
1.0
 40
1.0
 40
1.0
 40
2.0
 40
2.0
 40
2.0
 40
3.0
 40
3.0
 40
3.0
 40
4.0
 40
4.0
 40
4.0
 40
5.0
 40
5.0
 40
5.0
 40
6.0
 40
6.0
 40
6.0
 40
7.0
 40
7.0
 40
7.0
 40
8.0
 40
8.0
 40
8.0
 40
9.0
 40
9.0
 40
9.0
 40
10.0
 40
10.0
 40
10.0
 40
11.0
 40
11.0
 40
11.0
 40
12.0
 40
12.0
 40
12.0
 40
13.0
 40
13.0
 40
13.0
 40
14.0
 40
14.0
 40
14.0
 40
15.0
 40
15.0
 40
15.0
 40
16.0
 40
16.0
 40
16.0
 40
16.0
 10
660.1585316007921
 20
555.8730471773071
 30
0.0
 10
660.1585316007921
 20
555.8730471773071
 30
0.0
 10
660.1585316001267
 20
541.048047177307
 30
0.0
 10
660.1585316001267
 20
541.048047177307
 30
0.0
 10
661.0352836404832
 20
541.0480471772679
 30
0.0
 10
661.7460316000955
 20
540.337299217592
 30
0.0
 10
661.7460316000557
 20
539.4605471772355
 30
0.0
 10
661.7460316000166
 20
538.583795136879
 30
0.0
 10
661.0352836403407
 20
537.8730471772673
 30
0.0
 10
660.1585315999843
 20
537.8730471773064
 30
0.0
 10
659.2817795596277
 20
537.8730471773455
 30
0.0
 10
658.571031600016
 20
538.5837951370214
 30
0.0
 10
658.5710316000551
 20
539.460547177378
 30
0.0
 10
658.5710316000551
 20
539.460547177378
 30
0.0
 10
649.7460316000553
 20
539.4605471777745
 30
0.0
 10
649.7460316000553
 20
539.4605471777745
 30
0.0
 10
649.7460316000162
 20
538.583795137418
 30
0.0
 10
649.0352836403403
 20
537.8730471778056
 30
0.0
 10
648.1585315999844
 20
537.8730471778454
 30
0.0
 10
647.2817795596279
 20
537.8730471778846
 30
0.0
 10
646.5710316000162
 20
538.5837951375604
 30
0.0
 10
646.5710316000553
 20
539.460547177917
 30
0.0
 10
646.5710316000957
 20
540.3372992182735
 30
0.0
 10
647.2817795597704
 20
541.0480471778852
 30
0.0
 10
648.1585316001269
 20
541.0480471778461
 30
0.0
 10
648.1585316001269
 20
541.0480471778461
 30
0.0
 10
648.1585316007923
 20
555.873047177846
 30
0.0
 10
648.1585316007923
 20
555.873047177846
 30
0.0
 10
647.2817795604358
 20
555.8730471778852
 30
0.0
 10
646.5710316008241
 20
556.5837951375611
 30
0.0
 10
646.5710316008639
 20
557.460547177917
 30
0.0
 10
646.571031600903
 20
558.3372992182728
 30
0.0
 10
647.2817795605789
 20
559.0480471778845
 30
0.0
 10
648.1585316009355
 20
559.0480471778454
 30
0.0
 10
649.0352836412912
 20
559.0480471778056
 30
0.0
 10
649.746031600903
 20
558.3372992181304
 30
0.0
 10
649.7460316008638
 20
557.4605471777745
 30
0.0
 10
649.7460316008638
 20
557.4605471777745
 30
0.0
 10
658.5710316008636
 20
557.460547177378
 30
0.0
 10
658.5710316008636
 20
557.460547177378
 30
0.0
 10
658.5710316009028
 20
558.3372992177339
 30
0.0
 10
659.2817795605787
 20
559.0480471773456
 30
0.0
 10
660.1585316009352
 20
559.0480471773064
 30
0.0
 10
661.0352836412917
 20
559.0480471772672
 30
0.0
 10
661.7460316009035
 20
558.3372992175914
 30
0.0
 10
661.7460316008643
 20
557.4605471772355
 30
0.0
 10
661.7460316008245
 20
556.5837951368796
 30
0.0
 10
661.0352836411487
 20
555.8730471772678
 30
0.0
 10
660.1585316007921
 20
555.8730471773071
 30
0.0
  0
ENDBLK
  5
AB
330
A8
100
AcDbEntity
  8
0
100
AcDbBlockEnd
  0
BLOCK
  5
AF
330
AD
100
AcDbEntity
  8
0
100
AcDbBlockBegin
  2
block 25
 70
     0
 10
0.0
 20
0.0
 30
0.0
  3
block 25
  1

  0
SPLINE
  5
B1
330
AD
100
AcDbEntity
  8
0
 62
     7
420
 16777215
370
   106
100
AcDbSpline
210
0.0
220
0.0
230
1.0
 70
    11
 71
     3
 72
    53
 73
    49
 74
     0
 42
0.0000000001
 43
0.0000000001
 12
1.0
 22
0.0
 32
0.0
 13
1.0
 23
0.0
 33
0.0
 40
0.0
 40
0.0
 40
0.0
 40
0.0
 40
1.0
 40
1.0
 40
1.0
 40
2.0
 40
2.0
 40
2.0
 40
3.0
 40
3.0
 40
3.0
 40
4.0
 40
4.0
 40
4.0
 40
5.0
 40
5.0
 40
5.0
 40
6.0
 40
6.0
 40
6.0
 40
7.0
 40
7.0
 40
7.0
 40
8.0
 40
8.0
 40
8.0
 40
9.0
 40
9.0
 40
9.0
 40
10.0
 40
10.0
 40
10.0
 40
11.0
 40
11.0
 40
11.0
 40
12.0
 40
12.0
 40
12.0
 40
13.0
 40
13.0
 40
13.0
 40
14.0
 40
14.0
 40
14.0
 40
15.0
 40
15.0
 40
15.0
 40
16.0
 40
16.0
 40
16.0
 40
16.0
 10
697.1585316001267
 20
541.0480471756457
 30
0.0
 10
697.1585316001267
 20
541.0480471756457
 30
0.0
 10
697.1585316007921
 20
555.8730471756456
 30
0.0
 10
697.1585316007921
 20
555.8730471756456
 30
0.0
 10
696.2817795604362
 20
555.8730471756854
 30
0.0
 10
695.5710316008245
 20
556.5837951353607
 30
0.0
 10
695.5710316008643
 20
557.4605471757166
 30
0.0
 10
695.5710316009034
 20
558.3372992160724
 30
0.0
 10
696.2817795605794
 20
559.0480471756848
 30
0.0
 10
697.1585316009352
 20
559.048047175645
 30
0.0
 10
698.0352836412911
 20
559.0480471756059
 30
0.0
 10
698.7460316009028
 20
558.33729921593
 30
0.0
 10
698.7460316008637
 20
557.4605471755741
 30
0.0
 10
698.7460316008637
 20
557.4605471755741
 30
0.0
 10
707.5710316008634
 20
557.4605471751782
 30
0.0
 10
707.5710316008634
 20
557.4605471751782
 30
0.0
 10
707.5710316009025
 20
558.3372992155341
 30
0.0
 10
708.2817795605785
 20
559.0480471751458
 30
0.0
 10
709.1585316009357
 20
559.0480471751067
 30
0.0
 10
710.0352836412915
 20
559.0480471750669
 30
0.0
 10
710.7460316009033
 20
558.3372992153916
 30
0.0
 10
710.7460316008642
 20
557.4605471750357
 30
0.0
 10
710.7460316008244
 20
556.5837951346798
 30
0.0
 10
710.0352836411485
 20
555.8730471750675
 30
0.0
 10
709.1585316007926
 20
555.8730471751072
 30
0.0
 10
709.1585316007926
 20
555.8730471751072
 30
0.0
 10
709.1585316001272
 20
541.0480471751073
 30
0.0
 10
709.1585316001272
 20
541.0480471751073
 30
0.0
 10
710.0352836404829
 20
541.0480471750675
 30
0.0
 10
710.7460316000953
 20
540.3372992153922
 30
0.0
 10
710.7460316000556
 20
539.4605471750358
 30
0.0
 10
710.7460316000164
 20
538.5837951346792
 30
0.0
 10
710.0352836403405
 20
537.8730471750669
 30
0.0
 10
709.1585315999846
 20
537.8730471751066
 30
0.0
 10
708.2817795596275
 20
537.8730471751458
 30
0.0
 10
707.5710316000158
 20
538.5837951348217
 30
0.0
 10
707.5710316000549
 20
539.4605471751782
 30
0.0
 10
707.5710316000549
 20
539.4605471751782
 30
0.0
 10
698.7460316000552
 20
539.4605471755741
 30
0.0
 10
698.7460316000552
 20
539.4605471755741
 30
0.0
 10
698.746031600016
 20
538.5837951352177
 30
0.0
 10
698.0352836403401
 20
537.8730471756058
 30
0.0
 10
697.1585315999843
 20
537.8730471756451
 30
0.0
 10
696.2817795596284
 20
537.8730471756849
 30
0.0
 10
695.5710316000166
 20
538.5837951353601
 30
0.0
 10
695.5710316000558
 20
539.4605471757166
 30
0.0
 10
695.5710316000956
 20
540.3372992160731
 30
0.0
 10
696.2817795597708
 20
541.0480471756855
 30
0.0
 10
697.1585316001267
 20
541.0480471756457
 30
0.0
  0
ENDBLK
  5
B0
330
AD
100
AcDbEntity
  8
0
100
AcDbBlockEnd
  0
BLOCK
  5
B4
330
B2
100
AcDbEntity
  8
0
100
AcDbBlockBegin
  2
block 26
 70
     0
 10
0.0
 20
0.0
 30
0.0
  3
block 26
  1

  0
SPLINE
  5
B6
330
B2
100
AcDbEntity
  8
0
 62
     7
420
 16777215
370
   106
100
AcDbSpline
210
0.0
220
0.0
230
1.0
 70
    11
 71
     3
 72
    29
 73
    25
 74
     0
 42
0.0000000001
 43
0.0000000001
 12
1.0
 22
0.0
 32
0.0
 13
1.0
 23
0.0
 33
0.0
 40
0.0
 40
0.0
 40
0.0
 40
0.0
 40
1.0
 40
1.0
 40
1.0
 40
2.0
 40
2.0
 40
2.0
 40
3.0
 40
3.0
 40
3.0
 40
4.0
 40
4.0
 40
4.0
 40
5.0
 40
5.0
 40
5.0
 40
6.0
 40
6.0
 40
6.0
 40
7.0
 40
7.0
 40
7.0
 40
8.0
 40
8.0
 40
8.0
 40
8.0
 10
643.658531599898
 20
535.9605471780475
 30
0.0
 10
643.658531599774
 20
533.1991234288939
 30
0.0
 10
645.89710785052
 20
530.9605471779472
 30
0.0
 10
648.6585315996736
 20
530.9605471778233
 30
0.0
 10
648.6585315996736
 20
530.9605471778233
 30
0.0
 10
708.6585315996738
 20
530.9605471751295
 30
0.0
 10
708.6585315996738
 20
530.9605471751295
 30
0.0
 10
711.4199553488279
 20
530.9605471750056
 30
0.0
 10
713.658531599774
 20
533.1991234257509
 30
0.0
 10
713.6585315998979
 20
535.9605471749044
 30
0.0
 10
713.6585315998979
 20
535.9605471749044
 30
0.0
 10
713.6585316010202
 20
560.9605471749046
 30
0.0
 10
713.6585316010202
 20
560.9605471749046
 30
0.0
 10
713.6585316011447
 20
563.7219709240587
 30
0.0
 10
711.4199553503994
 20
565.9605471750062
 30
0.0
 10
708.6585316012453
 20
565.96054717513
 30
0.0
 10
708.6585316012453
 20
565.96054717513
 30
0.0
 10
648.658531601245
 20
565.9605471778239
 30
0.0
 10
648.658531601245
 20
565.9605471778239
 30
0.0
 10
645.8971078520916
 20
565.9605471779478
 30
0.0
 10
643.6585316011448
 20
563.7219709272018
 30
0.0
 10
643.6585316010203
 20
560.9605471780477
 30
0.0
 10
643.6585316010203
 20
560.9605471780477
 30
0.0
 10
643.658531599898
 20
535.9605471780475
 30
0.0
 10
643.658531599898
 20
535.9605471780475
 30
0.0
  0
ENDBLK
  5
B5
330
B2
100
AcDbEntity
  8
0
100
AcDbBlockEnd
  0
BLOCK
  5
B9
330
B7
100
AcDbEntity
  8
0
100
AcDbBlockBegin
  2
block 27
 70
     0
 10
0.0
 20
0.0
 30
0.0
  3
block 27
  1

  0
INSERT
  5
BC
330
B7
100
AcDbEntity
  8
0
100
AcDbBlockReference
  2
block 28
 10
0.0
 20
0.0
 30
0.0
  0
INSERT
  5
C1
330
B7
100
AcDbEntity
  8
0
100
AcDbBlockReference
  2
block 29
 10
0.0
 20
0.0
 30
0.0
  0
INSERT
  5
C6
330
B7
100
AcDbEntity
  8
0
100
AcDbBlockReference
  2
block 30
 10
0.0
 20
0.0
 30
0.0
  0
ENDBLK
  5
BA
330
B7
100
AcDbEntity
  8
0
100
AcDbBlockEnd
  0
BLOCK
  5
BD
330
BB
100
AcDbEntity
  8
0
100
AcDbBlockBegin
  2
block 28
 70
     0
 10
0.0
 20
0.0
 30
0.0
  3
block 28
  1

  0
SPLINE
  5
BF
330
BB
100
AcDbEntity
  8
0
 62
     7
420
 16777215
370
   106
100
AcDbSpline
210
0.0
220
0.0
230
1.0
 70
    11
 71
     3
 72
    53
 73
    49
 74
     0
 42
0.0000000001
 43
0.0000000001
 12
1.0
 22
0.0
 32
0.0
 13
1.0
 23
0.0
 33
0.0
 40
0.0
 40
0.0
 40
0.0
 40
0.0
 40
1.0
 40
1.0
 40
1.0
 40
2.0
 40
2.0
 40
2.0
 40
3.0
 40
3.0
 40
3.0
 40
4.0
 40
4.0
 40
4.0
 40
5.0
 40
5.0
 40
5.0
 40
6.0
 40
6.0
 40
6.0
 40
7.0
 40
7.0
 40
7.0
 40
8.0
 40
8.0
 40
8.0
 40
9.0
 40
9.0
 40
9.0
 40
10.0
 40
10.0
 40
10.0
 40
11.0
 40
11.0
 40
11.0
 40
12.0
 40
12.0
 40
12.0
 40
13.0
 40
13.0
 40
13.0
 40
14.0
 40
14.0
 40
14.0
 40
15.0
 40
15.0
 40
15.0
 40
16.0
 40
16.0
 40
16.0
 40
16.0
 10
478.8470207384063
 20
555.8730471854457
 30
0.0
 10
478.8470207384063
 20
555.8730471854457
 30
0.0
 10
478.8470207377409
 20
541.0480471854457
 30
0.0
 10
478.8470207377409
 20
541.0480471854457
 30
0.0
 10
479.7237727780974
 20
541.048047185406
 30
0.0
 10
480.4345207377098
 20
540.3372992257307
 30
0.0
 10
480.43452073767
 20
539.4605471853741
 30
0.0
 10
480.4345207376308
 20
538.5837951450177
 30
0.0
 10
479.7237727779549
 20
537.8730471854053
 30
0.0
 10
478.8470207375984
 20
537.8730471854451
 30
0.0
 10
477.9702686972419
 20
537.8730471854842
 30
0.0
 10
477.2595207376302
 20
538.5837951451601
 30
0.0
 10
477.2595207376693
 20
539.4605471855166
 30
0.0
 10
477.2595207376693
 20
539.4605471855166
 30
0.0
 10
468.4345207376696
 20
539.4605471859126
 30
0.0
 10
468.4345207376696
 20
539.4605471859126
 30
0.0
 10
468.4345207376304
 20
538.583795145556
 30
0.0
 10
467.7237727779545
 20
537.8730471859443
 30
0.0
 10
466.8470207375987
 20
537.8730471859834
 30
0.0
 10
465.9702686972421
 20
537.8730471860232
 30
0.0
 10
465.2595207376304
 20
538.5837951456984
 30
0.0
 10
465.2595207376695
 20
539.460547186055
 30
0.0
 10
465.2595207377099
 20
540.3372992264116
 30
0.0
 10
465.9702686973845
 20
541.048047186024
 30
0.0
 10
466.8470207377411
 20
541.0480471859842
 30
0.0
 10
466.8470207377411
 20
541.0480471859842
 30
0.0
 10
466.8470207384065
 20
555.8730471859841
 30
0.0
 10
466.8470207384065
 20
555.8730471859841
 30
0.0
 10
465.97026869805
 20
555.8730471860239
 30
0.0
 10
465.2595207384383
 20
556.5837951456991
 30
0.0
 10
465.259520738478
 20
557.460547186055
 30
0.0
 10
465.2595207385172
 20
558.3372992264109
 30
0.0
 10
465.9702686981931
 20
559.0480471860233
 30
0.0
 10
466.8470207385496
 20
559.0480471859835
 30
0.0
 10
467.7237727789055
 20
559.0480471859444
 30
0.0
 10
468.4345207385172
 20
558.3372992262684
 30
0.0
 10
468.4345207384781
 20
557.4605471859126
 30
0.0
 10
468.4345207384781
 20
557.4605471859126
 30
0.0
 10
477.2595207384778
 20
557.4605471855166
 30
0.0
 10
477.2595207384778
 20
557.4605471855166
 30
0.0
 10
477.259520738517
 20
558.3372992258725
 30
0.0
 10
477.9702686981929
 20
559.0480471854842
 30
0.0
 10
478.8470207385494
 20
559.0480471854451
 30
0.0
 10
479.7237727789059
 20
559.0480471854053
 30
0.0
 10
480.4345207385177
 20
558.33729922573
 30
0.0
 10
480.4345207384785
 20
557.4605471853741
 30
0.0
 10
480.4345207384387
 20
556.5837951450183
 30
0.0
 10
479.7237727787629
 20
555.8730471854059
 30
0.0
 10
478.8470207384063
 20
555.8730471854457
 30
0.0
  0
ENDBLK
  5
BE
330
BB
100
AcDbEntity
  8
0
100
AcDbBlockEnd
  0
BLOCK
  5
C2
330
C0
100
AcDbEntity
  8
0
100
AcDbBlockBegin
  2
block 29
 70
     0
 10
0.0
 20
0.0
 30
0.0
  3
block 29
  1

  0
SPLINE
  5
C4
330
C0
100
AcDbEntity
  8
0
 62
     7
420
 16777215
370
   106
100
AcDbSpline
210
0.0
220
0.0
230
1.0
 70
    11
 71
     3
 72
    53
 73
    49
 74
     0
 42
0.0000000001
 43
0.0000000001
 12
1.0
 22
0.0
 32
0.0
 13
1.0
 23
0.0
 33
0.0
 40
0.0
 40
0.0
 40
0.0
 40
0.0
 40
1.0
 40
1.0
 40
1.0
 40
2.0
 40
2.0
 40
2.0
 40
3.0
 40
3.0
 40
3.0
 40
4.0
 40
4.0
 40
4.0
 40
5.0
 40
5.0
 40
5.0
 40
6.0
 40
6.0
 40
6.0
 40
7.0
 40
7.0
 40
7.0
 40
8.0
 40
8.0
 40
8.0
 40
9.0
 40
9.0
 40
9.0
 40
10.0
 40
10.0
 40
10.0
 40
11.0
 40
11.0
 40
11.0
 40
12.0
 40
12.0
 40
12.0
 40
13.0
 40
13.0
 40
13.0
 40
14.0
 40
14.0
 40
14.0
 40
15.0
 40
15.0
 40
15.0
 40
16.0
 40
16.0
 40
16.0
 40
16.0
 10
515.8470207377409
 20
541.0480471837843
 30
0.0
 10
515.8470207377409
 20
541.0480471837843
 30
0.0
 10
515.8470207384063
 20
555.8730471837844
 30
0.0
 10
515.8470207384063
 20
555.8730471837844
 30
0.0
 10
514.9702686980504
 20
555.8730471838235
 30
0.0
 10
514.2595207384387
 20
556.5837951434994
 30
0.0
 10
514.2595207384785
 20
557.4605471838553
 30
0.0
 10
514.2595207385176
 20
558.3372992242112
 30
0.0
 10
514.9702686981935
 20
559.0480471838229
 30
0.0
 10
515.8470207385494
 20
559.0480471837838
 30
0.0
 10
516.7237727789053
 20
559.0480471837445
 30
0.0
 10
517.434520738517
 20
558.3372992240687
 30
0.0
 10
517.4345207384779
 20
557.4605471837128
 30
0.0
 10
517.4345207384779
 20
557.4605471837128
 30
0.0
 10
526.2595207384777
 20
557.4605471833162
 30
0.0
 10
526.2595207384777
 20
557.4605471833162
 30
0.0
 10
526.2595207385168
 20
558.3372992236721
 30
0.0
 10
526.9702686981927
 20
559.0480471832844
 30
0.0
 10
527.8470207385499
 20
559.0480471832446
 30
0.0
 10
528.7237727789058
 20
559.0480471832055
 30
0.0
 10
529.4345207385174
 20
558.3372992235296
 30
0.0
 10
529.4345207384783
 20
557.4605471831737
 30
0.0
 10
529.4345207384386
 20
556.5837951428178
 30
0.0
 10
528.7237727787626
 20
555.8730471832062
 30
0.0
 10
527.8470207384067
 20
555.8730471832453
 30
0.0
 10
527.8470207384067
 20
555.8730471832453
 30
0.0
 10
527.8470207377413
 20
541.0480471832453
 30
0.0
 10
527.8470207377413
 20
541.0480471832453
 30
0.0
 10
528.7237727780972
 20
541.0480471832062
 30
0.0
 10
529.4345207377096
 20
540.3372992235303
 30
0.0
 10
529.4345207376698
 20
539.4605471831737
 30
0.0
 10
529.4345207376307
 20
538.5837951428173
 30
0.0
 10
528.7237727779548
 20
537.8730471832055
 30
0.0
 10
527.8470207375989
 20
537.8730471832447
 30
0.0
 10
526.9702686972417
 20
537.8730471832845
 30
0.0
 10
526.2595207376299
 20
538.5837951429597
 30
0.0
 10
526.2595207376692
 20
539.4605471833162
 30
0.0
 10
526.2595207376692
 20
539.4605471833162
 30
0.0
 10
517.4345207376693
 20
539.4605471837128
 30
0.0
 10
517.4345207376693
 20
539.4605471837128
 30
0.0
 10
517.4345207376302
 20
538.5837951433563
 30
0.0
 10
516.7237727779543
 20
537.8730471837446
 30
0.0
 10
515.8470207375984
 20
537.8730471837837
 30
0.0
 10
514.9702686972425
 20
537.8730471838228
 30
0.0
 10
514.2595207376309
 20
538.5837951434987
 30
0.0
 10
514.25952073767
 20
539.4605471838553
 30
0.0
 10
514.2595207377097
 20
540.3372992242117
 30
0.0
 10
514.970268697385
 20
541.0480471838235
 30
0.0
 10
515.8470207377409
 20
541.0480471837843
 30
0.0
  0
ENDBLK
  5
C3
330
C0
100
AcDbEntity
  8
0
100
AcDbBlockEnd
  0
BLOCK
  5
C7
330
C5
100
AcDbEntity
  8
0
100
AcDbBlockBegin
  2
block 30
 70
     0
 10
0.0
 20
0.0
 30
0.0
  3
block 30
  1

  0
SPLINE
  5
C9
330
C5
100
AcDbEntity
  8
0
 62
     7
420
 16777215
370
   106
100
AcDbSpline
210
0.0
220
0.0
230
1.0
 70
    11
 71
     3
 72
    29
 73
    25
 74
     0
 42
0.0000000001
 43
0.0000000001
 12
1.0
 22
0.0
 32
0.0
 13
1.0
 23
0.0
 33
0.0
 40
0.0
 40
0.0
 40
0.0
 40
0.0
 40
1.0
 40
1.0
 40
1.0
 40
2.0
 40
2.0
 40
2.0
 40
3.0
 40
3.0
 40
3.0
 40
4.0
 40
4.0
 40
4.0
 40
5.0
 40
5.0
 40
5.0
 40
6.0
 40
6.0
 40
6.0
 40
7.0
 40
7.0
 40
7.0
 40
8.0
 40
8.0
 40
8.0
 40
8.0
 10
462.3470207375121
 20
535.9605471861854
 30
0.0
 10
462.3470207373883
 20
533.199123437032
 30
0.0
 10
464.5855969881342
 20
530.9605471860851
 30
0.0
 10
467.3470207372877
 20
530.9605471859613
 30
0.0
 10
467.3470207372877
 20
530.9605471859613
 30
0.0
 10
527.347020737288
 20
530.9605471832675
 30
0.0
 10
527.347020737288
 20
530.9605471832675
 30
0.0
 10
530.1084444864421
 20
530.9605471831436
 30
0.0
 10
532.3470207373882
 20
533.1991234338889
 30
0.0
 10
532.347020737512
 20
535.9605471830424
 30
0.0
 10
532.347020737512
 20
535.9605471830424
 30
0.0
 10
532.3470207386343
 20
560.9605471830426
 30
0.0
 10
532.3470207386343
 20
560.9605471830426
 30
0.0
 10
532.3470207387589
 20
563.7219709321968
 30
0.0
 10
530.1084444880136
 20
565.9605471831442
 30
0.0
 10
527.3470207388594
 20
565.9605471832681
 30
0.0
 10
527.3470207388594
 20
565.9605471832681
 30
0.0
 10
467.3470207388593
 20
565.9605471859619
 30
0.0
 10
467.3470207388593
 20
565.9605471859619
 30
0.0
 10
464.5855969897058
 20
565.9605471860858
 30
0.0
 10
462.347020738759
 20
563.7219709353399
 30
0.0
 10
462.3470207386345
 20
560.9605471861857
 30
0.0
 10
462.3470207386345
 20
560.9605471861857
 30
0.0
 10
462.3470207375121
 20
535.9605471861854
 30
0.0
 10
462.3470207375121
 20
535.9605471861854
 30
0.0
  0
ENDBLK
  5
C8
330
C5
100
AcDbEntity
  8
0
100
AcDbBlockEnd
  0
BLOCK
  5
CC
330
CA
100
AcDbEntity
  8
0
100
AcDbBlockBegin
  2
block 31
 70
     0
 10
0.0
 20
0.0
 30
0.0
  3
block 31
  1

  0
INSERT
  5
CF
330
CA
100
AcDbEntity
  8
0
100
AcDbBlockReference
  2
block 32
 10
0.0
 20
0.0
 30
0.0
  0
INSERT
  5
D4
330
CA
100
AcDbEntity
  8
0
100
AcDbBlockReference
  2
block 33
 10
0.0
 20
0.0
 30
0.0
  0
INSERT
  5
D9
330
CA
100
AcDbEntity
  8
0
100
AcDbBlockReference
  2
block 34
 10
0.0
 20
0.0
 30
0.0
  0
ENDBLK
  5
CD
330
CA
100
AcDbEntity
  8
0
100
AcDbBlockEnd
  0
BLOCK
  5
D0
330
CE
100
AcDbEntity
  8
0
100
AcDbBlockBegin
  2
block 32
 70
     0
 10
0.0
 20
0.0
 30
0.0
  3
block 32
  1

  0
SPLINE
  5
D2
330
CE
100
AcDbEntity
  8
0
 62
     7
420
 16777215
370
   106
100
AcDbSpline
210
0.0
220
0.0
230
1.0
 70
    11
 71
     3
 72
    53
 73
    49
 74
     0
 42
0.0000000001
 43
0.0000000001
 12
1.0
 22
0.0
 32
0.0
 13
1.0
 23
0.0
 33
0.0
 40
0.0
 40
0.0
 40
0.0
 40
0.0
 40
1.0
 40
1.0
 40
1.0
 40
2.0
 40
2.0
 40
2.0
 40
3.0
 40
3.0
 40
3.0
 40
4.0
 40
4.0
 40
4.0
 40
5.0
 40
5.0
 40
5.0
 40
6.0
 40
6.0
 40
6.0
 40
7.0
 40
7.0
 40
7.0
 40
8.0
 40
8.0
 40
8.0
 40
9.0
 40
9.0
 40
9.0
 40
10.0
 40
10.0
 40
10.0
 40
11.0
 40
11.0
 40
11.0
 40
12.0
 40
12.0
 40
12.0
 40
13.0
 40
13.0
 40
13.0
 40
14.0
 40
14.0
 40
14.0
 40
15.0
 40
15.0
 40
15.0
 40
16.0
 40
16.0
 40
16.0
 40
16.0
 10
569.160064652606
 20
607.9257076752216
 30
0.0
 10
569.160064652606
 20
607.9257076752216
 30
0.0
 10
569.1600646519406
 20
593.1007076752217
 30
0.0
 10
569.1600646519406
 20
593.1007076752217
 30
0.0
 10
570.0368166922972
 20
593.1007076751819
 30
0.0
 10
570.7475646519089
 20
592.3899597155066
 30
0.0
 10
570.7475646518698
 20
591.5132076751507
 30
0.0
 10
570.7475646518305
 20
590.6364556347936
 30
0.0
 10
570.0368166921547
 20
589.9257076751818
 30
0.0
 10
569.1600646517982
 20
589.9257076752216
 30
0.0
 10
568.2833126114416
 20
589.9257076752608
 30
0.0
 10
567.5725646518299
 20
590.636455634936
 30
0.0
 10
567.572564651869
 20
591.5132076752932
 30
0.0
 10
567.572564651869
 20
591.5132076752932
 30
0.0
 10
558.7475646518693
 20
591.5132076756892
 30
0.0
 10
558.7475646518693
 20
591.5132076756892
 30
0.0
 10
558.7475646518302
 20
590.6364556353319
 30
0.0
 10
558.0368166921543
 20
589.9257076757209
 30
0.0
 10
557.1600646517984
 20
589.92570767576
 30
0.0
 10
556.2833126114418
 20
589.9257076757998
 30
0.0
 10
555.5725646518301
 20
590.636455635475
 30
0.0
 10
555.5725646518692
 20
591.5132076758316
 30
0.0
 10
555.572564651909
 20
592.3899597161875
 30
0.0
 10
556.2833126115843
 20
593.1007076757999
 30
0.0
 10
557.1600646519408
 20
593.1007076757601
 30
0.0
 10
557.1600646519408
 20
593.1007076757601
 30
0.0
 10
557.1600646526063
 20
607.92570767576
 30
0.0
 10
557.1600646526063
 20
607.92570767576
 30
0.0
 10
556.2833126122498
 20
607.9257076757998
 30
0.0
 10
555.572564652638
 20
608.636455635475
 30
0.0
 10
555.5725646526772
 20
609.5132076758309
 30
0.0
 10
555.572564652717
 20
610.3899597161875
 30
0.0
 10
556.2833126123923
 20
611.1007076757998
 30
0.0
 10
557.1600646527487
 20
611.1007076757601
 30
0.0
 10
558.0368166931046
 20
611.1007076757209
 30
0.0
 10
558.747564652717
 20
610.3899597160449
 30
0.0
 10
558.7475646526772
 20
609.5132076756885
 30
0.0
 10
558.7475646526772
 20
609.5132076756885
 30
0.0
 10
567.572564652677
 20
609.5132076752925
 30
0.0
 10
567.572564652677
 20
609.5132076752925
 30
0.0
 10
567.5725646527168
 20
610.3899597156491
 30
0.0
 10
568.283312612392
 20
611.1007076752608
 30
0.0
 10
569.1600646527485
 20
611.1007076752217
 30
0.0
 10
570.036816693105
 20
611.1007076751819
 30
0.0
 10
570.7475646527174
 20
610.3899597155066
 30
0.0
 10
570.7475646526776
 20
609.51320767515
 30
0.0
 10
570.7475646526385
 20
608.6364556347942
 30
0.0
 10
570.0368166929626
 20
607.9257076751818
 30
0.0
 10
569.160064652606
 20
607.9257076752216
 30
0.0
  0
ENDBLK
  5
D1
330
CE
100
AcDbEntity
  8
0
100
AcDbBlockEnd
  0
BLOCK
  5
D5
330
D3
100
AcDbEntity
  8
0
100
AcDbBlockBegin
  2
block 33
 70
     0
 10
0.0
 20
0.0
 30
0.0
  3
block 33
  1

  0
SPLINE
  5
D7
330
D3
100
AcDbEntity
  8
0
 62
     7
420
 16777215
370
   106
100
AcDbSpline
210
0.0
220
0.0
230
1.0
 70
    11
 71
     3
 72
    53
 73
    49
 74
     0
 42
0.0000000001
 43
0.0000000001
 12
1.0
 22
0.0
 32
0.0
 13
1.0
 23
0.0
 33
0.0
 40
0.0
 40
0.0
 40
0.0
 40
0.0
 40
1.0
 40
1.0
 40
1.0
 40
2.0
 40
2.0
 40
2.0
 40
3.0
 40
3.0
 40
3.0
 40
4.0
 40
4.0
 40
4.0
 40
5.0
 40
5.0
 40
5.0
 40
6.0
 40
6.0
 40
6.0
 40
7.0
 40
7.0
 40
7.0
 40
8.0
 40
8.0
 40
8.0
 40
9.0
 40
9.0
 40
9.0
 40
10.0
 40
10.0
 40
10.0
 40
11.0
 40
11.0
 40
11.0
 40
12.0
 40
12.0
 40
12.0
 40
13.0
 40
13.0
 40
13.0
 40
14.0
 40
14.0
 40
14.0
 40
15.0
 40
15.0
 40
15.0
 40
16.0
 40
16.0
 40
16.0
 40
16.0
 10
606.1600646519406
 20
593.1007076735602
 30
0.0
 10
606.1600646519406
 20
593.1007076735602
 30
0.0
 10
606.1600646526061
 20
607.9257076735603
 30
0.0
 10
606.1600646526061
 20
607.9257076735603
 30
0.0
 10
605.2833126122503
 20
607.9257076735994
 30
0.0
 10
604.5725646526384
 20
608.6364556332753
 30
0.0
 10
604.5725646526777
 20
609.5132076736312
 30
0.0
 10
604.5725646527175
 20
610.3899597139877
 30
0.0
 10
605.2833126123927
 20
611.1007076735995
 30
0.0
 10
606.1600646527486
 20
611.1007076735602
 30
0.0
 10
607.0368166931045
 20
611.1007076735211
 30
0.0
 10
607.7475646527168
 20
610.3899597138452
 30
0.0
 10
607.747564652677
 20
609.5132076734888
 30
0.0
 10
607.747564652677
 20
609.5132076734888
 30
0.0
 10
616.5725646526768
 20
609.5132076730928
 30
0.0
 10
616.5725646526768
 20
609.5132076730928
 30
0.0
 10
616.5725646527166
 20
610.3899597134493
 30
0.0
 10
617.2833126123918
 20
611.100707673061
 30
0.0
 10
618.1600646527489
 20
611.1007076730219
 30
0.0
 10
619.0368166931048
 20
611.1007076729821
 30
0.0
 10
619.7475646527172
 20
610.3899597133062
 30
0.0
 10
619.7475646526774
 20
609.5132076729496
 30
0.0
 10
619.7475646526383
 20
608.6364556325938
 30
0.0
 10
619.0368166929624
 20
607.9257076729821
 30
0.0
 10
618.1600646526065
 20
607.9257076730219
 30
0.0
 10
618.1600646526065
 20
607.9257076730219
 30
0.0
 10
618.1600646519411
 20
593.1007076730219
 30
0.0
 10
618.1600646519411
 20
593.1007076730219
 30
0.0
 10
619.036816692297
 20
593.1007076729821
 30
0.0
 10
619.7475646519086
 20
592.3899597133062
 30
0.0
 10
619.7475646518695
 20
591.5132076729503
 30
0.0
 10
619.7475646518304
 20
590.6364556325932
 30
0.0
 10
619.0368166921545
 20
589.9257076729821
 30
0.0
 10
618.1600646517986
 20
589.9257076730219
 30
0.0
 10
617.2833126114415
 20
589.925707673061
 30
0.0
 10
616.5725646518297
 20
590.6364556327362
 30
0.0
 10
616.5725646518689
 20
591.5132076730935
 30
0.0
 10
616.5725646518689
 20
591.5132076730935
 30
0.0
 10
607.7475646518691
 20
591.5132076734893
 30
0.0
 10
607.7475646518691
 20
591.5132076734893
 30
0.0
 10
607.74756465183
 20
590.6364556331322
 30
0.0
 10
607.036816692154
 20
589.9257076735211
 30
0.0
 10
606.1600646517982
 20
589.9257076735603
 30
0.0
 10
605.2833126114423
 20
589.9257076735994
 30
0.0
 10
604.5725646518306
 20
590.6364556332753
 30
0.0
 10
604.5725646518697
 20
591.5132076736318
 30
0.0
 10
604.5725646519089
 20
592.3899597139877
 30
0.0
 10
605.2833126115847
 20
593.1007076735995
 30
0.0
 10
606.1600646519406
 20
593.1007076735602
 30
0.0
  0
ENDBLK
  5
D6
330
D3
100
AcDbEntity
  8
0
100
AcDbBlockEnd
  0
BLOCK
  5
DA
330
D8
100
AcDbEntity
  8
0
100
AcDbBlockBegin
  2
block 34
 70
     0
 10
0.0
 20
0.0
 30
0.0
  3
block 34
  1

  0
SPLINE
  5
DC
330
D8
100
AcDbEntity
  8
0
 62
     7
420
 16777215
370
   106
100
AcDbSpline
210
0.0
220
0.0
230
1.0
 70
    11
 71
     3
 72
    29
 73
    25
 74
     0
 42
0.0000000001
 43
0.0000000001
 12
1.0
 22
0.0
 32
0.0
 13
1.0
 23
0.0
 33
0.0
 40
0.0
 40
0.0
 40
0.0
 40
0.0
 40
1.0
 40
1.0
 40
1.0
 40
2.0
 40
2.0
 40
2.0
 40
3.0
 40
3.0
 40
3.0
 40
4.0
 40
4.0
 40
4.0
 40
5.0
 40
5.0
 40
5.0
 40
6.0
 40
6.0
 40
6.0
 40
7.0
 40
7.0
 40
7.0
 40
8.0
 40
8.0
 40
8.0
 40
8.0
 10
552.6600646517119
 20
588.013207675962
 30
0.0
 10
552.6600646515881
 20
585.2517839268086
 30
0.0
 10
554.898640902334
 20
583.0132076758617
 30
0.0
 10
557.6600646514875
 20
583.0132076757372
 30
0.0
 10
557.6600646514875
 20
583.0132076757372
 30
0.0
 10
617.6600646514877
 20
583.0132076730434
 30
0.0
 10
617.6600646514877
 20
583.0132076730434
 30
0.0
 10
620.4214884006418
 20
583.0132076729195
 30
0.0
 10
622.660064651588
 20
585.2517839236662
 30
0.0
 10
622.6600646517119
 20
588.0132076728196
 30
0.0
 10
622.6600646517119
 20
588.0132076728196
 30
0.0
 10
622.6600646528342
 20
613.0132076728198
 30
0.0
 10
622.6600646528342
 20
613.0132076728198
 30
0.0
 10
622.6600646529587
 20
615.774631421974
 30
0.0
 10
620.4214884022133
 20
618.0132076729202
 30
0.0
 10
617.6600646530592
 20
618.013207673044
 30
0.0
 10
617.6600646530592
 20
618.013207673044
 30
0.0
 10
557.6600646530591
 20
618.0132076757378
 30
0.0
 10
557.6600646530591
 20
618.0132076757378
 30
0.0
 10
554.8986409039055
 20
618.0132076758623
 30
0.0
 10
552.6600646529588
 20
615.7746314251164
 30
0.0
 10
552.6600646528343
 20
613.0132076759622
 30
0.0
 10
552.6600646528343
 20
613.0132076759622
 30
0.0
 10
552.6600646517119
 20
588.013207675962
 30
0.0
 10
552.6600646517119
 20
588.013207675962
 30
0.0
  0
ENDBLK
  5
DB
330
D8
100
AcDbEntity
  8
0
100
AcDbBlockEnd
  0
BLOCK
  5
DF
330
DD
100
AcDbEntity
  8
0
100
AcDbBlockBegin
  2
block 35
 70
     0
 10
0.0
 20
0.0
 30
0.0
  3
block 35
  1

  0
INSERT
  5
E2
330
DD
100
AcDbEntity
  8
0
100
AcDbBlockReference
  2
block 36
 10
0.0
 20
0.0
 30
0.0
  0
INSERT
  5
E7
330
DD
100
AcDbEntity
  8
0
100
AcDbBlockReference
  2
block 37
 10
0.0
 20
0.0
 30
0.0
  0
INSERT
  5
EC
330
DD
100
AcDbEntity
  8
0
100
AcDbBlockReference
  2
block 38
 10
0.0
 20
0.0
 30
0.0
  0
ENDBLK
  5
E0
330
DD
100
AcDbEntity
  8
0
100
AcDbBlockEnd
  0
BLOCK
  5
E3
330
E1
100
AcDbEntity
  8
0
100
AcDbBlockBegin
  2
block 36
 70
     0
 10
0.0
 20
0.0
 30
0.0
  3
block 36
  1

  0
SPLINE
  5
E5
330
E1
100
AcDbEntity
  8
0
 62
     7
420
 16777215
370
   106
100
AcDbSpline
210
0.0
220
0.0
230
1.0
 70
    11
 71
     3
 72
    53
 73
    49
 74
     0
 42
0.0000000001
 43
0.0000000001
 12
1.0
 22
0.0
 32
0.0
 13
1.0
 23
0.0
 33
0.0
 40
0.0
 40
0.0
 40
0.0
 40
0.0
 40
1.0
 40
1.0
 40
1.0
 40
2.0
 40
2.0
 40
2.0
 40
3.0
 40
3.0
 40
3.0
 40
4.0
 40
4.0
 40
4.0
 40
5.0
 40
5.0
 40
5.0
 40
6.0
 40
6.0
 40
6.0
 40
7.0
 40
7.0
 40
7.0
 40
8.0
 40
8.0
 40
8.0
 40
9.0
 40
9.0
 40
9.0
 40
10.0
 40
10.0
 40
10.0
 40
11.0
 40
11.0
 40
11.0
 40
12.0
 40
12.0
 40
12.0
 40
13.0
 40
13.0
 40
13.0
 40
14.0
 40
14.0
 40
14.0
 40
15.0
 40
15.0
 40
15.0
 40
16.0
 40
16.0
 40
16.0
 40
16.0
 10
71.90940223904963
 20
306.8892289937114
 30
0.0
 10
71.90940223904963
 20
306.8892289937114
 30
0.0
 10
71.90940223971506
 20
321.7142289937107
 30
0.0
 10
71.90940223971506
 20
321.7142289937107
 30
0.0
 10
71.03265019935854
 20
321.7142289937505
 30
0.0
 10
70.32190223974649
 20
322.4249769534264
 30
0.0
 10
70.3219022397866
 20
323.3017289937816
 30
0.0
 10
70.32190223982606
 20
324.1784810341388
 30
0.0
 10
71.03265019950165
 20
324.8892289937505
 30
0.0
 10
71.90940223985687
 20
324.8892289937107
 30
0.0
 10
72.78615428021403
 20
324.8892289936716
 30
0.0
 10
73.49690223982674
 20
324.1784810339963
 30
0.0
 10
73.49690223978662
 20
323.3017289936392
 30
0.0
 10
73.49690223978662
 20
323.3017289936392
 30
0.0
 10
82.32190223978573
 20
323.3017289932433
 30
0.0
 10
82.32190223978573
 20
323.3017289932433
 30
0.0
 10
82.3219022398252
 20
324.1784810335998
 30
0.0
 10
83.03265019950142
 20
324.8892289932108
 30
0.0
 10
83.90940223985794
 20
324.8892289931717
 30
0.0
 10
84.78615428021382
 20
324.889228993132
 30
0.0
 10
85.49690223982587
 20
324.1784810334573
 30
0.0
 10
85.49690223978641
 20
323.3017289931001
 30
0.0
 10
85.4969022397463
 20
322.4249769527443
 30
0.0
 10
84.78615428007136
 20
321.7142289931326
 30
0.0
 10
83.90940223971549
 20
321.7142289931717
 30
0.0
 10
83.90940223971549
 20
321.7142289931717
 30
0.0
 10
83.90940223905068
 20
306.8892289931717
 30
0.0
 10
83.90940223905068
 20
306.8892289931717
 30
0.0
 10
84.78615427940592
 20
306.8892289931326
 30
0.0
 10
85.49690223901766
 20
306.1784810334573
 30
0.0
 10
85.4969022389782
 20
305.3017289931008
 30
0.0
 10
85.49690223893904
 20
304.4249769527443
 30
0.0
 10
84.78615427926314
 20
303.7142289931326
 30
0.0
 10
83.90940223890726
 20
303.7142289931717
 30
0.0
 10
83.03265019855074
 20
303.7142289932108
 30
0.0
 10
82.32190223893838
 20
304.4249769528867
 30
0.0
 10
82.32190223897751
 20
305.3017289932439
 30
0.0
 10
82.32190223897751
 20
305.3017289932439
 30
0.0
 10
73.49690223897841
 20
305.3017289936404
 30
0.0
 10
73.49690223897841
 20
305.3017289936404
 30
0.0
 10
73.49690223893927
 20
304.4249769532827
 30
0.0
 10
72.78615427926336
 20
303.7142289936709
 30
0.0
 10
71.90940223890684
 20
303.7142289937101
 30
0.0
 10
71.03265019855097
 20
303.7142289937492
 30
0.0
 10
70.32190223893923
 20
304.4249769534251
 30
0.0
 10
70.32190223897838
 20
305.3017289937823
 30
0.0
 10
70.32190223901785
 20
306.1784810341388
 30
0.0
 10
71.0326501986931
 20
306.8892289937499
 30
0.0
 10
71.90940223904963
 20
306.8892289937114
 30
0.0
  0
ENDBLK
  5
E4
330
E1
100
AcDbEntity
  8
0
100
AcDbBlockEnd
  0
BLOCK
  5
E8
330
E6
100
AcDbEntity
  8
0
100
AcDbBlockBegin
  2
block 37
 70
     0
 10
0.0
 20
0.0
 30
0.0
  3
block 37
  1

  0
SPLINE
  5
EA
330
E6
100
AcDbEntity
  8
0
 62
     7
420
 16777215
370
   106
100
AcDbSpline
210
0.0
220
0.0
230
1.0
 70
    11
 71
     3
 72
    53
 73
    49
 74
     0
 42
0.0000000001
 43
0.0000000001
 12
1.0
 22
0.0
 32
0.0
 13
1.0
 23
0.0
 33
0.0
 40
0.0
 40
0.0
 40
0.0
 40
0.0
 40
1.0
 40
1.0
 40
1.0
 40
2.0
 40
2.0
 40
2.0
 40
3.0
 40
3.0
 40
3.0
 40
4.0
 40
4.0
 40
4.0
 40
5.0
 40
5.0
 40
5.0
 40
6.0
 40
6.0
 40
6.0
 40
7.0
 40
7.0
 40
7.0
 40
8.0
 40
8.0
 40
8.0
 40
9.0
 40
9.0
 40
9.0
 40
10.0
 40
10.0
 40
10.0
 40
11.0
 40
11.0
 40
11.0
 40
12.0
 40
12.0
 40
12.0
 40
13.0
 40
13.0
 40
13.0
 40
14.0
 40
14.0
 40
14.0
 40
15.0
 40
15.0
 40
15.0
 40
16.0
 40
16.0
 40
16.0
 40
16.0
 10
-1001.090597760285
 20
321.714229041885
 30
0.0
 10
-1001.090597760285
 20
321.714229041885
 30
0.0
 10
-1001.090597760948
 20
306.9476703201537
 30
0.0
 10
-1001.090597760948
 20
306.9476703201537
 30
0.0
 10
-1000.181569493844
 20
306.9476703201133
 30
0.0
 10
-999.4446564827124
 20
306.210757308916
 30
0.0
 10
-999.4446564827532
 20
305.3017290418115
 30
0.0
 10
-999.4446564827942
 20
304.3927007747064
 30
0.0
 10
-1000.181569493992
 20
303.6557877635758
 30
0.0
 10
-1001.090597761096
 20
303.6557877636169
 30
0.0
 10
-1001.999626028201
 20
303.6557877636573
 30
0.0
 10
-1002.736539039332
 20
304.392700774854
 30
0.0
 10
-1002.736539039291
 20
305.3017290419591
 30
0.0
 10
-1002.736539039291
 20
305.3017290419591
 30
0.0
 10
-1011.503097761022
 20
305.3017290423525
 30
0.0
 10
-1011.503097761022
 20
305.3017290423525
 30
0.0
 10
-1011.503097761061
 20
304.4249770019953
 30
0.0
 10
-1012.213845720737
 20
303.7142290423842
 30
0.0
 10
-1013.090597761093
 20
303.714229042424
 30
0.0
 10
-1013.967349801449
 20
303.7142290424632
 30
0.0
 10
-1014.678097761062
 20
304.4249770021378
 30
0.0
 10
-1014.678097761023
 20
305.3017290424949
 30
0.0
 10
-1014.678097760983
 20
306.1784810828515
 30
0.0
 10
-1013.967349801307
 20
306.8892290424632
 30
0.0
 10
-1013.09059776095
 20
306.8892290424234
 30
0.0
 10
-1013.09059776095
 20
306.8892290424234
 30
0.0
 10
-1013.090597760285
 20
321.7142290424234
 30
0.0
 10
-1013.090597760285
 20
321.7142290424234
 30
0.0
 10
-1013.967349800641
 20
321.7142290424625
 30
0.0
 10
-1014.678097760254
 20
322.4249770021384
 30
0.0
 10
-1014.678097760214
 20
323.3017290424949
 30
0.0
 10
-1014.678097760174
 20
324.1784810828508
 30
0.0
 10
-1013.967349800499
 20
324.8892290424632
 30
0.0
 10
-1013.090597760142
 20
324.8892290424228
 30
0.0
 10
-1012.213845719787
 20
324.8892290423849
 30
0.0
 10
-1011.503097760174
 20
324.1784810827083
 30
0.0
 10
-1011.503097760214
 20
323.3017290423518
 30
0.0
 10
-1011.503097760214
 20
323.3017290423518
 30
0.0
 10
-1002.678097760214
 20
323.3017290419559
 30
0.0
 10
-1002.678097760214
 20
323.3017290419559
 30
0.0
 10
-1002.678097760175
 20
324.1784810823124
 30
0.0
 10
-1001.9673498005
 20
324.8892290419242
 30
0.0
 10
-1001.090597760142
 20
324.889229041885
 30
0.0
 10
-1000.213845719786
 20
324.8892290418452
 30
0.0
 10
-999.5030977601739
 20
324.17848108217
 30
0.0
 10
-999.5030977602131
 20
323.3017290418135
 30
0.0
 10
-999.5030977602535
 20
322.4249770014576
 30
0.0
 10
-1000.213845719928
 20
321.7142290418452
 30
0.0
 10
-1001.090597760285
 20
321.714229041885
 30
0.0
  0
ENDBLK
  5
E9
330
E6
100
AcDbEntity
  8
0
100
AcDbBlockEnd
  0
BLOCK
  5
ED
330
EB
100
AcDbEntity
  8
0
100
AcDbBlockBegin
  2
block 38
 70
     0
 10
0.0
 20
0.0
 30
0.0
  3
block 38
  1

  0
SPLINE
  5
EF
330
EB
100
AcDbEntity
  8
0
 62
     7
420
 16777215
370
   106
100
AcDbSpline
210
0.0
220
0.0
230
1.0
 70
    11
 71
     3
 72
    65
 73
    61
 74
     0
 42
0.0000000001
 43
0.0000000001
 12
1.0
 22
0.0
 32
0.0
 13
1.0
 23
0.0
 33
0.0
 40
0.0
 40
0.0
 40
0.0
 40
0.0
 40
1.0
 40
1.0
 40
1.0
 40
2.0
 40
2.0
 40
2.0
 40
3.0
 40
3.0
 40
3.0
 40
4.0
 40
4.0
 40
4.0
 40
5.0
 40
5.0
 40
5.0
 40
6.0
 40
6.0
 40
6.0
 40
7.0
 40
7.0
 40
7.0
 40
8.0
 40
8.0
 40
8.0
 40
9.0
 40
9.0
 40
9.0
 40
10.0
 40
10.0
 40
10.0
 40
11.0
 40
11.0
 40
11.0
 40
12.0
 40
12.0
 40
12.0
 40
13.0
 40
13.0
 40
13.0
 40
14.0
 40
14.0
 40
14.0
 40
15.0
 40
15.0
 40
15.0
 40
16.0
 40
16.0
 40
16.0
 40
17.0
 40
17.0
 40
17.0
 40
18.0
 40
18.0
 40
18.0
 40
19.0
 40
19.0
 40
19.0
 40
20.0
 40
20.0
 40
20.0
 40
20.0
 10
-982.5905977648827
 20
219.3017290410538
 30
0.0
 10
-982.5905977650069
 20
216.5403052918997
 30
0.0
 10
-980.3520215142615
 20
214.3017290409549
 30
0.0
 10
-977.5905977651074
 20
214.3017290408304
 30
0.0
 10
-977.5905977651074
 20
214.3017290408304
 30
0.0
 10
48.40940223489282
 20
214.301728994766
 30
0.0
 10
48.40940223489282
 20
214.301728994766
 30
0.0
 10
51.17082598404696
 20
214.3017289946422
 30
0.0
 10
53.40940223499343
 20
216.5403052453868
 30
0.0
 10
53.40940223511728
 20
219.301728994541
 30
0.0
 10
53.40940223511728
 20
219.301728994541
 30
0.0
 10
53.40940223859625
 20
296.8017289945408
 30
0.0
 10
53.40940223859625
 20
296.8017289945408
 30
0.0
 10
53.40940223859625
 20
296.8017289945408
 30
0.0
 10
83.40940223859667
 20
296.8017289931939
 30
0.0
 10
83.40940223859667
 20
296.8017289931939
 30
0.0
 10
86.1708259877508
 20
296.80172899307
 30
0.0
 10
88.40940223869663
 20
299.0403052438172
 30
0.0
 10
88.40940223882079
 20
301.8017289929701
 30
0.0
 10
88.40940223882079
 20
301.8017289929701
 30
0.0
 10
88.40940223994312
 20
326.8017289929697
 30
0.0
 10
88.40940223994312
 20
326.8017289929697
 30
0.0
 10
88.40940224006633
 20
329.5631527421238
 30
0.0
 10
86.17082598932296
 20
331.8017289930713
 30
0.0
 10
83.40940224016819
 20
331.8017289931944
 30
0.0
 10
83.40940224016819
 20
331.8017289931944
 30
0.0
 10
53.40940224016841
 20
331.8017289945414
 30
0.0
 10
53.40940224016841
 20
331.8017289945414
 30
0.0
 10
53.40940224016841
 20
331.8017289945414
 30
0.0
 10
53.40940224589269
 20
459.3017289945404
 30
0.0
 10
53.40940224589269
 20
459.3017289945404
 30
0.0
 10
53.40940224601589
 20
462.0631527436946
 30
0.0
 10
51.17082599527156
 20
464.301728994642
 30
0.0
 10
48.40940224611678
 20
464.3017289947658
 30
0.0
 10
48.40940224611678
 20
464.3017289947658
 30
0.0
 10
-977.5905977538835
 20
464.3017290408309
 30
0.0
 10
-977.5905977538835
 20
464.3017290408309
 30
0.0
 10
-980.3520215030376
 20
464.3017290409541
 30
0.0
 10
-982.5905977539835
 20
462.0631527902075
 30
0.0
 10
-982.5905977541073
 20
459.3017290410534
 30
0.0
 10
-982.5905977541073
 20
459.3017290410534
 30
0.0
 10
-982.5905977598316
 20
331.8017290410543
 30
0.0
 10
-982.5905977598316
 20
331.8017290410543
 30
0.0
 10
-982.5905977598316
 20
331.8017290410543
 30
0.0
 10
-1012.590597759833
 20
331.8017290424012
 30
0.0
 10
-1012.590597759833
 20
331.8017290424012
 30
0.0
 10
-1015.352021508986
 20
331.8017290425251
 30
0.0
 10
-1017.590597759933
 20
329.5631527917798
 30
0.0
 10
-1017.590597760057
 20
326.8017290426243
 30
0.0
 10
-1017.590597760057
 20
326.8017290426243
 30
0.0
 10
-1017.590597761179
 20
301.8017290426254
 30
0.0
 10
-1017.590597761179
 20
301.8017290426254
 30
0.0
 10
-1017.590597761303
 20
299.0403052934719
 30
0.0
 10
-1015.352021510558
 20
296.8017290425245
 30
0.0
 10
-1012.590597761404
 20
296.8017290424006
 30
0.0
 10
-1012.590597761404
 20
296.8017290424006
 30
0.0
 10
-982.590597761403
 20
296.8017290410537
 30
0.0
 10
-982.590597761403
 20
296.8017290410537
 30
0.0
 10
-982.590597761403
 20
296.8017290410537
 30
0.0
 10
-982.5905977648827
 20
219.3017290410538
 30
0.0
 10
-982.5905977648827
 20
219.3017290410538
 30
0.0
  0
ENDBLK
  5
EE
330
EB
100
AcDbEntity
  8
0
100
AcDbBlockEnd
  0
BLOCK
  5
F2
330
F0
100
AcDbEntity
  8
0
100
AcDbBlockBegin
  2
block 39
 70
     0
 10
0.0
 20
0.0
 30
0.0
  3
block 39
  1

  0
INSERT
  5
F5
330
F0
100
AcDbEntity
  8
0
100
AcDbBlockReference
  2
block 40
 10
0.0
 20
0.0
 30
0.0
  0
INSERT
  5
FA
330
F0
100
AcDbEntity
  8
0
100
AcDbBlockReference
  2
block 41
 10
0.0
 20
0.0
 30
0.0
  0
INSERT
  5
FF
330
F0
100
AcDbEntity
  8
0
100
AcDbBlockReference
  2
block 42
 10
0.0
 20
0.0
 30
0.0
  0
INSERT
  5
104
330
F0
100
AcDbEntity
  8
0
100
AcDbBlockReference
  2
block 43
 10
0.0
 20
0.0
 30
0.0
  0
ENDBLK
  5
F3
330
F0
100
AcDbEntity
  8
0
100
AcDbBlockEnd
  0
BLOCK
  5
F6
330
F4
100
AcDbEntity
  8
0
100
AcDbBlockBegin
  2
block 40
 70
     0
 10
0.0
 20
0.0
 30
0.0
  3
block 40
  1

  0
SPLINE
  5
F8
330
F4
100
AcDbEntity
  8
0
 62
     7
420
 16777215
370
   106
100
AcDbSpline
210
0.0
220
0.0
230
1.0
 70
    11
 71
     3
 72
    35
 73
    31
 74
     0
 42
0.0000000001
 43
0.0000000001
 12
1.0
 22
0.0
 32
0.0
 13
1.0
 23
0.0
 33
0.0
 40
0.0
 40
0.0
 40
0.0
 40
0.0
 40
1.0
 40
1.0
 40
1.0
 40
2.0
 40
2.0
 40
2.0
 40
3.0
 40
3.0
 40
3.0
 40
4.0
 40
4.0
 40
4.0
 40
5.0
 40
5.0
 40
5.0
 40
6.0
 40
6.0
 40
6.0
 40
7.0
 40
7.0
 40
7.0
 40
8.0
 40
8.0
 40
8.0
 40
9.0
 40
9.0
 40
9.0
 40
10.0
 40
10.0
 40
10.0
 40
10.0
 10
-1017.120943480812
 20
630.8153313656494
 30
0.0
 10
-1018.287971585353
 20
633.3180312129364
 30
0.0
 10
-1017.205195700939
 20
636.2929335047489
 30
0.0
 10
-1014.702495853653
 20
637.4599616092887
 30
0.0
 10
-1014.040783549969
 20
637.7685231239099
 30
0.0
 10
-1013.319523289456
 20
637.9284226739655
 30
0.0
 10
-1012.589404544902
 20
637.9284226738905
 30
0.0
 10
-1012.589404544902
 20
637.9284226738905
 30
0.0
 10
392.0109270861485
 20
637.9284225302532
 30
0.0
 10
392.0109270861485
 20
637.9284225302532
 30
0.0
 10
393.9540832167223
 20
637.9284225300543
 30
0.0
 10
395.7212527550236
 20
636.8026113711436
 30
0.0
 10
396.5424660210374
 20
635.0415138384926
 30
0.0
 10
396.5424660210374
 20
635.0415138384926
 30
0.0
 10
421.4626677558698
 20
581.5999687433788
 30
0.0
 10
421.4626677558698
 20
581.5999687433788
 30
0.0
 10
422.6296958604108
 20
579.0972688960937
 30
0.0
 10
421.5469199759967
 20
576.1223666042812
 30
0.0
 10
419.0442201287116
 20
574.9553384997402
 30
0.0
 10
418.3825078250285
 20
574.646776985119
 30
0.0
 10
417.6612475645157
 20
574.486877435064
 30
0.0
 10
416.9311288199606
 20
574.486877435141
 30
0.0
 10
416.9311288199606
 20
574.486877435141
 30
0.0
 10
-987.6692028110891
 20
574.4868775787769
 30
0.0
 10
-987.6692028110891
 20
574.4868775787769
 30
0.0
 10
-989.6123589416636
 20
574.4868775789746
 30
0.0
 10
-991.3795284799638
 20
575.6126887378846
 30
0.0
 10
-992.2007417459773
 20
577.3737862705362
 30
0.0
 10
-992.2007417459777
 20
577.3737862705362
 30
0.0
 10
-1017.120943480812
 20
630.8153313656494
 30
0.0
 10
-1017.120943480812
 20
630.8153313656494
 30
0.0
  0
ENDBLK
  5
F7
330
F4
100
AcDbEntity
  8
0
100
AcDbBlockEnd
  0
BLOCK
  5
FB
330
F9
100
AcDbEntity
  8
0
100
AcDbBlockBegin
  2
block 41
 70
     0
 10
0.0
 20
0.0
 30
0.0
  3
block 41
  1

  0
SPLINE
  5
FD
330
F9
100
AcDbEntity
  8
0
 62
     7
420
 16777215
370
   106
100
AcDbSpline
210
0.0
220
0.0
230
1.0
 70
    11
 71
     3
 72
    53
 73
    49
 74
     0
 42
0.0000000001
 43
0.0000000001
 12
1.0
 22
0.0
 32
0.0
 13
1.0
 23
0.0
 33
0.0
 40
0.0
 40
0.0
 40
0.0
 40
0.0
 40
1.0
 40
1.0
 40
1.0
 40
2.0
 40
2.0
 40
2.0
 40
3.0
 40
3.0
 40
3.0
 40
4.0
 40
4.0
 40
4.0
 40
5.0
 40
5.0
 40
5.0
 40
6.0
 40
6.0
 40
6.0
 40
7.0
 40
7.0
 40
7.0
 40
8.0
 40
8.0
 40
8.0
 40
9.0
 40
9.0
 40
9.0
 40
10.0
 40
10.0
 40
10.0
 40
11.0
 40
11.0
 40
11.0
 40
12.0
 40
12.0
 40
12.0
 40
13.0
 40
13.0
 40
13.0
 40
14.0
 40
14.0
 40
14.0
 40
15.0
 40
15.0
 40
15.0
 40
16.0
 40
16.0
 40
16.0
 40
16.0
 10
-634.6308756955509
 20
615.8846071786816
 30
0.0
 10
-634.6308756955509
 20
615.8846071786816
 30
0.0
 10
-622.5228624993352
 20
589.9188890788433
 30
0.0
 10
-622.5228624993352
 20
589.9188890788433
 30
0.0
 10
-624.112076902361
 20
589.1778262324594
 30
0.0
 10
-624.7996395889647
 20
587.2887632771577
 30
0.0
 10
-624.0585767425805
 20
585.6995488741323
 30
0.0
 10
-623.3175138961976
 20
584.1103344711063
 30
0.0
 10
-621.4284509408966
 20
583.4227717845032
 30
0.0
 10
-619.8392365378705
 20
584.1638346308864
 30
0.0
 10
-618.2500221348441
 20
584.9048974772702
 30
0.0
 10
-617.5624594482407
 20
586.7939604325707
 30
0.0
 10
-618.3035222946246
 20
588.3831748355967
 30
0.0
 10
-618.3035222946246
 20
588.3831748355967
 30
0.0
 10
-607.7450365751439
 20
593.3066775837967
 30
0.0
 10
-607.7450365751439
 20
593.3066775837967
 30
0.0
 10
-607.0039737287594
 20
591.7174631807694
 30
0.0
 10
-605.1149107734586
 20
591.0299004941676
 30
0.0
 10
-603.5256963704326
 20
591.7709633405514
 30
0.0
 10
-601.9364819674059
 20
592.5120261869353
 30
0.0
 10
-601.2489192808031
 20
594.4010891422357
 30
0.0
 10
-601.9899821271863
 20
595.9903035452618
 30
0.0
 10
-602.7310449735702
 20
597.5795179482884
 30
0.0
 10
-604.620107928871
 20
598.2670806348922
 30
0.0
 10
-606.2093223318976
 20
597.5260177885083
 30
0.0
 10
-606.2093223318976
 20
597.5260177885083
 30
0.0
 10
-618.3173355281134
 20
623.4917358883465
 30
0.0
 10
-618.3173355281134
 20
623.4917358883465
 30
0.0
 10
-616.7281211250861
 20
624.2327987347292
 30
0.0
 10
-616.0405584384836
 20
626.1218616900309
 30
0.0
 10
-616.7816212848668
 20
627.7110760930575
 30
0.0
 10
-617.5226841312503
 20
629.3002904960836
 30
0.0
 10
-619.4117470865514
 20
629.9878531826854
 30
0.0
 10
-621.0009614895781
 20
629.2467903363035
 30
0.0
 10
-622.5901758926041
 20
628.5057274899196
 30
0.0
 10
-623.2777385792078
 20
626.6166645346192
 30
0.0
 10
-622.5366757328237
 20
625.0274501315919
 30
0.0
 10
-622.5366757328237
 20
625.0274501315919
 30
0.0
 10
-633.0951614523048
 20
620.1039473833931
 30
0.0
 10
-633.0951614523048
 20
620.1039473833931
 30
0.0
 10
-633.8362242986885
 20
621.6931617864192
 30
0.0
 10
-635.72528725399
 20
622.380724473021
 30
0.0
 10
-637.3145016570157
 20
621.6396616266385
 30
0.0
 10
-638.9037160600424
 20
620.8985987802546
 30
0.0
 10
-639.5912787466458
 20
619.0095358249541
 30
0.0
 10
-638.8502159002619
 20
617.4203214219268
 30
0.0
 10
-638.1091530538785
 20
615.8311070189014
 30
0.0
 10
-636.2200900985773
 20
615.1435443322977
 30
0.0
 10
-634.6308756955509
 20
615.8846071786816
 30
0.0
  0
ENDBLK
  5
FC
330
F9
100
AcDbEntity
  8
0
100
AcDbBlockEnd
  0
BLOCK
  5
100
330
FE
100
AcDbEntity
  8
0
100
AcDbBlockBegin
  2
block 42
 70
     0
 10
0.0
 20
0.0
 30
0.0
  3
block 42
  1

  0
SPLINE
  5
102
330
FE
100
AcDbEntity
  8
0
 62
     7
420
 16777215
370
   106
100
AcDbSpline
210
0.0
220
0.0
230
1.0
 70
    11
 71
     3
 72
    53
 73
    49
 74
     0
 42
0.0000000001
 43
0.0000000001
 12
1.0
 22
0.0
 32
0.0
 13
1.0
 23
0.0
 33
0.0
 40
0.0
 40
0.0
 40
0.0
 40
0.0
 40
1.0
 40
1.0
 40
1.0
 40
2.0
 40
2.0
 40
2.0
 40
3.0
 40
3.0
 40
3.0
 40
4.0
 40
4.0
 40
4.0
 40
5.0
 40
5.0
 40
5.0
 40
6.0
 40
6.0
 40
6.0
 40
7.0
 40
7.0
 40
7.0
 40
8.0
 40
8.0
 40
8.0
 40
9.0
 40
9.0
 40
9.0
 40
10.0
 40
10.0
 40
10.0
 40
11.0
 40
11.0
 40
11.0
 40
12.0
 40
12.0
 40
12.0
 40
13.0
 40
13.0
 40
13.0
 40
14.0
 40
14.0
 40
14.0
 40
15.0
 40
15.0
 40
15.0
 40
16.0
 40
16.0
 40
16.0
 40
16.0
 10
-960.9477497062243
 20
624.529787770108
 30
0.0
 10
-960.9477497062243
 20
624.529787770108
 30
0.0
 10
-971.5062354257046
 20
619.606285021908
 30
0.0
 10
-971.5062354257046
 20
619.606285021908
 30
0.0
 10
-972.2472982720878
 20
621.195499424934
 30
0.0
 10
-974.1363612273896
 20
621.8830621115384
 30
0.0
 10
-975.7255756304156
 20
621.1419992651546
 30
0.0
 10
-977.3147900334426
 20
620.4009364187707
 30
0.0
 10
-978.0023527200453
 20
618.5118734634702
 30
0.0
 10
-977.2612898736619
 20
616.9226590604429
 30
0.0
 10
-976.5202270272783
 20
615.3334446574163
 30
0.0
 10
-974.6311640719772
 20
614.6458819708138
 30
0.0
 10
-973.0419496689506
 20
615.3869448171977
 30
0.0
 10
-973.0419496689506
 20
615.3869448171977
 30
0.0
 10
-960.9339364727348
 20
589.4212267173581
 30
0.0
 10
-960.9339364727348
 20
589.4212267173581
 30
0.0
 10
-962.5231508757615
 20
588.6801638709755
 30
0.0
 10
-963.210713562365
 20
586.7911009156738
 30
0.0
 10
-962.4696507159814
 20
585.2018865126483
 30
0.0
 10
-961.7285878695978
 20
583.6126721096224
 30
0.0
 10
-959.8395249142965
 20
582.925109423018
 30
0.0
 10
-958.2503105112697
 20
583.6661722694012
 30
0.0
 10
-956.6610961082438
 20
584.407235115785
 30
0.0
 10
-955.9735334216406
 20
586.2962980710868
 30
0.0
 10
-956.7145962680241
 20
587.8855124741128
 30
0.0
 10
-956.7145962680241
 20
587.8855124741128
 30
0.0
 10
-946.1561105485434
 20
592.8090152223127
 30
0.0
 10
-946.1561105485434
 20
592.8090152223127
 30
0.0
 10
-945.4150477021597
 20
591.2198008192854
 30
0.0
 10
-943.5259847468585
 20
590.5322381326823
 30
0.0
 10
-941.9367703438315
 20
591.2733009790662
 30
0.0
 10
-940.3475559408062
 20
592.01436382545
 30
0.0
 10
-939.6599932542027
 20
593.9034267807505
 30
0.0
 10
-940.4010561005865
 20
595.4926411837778
 30
0.0
 10
-941.1421189469704
 20
597.0818555868045
 30
0.0
 10
-943.0311819022712
 20
597.7694182734069
 30
0.0
 10
-944.6203963052972
 20
597.0283554270231
 30
0.0
 10
-944.6203963052972
 20
597.0283554270231
 30
0.0
 10
-956.7284095015133
 20
622.9940735268614
 30
0.0
 10
-956.7284095015133
 20
622.9940735268614
 30
0.0
 10
-955.1391950984872
 20
623.7351363732452
 30
0.0
 10
-954.4516324118838
 20
625.624199328547
 30
0.0
 10
-955.192695258267
 20
627.2134137315724
 30
0.0
 10
-955.9337581046506
 20
628.8026281345984
 30
0.0
 10
-957.8228210599519
 20
629.4901908212015
 30
0.0
 10
-959.4120354629777
 20
628.7491279748195
 30
0.0
 10
-961.0012498660046
 20
628.0080651284358
 30
0.0
 10
-961.6888125526075
 20
626.1190021731339
 30
0.0
 10
-960.9477497062243
 20
624.529787770108
 30
0.0
  0
ENDBLK
  5
101
330
FE
100
AcDbEntity
  8
0
100
AcDbBlockEnd
  0
BLOCK
  5
105
330
103
100
AcDbEntity
  8
0
100
AcDbBlockBegin
  2
block 43
 70
     0
 10
0.0
 20
0.0
 30
0.0
  3
block 43
  1

  0
SPLINE
  5
107
330
103
100
AcDbEntity
  8
0
 62
     7
420
 16777215
370
   106
100
AcDbSpline
210
0.0
220
0.0
230
1.0
 70
    11
 71
     3
 72
    53
 73
    49
 74
     0
 42
0.0000000001
 43
0.0000000001
 12
1.0
 22
0.0
 32
0.0
 13
1.0
 23
0.0
 33
0.0
 40
0.0
 40
0.0
 40
0.0
 40
0.0
 40
1.0
 40
1.0
 40
1.0
 40
2.0
 40
2.0
 40
2.0
 40
3.0
 40
3.0
 40
3.0
 40
4.0
 40
4.0
 40
4.0
 40
5.0
 40
5.0
 40
5.0
 40
6.0
 40
6.0
 40
6.0
 40
7.0
 40
7.0
 40
7.0
 40
8.0
 40
8.0
 40
8.0
 40
9.0
 40
9.0
 40
9.0
 40
10.0
 40
10.0
 40
10.0
 40
11.0
 40
11.0
 40
11.0
 40
12.0
 40
12.0
 40
12.0
 40
13.0
 40
13.0
 40
13.0
 40
14.0
 40
14.0
 40
14.0
 40
15.0
 40
15.0
 40
15.0
 40
16.0
 40
16.0
 40
16.0
 40
16.0
 10
-344.6323999036524
 20
624.5297877070809
 30
0.0
 10
-344.6323999036524
 20
624.5297877070809
 30
0.0
 10
-355.190885623133
 20
619.6062849588822
 30
0.0
 10
-355.190885623133
 20
619.6062849588822
 30
0.0
 10
-355.9319484695166
 20
621.1954993619082
 30
0.0
 10
-357.821011424817
 20
621.8830620485113
 30
0.0
 10
-359.4102258278437
 20
621.1419992021288
 30
0.0
 10
-360.9994402308703
 20
620.4009363557456
 30
0.0
 10
-361.6870029174731
 20
618.5118734004438
 30
0.0
 10
-360.9459400710893
 20
616.9226589974178
 30
0.0
 10
-360.2048772247061
 20
615.3334445943905
 30
0.0
 10
-358.3158142694062
 20
614.6458819077886
 30
0.0
 10
-356.7265998663796
 20
615.3869447541725
 30
0.0
 10
-356.7265998663796
 20
615.3869447541725
 30
0.0
 10
-344.6185866701636
 20
589.4212266543329
 30
0.0
 10
-344.6185866701636
 20
589.4212266543329
 30
0.0
 10
-346.2078010731899
 20
588.6801638079504
 30
0.0
 10
-346.8953637597927
 20
586.7911008526474
 30
0.0
 10
-346.1543009134095
 20
585.2018864496226
 30
0.0
 10
-345.4132380670259
 20
583.6126720465953
 30
0.0
 10
-343.5241751117248
 20
582.9251093599922
 30
0.0
 10
-341.9349607086982
 20
583.666172206376
 30
0.0
 10
-340.3457463056722
 20
584.4072350527599
 30
0.0
 10
-339.6581836190697
 20
586.2962980080597
 30
0.0
 10
-340.3992464654532
 20
587.885512411087
 30
0.0
 10
-340.3992464654532
 20
587.885512411087
 30
0.0
 10
-329.8407607459722
 20
592.8090151592877
 30
0.0
 10
-329.8407607459722
 20
592.8090151592877
 30
0.0
 10
-329.0996978995886
 20
591.2198007562604
 30
0.0
 10
-327.2106349442866
 20
590.5322380696572
 30
0.0
 10
-325.6214205412606
 20
591.2733009160391
 30
0.0
 10
-324.0322061382349
 20
592.014363762423
 30
0.0
 10
-323.3446434516308
 20
593.9034267177248
 30
0.0
 10
-324.0857062980146
 20
595.4926411207521
 30
0.0
 10
-324.8267691443982
 20
597.0818555237781
 30
0.0
 10
-326.7158320996999
 20
597.7694182103812
 30
0.0
 10
-328.3050465027256
 20
597.0283553639961
 30
0.0
 10
-328.3050465027256
 20
597.0283553639961
 30
0.0
 10
-340.4130596989417
 20
622.9940734638343
 30
0.0
 10
-340.4130596989417
 20
622.9940734638343
 30
0.0
 10
-338.823845295915
 20
623.7351363102182
 30
0.0
 10
-338.1362826093113
 20
625.6241992655199
 30
0.0
 10
-338.8773454556948
 20
627.213413668546
 30
0.0
 10
-339.6184083020789
 20
628.8026280715733
 30
0.0
 10
-341.50747125738
 20
629.4901907581764
 30
0.0
 10
-343.0966856604061
 20
628.7491279117925
 30
0.0
 10
-344.6859000634321
 20
628.0080650654099
 30
0.0
 10
-345.3734627500362
 20
626.1190021101082
 30
0.0
 10
-344.6323999036524
 20
624.5297877070809
 30
0.0
  0
ENDBLK
  5
106
330
103
100
AcDbEntity
  8
0
100
AcDbBlockEnd
  0
BLOCK
  5
10A
330
108
100
AcDbEntity
  8
0
100
AcDbBlockBegin
  2
block 44
 70
     0
 10
0.0
 20
0.0
 30
0.0
  3
block 44
  1

  0
INSERT
  5
10D
330
108
100
AcDbEntity
  8
0
100
AcDbBlockReference
  2
block 45
 10
0.0
 20
0.0
 30
0.0
  0
INSERT
  5
112
330
108
100
AcDbEntity
  8
0
100
AcDbBlockReference
  2
block 46
 10
0.0
 20
0.0
 30
0.0
  0
INSERT
  5
117
330
108
100
AcDbEntity
  8
0
100
AcDbBlockReference
  2
block 47
 10
0.0
 20
0.0
 30
0.0
  0
INSERT
  5
11C
330
108
100
AcDbEntity
  8
0
100
AcDbBlockReference
  2
block 48
 10
0.0
 20
0.0
 30
0.0
  0
ENDBLK
  5
10B
330
108
100
AcDbEntity
  8
0
100
AcDbBlockEnd
  0
BLOCK
  5
10E
330
10C
100
AcDbEntity
  8
0
100
AcDbBlockBegin
  2
block 45
 70
     0
 10
0.0
 20
0.0
 30
0.0
  3
block 45
  1

  0
SPLINE
  5
110
330
10C
100
AcDbEntity
  8
0
 62
     7
420
 16777215
370
   106
100
AcDbSpline
210
0.0
220
0.0
230
1.0
 70
    11
 71
     3
 72
    53
 73
    49
 74
     0
 42
0.0000000001
 43
0.0000000001
 12
1.0
 22
0.0
 32
0.0
 13
1.0
 23
0.0
 33
0.0
 40
0.0
 40
0.0
 40
0.0
 40
0.0
 40
1.0
 40
1.0
 40
1.0
 40
2.0
 40
2.0
 40
2.0
 40
3.0
 40
3.0
 40
3.0
 40
4.0
 40
4.0
 40
4.0
 40
5.0
 40
5.0
 40
5.0
 40
6.0
 40
6.0
 40
6.0
 40
7.0
 40
7.0
 40
7.0
 40
8.0
 40
8.0
 40
8.0
 40
9.0
 40
9.0
 40
9.0
 40
10.0
 40
10.0
 40
10.0
 40
11.0
 40
11.0
 40
11.0
 40
12.0
 40
12.0
 40
12.0
 40
13.0
 40
13.0
 40
13.0
 40
14.0
 40
14.0
 40
14.0
 40
15.0
 40
15.0
 40
15.0
 40
16.0
 40
16.0
 40
16.0
 40
16.0
 10
876.946791227947
 20
445.5036622595161
 30
0.0
 10
876.946791227947
 20
445.5036622595161
 30
0.0
 10
881.9218115166964
 20
417.288920135469
 30
0.0
 10
881.9218115166964
 20
417.288920135469
 30
0.0
 10
883.6486759303358
 20
417.593412923531
 30
0.0
 10
885.2954163084136
 20
416.4403528972038
 30
0.0
 10
885.5999090964743
 20
414.7134884835637
 30
0.0
 10
885.9044018845358
 20
412.9866240699249
 30
0.0
 10
884.7513418582092
 20
411.3398836918478
 30
0.0
 10
883.0244774445704
 20
411.0353909037864
 30
0.0
 10
881.2976130309303
 20
410.7308981157256
 30
0.0
 10
879.6508726528525
 20
411.8839581420515
 30
0.0
 10
879.3463798647924
 20
413.610822555691
 30
0.0
 10
879.3463798647924
 20
413.610822555691
 30
0.0
 10
867.873369542099
 20
411.587821286443
 30
0.0
 10
867.873369542099
 20
411.587821286443
 30
0.0
 10
868.1778623301605
 20
409.8609568728042
 30
0.0
 10
867.0248023038339
 20
408.2142164947278
 30
0.0
 10
865.2979378901944
 20
407.9097237066663
 30
0.0
 10
863.5710734765543
 20
407.6052309186049
 30
0.0
 10
861.9243330984773
 20
408.7582909449315
 30
0.0
 10
861.6198403104164
 20
410.4851553585704
 30
0.0
 10
861.315347522355
 20
412.2120197722105
 30
0.0
 10
862.4684075486803
 20
413.8587601502875
 30
0.0
 10
864.195271962321
 20
414.1632529383489
 30
0.0
 10
864.195271962321
 20
414.1632529383489
 30
0.0
 10
859.2202516735716
 20
442.3779950623967
 30
0.0
 10
859.2202516735716
 20
442.3779950623967
 30
0.0
 10
857.4933872599308
 20
442.0735022743353
 30
0.0
 10
855.8466468818544
 20
443.2265623006618
 30
0.0
 10
855.5421540937931
 20
444.9534267143013
 30
0.0
 10
855.2376613057322
 20
446.6802911279408
 30
0.0
 10
856.3907213320582
 20
448.3270315060178
 30
0.0
 10
858.1175857456983
 20
448.6315242940786
 30
0.0
 10
859.8444501593377
 20
448.93601708214
 30
0.0
 10
861.4911905374148
 20
447.7829570558141
 30
0.0
 10
861.7956833254756
 20
446.0560926421746
 30
0.0
 10
861.7956833254756
 20
446.0560926421746
 30
0.0
 10
873.268693648169
 20
448.079093911422
 30
0.0
 10
873.268693648169
 20
448.079093911422
 30
0.0
 10
872.9642008601076
 20
449.8059583250615
 30
0.0
 10
874.1172608864341
 20
451.4526987031379
 30
0.0
 10
875.8441253000743
 20
451.7571914911993
 30
0.0
 10
877.5709897137131
 20
452.0616842792608
 30
0.0
 10
879.2177300917908
 20
450.9086242529348
 30
0.0
 10
879.5222228798516
 20
449.1817598392947
 30
0.0
 10
879.8267156679124
 20
447.4548954256552
 30
0.0
 10
878.6736556415864
 20
445.8081550475782
 30
0.0
 10
876.946791227947
 20
445.5036622595161
 30
0.0
  0
ENDBLK
  5
10F
330
10C
100
AcDbEntity
  8
0
100
AcDbBlockEnd
  0
BLOCK
  5
113
330
111
100
AcDbEntity
  8
0
100
AcDbBlockBegin
  2
block 46
 70
     0
 10
0.0
 20
0.0
 30
0.0
  3
block 46
  1

  0
SPLINE
  5
115
330
111
100
AcDbEntity
  8
0
 62
     7
420
 16777215
370
   106
100
AcDbSpline
210
0.0
220
0.0
230
1.0
 70
    11
 71
     3
 72
    35
 73
    31
 74
     0
 42
0.0000000001
 43
0.0000000001
 12
1.0
 22
0.0
 32
0.0
 13
1.0
 23
0.0
 33
0.0
 40
0.0
 40
0.0
 40
0.0
 40
0.0
 40
1.0
 40
1.0
 40
1.0
 40
2.0
 40
2.0
 40
2.0
 40
3.0
 40
3.0
 40
3.0
 40
4.0
 40
4.0
 40
4.0
 40
5.0
 40
5.0
 40
5.0
 40
6.0
 40
6.0
 40
6.0
 40
7.0
 40
7.0
 40
7.0
 40
8.0
 40
8.0
 40
8.0
 40
9.0
 40
9.0
 40
9.0
 40
10.0
 40
10.0
 40
10.0
 40
10.0
 10
175.9201772027887
 20
399.4969453898259
 30
0.0
 10
176.3415289887043
 20
397.1073406659975
 30
0.0
 10
178.4177477392019
 20
395.3651862780355
 30
0.0
 10
180.8442159676437
 20
395.3651862779142
 30
0.0
 10
180.8442159676437
 20
395.3651862779142
 30
0.0
 10
1220.689949848786
 20
395.3651862260393
 30
0.0
 10
1220.689949848786
 20
395.3651862260393
 30
0.0
 10
1223.451373597941
 20
395.3651862259019
 30
0.0
 10
1225.689949848898
 20
397.6037624766363
 30
0.0
 10
1225.689949849036
 20
400.3651862257905
 30
0.0
 10
1225.68994984905
 20
400.6562591785143
 30
0.0
 10
1225.664532901934
 20
400.946776213592
 30
0.0
 10
1225.61398861414
 20
401.2334271141286
 30
0.0
 10
1225.61398861414
 20
401.2334271141286
 30
0.0
 10
1215.22188598748
 20
460.1699698255017
 30
0.0
 10
1215.22188598748
 20
460.1699698255017
 30
0.0
 10
1214.800534201563
 20
462.55957454933
 30
0.0
 10
1212.724315451066
 20
464.3017289372921
 30
0.0
 10
1210.297847222625
 20
464.3017289374121
 30
0.0
 10
1210.297847222625
 20
464.3017289374121
 30
0.0
 10
170.452113341482
 20
464.301728989287
 30
0.0
 10
170.452113341482
 20
464.301728989287
 30
0.0
 10
167.6906895923279
 20
464.3017289894256
 30
0.0
 10
165.4521133413702
 20
462.0631527386906
 30
0.0
 10
165.4521133412322
 20
459.3017289895365
 30
0.0
 10
165.4521133412175
 20
459.0106560368132
 30
0.0
 10
165.4775302883339
 20
458.7201390017355
 30
0.0
 10
165.5280745761284
 20
458.433488101199
 30
0.0
 10
165.5280745761284
 20
458.433488101199
 30
0.0
 10
175.9201772027887
 20
399.4969453898259
 30
0.0
 10
175.9201772027887
 20
399.4969453898259
 30
0.0
  0
ENDBLK
  5
114
330
111
100
AcDbEntity
  8
0
100
AcDbBlockEnd
  0
BLOCK
  5
118
330
116
100
AcDbEntity
  8
0
100
AcDbBlockBegin
  2
block 47
 70
     0
 10
0.0
 20
0.0
 30
0.0
  3
block 47
  1

  0
SPLINE
  5
11A
330
116
100
AcDbEntity
  8
0
 62
     7
420
 16777215
370
   106
100
AcDbSpline
210
0.0
220
0.0
230
1.0
 70
    11
 71
     3
 72
    53
 73
    49
 74
     0
 42
0.0000000001
 43
0.0000000001
 12
1.0
 22
0.0
 32
0.0
 13
1.0
 23
0.0
 33
0.0
 40
0.0
 40
0.0
 40
0.0
 40
0.0
 40
1.0
 40
1.0
 40
1.0
 40
2.0
 40
2.0
 40
2.0
 40
3.0
 40
3.0
 40
3.0
 40
4.0
 40
4.0
 40
4.0
 40
5.0
 40
5.0
 40
5.0
 40
6.0
 40
6.0
 40
6.0
 40
7.0
 40
7.0
 40
7.0
 40
8.0
 40
8.0
 40
8.0
 40
9.0
 40
9.0
 40
9.0
 40
10.0
 40
10.0
 40
10.0
 40
11.0
 40
11.0
 40
11.0
 40
12.0
 40
12.0
 40
12.0
 40
13.0
 40
13.0
 40
13.0
 40
14.0
 40
14.0
 40
14.0
 40
15.0
 40
15.0
 40
15.0
 40
16.0
 40
16.0
 40
16.0
 40
16.0
 10
263.8313909307117
 20
445.5153251832304
 30
0.0
 10
263.8313909307117
 20
445.5153251832304
 30
0.0
 10
275.3044012534052
 20
447.5383264524771
 30
0.0
 10
275.3044012534052
 20
447.5383264524771
 30
0.0
 10
274.9999084653443
 20
449.2651908661178
 30
0.0
 10
276.1529684916709
 20
450.9119312441949
 30
0.0
 10
277.8798329053104
 20
451.2164240322556
 30
0.0
 10
279.6066973189498
 20
451.5209168203165
 30
0.0
 10
281.2534376970269
 20
450.3678567939905
 30
0.0
 10
281.5579304850883
 20
448.6409923803511
 30
0.0
 10
281.8624232731491
 20
446.9141279667116
 30
0.0
 10
280.7093632468225
 20
445.2673875886339
 30
0.0
 10
278.9824988331831
 20
444.9628948005731
 30
0.0
 10
278.9824988331831
 20
444.9628948005731
 30
0.0
 10
283.9575191219332
 20
416.7481526765253
 30
0.0
 10
283.9575191219332
 20
416.7481526765253
 30
0.0
 10
285.6843835355726
 20
417.0526454645861
 30
0.0
 10
287.3311239136497
 20
415.8995854382601
 30
0.0
 10
287.6356167017104
 20
414.1727210246207
 30
0.0
 10
287.9401094897725
 20
412.4458566109806
 30
0.0
 10
286.7870494634453
 20
410.7991162329035
 30
0.0
 10
285.0601850498059
 20
410.4946234448428
 30
0.0
 10
283.3333206361664
 20
410.1901306567819
 30
0.0
 10
281.6865802580887
 20
411.3431906831073
 30
0.0
 10
281.3820874700279
 20
413.0700550967474
 30
0.0
 10
281.3820874700279
 20
413.0700550967474
 30
0.0
 10
269.9090771473352
 20
411.0470538275
 30
0.0
 10
269.9090771473352
 20
411.0470538275
 30
0.0
 10
270.2135699353965
 20
409.3201894138605
 30
0.0
 10
269.06050990907
 20
407.6734490357829
 30
0.0
 10
267.3336454954299
 20
407.3689562477221
 30
0.0
 10
265.6067810817904
 20
407.0644634596613
 30
0.0
 10
263.9600407037134
 20
408.2175234859866
 30
0.0
 10
263.6555479156519
 20
409.9443878996267
 30
0.0
 10
263.3510551275905
 20
411.6712523132675
 30
0.0
 10
264.5041151539171
 20
413.3179926913438
 30
0.0
 10
266.2309795675572
 20
413.6224854794046
 30
0.0
 10
266.2309795675572
 20
413.6224854794046
 30
0.0
 10
261.2559592788071
 20
441.8372276034524
 30
0.0
 10
261.2559592788071
 20
441.8372276034524
 30
0.0
 10
259.5290948651677
 20
441.5327348153916
 30
0.0
 10
257.8823544870906
 20
442.6857948417176
 30
0.0
 10
257.5778616990292
 20
444.412659255357
 30
0.0
 10
257.2733689109677
 20
446.1395236689972
 30
0.0
 10
258.4264289372943
 20
447.7862640470742
 30
0.0
 10
260.1532933509338
 20
448.0907568351357
 30
0.0
 10
261.8801577645739
 20
448.3952496231964
 30
0.0
 10
263.526898142651
 20
447.2421895968705
 30
0.0
 10
263.8313909307117
 20
445.5153251832304
 30
0.0
  0
ENDBLK
  5
119
330
116
100
AcDbEntity
  8
0
100
AcDbBlockEnd
  0
BLOCK
  5
11D
330
11B
100
AcDbEntity
  8
0
100
AcDbBlockBegin
  2
block 48
 70
     0
 10
0.0
 20
0.0
 30
0.0
  3
block 48
  1

  0
SPLINE
  5
11F
330
11B
100
AcDbEntity
  8
0
 62
     7
420
 16777215
370
   106
100
AcDbSpline
210
0.0
220
0.0
230
1.0
 70
    11
 71
     3
 72
    20
 73
    16
 74
     0
 42
0.0000000001
 43
0.0000000001
 12
1.0
 22
0.0
 32
0.0
 13
1.0
 23
0.0
 33
0.0
 40
0.0
 40
0.0
 40
0.0
 40
0.0
 40
1.0
 40
1.0
 40
1.0
 40
2.0
 40
2.0
 40
2.0
 40
3.0
 40
3.0
 40
3.0
 40
4.0
 40
4.0
 40
4.0
 40
5.0
 40
5.0
 40
5.0
 40
5.0
 10
512.8108394042074
 20
412.599321939067
 30
0.0
 10
503.292689092808
 20
410.9210152332183
 30
0.0
 10
494.2161673238805
 20
417.2764641972217
 30
0.0
 10
492.5378606180311
 20
426.7946145086217
 30
0.0
 10
490.8595539121818
 20
436.3127648200212
 30
0.0
 10
497.2150028761845
 20
445.3892865889487
 30
0.0
 10
506.7331531875846
 20
447.067593294798
 30
0.0
 10
516.251303498984
 20
448.7459000006473
 30
0.0
 10
525.3278252679128
 20
442.3904510366445
 30
0.0
 10
527.0061319737615
 20
432.8723007252445
 30
0.0
 10
528.6844386796101
 20
423.3541504138451
 30
0.0
 10
522.3289897156075
 20
414.2776286449163
 30
0.0
 10
512.8108394042074
 20
412.599321939067
 30
0.0
 10
512.8108394042074
 20
412.599321939067
 30
0.0
 10
512.8108394042074
 20
412.599321939067
 30
0.0
 10
512.8108394042074
 20
412.599321939067
 30
0.0
  0
ENDBLK
  5
11E
330
11B
100
AcDbEntity
  8
0
100
AcDbBlockEnd
  0
BLOCK
  5
122
330
120
100
AcDbEntity
  8
0
100
AcDbBlockBegin
  2
block 49
 70
     0
 10
0.0
 20
0.0
 30
0.0
  3
block 49
  1

  0
INSERT
  5
125
330
120
100
AcDbEntity
  8
0
100
AcDbBlockReference
  2
block 50
 10
0.0
 20
0.0
 30
0.0
  0
INSERT
  5
12A
330
120
100
AcDbEntity
  8
0
100
AcDbBlockReference
  2
block 51
 10
0.0
 20
0.0
 30
0.0
  0
INSERT
  5
12F
330
120
100
AcDbEntity
  8
0
100
AcDbBlockReference
  2
block 52
 10
0.0
 20
0.0
 30
0.0
  0
INSERT
  5
134
330
120
100
AcDbEntity
  8
0
100
AcDbBlockReference
  2
block 53
 10
0.0
 20
0.0
 30
0.0
  0
ENDBLK
  5
123
330
120
100
AcDbEntity
  8
0
100
AcDbBlockEnd
  0
BLOCK
  5
126
330
124
100
AcDbEntity
  8
0
100
AcDbBlockBegin
  2
block 50
 70
     0
 10
0.0
 20
0.0
 30
0.0
  3
block 50
  1

  0
SPLINE
  5
128
330
124
100
AcDbEntity
  8
0
 62
     7
420
 16777215
370
   106
100
AcDbSpline
210
0.0
220
0.0
230
1.0
 70
    11
 71
     3
 72
    53
 73
    49
 74
     0
 42
0.0000000001
 43
0.0000000001
 12
1.0
 22
0.0
 32
0.0
 13
1.0
 23
0.0
 33
0.0
 40
0.0
 40
0.0
 40
0.0
 40
0.0
 40
1.0
 40
1.0
 40
1.0
 40
2.0
 40
2.0
 40
2.0
 40
3.0
 40
3.0
 40
3.0
 40
4.0
 40
4.0
 40
4.0
 40
5.0
 40
5.0
 40
5.0
 40
6.0
 40
6.0
 40
6.0
 40
7.0
 40
7.0
 40
7.0
 40
8.0
 40
8.0
 40
8.0
 40
9.0
 40
9.0
 40
9.0
 40
10.0
 40
10.0
 40
10.0
 40
11.0
 40
11.0
 40
11.0
 40
12.0
 40
12.0
 40
12.0
 40
13.0
 40
13.0
 40
13.0
 40
14.0
 40
14.0
 40
14.0
 40
15.0
 40
15.0
 40
15.0
 40
16.0
 40
16.0
 40
16.0
 40
16.0
 10
876.9467912399185
 20
712.1430055089816
 30
0.0
 10
876.9467912399185
 20
712.1430055089816
 30
0.0
 10
881.921811528668
 20
683.9282633849344
 30
0.0
 10
881.921811528668
 20
683.9282633849344
 30
0.0
 10
883.6486759423068
 20
684.2327561729965
 30
0.0
 10
885.295416320385
 20
683.0796961466692
 30
0.0
 10
885.5999091084459
 20
681.3528317330291
 30
0.0
 10
885.9044018965074
 20
679.6259673193903
 30
0.0
 10
884.7513418701807
 20
677.9792269413133
 30
0.0
 10
883.0244774565413
 20
677.6747341532518
 30
0.0
 10
881.2976130429012
 20
677.3702413651911
 30
0.0
 10
879.6508726648241
 20
678.523301391517
 30
0.0
 10
879.346379876764
 20
680.2501658051565
 30
0.0
 10
879.346379876764
 20
680.2501658051565
 30
0.0
 10
867.8733695540699
 20
678.2271645359085
 30
0.0
 10
867.8733695540699
 20
678.2271645359085
 30
0.0
 10
868.1778623421313
 20
676.5003001222697
 30
0.0
 10
867.0248023158048
 20
674.8535597441933
 30
0.0
 10
865.2979379021659
 20
674.5490669561318
 30
0.0
 10
863.5710734885251
 20
674.2445741680704
 30
0.0
 10
861.9243331104482
 20
675.3976341943969
 30
0.0
 10
861.619840322388
 20
677.1244986080358
 30
0.0
 10
861.3153475343265
 20
678.8513630216759
 30
0.0
 10
862.4684075606518
 20
680.498103399753
 30
0.0
 10
864.1952719742919
 20
680.8025961878144
 30
0.0
 10
864.1952719742919
 20
680.8025961878144
 30
0.0
 10
859.2202516855425
 20
709.0173383118622
 30
0.0
 10
859.2202516855425
 20
709.0173383118622
 30
0.0
 10
857.4933872719024
 20
708.7128455238008
 30
0.0
 10
855.846646893826
 20
709.8659055501273
 30
0.0
 10
855.542154105764
 20
711.5927699637668
 30
0.0
 10
855.2376613177031
 20
713.3196343774063
 30
0.0
 10
856.3907213440291
 20
714.9663747554833
 30
0.0
 10
858.1175857576699
 20
715.2708675435441
 30
0.0
 10
859.8444501713087
 20
715.5753603316056
 30
0.0
 10
861.4911905493857
 20
714.4223003052796
 30
0.0
 10
861.7956833374471
 20
712.6954358916402
 30
0.0
 10
861.7956833374471
 20
712.6954358916402
 30
0.0
 10
873.2686936601399
 20
714.7184371608874
 30
0.0
 10
873.2686936601399
 20
714.7184371608874
 30
0.0
 10
872.9642008720791
 20
716.445301574527
 30
0.0
 10
874.1172608984051
 20
718.0920419526034
 30
0.0
 10
875.8441253120452
 20
718.3965347406647
 30
0.0
 10
877.5709897256846
 20
718.7010275287262
 30
0.0
 10
879.2177301037617
 20
717.5479675024003
 30
0.0
 10
879.5222228918225
 20
715.8211030887602
 30
0.0
 10
879.8267156798833
 20
714.0942386751207
 30
0.0
 10
878.6736556535574
 20
712.4474982970437
 30
0.0
 10
876.9467912399185
 20
712.1430055089816
 30
0.0
  0
ENDBLK
  5
127
330
124
100
AcDbEntity
  8
0
100
AcDbBlockEnd
  0
BLOCK
  5
12B
330
129
100
AcDbEntity
  8
0
100
AcDbBlockBegin
  2
block 51
 70
     0
 10
0.0
 20
0.0
 30
0.0
  3
block 51
  1

  0
SPLINE
  5
12D
330
129
100
AcDbEntity
  8
0
 62
     7
420
 16777215
370
   106
100
AcDbSpline
210
0.0
220
0.0
230
1.0
 70
    11
 71
     3
 72
    35
 73
    31
 74
     0
 42
0.0000000001
 43
0.0000000001
 12
1.0
 22
0.0
 32
0.0
 13
1.0
 23
0.0
 33
0.0
 40
0.0
 40
0.0
 40
0.0
 40
0.0
 40
1.0
 40
1.0
 40
1.0
 40
2.0
 40
2.0
 40
2.0
 40
3.0
 40
3.0
 40
3.0
 40
4.0
 40
4.0
 40
4.0
 40
5.0
 40
5.0
 40
5.0
 40
6.0
 40
6.0
 40
6.0
 40
7.0
 40
7.0
 40
7.0
 40
8.0
 40
8.0
 40
8.0
 40
9.0
 40
9.0
 40
9.0
 40
10.0
 40
10.0
 40
10.0
 40
10.0
 10
175.9201772147596
 20
666.1362886392914
 30
0.0
 10
176.3415290006758
 20
663.746683915463
 30
0.0
 10
178.4177477511728
 20
662.004529527501
 30
0.0
 10
180.8442159796146
 20
662.0045295273796
 30
0.0
 10
180.8442159796146
 20
662.0045295273796
 30
0.0
 10
1220.689949860757
 20
662.0045294755047
 30
0.0
 10
1220.689949860757
 20
662.0045294755047
 30
0.0
 10
1223.451373609912
 20
662.0045294753675
 30
0.0
 10
1225.689949860869
 20
664.2431057261018
 30
0.0
 10
1225.689949861007
 20
667.0045294752559
 30
0.0
 10
1225.689949861021
 20
667.2956024279798
 30
0.0
 10
1225.664532913906
 20
667.5861194630576
 30
0.0
 10
1225.613988626112
 20
667.8727703635941
 30
0.0
 10
1225.613988626112
 20
667.8727703635941
 30
0.0
 10
1215.221885999451
 20
726.8093130749671
 30
0.0
 10
1215.221885999451
 20
726.8093130749671
 30
0.0
 10
1214.800534213534
 20
729.1989177987955
 30
0.0
 10
1212.724315463037
 20
730.9410721867575
 30
0.0
 10
1210.297847234596
 20
730.9410721868775
 30
0.0
 10
1210.297847234596
 20
730.9410721868775
 30
0.0
 10
170.4521133534529
 20
730.9410722387524
 30
0.0
 10
170.4521133534529
 20
730.9410722387524
 30
0.0
 10
167.6906896042988
 20
730.9410722388911
 30
0.0
 10
165.4521133533417
 20
728.7024959881561
 30
0.0
 10
165.4521133532031
 20
725.941072239002
 30
0.0
 10
165.452113353189
 20
725.6499992862787
 30
0.0
 10
165.4775303003054
 20
725.3594822512009
 30
0.0
 10
165.5280745881
 20
725.0728313506644
 30
0.0
 10
165.5280745881
 20
725.0728313506644
 30
0.0
 10
175.9201772147596
 20
666.1362886392914
 30
0.0
 10
175.9201772147596
 20
666.1362886392914
 30
0.0
  0
ENDBLK
  5
12C
330
129
100
AcDbEntity
  8
0
100
AcDbBlockEnd
  0
BLOCK
  5
130
330
12E
100
AcDbEntity
  8
0
100
AcDbBlockBegin
  2
block 52
 70
     0
 10
0.0
 20
0.0
 30
0.0
  3
block 52
  1

  0
SPLINE
  5
132
330
12E
100
AcDbEntity
  8
0
 62
     7
420
 16777215
370
   106
100
AcDbSpline
210
0.0
220
0.0
230
1.0
 70
    11
 71
     3
 72
    53
 73
    49
 74
     0
 42
0.0000000001
 43
0.0000000001
 12
1.0
 22
0.0
 32
0.0
 13
1.0
 23
0.0
 33
0.0
 40
0.0
 40
0.0
 40
0.0
 40
0.0
 40
1.0
 40
1.0
 40
1.0
 40
2.0
 40
2.0
 40
2.0
 40
3.0
 40
3.0
 40
3.0
 40
4.0
 40
4.0
 40
4.0
 40
5.0
 40
5.0
 40
5.0
 40
6.0
 40
6.0
 40
6.0
 40
7.0
 40
7.0
 40
7.0
 40
8.0
 40
8.0
 40
8.0
 40
9.0
 40
9.0
 40
9.0
 40
10.0
 40
10.0
 40
10.0
 40
11.0
 40
11.0
 40
11.0
 40
12.0
 40
12.0
 40
12.0
 40
13.0
 40
13.0
 40
13.0
 40
14.0
 40
14.0
 40
14.0
 40
15.0
 40
15.0
 40
15.0
 40
16.0
 40
16.0
 40
16.0
 40
16.0
 10
263.8313909426833
 20
712.1546684326959
 30
0.0
 10
263.8313909426833
 20
712.1546684326959
 30
0.0
 10
275.304401265376
 20
714.1776697019426
 30
0.0
 10
275.304401265376
 20
714.1776697019426
 30
0.0
 10
274.9999084773152
 20
715.9045341155833
 30
0.0
 10
276.1529685036418
 20
717.5512744936603
 30
0.0
 10
277.8798329172819
 20
717.8557672817211
 30
0.0
 10
279.6066973309214
 20
718.1602600697819
 30
0.0
 10
281.2534377089978
 20
717.007200043456
 30
0.0
 10
281.5579304970593
 20
715.2803356298165
 30
0.0
 10
281.8624232851207
 20
713.5534712161771
 30
0.0
 10
280.7093632587934
 20
711.9067308380994
 30
0.0
 10
278.982498845154
 20
711.6022380500385
 30
0.0
 10
278.982498845154
 20
711.6022380500385
 30
0.0
 10
283.957519133904
 20
683.3874959259908
 30
0.0
 10
283.957519133904
 20
683.3874959259908
 30
0.0
 10
285.6843835475435
 20
683.6919887140516
 30
0.0
 10
287.3311239256212
 20
682.5389286877256
 30
0.0
 10
287.635616713682
 20
680.8120642740862
 30
0.0
 10
287.9401095017434
 20
679.0851998604461
 30
0.0
 10
286.7870494754168
 20
677.438459482369
 30
0.0
 10
285.0601850617774
 20
677.1339666943082
 30
0.0
 10
283.3333206481373
 20
676.8294739062475
 30
0.0
 10
281.6865802700602
 20
677.9825339325728
 30
0.0
 10
281.3820874819994
 20
679.7093983462129
 30
0.0
 10
281.3820874819994
 20
679.7093983462129
 30
0.0
 10
269.909077159306
 20
677.6863970769655
 30
0.0
 10
269.909077159306
 20
677.6863970769655
 30
0.0
 10
270.2135699473675
 20
675.9595326633261
 30
0.0
 10
269.0605099210409
 20
674.3127922852483
 30
0.0
 10
267.3336455074014
 20
674.0082994971875
 30
0.0
 10
265.6067810937619
 20
673.7038067091268
 30
0.0
 10
263.9600407156843
 20
674.8568667354521
 30
0.0
 10
263.6555479276228
 20
676.5837311490922
 30
0.0
 10
263.351055139562
 20
678.3105955627329
 30
0.0
 10
264.504115165888
 20
679.9573359408093
 30
0.0
 10
266.2309795795281
 20
680.2618287288701
 30
0.0
 10
266.2309795795281
 20
680.2618287288701
 30
0.0
 10
261.255959290778
 20
708.4765708529179
 30
0.0
 10
261.255959290778
 20
708.4765708529179
 30
0.0
 10
259.5290948771386
 20
708.1720780648571
 30
0.0
 10
257.8823544990622
 20
709.325138091183
 30
0.0
 10
257.5778617110007
 20
711.0520025048226
 30
0.0
 10
257.2733689229386
 20
712.7788669184627
 30
0.0
 10
258.4264289492659
 20
714.4256072965396
 30
0.0
 10
260.1532933629053
 20
714.7301000846011
 30
0.0
 10
261.8801577765448
 20
715.0345928726618
 30
0.0
 10
263.5268981546225
 20
713.881532846336
 30
0.0
 10
263.8313909426833
 20
712.1546684326959
 30
0.0
  0
ENDBLK
  5
131
330
12E
100
AcDbEntity
  8
0
100
AcDbBlockEnd
  0
BLOCK
  5
135
330
133
100
AcDbEntity
  8
0
100
AcDbBlockBegin
  2
block 53
 70
     0
 10
0.0
 20
0.0
 30
0.0
  3
block 53
  1

  0
SPLINE
  5
137
330
133
100
AcDbEntity
  8
0
 62
     7
420
 16777215
370
   106
100
AcDbSpline
210
0.0
220
0.0
230
1.0
 70
    11
 71
     3
 72
    20
 73
    16
 74
     0
 42
0.0000000001
 43
0.0000000001
 12
1.0
 22
0.0
 32
0.0
 13
1.0
 23
0.0
 33
0.0
 40
0.0
 40
0.0
 40
0.0
 40
0.0
 40
1.0
 40
1.0
 40
1.0
 40
2.0
 40
2.0
 40
2.0
 40
3.0
 40
3.0
 40
3.0
 40
4.0
 40
4.0
 40
4.0
 40
5.0
 40
5.0
 40
5.0
 40
5.0
 10
512.8108394161789
 20
679.2386651885324
 30
0.0
 10
503.2926891047788
 20
677.5603584826838
 30
0.0
 10
494.2161673358514
 20
683.9158074466872
 30
0.0
 10
492.5378606300027
 20
693.4339577580872
 30
0.0
 10
490.8595539241533
 20
702.9521080694866
 30
0.0
 10
497.2150028881561
 20
712.0286298384141
 30
0.0
 10
506.7331531995555
 20
713.7069365442635
 30
0.0
 10
516.2513035109556
 20
715.3852432501128
 30
0.0
 10
525.3278252798837
 20
709.02979428611
 30
0.0
 10
527.0061319857324
 20
699.51164397471
 30
0.0
 10
528.6844386915811
 20
689.9934936633106
 30
0.0
 10
522.3289897275783
 20
680.9169718943817
 30
0.0
 10
512.8108394161789
 20
679.2386651885324
 30
0.0
 10
512.8108394161789
 20
679.2386651885324
 30
0.0
 10
512.8108394161789
 20
679.2386651885324
 30
0.0
 10
512.8108394161789
 20
679.2386651885324
 30
0.0
  0
ENDBLK
  5
136
330
133
100
AcDbEntity
  8
0
100
AcDbBlockEnd
  0
BLOCK
  5
13A
330
138
100
AcDbEntity
  8
0
100
AcDbBlockBegin
  2
block 54
 70
     0
 10
0.0
 20
0.0
 30
0.0
  3
block 54
  1

  0
INSERT
  5
13D
330
138
100
AcDbEntity
  8
0
100
AcDbBlockReference
  2
block 55
 10
0.0
 20
0.0
 30
0.0
  0
ENDBLK
  5
13B
330
138
100
AcDbEntity
  8
0
100
AcDbBlockEnd
  0
BLOCK
  5
13E
330
13C
100
AcDbEntity
  8
0
100
AcDbBlockBegin
  2
block 55
 70
     0
 10
0.0
 20
0.0
 30
0.0
  3
block 55
  1

  0
SPLINE
  5
140
330
13C
100
AcDbEntity
  8
0
 62
     7
420
 16777215
370
   106
100
AcDbSpline
210
0.0
220
0.0
230
1.0
 70
    11
 71
     3
 72
    29
 73
    25
 74
     0
 42
0.0000000001
 43
0.0000000001
 12
1.0
 22
0.0
 32
0.0
 13
1.0
 23
0.0
 33
0.0
 40
0.0
 40
0.0
 40
0.0
 40
0.0
 40
1.0
 40
1.0
 40
1.0
 40
2.0
 40
2.0
 40
2.0
 40
3.0
 40
3.0
 40
3.0
 40
4.0
 40
4.0
 40
4.0
 40
5.0
 40
5.0
 40
5.0
 40
6.0
 40
6.0
 40
6.0
 40
7.0
 40
7.0
 40
7.0
 40
8.0
 40
8.0
 40
8.0
 40
8.0
 10
853.493387851008
 20
478.4605471686269
 30
0.0
 10
854.5979573506694
 20
478.4605471685775
 30
0.0
 10
855.4933878510479
 20
479.3559776688752
 30
0.0
 10
855.4933878510974
 20
480.4605471685371
 30
0.0
 10
855.4933878510974
 20
480.4605471685371
 30
0.0
 10
855.4933878540608
 20
546.4605471685369
 30
0.0
 10
855.4933878540608
 20
546.4605471685369
 30
0.0
 10
855.4933878541101
 20
547.5651166681988
 30
0.0
 10
854.5979573538124
 20
548.4605471685774
 30
0.0
 10
853.4933878541511
 20
548.4605471686268
 30
0.0
 10
853.4933878541511
 20
548.4605471686268
 30
0.0
 10
844.9933878541511
 20
548.4605471690086
 30
0.0
 10
844.9933878541511
 20
548.4605471690086
 30
0.0
 10
843.8888183544892
 20
548.460547169058
 30
0.0
 10
842.9933878541107
 20
547.5651166687603
 30
0.0
 10
842.9933878540612
 20
546.4605471690984
 30
0.0
 10
842.9933878540612
 20
546.4605471690984
 30
0.0
 10
842.9933878510979
 20
480.4605471690986
 30
0.0
 10
842.9933878510979
 20
480.4605471690986
 30
0.0
 10
842.9933878510484
 20
479.3559776694367
 30
0.0
 10
843.8888183513462
 20
478.4605471690581
 30
0.0
 10
844.993387851008
 20
478.4605471690087
 30
0.0
 10
844.993387851008
 20
478.4605471690087
 30
0.0
 10
853.493387851008
 20
478.4605471686269
 30
0.0
 10
853.493387851008
 20
478.4605471686269
 30
0.0
  0
ENDBLK
  5
13F
330
13C
100
AcDbEntity
  8
0
100
AcDbBlockEnd
  0
BLOCK
  5
143
330
141
100
AcDbEntity
  8
0
100
AcDbBlockBegin
  2
block 56
 70
     0
 10
0.0
 20
0.0
 30
0.0
  3
block 56
  1

  0
INSERT
  5
146
330
141
100
AcDbEntity
  8
0
100
AcDbBlockReference
  2
block 57
 10
0.0
 20
0.0
 30
0.0
  0
ENDBLK
  5
144
330
141
100
AcDbEntity
  8
0
100
AcDbBlockEnd
  0
BLOCK
  5
147
330
145
100
AcDbEntity
  8
0
100
AcDbBlockBegin
  2
block 57
 70
     0
 10
0.0
 20
0.0
 30
0.0
  3
block 57
  1

  0
SPLINE
  5
149
330
145
100
AcDbEntity
  8
0
 62
     7
420
 16777215
370
   106
100
AcDbSpline
210
0.0
220
0.0
230
1.0
 70
    11
 71
     3
 72
    29
 73
    25
 74
     0
 42
0.0000000001
 43
0.0000000001
 12
1.0
 22
0.0
 32
0.0
 13
1.0
 23
0.0
 33
0.0
 40
0.0
 40
0.0
 40
0.0
 40
0.0
 40
1.0
 40
1.0
 40
1.0
 40
2.0
 40
2.0
 40
2.0
 40
3.0
 40
3.0
 40
3.0
 40
4.0
 40
4.0
 40
4.0
 40
5.0
 40
5.0
 40
5.0
 40
6.0
 40
6.0
 40
6.0
 40
7.0
 40
7.0
 40
7.0
 40
8.0
 40
8.0
 40
8.0
 40
8.0
 10
766.4043220980874
 20
478.4605471725374
 30
0.0
 10
767.5088915977486
 20
478.4605471724873
 30
0.0
 10
768.4043220981272
 20
479.3559776727857
 30
0.0
 10
768.4043220981766
 20
480.4605471724476
 30
0.0
 10
768.4043220981766
 20
480.4605471724476
 30
0.0
 10
768.40432210114
 20
546.4605471724474
 30
0.0
 10
768.40432210114
 20
546.4605471724474
 30
0.0
 10
768.4043221011895
 20
547.5651166721093
 30
0.0
 10
767.5088916008917
 20
548.4605471724873
 30
0.0
 10
766.4043221012304
 20
548.4605471725373
 30
0.0
 10
766.4043221012304
 20
548.4605471725373
 30
0.0
 10
757.9043221012305
 20
548.4605471729185
 30
0.0
 10
757.9043221012305
 20
548.4605471729185
 30
0.0
 10
756.7997526015686
 20
548.4605471729685
 30
0.0
 10
755.9043221011899
 20
547.5651166726701
 30
0.0
 10
755.9043221011406
 20
546.4605471730082
 30
0.0
 10
755.9043221011406
 20
546.4605471730082
 30
0.0
 10
755.9043220981772
 20
480.4605471730085
 30
0.0
 10
755.9043220981772
 20
480.4605471730085
 30
0.0
 10
755.9043220981277
 20
479.3559776733466
 30
0.0
 10
756.7997525984255
 20
478.4605471729686
 30
0.0
 10
757.9043220980874
 20
478.4605471729186
 30
0.0
 10
757.9043220980874
 20
478.4605471729186
 30
0.0
 10
766.4043220980874
 20
478.4605471725374
 30
0.0
 10
766.4043220980874
 20
478.4605471725374
 30
0.0
  0
ENDBLK
  5
148
330
145
100
AcDbEntity
  8
0
100
AcDbBlockEnd
  0
BLOCK
  5
14C
330
14A
100
AcDbEntity
  8
0
100
AcDbBlockBegin
  2
block 58
 70
     0
 10
0.0
 20
0.0
 30
0.0
  3
block 58
  1

  0
INSERT
  5
14F
330
14A
100
AcDbEntity
  8
0
100
AcDbBlockReference
  2
block 59
 10
0.0
 20
0.0
 30
0.0
  0
ENDBLK
  5
14D
330
14A
100
AcDbEntity
  8
0
100
AcDbBlockEnd
  0
BLOCK
  5
150
330
14E
100
AcDbEntity
  8
0
100
AcDbBlockBegin
  2
block 59
 70
     0
 10
0.0
 20
0.0
 30
0.0
  3
block 59
  1

  0
SPLINE
  5
152
330
14E
100
AcDbEntity
  8
0
 62
     7
420
 16777215
370
   106
100
AcDbSpline
210
0.0
220
0.0
230
1.0
 70
    11
 71
     3
 72
    29
 73
    25
 74
     0
 42
0.0000000001
 43
0.0000000001
 12
1.0
 22
0.0
 32
0.0
 13
1.0
 23
0.0
 33
0.0
 40
0.0
 40
0.0
 40
0.0
 40
0.0
 40
1.0
 40
1.0
 40
1.0
 40
2.0
 40
2.0
 40
2.0
 40
3.0
 40
3.0
 40
3.0
 40
4.0
 40
4.0
 40
4.0
 40
5.0
 40
5.0
 40
5.0
 40
6.0
 40
6.0
 40
6.0
 40
7.0
 40
7.0
 40
7.0
 40
8.0
 40
8.0
 40
8.0
 40
8.0
 10
809.7956712221527
 20
478.4605471705892
 30
0.0
 10
810.9002407218139
 20
478.4605471705391
 30
0.0
 10
811.7956712221926
 20
479.3559776708375
 30
0.0
 10
811.7956712222419
 20
480.4605471704994
 30
0.0
 10
811.7956712222419
 20
480.4605471704994
 30
0.0
 10
811.7956712252053
 20
546.4605471704991
 30
0.0
 10
811.7956712252053
 20
546.4605471704991
 30
0.0
 10
811.7956712252548
 20
547.565116670161
 30
0.0
 10
810.900240724957
 20
548.460547170539
 30
0.0
 10
809.7956712252958
 20
548.460547170589
 30
0.0
 10
809.7956712252958
 20
548.460547170589
 30
0.0
 10
801.2956712252958
 20
548.4605471709702
 30
0.0
 10
801.2956712252958
 20
548.4605471709702
 30
0.0
 10
800.1911017256339
 20
548.4605471710203
 30
0.0
 10
799.2956712252552
 20
547.565116670722
 30
0.0
 10
799.2956712252059
 20
546.46054717106
 30
0.0
 10
799.2956712252059
 20
546.46054717106
 30
0.0
 10
799.2956712222425
 20
480.4605471710603
 30
0.0
 10
799.2956712222425
 20
480.4605471710603
 30
0.0
 10
799.295671222193
 20
479.3559776713984
 30
0.0
 10
800.1911017224908
 20
478.4605471710204
 30
0.0
 10
801.2956712221527
 20
478.4605471709704
 30
0.0
 10
801.2956712221527
 20
478.4605471709704
 30
0.0
 10
809.7956712221527
 20
478.4605471705892
 30
0.0
 10
809.7956712221527
 20
478.4605471705892
 30
0.0
  0
ENDBLK
  5
151
330
14E
100
AcDbEntity
  8
0
100
AcDbBlockEnd
  0
BLOCK
  5
155
330
153
100
AcDbEntity
  8
0
100
AcDbBlockBegin
  2
block 60
 70
     0
 10
0.0
 20
0.0
 30
0.0
  3
block 60
  1

  0
INSERT
  5
158
330
153
100
AcDbEntity
  8
0
100
AcDbBlockReference
  2
block 61
 10
0.0
 20
0.0
 30
0.0
  0
ENDBLK
  5
156
330
153
100
AcDbEntity
  8
0
100
AcDbBlockEnd
  0
BLOCK
  5
159
330
157
100
AcDbEntity
  8
0
100
AcDbBlockBegin
  2
block 61
 70
     0
 10
0.0
 20
0.0
 30
0.0
  3
block 61
  1

  0
SPLINE
  5
15B
330
157
100
AcDbEntity
  8
0
 62
     7
420
 16777215
370
   106
100
AcDbSpline
210
0.0
220
0.0
230
1.0
 70
    11
 71
     3
 72
    29
 73
    25
 74
     0
 42
0.0000000001
 43
0.0000000001
 12
1.0
 22
0.0
 32
0.0
 13
1.0
 23
0.0
 33
0.0
 40
0.0
 40
0.0
 40
0.0
 40
0.0
 40
1.0
 40
1.0
 40
1.0
 40
2.0
 40
2.0
 40
2.0
 40
3.0
 40
3.0
 40
3.0
 40
4.0
 40
4.0
 40
4.0
 40
5.0
 40
5.0
 40
5.0
 40
6.0
 40
6.0
 40
6.0
 40
7.0
 40
7.0
 40
7.0
 40
8.0
 40
8.0
 40
8.0
 40
8.0
 10
983.2377410965461
 20
478.4605471628022
 30
0.0
 10
984.3423105962073
 20
478.4605471627527
 30
0.0
 10
985.237741096586
 20
479.3559776630505
 30
0.0
 10
985.2377410966353
 20
480.4605471627124
 30
0.0
 10
985.2377410966353
 20
480.4605471627124
 30
0.0
 10
985.2377410995987
 20
546.4605471627121
 30
0.0
 10
985.2377410995987
 20
546.4605471627121
 30
0.0
 10
985.2377410996481
 20
547.5651166623741
 30
0.0
 10
984.3423105993504
 20
548.4605471627526
 30
0.0
 10
983.2377410996892
 20
548.4605471628021
 30
0.0
 10
983.2377410996892
 20
548.4605471628021
 30
0.0
 10
974.7377410996892
 20
548.4605471631833
 30
0.0
 10
974.7377410996892
 20
548.4605471631833
 30
0.0
 10
973.6331716000273
 20
548.4605471632333
 30
0.0
 10
972.7377410996487
 20
547.5651166629349
 30
0.0
 10
972.7377410995992
 20
546.460547163273
 30
0.0
 10
972.7377410995992
 20
546.460547163273
 30
0.0
 10
972.7377410966359
 20
480.4605471632732
 30
0.0
 10
972.7377410966359
 20
480.4605471632732
 30
0.0
 10
972.7377410965864
 20
479.3559776636113
 30
0.0
 10
973.6331715968842
 20
478.4605471632334
 30
0.0
 10
974.7377410965461
 20
478.4605471631833
 30
0.0
 10
974.7377410965461
 20
478.4605471631833
 30
0.0
 10
983.2377410965461
 20
478.4605471628022
 30
0.0
 10
983.2377410965461
 20
478.4605471628022
 30
0.0
  0
ENDBLK
  5
15A
330
157
100
AcDbEntity
  8
0
100
AcDbBlockEnd
  0
BLOCK
  5
15E
330
15C
100
AcDbEntity
  8
0
100
AcDbBlockBegin
  2
block 62
 70
     0
 10
0.0
 20
0.0
 30
0.0
  3
block 62
  1

  0
INSERT
  5
161
330
15C
100
AcDbEntity
  8
0
100
AcDbBlockReference
  2
block 63
 10
0.0
 20
0.0
 30
0.0
  0
ENDBLK
  5
15F
330
15C
100
AcDbEntity
  8
0
100
AcDbBlockEnd
  0
BLOCK
  5
162
330
160
100
AcDbEntity
  8
0
100
AcDbBlockBegin
  2
block 63
 70
     0
 10
0.0
 20
0.0
 30
0.0
  3
block 63
  1

  0
SPLINE
  5
164
330
160
100
AcDbEntity
  8
0
 62
     7
420
 16777215
370
   106
100
AcDbSpline
210
0.0
220
0.0
230
1.0
 70
    11
 71
     3
 72
    29
 73
    25
 74
     0
 42
0.0000000001
 43
0.0000000001
 12
1.0
 22
0.0
 32
0.0
 13
1.0
 23
0.0
 33
0.0
 40
0.0
 40
0.0
 40
0.0
 40
0.0
 40
1.0
 40
1.0
 40
1.0
 40
2.0
 40
2.0
 40
2.0
 40
3.0
 40
3.0
 40
3.0
 40
4.0
 40
4.0
 40
4.0
 40
5.0
 40
5.0
 40
5.0
 40
6.0
 40
6.0
 40
6.0
 40
7.0
 40
7.0
 40
7.0
 40
8.0
 40
8.0
 40
8.0
 40
8.0
 10
896.1486753436254
 20
478.460547166712
 30
0.0
 10
897.2532448432867
 20
478.4605471666626
 30
0.0
 10
898.1486753436652
 20
479.3559776669604
 30
0.0
 10
898.1486753437147
 20
480.4605471666223
 30
0.0
 10
898.1486753437147
 20
480.4605471666223
 30
0.0
 10
898.148675346678
 20
546.4605471666221
 30
0.0
 10
898.148675346678
 20
546.4605471666221
 30
0.0
 10
898.1486753467275
 20
547.565116666284
 30
0.0
 10
897.2532448464298
 20
548.4605471666625
 30
0.0
 10
896.1486753467684
 20
548.460547166712
 30
0.0
 10
896.1486753467684
 20
548.460547166712
 30
0.0
 10
887.6486753467684
 20
548.4605471670938
 30
0.0
 10
887.6486753467684
 20
548.4605471670938
 30
0.0
 10
886.5441058471066
 20
548.4605471671432
 30
0.0
 10
885.6486753467279
 20
547.5651166668455
 30
0.0
 10
885.6486753466786
 20
546.4605471671836
 30
0.0
 10
885.6486753466786
 20
546.4605471671836
 30
0.0
 10
885.6486753437152
 20
480.4605471671837
 30
0.0
 10
885.6486753437152
 20
480.4605471671837
 30
0.0
 10
885.6486753436658
 20
479.3559776675219
 30
0.0
 10
886.5441058439635
 20
478.4605471671433
 30
0.0
 10
887.6486753436254
 20
478.4605471670939
 30
0.0
 10
887.6486753436254
 20
478.4605471670939
 30
0.0
 10
896.1486753436254
 20
478.460547166712
 30
0.0
 10
896.1486753436254
 20
478.460547166712
 30
0.0
  0
ENDBLK
  5
163
330
160
100
AcDbEntity
  8
0
100
AcDbBlockEnd
  0
BLOCK
  5
167
330
165
100
AcDbEntity
  8
0
100
AcDbBlockBegin
  2
block 64
 70
     0
 10
0.0
 20
0.0
 30
0.0
  3
block 64
  1

  0
INSERT
  5
16A
330
165
100
AcDbEntity
  8
0
100
AcDbBlockReference
  2
block 65
 10
0.0
 20
0.0
 30
0.0
  0
ENDBLK
  5
168
330
165
100
AcDbEntity
  8
0
100
AcDbBlockEnd
  0
BLOCK
  5
16B
330
169
100
AcDbEntity
  8
0
100
AcDbBlockBegin
  2
block 65
 70
     0
 10
0.0
 20
0.0
 30
0.0
  3
block 65
  1

  0
SPLINE
  5
16D
330
169
100
AcDbEntity
  8
0
 62
     7
420
 16777215
370
   106
100
AcDbSpline
210
0.0
220
0.0
230
1.0
 70
    11
 71
     3
 72
    29
 73
    25
 74
     0
 42
0.0000000001
 43
0.0000000001
 12
1.0
 22
0.0
 32
0.0
 13
1.0
 23
0.0
 33
0.0
 40
0.0
 40
0.0
 40
0.0
 40
0.0
 40
1.0
 40
1.0
 40
1.0
 40
2.0
 40
2.0
 40
2.0
 40
3.0
 40
3.0
 40
3.0
 40
4.0
 40
4.0
 40
4.0
 40
5.0
 40
5.0
 40
5.0
 40
6.0
 40
6.0
 40
6.0
 40
7.0
 40
7.0
 40
7.0
 40
8.0
 40
8.0
 40
8.0
 40
8.0
 10
939.5400244676907
 20
478.4605471647639
 30
0.0
 10
940.644593967352
 20
478.4605471647145
 30
0.0
 10
941.5400244677306
 20
479.3559776650122
 30
0.0
 10
941.54002446778
 20
480.4605471646741
 30
0.0
 10
941.54002446778
 20
480.4605471646741
 30
0.0
 10
941.5400244707433
 20
546.4605471646738
 30
0.0
 10
941.5400244707433
 20
546.4605471646738
 30
0.0
 10
941.5400244707928
 20
547.5651166643357
 30
0.0
 10
940.6445939704951
 20
548.4605471647143
 30
0.0
 10
939.5400244708337
 20
548.4605471647637
 30
0.0
 10
939.5400244708337
 20
548.4605471647637
 30
0.0
 10
931.0400244708338
 20
548.4605471651456
 30
0.0
 10
931.0400244708338
 20
548.4605471651456
 30
0.0
 10
929.9354549711719
 20
548.460547165195
 30
0.0
 10
929.0400244707932
 20
547.5651166648972
 30
0.0
 10
929.0400244707439
 20
546.4605471652353
 30
0.0
 10
929.0400244707439
 20
546.4605471652353
 30
0.0
 10
929.0400244677805
 20
480.4605471652355
 30
0.0
 10
929.0400244677805
 20
480.4605471652355
 30
0.0
 10
929.0400244677311
 20
479.3559776655737
 30
0.0
 10
929.9354549680288
 20
478.4605471651951
 30
0.0
 10
931.0400244676907
 20
478.4605471651457
 30
0.0
 10
931.0400244676907
 20
478.4605471651457
 30
0.0
 10
939.5400244676907
 20
478.4605471647639
 30
0.0
 10
939.5400244676907
 20
478.4605471647639
 30
0.0
  0
ENDBLK
  5
16C
330
169
100
AcDbEntity
  8
0
100
AcDbBlockEnd
  0
BLOCK
  5
170
330
16E
100
AcDbEntity
  8
0
100
AcDbBlockBegin
  2
block 66
 70
     0
 10
0.0
 20
0.0
 30
0.0
  3
block 66
  1

  0
INSERT
  5
173
330
16E
100
AcDbEntity
  8
0
100
AcDbBlockReference
  2
block 67
 10
0.0
 20
0.0
 30
0.0
  0
ENDBLK
  5
171
330
16E
100
AcDbEntity
  8
0
100
AcDbBlockEnd
  0
BLOCK
  5
174
330
172
100
AcDbEntity
  8
0
100
AcDbBlockBegin
  2
block 67
 70
     0
 10
0.0
 20
0.0
 30
0.0
  3
block 67
  1

  0
SPLINE
  5
176
330
172
100
AcDbEntity
  8
0
 62
     7
420
 16777215
370
   106
100
AcDbSpline
210
0.0
220
0.0
230
1.0
 70
    11
 71
     3
 72
    29
 73
    25
 74
     0
 42
0.0000000001
 43
0.0000000001
 12
1.0
 22
0.0
 32
0.0
 13
1.0
 23
0.0
 33
0.0
 40
0.0
 40
0.0
 40
0.0
 40
0.0
 40
1.0
 40
1.0
 40
1.0
 40
2.0
 40
2.0
 40
2.0
 40
3.0
 40
3.0
 40
3.0
 40
4.0
 40
4.0
 40
4.0
 40
5.0
 40
5.0
 40
5.0
 40
6.0
 40
6.0
 40
6.0
 40
7.0
 40
7.0
 40
7.0
 40
8.0
 40
8.0
 40
8.0
 40
8.0
 10
853.4933878553921
 20
576.1007076624558
 30
0.0
 10
854.5979573550534
 20
576.1007076624063
 30
0.0
 10
855.4933878554314
 20
576.996138162704
 30
0.0
 10
855.4933878554814
 20
578.100707662366
 30
0.0
 10
855.4933878554814
 20
578.100707662366
 30
0.0
 10
855.4933878584442
 20
644.1007076623657
 30
0.0
 10
855.4933878584442
 20
644.1007076623657
 30
0.0
 10
855.4933878584942
 20
645.2052771620276
 30
0.0
 10
854.5979573581958
 20
646.1007076624062
 30
0.0
 10
853.4933878585346
 20
646.1007076624556
 30
0.0
 10
853.4933878585346
 20
646.1007076624556
 30
0.0
 10
844.9933878585346
 20
646.1007076628374
 30
0.0
 10
844.9933878585346
 20
646.1007076628374
 30
0.0
 10
843.8888183588726
 20
646.1007076628869
 30
0.0
 10
842.9933878584948
 20
645.2052771625891
 30
0.0
 10
842.9933878584446
 20
644.1007076629272
 30
0.0
 10
842.9933878584446
 20
644.1007076629272
 30
0.0
 10
842.993387855482
 20
578.1007076629274
 30
0.0
 10
842.993387855482
 20
578.1007076629274
 30
0.0
 10
842.9933878554319
 20
576.9961381632655
 30
0.0
 10
843.8888183557302
 20
576.100707662887
 30
0.0
 10
844.9933878553921
 20
576.1007076628375
 30
0.0
 10
844.9933878553921
 20
576.1007076628375
 30
0.0
 10
853.4933878553921
 20
576.1007076624558
 30
0.0
 10
853.4933878553921
 20
576.1007076624558
 30
0.0
  0
ENDBLK
  5
175
330
172
100
AcDbEntity
  8
0
100
AcDbBlockEnd
  0
BLOCK
  5
179
330
177
100
AcDbEntity
  8
0
100
AcDbBlockBegin
  2
block 68
 70
     0
 10
0.0
 20
0.0
 30
0.0
  3
block 68
  1

  0
INSERT
  5
17C
330
177
100
AcDbEntity
  8
0
100
AcDbBlockReference
  2
block 69
 10
0.0
 20
0.0
 30
0.0
  0
ENDBLK
  5
17A
330
177
100
AcDbEntity
  8
0
100
AcDbBlockEnd
  0
BLOCK
  5
17D
330
17B
100
AcDbEntity
  8
0
100
AcDbBlockBegin
  2
block 69
 70
     0
 10
0.0
 20
0.0
 30
0.0
  3
block 69
  1

  0
SPLINE
  5
17F
330
17B
100
AcDbEntity
  8
0
 62
     7
420
 16777215
370
   106
100
AcDbSpline
210
0.0
220
0.0
230
1.0
 70
    11
 71
     3
 72
    29
 73
    25
 74
     0
 42
0.0000000001
 43
0.0000000001
 12
1.0
 22
0.0
 32
0.0
 13
1.0
 23
0.0
 33
0.0
 40
0.0
 40
0.0
 40
0.0
 40
0.0
 40
1.0
 40
1.0
 40
1.0
 40
2.0
 40
2.0
 40
2.0
 40
3.0
 40
3.0
 40
3.0
 40
4.0
 40
4.0
 40
4.0
 40
5.0
 40
5.0
 40
5.0
 40
6.0
 40
6.0
 40
6.0
 40
7.0
 40
7.0
 40
7.0
 40
8.0
 40
8.0
 40
8.0
 40
8.0
 10
766.4043221024715
 20
576.1007076663662
 30
0.0
 10
767.5088916021327
 20
576.1007076663162
 30
0.0
 10
768.4043221025107
 20
576.9961381666145
 30
0.0
 10
768.4043221025607
 20
578.1007076662764
 30
0.0
 10
768.4043221025607
 20
578.1007076662764
 30
0.0
 10
768.4043221055234
 20
644.1007076662762
 30
0.0
 10
768.4043221055234
 20
644.1007076662762
 30
0.0
 10
768.4043221055736
 20
645.2052771659381
 30
0.0
 10
767.5088916052752
 20
646.1007076663161
 30
0.0
 10
766.4043221056139
 20
646.1007076663661
 30
0.0
 10
766.4043221056139
 20
646.1007076663661
 30
0.0
 10
757.9043221056139
 20
646.1007076667473
 30
0.0
 10
757.9043221056139
 20
646.1007076667473
 30
0.0
 10
756.799752605952
 20
646.1007076667973
 30
0.0
 10
755.904322105574
 20
645.205277166499
 30
0.0
 10
755.904322105524
 20
644.100707666837
 30
0.0
 10
755.904322105524
 20
644.100707666837
 30
0.0
 10
755.9043221025613
 20
578.1007076668374
 30
0.0
 10
755.9043221025613
 20
578.1007076668374
 30
0.0
 10
755.9043221025112
 20
576.9961381671754
 30
0.0
 10
756.7997526028096
 20
576.1007076667975
 30
0.0
 10
757.9043221024715
 20
576.1007076667474
 30
0.0
 10
757.9043221024715
 20
576.1007076667474
 30
0.0
 10
766.4043221024715
 20
576.1007076663662
 30
0.0
 10
766.4043221024715
 20
576.1007076663662
 30
0.0
  0
ENDBLK
  5
17E
330
17B
100
AcDbEntity
  8
0
100
AcDbBlockEnd
  0
BLOCK
  5
182
330
180
100
AcDbEntity
  8
0
100
AcDbBlockBegin
  2
block 70
 70
     0
 10
0.0
 20
0.0
 30
0.0
  3
block 70
  1

  0
INSERT
  5
185
330
180
100
AcDbEntity
  8
0
100
AcDbBlockReference
  2
block 71
 10
0.0
 20
0.0
 30
0.0
  0
ENDBLK
  5
183
330
180
100
AcDbEntity
  8
0
100
AcDbBlockEnd
  0
BLOCK
  5
186
330
184
100
AcDbEntity
  8
0
100
AcDbBlockBegin
  2
block 71
 70
     0
 10
0.0
 20
0.0
 30
0.0
  3
block 71
  1

  0
SPLINE
  5
188
330
184
100
AcDbEntity
  8
0
 62
     7
420
 16777215
370
   106
100
AcDbSpline
210
0.0
220
0.0
230
1.0
 70
    11
 71
     3
 72
    29
 73
    25
 74
     0
 42
0.0000000001
 43
0.0000000001
 12
1.0
 22
0.0
 32
0.0
 13
1.0
 23
0.0
 33
0.0
 40
0.0
 40
0.0
 40
0.0
 40
0.0
 40
1.0
 40
1.0
 40
1.0
 40
2.0
 40
2.0
 40
2.0
 40
3.0
 40
3.0
 40
3.0
 40
4.0
 40
4.0
 40
4.0
 40
5.0
 40
5.0
 40
5.0
 40
6.0
 40
6.0
 40
6.0
 40
7.0
 40
7.0
 40
7.0
 40
8.0
 40
8.0
 40
8.0
 40
8.0
 10
809.7956712265368
 20
576.100707664418
 30
0.0
 10
810.900240726198
 20
576.100707664368
 30
0.0
 10
811.795671226576
 20
576.9961381646664
 30
0.0
 10
811.795671226626
 20
578.1007076643283
 30
0.0
 10
811.795671226626
 20
578.1007076643283
 30
0.0
 10
811.7956712295887
 20
644.1007076643281
 30
0.0
 10
811.7956712295887
 20
644.1007076643281
 30
0.0
 10
811.7956712296389
 20
645.20527716399
 30
0.0
 10
810.9002407293405
 20
646.1007076643679
 30
0.0
 10
809.7956712296792
 20
646.100707664418
 30
0.0
 10
809.7956712296792
 20
646.100707664418
 30
0.0
 10
801.2956712296792
 20
646.1007076647991
 30
0.0
 10
801.2956712296792
 20
646.1007076647991
 30
0.0
 10
800.1911017300173
 20
646.1007076648492
 30
0.0
 10
799.2956712296393
 20
645.2052771645508
 30
0.0
 10
799.2956712295893
 20
644.1007076648889
 30
0.0
 10
799.2956712295893
 20
644.1007076648889
 30
0.0
 10
799.2956712266266
 20
578.1007076648891
 30
0.0
 10
799.2956712266266
 20
578.1007076648891
 30
0.0
 10
799.2956712265765
 20
576.9961381652272
 30
0.0
 10
800.1911017268749
 20
576.1007076648492
 30
0.0
 10
801.2956712265368
 20
576.1007076647992
 30
0.0
 10
801.2956712265368
 20
576.1007076647992
 30
0.0
 10
809.7956712265368
 20
576.100707664418
 30
0.0
 10
809.7956712265368
 20
576.100707664418
 30
0.0
  0
ENDBLK
  5
187
330
184
100
AcDbEntity
  8
0
100
AcDbBlockEnd
  0
BLOCK
  5
18B
330
189
100
AcDbEntity
  8
0
100
AcDbBlockBegin
  2
block 72
 70
     0
 10
0.0
 20
0.0
 30
0.0
  3
block 72
  1

  0
INSERT
  5
18E
330
189
100
AcDbEntity
  8
0
100
AcDbBlockReference
  2
block 73
 10
0.0
 20
0.0
 30
0.0
  0
ENDBLK
  5
18C
330
189
100
AcDbEntity
  8
0
100
AcDbBlockEnd
  0
BLOCK
  5
18F
330
18D
100
AcDbEntity
  8
0
100
AcDbBlockBegin
  2
block 73
 70
     0
 10
0.0
 20
0.0
 30
0.0
  3
block 73
  1

  0
SPLINE
  5
191
330
18D
100
AcDbEntity
  8
0
 62
     7
420
 16777215
370
   106
100
AcDbSpline
210
0.0
220
0.0
230
1.0
 70
    11
 71
     3
 72
    29
 73
    25
 74
     0
 42
0.0000000001
 43
0.0000000001
 12
1.0
 22
0.0
 32
0.0
 13
1.0
 23
0.0
 33
0.0
 40
0.0
 40
0.0
 40
0.0
 40
0.0
 40
1.0
 40
1.0
 40
1.0
 40
2.0
 40
2.0
 40
2.0
 40
3.0
 40
3.0
 40
3.0
 40
4.0
 40
4.0
 40
4.0
 40
5.0
 40
5.0
 40
5.0
 40
6.0
 40
6.0
 40
6.0
 40
7.0
 40
7.0
 40
7.0
 40
8.0
 40
8.0
 40
8.0
 40
8.0
 10
983.2377411009302
 20
576.100707656631
 30
0.0
 10
984.3423106005914
 20
576.1007076565816
 30
0.0
 10
985.2377411009694
 20
576.9961381568794
 30
0.0
 10
985.2377411010194
 20
578.1007076565412
 30
0.0
 10
985.2377411010194
 20
578.1007076565412
 30
0.0
 10
985.2377411039822
 20
644.100707656541
 30
0.0
 10
985.2377411039822
 20
644.100707656541
 30
0.0
 10
985.2377411040322
 20
645.2052771562029
 30
0.0
 10
984.3423106037338
 20
646.1007076565816
 30
0.0
 10
983.2377411040726
 20
646.1007076566309
 30
0.0
 10
983.2377411040726
 20
646.1007076566309
 30
0.0
 10
974.7377411040726
 20
646.1007076570121
 30
0.0
 10
974.7377411040726
 20
646.1007076570121
 30
0.0
 10
973.6331716044107
 20
646.1007076570621
 30
0.0
 10
972.7377411040327
 20
645.2052771567638
 30
0.0
 10
972.7377411039827
 20
644.1007076571019
 30
0.0
 10
972.7377411039827
 20
644.1007076571019
 30
0.0
 10
972.73774110102
 20
578.1007076571021
 30
0.0
 10
972.73774110102
 20
578.1007076571021
 30
0.0
 10
972.73774110097
 20
576.9961381574402
 30
0.0
 10
973.6331716012683
 20
576.1007076570622
 30
0.0
 10
974.7377411009302
 20
576.1007076570122
 30
0.0
 10
974.7377411009302
 20
576.1007076570122
 30
0.0
 10
983.2377411009302
 20
576.100707656631
 30
0.0
 10
983.2377411009302
 20
576.100707656631
 30
0.0
  0
ENDBLK
  5
190
330
18D
100
AcDbEntity
  8
0
100
AcDbBlockEnd
  0
BLOCK
  5
194
330
192
100
AcDbEntity
  8
0
100
AcDbBlockBegin
  2
block 74
 70
     0
 10
0.0
 20
0.0
 30
0.0
  3
block 74
  1

  0
INSERT
  5
197
330
192
100
AcDbEntity
  8
0
100
AcDbBlockReference
  2
block 75
 10
0.0
 20
0.0
 30
0.0
  0
ENDBLK
  5
195
330
192
100
AcDbEntity
  8
0
100
AcDbBlockEnd
  0
BLOCK
  5
198
330
196
100
AcDbEntity
  8
0
100
AcDbBlockBegin
  2
block 75
 70
     0
 10
0.0
 20
0.0
 30
0.0
  3
block 75
  1

  0
SPLINE
  5
19A
330
196
100
AcDbEntity
  8
0
 62
     7
420
 16777215
370
   106
100
AcDbSpline
210
0.0
220
0.0
230
1.0
 70
    11
 71
     3
 72
    29
 73
    25
 74
     0
 42
0.0000000001
 43
0.0000000001
 12
1.0
 22
0.0
 32
0.0
 13
1.0
 23
0.0
 33
0.0
 40
0.0
 40
0.0
 40
0.0
 40
0.0
 40
1.0
 40
1.0
 40
1.0
 40
2.0
 40
2.0
 40
2.0
 40
3.0
 40
3.0
 40
3.0
 40
4.0
 40
4.0
 40
4.0
 40
5.0
 40
5.0
 40
5.0
 40
6.0
 40
6.0
 40
6.0
 40
7.0
 40
7.0
 40
7.0
 40
8.0
 40
8.0
 40
8.0
 40
8.0
 10
896.1486753480095
 20
576.1007076605409
 30
0.0
 10
897.2532448476708
 20
576.1007076604915
 30
0.0
 10
898.1486753480488
 20
576.9961381607892
 30
0.0
 10
898.1486753480988
 20
578.1007076604511
 30
0.0
 10
898.1486753480988
 20
578.1007076604511
 30
0.0
 10
898.1486753510615
 20
644.1007076604509
 30
0.0
 10
898.1486753510615
 20
644.1007076604509
 30
0.0
 10
898.1486753511115
 20
645.2052771601128
 30
0.0
 10
897.2532448508132
 20
646.1007076604914
 30
0.0
 10
896.1486753511518
 20
646.1007076605408
 30
0.0
 10
896.1486753511518
 20
646.1007076605408
 30
0.0
 10
887.648675351152
 20
646.1007076609226
 30
0.0
 10
887.648675351152
 20
646.1007076609226
 30
0.0
 10
886.54410585149
 20
646.100707660972
 30
0.0
 10
885.648675351112
 20
645.2052771606743
 30
0.0
 10
885.648675351062
 20
644.1007076610124
 30
0.0
 10
885.648675351062
 20
644.1007076610124
 30
0.0
 10
885.6486753480992
 20
578.1007076610126
 30
0.0
 10
885.6486753480992
 20
578.1007076610126
 30
0.0
 10
885.6486753480492
 20
576.9961381613507
 30
0.0
 10
886.5441058483476
 20
576.1007076609721
 30
0.0
 10
887.6486753480095
 20
576.1007076609227
 30
0.0
 10
887.6486753480095
 20
576.1007076609227
 30
0.0
 10
896.1486753480095
 20
576.1007076605409
 30
0.0
 10
896.1486753480095
 20
576.1007076605409
 30
0.0
  0
ENDBLK
  5
199
330
196
100
AcDbEntity
  8
0
100
AcDbBlockEnd
  0
BLOCK
  5
19D
330
19B
100
AcDbEntity
  8
0
100
AcDbBlockBegin
  2
block 76
 70
     0
 10
0.0
 20
0.0
 30
0.0
  3
block 76
  1

  0
INSERT
  5
1A0
330
19B
100
AcDbEntity
  8
0
100
AcDbBlockReference
  2
block 77
 10
0.0
 20
0.0
 30
0.0
  0
ENDBLK
  5
19E
330
19B
100
AcDbEntity
  8
0
100
AcDbBlockEnd
  0
BLOCK
  5
1A1
330
19F
100
AcDbEntity
  8
0
100
AcDbBlockBegin
  2
block 77
 70
     0
 10
0.0
 20
0.0
 30
0.0
  3
block 77
  1

  0
SPLINE
  5
1A3
330
19F
100
AcDbEntity
  8
0
 62
     7
420
 16777215
370
   106
100
AcDbSpline
210
0.0
220
0.0
230
1.0
 70
    11
 71
     3
 72
    29
 73
    25
 74
     0
 42
0.0000000001
 43
0.0000000001
 12
1.0
 22
0.0
 32
0.0
 13
1.0
 23
0.0
 33
0.0
 40
0.0
 40
0.0
 40
0.0
 40
0.0
 40
1.0
 40
1.0
 40
1.0
 40
2.0
 40
2.0
 40
2.0
 40
3.0
 40
3.0
 40
3.0
 40
4.0
 40
4.0
 40
4.0
 40
5.0
 40
5.0
 40
5.0
 40
6.0
 40
6.0
 40
6.0
 40
7.0
 40
7.0
 40
7.0
 40
8.0
 40
8.0
 40
8.0
 40
8.0
 10
939.5400244720748
 20
576.1007076585927
 30
0.0
 10
940.6445939717361
 20
576.1007076585433
 30
0.0
 10
941.540024472114
 20
576.9961381588411
 30
0.0
 10
941.5400244721641
 20
578.100707658503
 30
0.0
 10
941.5400244721641
 20
578.100707658503
 30
0.0
 10
941.5400244751268
 20
644.1007076585026
 30
0.0
 10
941.5400244751268
 20
644.1007076585026
 30
0.0
 10
941.5400244751769
 20
645.2052771581646
 30
0.0
 10
940.6445939748785
 20
646.1007076585432
 30
0.0
 10
939.5400244752173
 20
646.1007076585926
 30
0.0
 10
939.5400244752173
 20
646.1007076585926
 30
0.0
 10
931.0400244752173
 20
646.1007076589744
 30
0.0
 10
931.0400244752173
 20
646.1007076589744
 30
0.0
 10
929.9354549755553
 20
646.1007076590238
 30
0.0
 10
929.0400244751773
 20
645.2052771587261
 30
0.0
 10
929.0400244751273
 20
644.1007076590641
 30
0.0
 10
929.0400244751273
 20
644.1007076590641
 30
0.0
 10
929.0400244721646
 20
578.1007076590644
 30
0.0
 10
929.0400244721646
 20
578.1007076590644
 30
0.0
 10
929.0400244721145
 20
576.9961381594026
 30
0.0
 10
929.9354549724129
 20
576.1007076590239
 30
0.0
 10
931.0400244720748
 20
576.1007076589746
 30
0.0
 10
931.0400244720748
 20
576.1007076589746
 30
0.0
 10
939.5400244720748
 20
576.1007076585927
 30
0.0
 10
939.5400244720748
 20
576.1007076585927
 30
0.0
  0
ENDBLK
  5
1A2
330
19F
100
AcDbEntity
  8
0
100
AcDbBlockEnd
  0
BLOCK
  5
1A6
330
1A4
100
AcDbEntity
  8
0
100
AcDbBlockBegin
  2
block 78
 70
     0
 10
0.0
 20
0.0
 30
0.0
  3
block 78
  1

  0
INSERT
  5
1A9
330
1A4
100
AcDbEntity
  8
0
100
AcDbBlockReference
  2
block 79
 10
0.0
 20
0.0
 30
0.0
  0
ENDBLK
  5
1A7
330
1A4
100
AcDbEntity
  8
0
100
AcDbBlockEnd
  0
BLOCK
  5
1AA
330
1A8
100
AcDbEntity
  8
0
100
AcDbBlockBegin
  2
block 79
 70
     0
 10
0.0
 20
0.0
 30
0.0
  3
block 79
  1

  0
SPLINE
  5
1AC
330
1A8
100
AcDbEntity
  8
0
 62
     7
420
 16777215
370
   106
100
AcDbSpline
210
0.0
220
0.0
230
1.0
 70
    11
 71
     3
 72
    29
 73
    25
 74
     0
 42
0.0000000001
 43
0.0000000001
 12
1.0
 22
0.0
 32
0.0
 13
1.0
 23
0.0
 33
0.0
 40
0.0
 40
0.0
 40
0.0
 40
0.0
 40
1.0
 40
1.0
 40
1.0
 40
2.0
 40
2.0
 40
2.0
 40
3.0
 40
3.0
 40
3.0
 40
4.0
 40
4.0
 40
4.0
 40
5.0
 40
5.0
 40
5.0
 40
6.0
 40
6.0
 40
6.0
 40
7.0
 40
7.0
 40
7.0
 40
8.0
 40
8.0
 40
8.0
 40
8.0
 10
1022.951317890929
 20
479.3330489707834
 30
0.0
 10
1024.05588739059
 20
479.333048970734
 30
0.0
 10
1024.951317890969
 20
480.2284794710317
 30
0.0
 10
1024.951317891018
 20
481.3330489706936
 30
0.0
 10
1024.951317891018
 20
481.3330489706936
 30
0.0
 10
1024.951317893981
 20
547.3330489706934
 30
0.0
 10
1024.951317893981
 20
547.3330489706934
 30
0.0
 10
1024.951317894031
 20
548.4376184703552
 30
0.0
 10
1024.055887393733
 20
549.3330489707339
 30
0.0
 10
1022.951317894072
 20
549.3330489707832
 30
0.0
 10
1022.951317894072
 20
549.3330489707832
 30
0.0
 10
1014.451317894072
 20
549.3330489711651
 30
0.0
 10
1014.451317894072
 20
549.3330489711651
 30
0.0
 10
1013.34674839441
 20
549.3330489712145
 30
0.0
 10
1012.451317894031
 20
548.4376184709167
 30
0.0
 10
1012.451317893982
 20
547.3330489712548
 30
0.0
 10
1012.451317893982
 20
547.3330489712548
 30
0.0
 10
1012.451317891019
 20
481.3330489712551
 30
0.0
 10
1012.451317891019
 20
481.3330489712551
 30
0.0
 10
1012.451317890969
 20
480.2284794715932
 30
0.0
 10
1013.346748391267
 20
479.3330489712146
 30
0.0
 10
1014.451317890929
 20
479.3330489711652
 30
0.0
 10
1014.451317890929
 20
479.3330489711652
 30
0.0
 10
1022.951317890929
 20
479.3330489707834
 30
0.0
 10
1022.951317890929
 20
479.3330489707834
 30
0.0
  0
ENDBLK
  5
1AB
330
1A8
100
AcDbEntity
  8
0
100
AcDbBlockEnd
  0
BLOCK
  5
1AF
330
1AD
100
AcDbEntity
  8
0
100
AcDbBlockBegin
  2
block 80
 70
     0
 10
0.0
 20
0.0
 30
0.0
  3
block 80
  1

  0
INSERT
  5
1B2
330
1AD
100
AcDbEntity
  8
0
100
AcDbBlockReference
  2
block 81
 10
0.0
 20
0.0
 30
0.0
  0
ENDBLK
  5
1B0
330
1AD
100
AcDbEntity
  8
0
100
AcDbBlockEnd
  0
BLOCK
  5
1B3
330
1B1
100
AcDbEntity
  8
0
100
AcDbBlockBegin
  2
block 81
 70
     0
 10
0.0
 20
0.0
 30
0.0
  3
block 81
  1

  0
SPLINE
  5
1B5
330
1B1
100
AcDbEntity
  8
0
370
     0
100
AcDbSpline
210
0.0
220
0.0
230
1.0
 70
    11
 71
     3
 72
    29
 73
    25
 74
     0
 42
0.0000000001
 43
0.0000000001
 12
1.0
 22
0.0
 32
0.0
 13
1.0
 23
0.0
 33
0.0
 40
0.0
 40
0.0
 40
0.0
 40
0.0
 40
1.0
 40
1.0
 40
1.0
 40
2.0
 40
2.0
 40
2.0
 40
3.0
 40
3.0
 40
3.0
 40
4.0
 40
4.0
 40
4.0
 40
5.0
 40
5.0
 40
5.0
 40
6.0
 40
6.0
 40
6.0
 40
7.0
 40
7.0
 40
7.0
 40
8.0
 40
8.0
 40
8.0
 40
8.0
 10
1152.695671136467
 20
479.3330489649587
 30
0.0
 10
1153.800240636128
 20
479.3330489649086
 30
0.0
 10
1154.695671136507
 20
480.228479465207
 30
0.0
 10
1154.695671136556
 20
481.3330489648689
 30
0.0
 10
1154.695671136556
 20
481.3330489648689
 30
0.0
 10
1154.695671139519
 20
547.3330489648687
 30
0.0
 10
1154.695671139519
 20
547.3330489648687
 30
0.0
 10
1154.695671139569
 20
548.4376184645306
 30
0.0
 10
1153.800240639271
 20
549.3330489649085
 30
0.0
 10
1152.69567113961
 20
549.3330489649586
 30
0.0
 10
1152.69567113961
 20
549.3330489649586
 30
0.0
 10
1144.19567113961
 20
549.3330489653398
 30
0.0
 10
1144.19567113961
 20
549.3330489653398
 30
0.0
 10
1143.091101639948
 20
549.3330489653898
 30
0.0
 10
1142.195671139569
 20
548.4376184650914
 30
0.0
 10
1142.19567113952
 20
547.3330489654295
 30
0.0
 10
1142.19567113952
 20
547.3330489654295
 30
0.0
 10
1142.195671136557
 20
481.3330489654297
 30
0.0
 10
1142.195671136557
 20
481.3330489654297
 30
0.0
 10
1142.195671136507
 20
480.2284794657679
 30
0.0
 10
1143.091101636805
 20
479.3330489653899
 30
0.0
 10
1144.195671136467
 20
479.3330489653399
 30
0.0
 10
1144.195671136467
 20
479.3330489653399
 30
0.0
 10
1152.695671136467
 20
479.3330489649587
 30
0.0
 10
1152.695671136467
 20
479.3330489649587
 30
0.0
  0
ENDBLK
  5
1B4
330
1B1
100
AcDbEntity
  8
0
100
AcDbBlockEnd
  0
BLOCK
  5
1B8
330
1B6
100
AcDbEntity
  8
0
100
AcDbBlockBegin
  2
block 82
 70
     0
 10
0.0
 20
0.0
 30
0.0
  3
block 82
  1

  0
INSERT
  5
1BB
330
1B6
100
AcDbEntity
  8
0
100
AcDbBlockReference
  2
block 83
 10
0.0
 20
0.0
 30
0.0
  0
ENDBLK
  5
1B9
330
1B6
100
AcDbEntity
  8
0
100
AcDbBlockEnd
  0
BLOCK
  5
1BC
330
1BA
100
AcDbEntity
  8
0
100
AcDbBlockBegin
  2
block 83
 70
     0
 10
0.0
 20
0.0
 30
0.0
  3
block 83
  1

  0
SPLINE
  5
1BE
330
1BA
100
AcDbEntity
  8
0
 62
     7
420
 16777215
370
   106
100
AcDbSpline
210
0.0
220
0.0
230
1.0
 70
    11
 71
     3
 72
    29
 73
    25
 74
     0
 42
0.0000000001
 43
0.0000000001
 12
1.0
 22
0.0
 32
0.0
 13
1.0
 23
0.0
 33
0.0
 40
0.0
 40
0.0
 40
0.0
 40
0.0
 40
1.0
 40
1.0
 40
1.0
 40
2.0
 40
2.0
 40
2.0
 40
3.0
 40
3.0
 40
3.0
 40
4.0
 40
4.0
 40
4.0
 40
5.0
 40
5.0
 40
5.0
 40
6.0
 40
6.0
 40
6.0
 40
7.0
 40
7.0
 40
7.0
 40
8.0
 40
8.0
 40
8.0
 40
8.0
 10
1065.606605383546
 20
479.3330489688685
 30
0.0
 10
1066.711174883207
 20
479.3330489688191
 30
0.0
 10
1067.606605383586
 20
480.2284794691168
 30
0.0
 10
1067.606605383635
 20
481.3330489687788
 30
0.0
 10
1067.606605383635
 20
481.3330489687788
 30
0.0
 10
1067.606605386599
 20
547.3330489687786
 30
0.0
 10
1067.606605386599
 20
547.3330489687786
 30
0.0
 10
1067.606605386648
 20
548.4376184684404
 30
0.0
 10
1066.71117488635
 20
549.3330489688191
 30
0.0
 10
1065.606605386689
 20
549.3330489688684
 30
0.0
 10
1065.606605386689
 20
549.3330489688684
 30
0.0
 10
1057.106605386689
 20
549.3330489692503
 30
0.0
 10
1057.106605386689
 20
549.3330489692503
 30
0.0
 10
1056.002035887027
 20
549.3330489692996
 30
0.0
 10
1055.106605386649
 20
548.4376184690013
 30
0.0
 10
1055.106605386599
 20
547.3330489693394
 30
0.0
 10
1055.106605386599
 20
547.3330489693394
 30
0.0
 10
1055.106605383636
 20
481.3330489693396
 30
0.0
 10
1055.106605383636
 20
481.3330489693396
 30
0.0
 10
1055.106605383587
 20
480.2284794696777
 30
0.0
 10
1056.002035883884
 20
479.3330489692998
 30
0.0
 10
1057.106605383546
 20
479.3330489692503
 30
0.0
 10
1057.106605383546
 20
479.3330489692503
 30
0.0
 10
1065.606605383546
 20
479.3330489688685
 30
0.0
 10
1065.606605383546
 20
479.3330489688685
 30
0.0
  0
ENDBLK
  5
1BD
330
1BA
100
AcDbEntity
  8
0
100
AcDbBlockEnd
  0
BLOCK
  5
1C1
330
1BF
100
AcDbEntity
  8
0
100
AcDbBlockBegin
  2
block 84
 70
     0
 10
0.0
 20
0.0
 30
0.0
  3
block 84
  1

  0
INSERT
  5
1C4
330
1BF
100
AcDbEntity
  8
0
100
AcDbBlockReference
  2
block 85
 10
0.0
 20
0.0
 30
0.0
  0
ENDBLK
  5
1C2
330
1BF
100
AcDbEntity
  8
0
100
AcDbBlockEnd
  0
BLOCK
  5
1C5
330
1C3
100
AcDbEntity
  8
0
100
AcDbBlockBegin
  2
block 85
 70
     0
 10
0.0
 20
0.0
 30
0.0
  3
block 85
  1

  0
SPLINE
  5
1C7
330
1C3
100
AcDbEntity
  8
0
 62
     7
420
 16777215
370
   106
100
AcDbSpline
210
0.0
220
0.0
230
1.0
 70
    11
 71
     3
 72
    29
 73
    25
 74
     0
 42
0.0000000001
 43
0.0000000001
 12
1.0
 22
0.0
 32
0.0
 13
1.0
 23
0.0
 33
0.0
 40
0.0
 40
0.0
 40
0.0
 40
0.0
 40
1.0
 40
1.0
 40
1.0
 40
2.0
 40
2.0
 40
2.0
 40
3.0
 40
3.0
 40
3.0
 40
4.0
 40
4.0
 40
4.0
 40
5.0
 40
5.0
 40
5.0
 40
6.0
 40
6.0
 40
6.0
 40
7.0
 40
7.0
 40
7.0
 40
8.0
 40
8.0
 40
8.0
 40
8.0
 10
1108.997954507611
 20
479.3330489669203
 30
0.0
 10
1110.102524007273
 20
479.3330489668709
 30
0.0
 10
1110.997954507651
 20
480.2284794671687
 30
0.0
 10
1110.997954507701
 20
481.3330489668306
 30
0.0
 10
1110.997954507701
 20
481.3330489668306
 30
0.0
 10
1110.997954510664
 20
547.3330489668303
 30
0.0
 10
1110.997954510664
 20
547.3330489668303
 30
0.0
 10
1110.997954510713
 20
548.4376184664923
 30
0.0
 10
1110.102524010416
 20
549.3330489668708
 30
0.0
 10
1108.997954510754
 20
549.3330489669203
 30
0.0
 10
1108.997954510754
 20
549.3330489669203
 30
0.0
 10
1100.497954510755
 20
549.333048967302
 30
0.0
 10
1100.497954510755
 20
549.333048967302
 30
0.0
 10
1099.393385011093
 20
549.3330489673515
 30
0.0
 10
1098.497954510714
 20
548.4376184670538
 30
0.0
 10
1098.497954510665
 20
547.3330489673918
 30
0.0
 10
1098.497954510665
 20
547.3330489673918
 30
0.0
 10
1098.497954507701
 20
481.3330489673921
 30
0.0
 10
1098.497954507701
 20
481.3330489673921
 30
0.0
 10
1098.497954507652
 20
480.2284794677302
 30
0.0
 10
1099.39338500795
 20
479.3330489673515
 30
0.0
 10
1100.497954507611
 20
479.3330489673021
 30
0.0
 10
1100.497954507611
 20
479.3330489673021
 30
0.0
 10
1108.997954507611
 20
479.3330489669203
 30
0.0
 10
1108.997954507611
 20
479.3330489669203
 30
0.0
  0
ENDBLK
  5
1C6
330
1C3
100
AcDbEntity
  8
0
100
AcDbBlockEnd
  0
BLOCK
  5
1CA
330
1C8
100
AcDbEntity
  8
0
100
AcDbBlockBegin
  2
block 86
 70
     0
 10
0.0
 20
0.0
 30
0.0
  3
block 86
  1

  0
INSERT
  5
1CD
330
1C8
100
AcDbEntity
  8
0
100
AcDbBlockReference
  2
block 87
 10
0.0
 20
0.0
 30
0.0
  0
ENDBLK
  5
1CB
330
1C8
100
AcDbEntity
  8
0
100
AcDbBlockEnd
  0
BLOCK
  5
1CE
330
1CC
100
AcDbEntity
  8
0
100
AcDbBlockBegin
  2
block 87
 70
     0
 10
0.0
 20
0.0
 30
0.0
  3
block 87
  1

  0
SPLINE
  5
1D0
330
1CC
100
AcDbEntity
  8
0
 62
     7
420
 16777215
370
   106
100
AcDbSpline
210
0.0
220
0.0
230
1.0
 70
    11
 71
     3
 72
    29
 73
    25
 74
     0
 42
0.0000000001
 43
0.0000000001
 12
1.0
 22
0.0
 32
0.0
 13
1.0
 23
0.0
 33
0.0
 40
0.0
 40
0.0
 40
0.0
 40
0.0
 40
1.0
 40
1.0
 40
1.0
 40
2.0
 40
2.0
 40
2.0
 40
3.0
 40
3.0
 40
3.0
 40
4.0
 40
4.0
 40
4.0
 40
5.0
 40
5.0
 40
5.0
 40
6.0
 40
6.0
 40
6.0
 40
7.0
 40
7.0
 40
7.0
 40
8.0
 40
8.0
 40
8.0
 40
8.0
 10
1022.951317895313
 20
576.9732094646122
 30
0.0
 10
1024.055887394974
 20
576.9732094645628
 30
0.0
 10
1024.951317895352
 20
577.8686399648606
 30
0.0
 10
1024.951317895402
 20
578.9732094645225
 30
0.0
 10
1024.951317895402
 20
578.9732094645225
 30
0.0
 10
1024.951317898365
 20
644.9732094645223
 30
0.0
 10
1024.951317898365
 20
644.9732094645223
 30
0.0
 10
1024.951317898415
 20
646.0777789641842
 30
0.0
 10
1024.055887398117
 20
646.9732094645627
 30
0.0
 10
1022.951317898455
 20
646.9732094646122
 30
0.0
 10
1022.951317898455
 20
646.9732094646122
 30
0.0
 10
1014.451317898455
 20
646.9732094649939
 30
0.0
 10
1014.451317898455
 20
646.9732094649939
 30
0.0
 10
1013.346748398793
 20
646.9732094650434
 30
0.0
 10
1012.451317898415
 20
646.0777789647457
 30
0.0
 10
1012.451317898365
 20
644.9732094650838
 30
0.0
 10
1012.451317898365
 20
644.9732094650838
 30
0.0
 10
1012.451317895403
 20
578.973209465084
 30
0.0
 10
1012.451317895403
 20
578.973209465084
 30
0.0
 10
1012.451317895353
 20
577.8686399654221
 30
0.0
 10
1013.346748395651
 20
576.9732094650435
 30
0.0
 10
1014.451317895313
 20
576.973209464994
 30
0.0
 10
1014.451317895313
 20
576.973209464994
 30
0.0
 10
1022.951317895313
 20
576.9732094646122
 30
0.0
 10
1022.951317895313
 20
576.9732094646122
 30
0.0
  0
ENDBLK
  5
1CF
330
1CC
100
AcDbEntity
  8
0
100
AcDbBlockEnd
  0
BLOCK
  5
1D3
330
1D1
100
AcDbEntity
  8
0
100
AcDbBlockBegin
  2
block 88
 70
     0
 10
0.0
 20
0.0
 30
0.0
  3
block 88
  1

  0
INSERT
  5
1D6
330
1D1
100
AcDbEntity
  8
0
100
AcDbBlockReference
  2
block 89
 10
0.0
 20
0.0
 30
0.0
  0
ENDBLK
  5
1D4
330
1D1
100
AcDbEntity
  8
0
100
AcDbBlockEnd
  0
BLOCK
  5
1D7
330
1D5
100
AcDbEntity
  8
0
100
AcDbBlockBegin
  2
block 89
 70
     0
 10
0.0
 20
0.0
 30
0.0
  3
block 89
  1

  0
SPLINE
  5
1D9
330
1D5
100
AcDbEntity
  8
0
370
     0
100
AcDbSpline
210
0.0
220
0.0
230
1.0
 70
    11
 71
     3
 72
    29
 73
    25
 74
     0
 42
0.0000000001
 43
0.0000000001
 12
1.0
 22
0.0
 32
0.0
 13
1.0
 23
0.0
 33
0.0
 40
0.0
 40
0.0
 40
0.0
 40
0.0
 40
1.0
 40
1.0
 40
1.0
 40
2.0
 40
2.0
 40
2.0
 40
3.0
 40
3.0
 40
3.0
 40
4.0
 40
4.0
 40
4.0
 40
5.0
 40
5.0
 40
5.0
 40
6.0
 40
6.0
 40
6.0
 40
7.0
 40
7.0
 40
7.0
 40
8.0
 40
8.0
 40
8.0
 40
8.0
 10
1152.695671140851
 20
576.9732094587876
 30
0.0
 10
1153.800240640512
 20
576.9732094587375
 30
0.0
 10
1154.69567114089
 20
577.8686399590358
 30
0.0
 10
1154.69567114094
 20
578.9732094586977
 30
0.0
 10
1154.69567114094
 20
578.9732094586977
 30
0.0
 10
1154.695671143903
 20
644.9732094586975
 30
0.0
 10
1154.695671143903
 20
644.9732094586975
 30
0.0
 10
1154.695671143953
 20
646.0777789583594
 30
0.0
 10
1153.800240643655
 20
646.9732094587374
 30
0.0
 10
1152.695671143993
 20
646.9732094587874
 30
0.0
 10
1152.695671143993
 20
646.9732094587874
 30
0.0
 10
1144.195671143993
 20
646.9732094591686
 30
0.0
 10
1144.195671143993
 20
646.9732094591686
 30
0.0
 10
1143.091101644332
 20
646.9732094592187
 30
0.0
 10
1142.195671143953
 20
646.0777789589202
 30
0.0
 10
1142.195671143903
 20
644.9732094592583
 30
0.0
 10
1142.195671143903
 20
644.9732094592583
 30
0.0
 10
1142.195671140941
 20
578.9732094592586
 30
0.0
 10
1142.195671140941
 20
578.9732094592586
 30
0.0
 10
1142.195671140891
 20
577.8686399595967
 30
0.0
 10
1143.091101641189
 20
576.9732094592188
 30
0.0
 10
1144.195671140851
 20
576.9732094591687
 30
0.0
 10
1144.195671140851
 20
576.9732094591687
 30
0.0
 10
1152.695671140851
 20
576.9732094587876
 30
0.0
 10
1152.695671140851
 20
576.9732094587876
 30
0.0
  0
ENDBLK
  5
1D8
330
1D5
100
AcDbEntity
  8
0
100
AcDbBlockEnd
  0
BLOCK
  5
1DC
330
1DA
100
AcDbEntity
  8
0
100
AcDbBlockBegin
  2
block 90
 70
     0
 10
0.0
 20
0.0
 30
0.0
  3
block 90
  1

  0
INSERT
  5
1DF
330
1DA
100
AcDbEntity
  8
0
100
AcDbBlockReference
  2
block 91
 10
0.0
 20
0.0
 30
0.0
  0
ENDBLK
  5
1DD
330
1DA
100
AcDbEntity
  8
0
100
AcDbBlockEnd
  0
BLOCK
  5
1E0
330
1DE
100
AcDbEntity
  8
0
100
AcDbBlockBegin
  2
block 91
 70
     0
 10
0.0
 20
0.0
 30
0.0
  3
block 91
  1

  0
SPLINE
  5
1E2
330
1DE
100
AcDbEntity
  8
0
 62
     7
420
 16777215
370
   106
100
AcDbSpline
210
0.0
220
0.0
230
1.0
 70
    11
 71
     3
 72
    29
 73
    25
 74
     0
 42
0.0000000001
 43
0.0000000001
 12
1.0
 22
0.0
 32
0.0
 13
1.0
 23
0.0
 33
0.0
 40
0.0
 40
0.0
 40
0.0
 40
0.0
 40
1.0
 40
1.0
 40
1.0
 40
2.0
 40
2.0
 40
2.0
 40
3.0
 40
3.0
 40
3.0
 40
4.0
 40
4.0
 40
4.0
 40
5.0
 40
5.0
 40
5.0
 40
6.0
 40
6.0
 40
6.0
 40
7.0
 40
7.0
 40
7.0
 40
8.0
 40
8.0
 40
8.0
 40
8.0
 10
1065.60660538793
 20
576.9732094626974
 30
0.0
 10
1066.711174887592
 20
576.973209462648
 30
0.0
 10
1067.606605387969
 20
577.8686399629457
 30
0.0
 10
1067.606605388019
 20
578.9732094626077
 30
0.0
 10
1067.606605388019
 20
578.9732094626077
 30
0.0
 10
1067.606605390982
 20
644.9732094626074
 30
0.0
 10
1067.606605390982
 20
644.9732094626074
 30
0.0
 10
1067.606605391032
 20
646.0777789622693
 30
0.0
 10
1066.711174890734
 20
646.9732094626479
 30
0.0
 10
1065.606605391073
 20
646.9732094626974
 30
0.0
 10
1065.606605391073
 20
646.9732094626974
 30
0.0
 10
1057.106605391073
 20
646.9732094630791
 30
0.0
 10
1057.106605391073
 20
646.9732094630791
 30
0.0
 10
1056.002035891411
 20
646.9732094631286
 30
0.0
 10
1055.106605391033
 20
646.0777789628302
 30
0.0
 10
1055.106605390983
 20
644.9732094631682
 30
0.0
 10
1055.106605390983
 20
644.9732094631682
 30
0.0
 10
1055.10660538802
 20
578.9732094631685
 30
0.0
 10
1055.10660538802
 20
578.9732094631685
 30
0.0
 10
1055.10660538797
 20
577.8686399635066
 30
0.0
 10
1056.002035888268
 20
576.9732094631287
 30
0.0
 10
1057.10660538793
 20
576.9732094630792
 30
0.0
 10
1057.10660538793
 20
576.9732094630792
 30
0.0
 10
1065.60660538793
 20
576.9732094626974
 30
0.0
 10
1065.60660538793
 20
576.9732094626974
 30
0.0
  0
ENDBLK
  5
1E1
330
1DE
100
AcDbEntity
  8
0
100
AcDbBlockEnd
  0
BLOCK
  5
1E5
330
1E3
100
AcDbEntity
  8
0
100
AcDbBlockBegin
  2
block 92
 70
     0
 10
0.0
 20
0.0
 30
0.0
  3
block 92
  1

  0
INSERT
  5
1E8
330
1E3
100
AcDbEntity
  8
0
100
AcDbBlockReference
  2
block 93
 10
0.0
 20
0.0
 30
0.0
  0
ENDBLK
  5
1E6
330
1E3
100
AcDbEntity
  8
0
100
AcDbBlockEnd
  0
BLOCK
  5
1E9
330
1E7
100
AcDbEntity
  8
0
100
AcDbBlockBegin
  2
block 93
 70
     0
 10
0.0
 20
0.0
 30
0.0
  3
block 93
  1

  0
SPLINE
  5
1EB
330
1E7
100
AcDbEntity
  8
0
 62
     7
420
 16777215
370
   106
100
AcDbSpline
210
0.0
220
0.0
230
1.0
 70
    11
 71
     3
 72
    29
 73
    25
 74
     0
 42
0.0000000001
 43
0.0000000001
 12
1.0
 22
0.0
 32
0.0
 13
1.0
 23
0.0
 33
0.0
 40
0.0
 40
0.0
 40
0.0
 40
0.0
 40
1.0
 40
1.0
 40
1.0
 40
2.0
 40
2.0
 40
2.0
 40
3.0
 40
3.0
 40
3.0
 40
4.0
 40
4.0
 40
4.0
 40
5.0
 40
5.0
 40
5.0
 40
6.0
 40
6.0
 40
6.0
 40
7.0
 40
7.0
 40
7.0
 40
8.0
 40
8.0
 40
8.0
 40
8.0
 10
1108.997954511996
 20
576.9732094607492
 30
0.0
 10
1110.102524011657
 20
576.9732094606998
 30
0.0
 10
1110.997954512035
 20
577.8686399609975
 30
0.0
 10
1110.997954512085
 20
578.9732094606594
 30
0.0
 10
1110.997954512085
 20
578.9732094606594
 30
0.0
 10
1110.997954515047
 20
644.9732094606592
 30
0.0
 10
1110.997954515047
 20
644.9732094606592
 30
0.0
 10
1110.997954515098
 20
646.0777789603211
 30
0.0
 10
1110.102524014799
 20
646.9732094606996
 30
0.0
 10
1108.997954515138
 20
646.9732094607491
 30
0.0
 10
1108.997954515138
 20
646.9732094607491
 30
0.0
 10
1100.497954515138
 20
646.973209461131
 30
0.0
 10
1100.497954515138
 20
646.973209461131
 30
0.0
 10
1099.393385015476
 20
646.9732094611803
 30
0.0
 10
1098.497954515098
 20
646.0777789608826
 30
0.0
 10
1098.497954515048
 20
644.9732094612207
 30
0.0
 10
1098.497954515048
 20
644.9732094612207
 30
0.0
 10
1098.497954512085
 20
578.9732094612209
 30
0.0
 10
1098.497954512085
 20
578.9732094612209
 30
0.0
 10
1098.497954512035
 20
577.868639961559
 30
0.0
 10
1099.393385012334
 20
576.9732094611804
 30
0.0
 10
1100.497954511996
 20
576.973209461131
 30
0.0
 10
1100.497954511996
 20
576.973209461131
 30
0.0
 10
1108.997954511996
 20
576.9732094607492
 30
0.0
 10
1108.997954511996
 20
576.9732094607492
 30
0.0
  0
ENDBLK
  5
1EA
330
1E7
100
AcDbEntity
  8
0
100
AcDbBlockEnd
  0
ENDSEC
  0
SECTION
  2
ENTITIES
  0
INSERT
  5
41
330
1F
100
AcDbEntity
  8
0
100
AcDbBlockReference
  2
block 2
 10
0.0
 20
0.0
 30
0.0
  0
INSERT
  5
54
330
1F
100
AcDbEntity
  8
0
100
AcDbBlockReference
  2
block 6
 10
0.0
 20
0.0
 30
0.0
  0
INSERT
  5
67
330
1F
100
AcDbEntity
  8
0
100
AcDbBlockReference
  2
block 10
 10
0.0
 20
0.0
 30
0.0
  0
INSERT
  5
7A
330
1F
100
AcDbEntity
  8
0
100
AcDbBlockReference
  2
block 14
 10
0.0
 20
0.0
 30
0.0
  0
INSERT
  5
92
330
1F
100
AcDbEntity
  8
0
100
AcDbBlockReference
  2
block 19
 10
0.0
 20
0.0
 30
0.0
  0
INSERT
  5
A5
330
1F
100
AcDbEntity
  8
0
100
AcDbBlockReference
  2
block 23
 10
0.0
 20
0.0
 30
0.0
  0
INSERT
  5
B8
330
1F
100
AcDbEntity
  8
0
100
AcDbBlockReference
  2
block 27
 10
0.0
 20
0.0
 30
0.0
  0
INSERT
  5
CB
330
1F
100
AcDbEntity
  8
0
100
AcDbBlockReference
  2
block 31
 10
0.0
 20
0.0
 30
0.0
  0
INSERT
  5
DE
330
1F
100
AcDbEntity
  8
0
100
AcDbBlockReference
  2
block 35
 10
0.0
 20
0.0
 30
0.0
  0
INSERT
  5
F1
330
1F
100
AcDbEntity
  8
0
100
AcDbBlockReference
  2
block 39
 10
0.0
 20
0.0
 30
0.0
  0
INSERT
  5
109
330
1F
100
AcDbEntity
  8
0
100
AcDbBlockReference
  2
block 44
 10
0.0
 20
0.0
 30
0.0
  0
INSERT
  5
121
330
1F
100
AcDbEntity
  8
0
100
AcDbBlockReference
  2
block 49
 10
0.0
 20
0.0
 30
0.0
  0
INSERT
  5
139
330
1F
100
AcDbEntity
  8
0
100
AcDbBlockReference
  2
block 54
 10
0.0
 20
0.0
 30
0.0
  0
INSERT
  5
142
330
1F
100
AcDbEntity
  8
0
100
AcDbBlockReference
  2
block 56
 10
0.0
 20
0.0
 30
0.0
  0
INSERT
  5
14B
330
1F
100
AcDbEntity
  8
0
100
AcDbBlockReference
  2
block 58
 10
0.0
 20
0.0
 30
0.0
  0
INSERT
  5
154
330
1F
100
AcDbEntity
  8
0
100
AcDbBlockReference
  2
block 60
 10
0.0
 20
0.0
 30
0.0
  0
INSERT
  5
15D
330
1F
100
AcDbEntity
  8
0
100
AcDbBlockReference
  2
block 62
 10
0.0
 20
0.0
 30
0.0
  0
INSERT
  5
166
330
1F
100
AcDbEntity
  8
0
100
AcDbBlockReference
  2
block 64
 10
0.0
 20
0.0
 30
0.0
  0
INSERT
  5
16F
330
1F
100
AcDbEntity
  8
0
100
AcDbBlockReference
  2
block 66
 10
0.0
 20
0.0
 30
0.0
  0
INSERT
  5
178
330
1F
100
AcDbEntity
  8
0
100
AcDbBlockReference
  2
block 68
 10
0.0
 20
0.0
 30
0.0
  0
INSERT
  5
181
330
1F
100
AcDbEntity
  8
0
100
AcDbBlockReference
  2
block 70
 10
0.0
 20
0.0
 30
0.0
  0
INSERT
  5
18A
330
1F
100
AcDbEntity
  8
0
100
AcDbBlockReference
  2
block 72
 10
0.0
 20
0.0
 30
0.0
  0
INSERT
  5
193
330
1F
100
AcDbEntity
  8
0
100
AcDbBlockReference
  2
block 74
 10
0.0
 20
0.0
 30
0.0
  0
INSERT
  5
19C
330
1F
100
AcDbEntity
  8
0
100
AcDbBlockReference
  2
block 76
 10
0.0
 20
0.0
 30
0.0
  0
INSERT
  5
1A5
330
1F
100
AcDbEntity
  8
0
100
AcDbBlockReference
  2
block 78
 10
0.0
 20
0.0
 30
0.0
  0
INSERT
  5
1AE
330
1F
100
AcDbEntity
  8
0
100
AcDbBlockReference
  2
block 80
 10
0.0
 20
0.0
 30
0.0
  0
INSERT
  5
1B7
330
1F
100
AcDbEntity
  8
0
100
AcDbBlockReference
  2
block 82
 10
0.0
 20
0.0
 30
0.0
  0
INSERT
  5
1C0
330
1F
100
AcDbEntity
  8
0
100
AcDbBlockReference
  2
block 84
 10
0.0
 20
0.0
 30
0.0
  0
INSERT
  5
1C9
330
1F
100
AcDbEntity
  8
0
100
AcDbBlockReference
  2
block 86
 10
0.0
 20
0.0
 30
0.0
  0
INSERT
  5
1D2
330
1F
100
AcDbEntity
  8
0
100
AcDbBlockReference
  2
block 88
 10
0.0
 20
0.0
 30
0.0
  0
INSERT
  5
1DB
330
1F
100
AcDbEntity
  8
0
100
AcDbBlockReference
  2
block 90
 10
0.0
 20
0.0
 30
0.0
  0
INSERT
  5
1E4
330
1F
100
AcDbEntity
  8
0
100
AcDbBlockReference
  2
block 92
 10
0.0
 20
0.0
 30
0.0
  0
ENDSEC
  0
SECTION
  2
OBJECTS
  0
DICTIONARY
  5
C
330
0
100
AcDbDictionary
281
     1
  3
ACAD_GROUP
350
D
  3
ACAD_LAYOUT
350
1A
  3
ACAD_MATERIAL
350
3B
  3
ACAD_MLEADERSTYLE
350
1ED
  3
ACAD_MLINESTYLE
350
17
  3
ACAD_PLOTSETTINGS
350
19
  3
ACAD_PLOTSTYLENAME
350
E
  3
ACAD_TABLESTYLE
350
1EC
  3
ACAD_VISUALSTYLE
350
2A
  0
SUN
  5
3F
330
29
100
AcDbSun
 90
        1
290
     0
 63
     7
421
 16777215
 40
1.0
291
     1
 91
  2455826
 92
 54000000
292
     0
 70
     2
 71
   256
280
     1
  0
DICTIONARY
  5
D
102
{ACAD_REACTORS
330
C
102
}
330
C
100
AcDbDictionary
281
     1
  0
DICTIONARY
  5
1A
102
{ACAD_REACTORS
330
C
102
}
330
C
100
AcDbDictionary
281
     1
  3
Layout1
350
1E
  3
Layout2
350
26
  3
Model
350
22
  0
DICTIONARY
  5
3B
102
{ACAD_REACTORS
330
C
102
}
330
C
100
AcDbDictionary
281
     1
  3
ByBlock
350
3D
  3
ByLayer
350
3C
  3
Global
350
3E
  0
DICTIONARY
  5
1ED
102
{ACAD_REACTORS
330
C
102
}
330
C
100
AcDbDictionary
281
     1
  0
DICTIONARY
  5
17
102
{ACAD_REACTORS
330
C
102
}
330
C
100
AcDbDictionary
281
     1
  3
Standard
350
18
  0
DICTIONARY
  5
19
102
{ACAD_REACTORS
330
C
102
}
330
C
100
AcDbDictionary
281
     1
  0
ACDBDICTIONARYWDFLT
  5
E
102
{ACAD_REACTORS
330
C
102
}
330
C
100
AcDbDictionary
281
     1
  3
Normal
350
F
100
AcDbDictionaryWithDefault
340
F
  0
DICTIONARY
  5
1EC
102
{ACAD_REACTORS
330
C
102
}
330
C
100
AcDbDictionary
281
     1
  0
DICTIONARY
  5
2A
102
{ACAD_REACTORS
330
C
102
}
330
C
100
AcDbDictionary
281
     1
  3
2dWireframe
350
2F
  3
3D Hidden
350
31
  3
3dWireframe
350
30
  3
Basic
350
32
  3
Brighten
350
36
  3
ColorChange
350
3A
  3
Conceptual
350
34
  3
Dim
350
35
  3
Facepattern
350
39
  3
Flat
350
2B
  3
FlatWithEdges
350
2C
  3
Gouraud
350
2D
  3
GouraudWithEdges
350
2E
  3
Linepattern
350
38
  3
Realistic
350
33
  3
Thicken
350
37
  0
LAYOUT
  5
1E
102
{ACAD_REACTORS
330
1A
102
}
330
1A
100
AcDbPlotSettings
  1

  2
none_device
  4

  6

 40
0.0
 41
0.0
 42
0.0
 43
0.0
 44
0.0
 45
0.0
 46
0.0
 47
0.0
 48
0.0
 49
0.0
140
0.0
141
0.0
142
1.0
143
1.0
 70
   688
 72
     0
 73
     0
 74
     5
  7

 75
    16
 76
     0
 77
     2
 78
   300
147
1.0
148
0.0
149
0.0
100
AcDbLayout
  1
Layout1
 70
     1
 71
     1
 10
0.0
 20
0.0
 11
12.0
 21
9.0
 12
0.0
 22
0.0
 32
0.0
 14
1.000000000000000E+20
 24
1.000000000000000E+20
 34
1.000000000000000E+20
 15
-1.000000000000000E+20
 25
-1.000000000000000E+20
 35
-1.000000000000000E+20
146
0.0
 13
0.0
 23
0.0
 33
0.0
 16
1.0
 26
0.0
 36
0.0
 17
0.0
 27
1.0
 37
0.0
 76
     0
330
1B
  0
LAYOUT
  5
26
102
{ACAD_REACTORS
330
1A
102
}
330
1A
100
AcDbPlotSettings
  1

  2
none_device
  4

  6

 40
0.0
 41
0.0
 42
0.0
 43
0.0
 44
0.0
 45
0.0
 46
0.0
 47
0.0
 48
0.0
 49
0.0
140
0.0
141
0.0
142
1.0
143
1.0
 70
   688
 72
     0
 73
     0
 74
     5
  7

 75
    16
 76
     0
 77
     2
 78
   300
147
1.0
148
0.0
149
0.0
100
AcDbLayout
  1
Layout2
 70
     1
 71
     2
 10
0.0
 20
0.0
 11
0.0
 21
0.0
 12
0.0
 22
0.0
 32
0.0
 14
0.0
 24
0.0
 34
0.0
 15
0.0
 25
0.0
 35
0.0
146
0.0
 13
0.0
 23
0.0
 33
0.0
 16
1.0
 26
0.0
 36
0.0
 17
0.0
 27
1.0
 37
0.0
 76
     0
330
23
  0
LAYOUT
  5
22
102
{ACAD_REACTORS
330
1A
102
}
330
1A
100
AcDbPlotSettings
  1

  2
none_device
  4

  6

 40
0.0
 41
0.0
 42
0.0
 43
0.0
 44
0.0
 45
0.0
 46
0.0
 47
0.0
 48
0.0
 49
0.0
140
0.0
141
0.0
142
1.0
143
1.0
 70
  1712
 72
     0
 73
     0
 74
     0
  7

 75
     0
 76
     0
 77
     2
 78
   300
147
1.0
148
0.0
149
0.0
100
AcDbLayout
  1
Model
 70
     1
 71
     0
 10
0.0
 20
0.0
 11
12.0
 21
9.0
 12
0.0
 22
0.0
 32
0.0
 14
1.000000000000000E+20
 24
1.000000000000000E+20
 34
1.000000000000000E+20
 15
-1.000000000000000E+20
 25
-1.000000000000000E+20
 35
-1.000000000000000E+20
146
0.0
 13
0.0
 23
0.0
 33
0.0
 16
1.0
 26
0.0
 36
0.0
 17
0.0
 27
1.0
 37
0.0
 76
     0
330
1F
331
29
  0
MATERIAL
  5
3D
102
{ACAD_REACTORS
330
3B
102
}
330
3B
100
AcDbMaterial
  1
ByBlock
 72
     1
 94
      127
  0
MATERIAL
  5
3C
102
{ACAD_REACTORS
330
3B
102
}
330
3B
100
AcDbMaterial
  1
ByLayer
 72
     1
 94
      127
  0
MATERIAL
  5
3E
102
{ACAD_REACTORS
330
3B
102
}
330
3B
100
AcDbMaterial
  1
Global
 72
     1
 94
      127
  0
MLINESTYLE
  5
18
102
{ACAD_REACTORS
330
17
102
}
330
17
100
AcDbMlineStyle
  2
Standard
 70
     0
  3

 62
   256
 51
90.0
 52
90.0
 71
     2
 49
0.5
 62
   256
  6
BYLAYER
 49
-0.5
 62
   256
  6
BYLAYER
  0
ACDBPLACEHOLDER
  5
F
102
{ACAD_REACTORS
330
E
102
}
330
E
  0
VISUALSTYLE
  5
2F
102
{ACAD_REACTORS
330
2A
102
}
330
2A
100
AcDbVisualStyle
  2
2dWireframe
 70
     4
177
     2
291
     0
 71
     0
176
     1
 72
     2
176
     1
 73
     0
176
     1
 90
        0
176
     1
 40
-0.6
176
     1
 41
-30.0
176
     1
 62
     5
 63
     7
421
 16777215
176
     1
 74
     1
176
     1
 91
        4
176
     1
 64
     7
176
     1
 65
   257
176
     1
 75
     1
176
     1
175
     1
176
     1
 42
1.0
176
     1
 92
        0
176
     1
 66
   257
176
     1
 43
1.0
176
     1
 76
     1
176
     1
 77
     6
176
     1
 78
     2
176
     1
 67
     7
176
     1
 79
     5
176
     1
170
     0
176
     1
171
     0
176
     1
290
     0
176
     1
 93
        1
176
     1
 44
0.0
176
     1
173
     0
176
     1
  0
VISUALSTYLE
  5
31
102
{ACAD_REACTORS
330
2A
102
}
330
2A
100
AcDbVisualStyle
  2
3D Hidden
 70
     6
177
     2
291
     0
 71
     1
176
     1
 72
     2
176
     1
 73
     2
176
     1
 90
        0
176
     1
 40
-0.6
176
     1
 41
-30.0
176
     1
 62
     5
 63
     7
421
 16777215
176
     1
 74
     2
176
     1
 91
        2
176
     1
 64
     7
176
     1
 65
   257
176
     1
 75
     2
176
     1
175
     1
176
     1
 42
40.0
176
     1
 92
        0
176
     1
 66
   257
176
     1
 43
1.0
176
     1
 76
     1
176
     1
 77
     6
176
     1
 78
     2
176
     1
 67
     7
176
     1
 79
     3
176
     1
170
     0
176
     1
171
     0
176
     1
290
     0
176
     1
 93
        1
176
     1
 44
0.0
176
     1
173
     0
176
     1
  0
VISUALSTYLE
  5
30
102
{ACAD_REACTORS
330
2A
102
}
330
2A
100
AcDbVisualStyle
  2
3dWireframe
 70
     5
177
     2
291
     0
 71
     0
176
     1
 72
     2
176
     1
 73
     0
176
     1
 90
        0
176
     1
 40
-0.6
176
     1
 41
-30.0
176
     1
 62
     5
 63
     7
421
 16777215
176
     1
 74
     1
176
     1
 91
        4
176
     1
 64
     7
176
     1
 65
   257
176
     1
 75
     1
176
     1
175
     1
176
     1
 42
1.0
176
     1
 92
        0
176
     1
 66
   257
176
     1
 43
1.0
176
     1
 76
     1
176
     1
 77
     6
176
     1
 78
     2
176
     1
 67
     7
176
     1
 79
     5
176
     1
170
     0
176
     1
171
     0
176
     1
290
     0
176
     1
 93
        1
176
     1
 44
0.0
176
     1
173
     0
176
     1
  0
VISUALSTYLE
  5
32
102
{ACAD_REACTORS
330
2A
102
}
330
2A
100
AcDbVisualStyle
  2
Basic
 70
     7
177
     2
291
     1
 71
     1
176
     1
 72
     0
176
     1
 73
     1
176
     1
 90
        0
176
     1
 40
-0.6
176
     1
 41
-30.0
176
     1
 62
     5
 63
     7
421
 16777215
176
     1
 74
     0
176
     1
 91
        4
176
     1
 64
     7
176
     1
 65
   257
176
     1
 75
     1
176
     1
175
     1
176
     1
 42
1.0
176
     1
 92
        8
176
     1
 66
     7
176
     1
 43
1.0
176
     1
 76
     1
176
     1
 77
     6
176
     1
 78
     2
176
     1
 67
     7
176
     1
 79
     5
176
     1
170
     0
176
     1
171
     0
176
     1
290
     0
176
     1
 93
        1
176
     1
 44
0.0
176
     1
173
     0
176
     1
  0
VISUALSTYLE
  5
36
102
{ACAD_REACTORS
330
2A
102
}
330
2A
100
AcDbVisualStyle
  2
Brighten
 70
    12
177
     2
291
     1
 71
     2
176
     1
 72
     2
176
     1
 73
     0
176
     1
 90
        0
176
     1
 40
-0.6
176
     1
 41
-30.0
176
     1
 62
     5
 63
     7
421
 16777215
176
     1
 74
     1
176
     1
 91
        4
176
     1
 64
     7
176
     1
 65
   257
176
     1
 75
     1
176
     1
175
     1
176
     1
 42
1.0
176
     1
 92
        8
176
     1
 66
     7
176
     1
 43
1.0
176
     1
 76
     1
176
     1
 77
     6
176
     1
 78
     2
176
     1
 67
     7
176
     1
 79
     5
176
     1
170
     0
176
     1
171
     0
176
     1
290
     0
176
     1
 93
        1
176
     1
 44
50.0
176
     1
173
     0
176
     1
  0
VISUALSTYLE
  5
3A
102
{ACAD_REACTORS
330
2A
102
}
330
2A
100
AcDbVisualStyle
  2
ColorChange
 70
    16
177
     2
291
     1
 71
     2
176
     1
 72
     2
176
     1
 73
     3
176
     1
 90
        0
176
     1
 40
-0.6
176
     1
 41
-30.0
176
     1
 62
     5
 63
     8
421
  8421504
176
     1
 74
     1
176
     1
 91
        4
176
     1
 64
     7
176
     1
 65
   257
176
     1
 75
     1
176
     1
175
     1
176
     1
 42
1.0
176
     1
 92
        8
176
     1
 66
     8
424
  8421504
176
     1
 43
1.0
176
     1
 76
     1
176
     1
 77
     6
176
     1
 78
     2
176
     1
 67
     7
176
     1
 79
     5
176
     1
170
     0
176
     1
171
     0
176
     1
290
     0
176
     1
 93
        1
176
     1
 44
0.0
176
     1
173
     0
176
     1
  0
VISUALSTYLE
  5
34
102
{ACAD_REACTORS
330
2A
102
}
330
2A
100
AcDbVisualStyle
  2
Conceptual
 70
     9
177
     2
291
     0
 71
     3
176
     1
 72
     2
176
     1
 73
     0
176
     1
 90
        0
176
     1
 40
-0.6
176
     1
 41
-30.0
176
     1
 62
     5
 63
     7
421
 16777215
176
     1
 74
     2
176
     1
 91
        2
176
     1
 64
     7
176
     1
 65
   257
176
     1
 75
     1
176
     1
175
     1
176
     1
 42
40.0
176
     1
 92
        8
176
     1
 66
     7
176
     1
 43
1.0
176
     1
 76
     1
176
     1
 77
     6
176
     1
 78
     2
176
     1
 67
     7
176
     1
 79
     3
176
     1
170
     0
176
     1
171
     0
176
     1
290
     0
176
     1
 93
        1
176
     1
 44
0.0
176
     1
173
     0
176
     1
  0
VISUALSTYLE
  5
35
102
{ACAD_REACTORS
330
2A
102
}
330
2A
100
AcDbVisualStyle
  2
Dim
 70
    11
177
     2
291
     1
 71
     2
176
     1
 72
     2
176
     1
 73
     0
176
     1
 90
        0
176
     1
 40
-0.6
176
     1
 41
-30.0
176
     1
 62
     5
 63
     7
421
 16777215
176
     1
 74
     1
176
     1
 91
        4
176
     1
 64
     7
176
     1
 65
   257
176
     1
 75
     1
176
     1
175
     1
176
     1
 42
1.0
176
     1
 92
        8
176
     1
 66
     7
176
     1
 43
1.0
176
     1
 76
     1
176
     1
 77
     6
176
     1
 78
     2
176
     1
 67
     7
176
     1
 79
     5
176
     1
170
     0
176
     1
171
     0
176
     1
290
     0
176
     1
 93
        1
176
     1
 44
-50.0
176
     1
173
     0
176
     1
  0
VISUALSTYLE
  5
39
102
{ACAD_REACTORS
330
2A
102
}
330
2A
100
AcDbVisualStyle
  2
Facepattern
 70
    15
177
     2
291
     1
 71
     2
176
     1
 72
     2
176
     1
 73
     0
176
     1
 90
        0
176
     1
 40
-0.6
176
     1
 41
-30.0
176
     1
 62
     5
 63
     7
421
 16777215
176
     1
 74
     1
176
     1
 91
        4
176
     1
 64
     7
176
     1
 65
   257
176
     1
 75
     1
176
     1
175
     1
176
     1
 42
1.0
176
     1
 92
        8
176
     1
 66
     7
176
     1
 43
1.0
176
     1
 76
     1
176
     1
 77
     6
176
     1
 78
     2
176
     1
 67
     7
176
     1
 79
     5
176
     1
170
     0
176
     1
171
     0
176
     1
290
     0
176
     1
 93
        1
176
     1
 44
0.0
176
     1
173
     0
176
     1
  0
VISUALSTYLE
  5
2B
102
{ACAD_REACTORS
330
2A
102
}
330
2A
100
AcDbVisualStyle
  2
Flat
 70
     0
177
     2
291
     1
 71
     2
176
     1
 72
     1
176
     1
 73
     1
176
     1
 90
        2
176
     1
 40
-0.6
176
     1
 41
30.0
176
     1
 62
     5
 63
     7
421
 16777215
176
     1
 74
     0
176
     1
 91
        4
176
     1
 64
     7
176
     1
 65
   257
176
     1
 75
     1
176
     1
175
     1
176
     1
 42
1.0
176
     1
 92
        8
176
     1
 66
     7
176
     1
 43
1.0
176
     1
 76
     1
176
     1
 77
     6
176
     1
 78
     2
176
     1
 67
     7
176
     1
 79
     5
176
     1
170
     0
176
     1
171
     0
176
     1
290
     0
176
     1
 93
       13
176
     1
 44
0.0
176
     1
173
     0
176
     1
  0
VISUALSTYLE
  5
2C
102
{ACAD_REACTORS
330
2A
102
}
330
2A
100
AcDbVisualStyle
  2
FlatWithEdges
 70
     1
177
     2
291
     1
 71
     2
176
     1
 72
     1
176
     1
 73
     1
176
     1
 90
        2
176
     1
 40
-0.6
176
     1
 41
30.0
176
     1
 62
     5
 63
     7
421
 16777215
176
     1
 74
     1
176
     1
 91
        4
176
     1
 64
     7
176
     1
 65
   257
176
     1
 75
     1
176
     1
175
     1
176
     1
 42
1.0
176
     1
 92
        0
176
     1
 66
   257
176
     1
 43
1.0
176
     1
 76
     1
176
     1
 77
     6
176
     1
 78
     2
176
     1
 67
     7
176
     1
 79
     5
176
     1
170
     0
176
     1
171
     0
176
     1
290
     0
176
     1
 93
       13
176
     1
 44
0.0
176
     1
173
     0
176
     1
  0
VISUALSTYLE
  5
2D
102
{ACAD_REACTORS
330
2A
102
}
330
2A
100
AcDbVisualStyle
  2
Gouraud
 70
     2
177
     2
291
     1
 71
     2
176
     1
 72
     2
176
     1
 73
     1
176
     1
 90
        2
176
     1
 40
-0.6
176
     1
 41
30.0
176
     1
 62
     5
 63
     7
421
 16777215
176
     1
 74
     0
176
     1
 91
        4
176
     1
 64
     7
176
     1
 65
   257
176
     1
 75
     1
176
     1
175
     1
176
     1
 42
1.0
176
     1
 92
        0
176
     1
 66
     7
176
     1
 43
1.0
176
     1
 76
     1
176
     1
 77
     6
176
     1
 78
     2
176
     1
 67
     7
176
     1
 79
     5
176
     1
170
     0
176
     1
171
     0
176
     1
290
     0
176
     1
 93
       13
176
     1
 44
0.0
176
     1
173
     0
176
     1
  0
VISUALSTYLE
  5
2E
102
{ACAD_REACTORS
330
2A
102
}
330
2A
100
AcDbVisualStyle
  2
GouraudWithEdges
 70
     3
177
     2
291
     1
 71
     2
176
     1
 72
     2
176
     1
 73
     1
176
     1
 90
        2
176
     1
 40
-0.6
176
     1
 41
30.0
176
     1
 62
     5
 63
     7
421
 16777215
176
     1
 74
     1
176
     1
 91
        4
176
     1
 64
     7
176
     1
 65
   257
176
     1
 75
     1
176
     1
175
     1
176
     1
 42
1.0
176
     1
 92
        0
176
     1
 66
   257
176
     1
 43
1.0
176
     1
 76
     1
176
     1
 77
     6
176
     1
 78
     2
176
     1
 67
     7
176
     1
 79
     5
176
     1
170
     0
176
     1
171
     0
176
     1
290
     0
176
     1
 93
       13
176
     1
 44
0.0
176
     1
173
     0
176
     1
  0
VISUALSTYLE
  5
38
102
{ACAD_REACTORS
330
2A
102
}
330
2A
100
AcDbVisualStyle
  2
Linepattern
 70
    14
177
     2
291
     1
 71
     2
176
     1
 72
     2
176
     1
 73
     0
176
     1
 90
        0
176
     1
 40
-0.6
176
     1
 41
-30.0
176
     1
 62
     5
 63
     7
421
 16777215
176
     1
 74
     1
176
     1
 91
        4
176
     1
 64
     7
176
     1
 65
   257
176
     1
 75
     7
176
     1
175
     7
176
     1
 42
1.0
176
     1
 92
        8
176
     1
 66
     7
176
     1
 43
1.0
176
     1
 76
     1
176
     1
 77
     6
176
     1
 78
     2
176
     1
 67
     7
176
     1
 79
     5
176
     1
170
     0
176
     1
171
     0
176
     1
290
     0
176
     1
 93
        1
176
     1
 44
0.0
176
     1
173
     0
176
     1
  0
VISUALSTYLE
  5
33
102
{ACAD_REACTORS
330
2A
102
}
330
2A
100
AcDbVisualStyle
  2
Realistic
 70
     8
177
     2
291
     0
 71
     2
176
     1
 72
     2
176
     1
 73
     0
176
     1
 90
        0
176
     1
 40
-0.6
176
     1
 41
-30.0
176
     1
 62
     5
 63
     7
421
 16777215
176
     1
 74
     1
176
     1
 91
        0
176
     1
 64
     7
176
     1
 65
   257
176
     1
 75
     1
176
     1
175
     1
176
     1
 42
1.0
176
     1
 92
        8
176
     1
 66
     8
424
  7895160
176
     1
 43
1.0
176
     1
 76
     1
176
     1
 77
     6
176
     1
 78
     2
176
     1
 67
     7
176
     1
 79
     5
176
     1
170
     0
176
     1
171
     0
176
     1
290
     0
176
     1
 93
       13
176
     1
 44
0.0
176
     1
173
     0
176
     1
  0
VISUALSTYLE
  5
37
102
{ACAD_REACTORS
330
2A
102
}
330
2A
100
AcDbVisualStyle
  2
Thicken
 70
    13
177
     2
291
     1
 71
     2
176
     1
 72
     2
176
     1
 73
     0
176
     1
 90
        0
176
     1
 40
-0.6
176
     1
 41
-30.0
176
     1
 62
     5
 63
     7
421
 16777215
176
     1
 74
     1
176
     1
 91
        4
176
     1
 64
     7
176
     1
 65
   257
176
     1
 75
     1
176
     1
175
     1
176
     1
 42
1.0
176
     1
 92
       12
176
     1
 66
     7
176
     1
 43
1.0
176
     1
 76
     1
176
     1
 77
     6
176
     1
 78
     2
176
     1
 67
     7
176
     1
 79
     5
176
     1
170
     0
176
     1
171
     0
176
     1
290
     0
176
     1
 93
        1
176
     1
 44
0.0
176
     1
173
     0
176
     1
  0
ENDSEC
  0
EOF
