  0
SECTION
  2
HEADER
  9
$ACADVER
  1
AC1018
  9
$ACADMAINTVER
 70
     0
  9
$DWGCODEPAGE
  3
ANSI_1252
  9
$INSBASE
 10
0.0
 20
0.0
 30
0.0
  9
$EXTMIN
 10
-254.1922539977434
 20
-117.417060575252
 30
-0.0000000000001159
  9
$EXTMAX
 10
100.0
 20
49.59080905008335
 30
0.0
  9
$LIMMIN
 10
0.0
 20
0.0
  9
$LIMMAX
 10
12.0
 20
9.0
  9
$ORTHOMODE
 70
     0
  9
$REGENMODE
 70
     1
  9
$FILLMODE
 70
     1
  9
$QTEXTMODE
 70
     0
  9
$MIRRTEXT
 70
     1
  9
$LTSCALE
 40
1.0
  9
$ATTMODE
 70
     1
  9
$TEXTSIZE
 40
0.2
  9
$TRACEWID
 40
0.05
  9
$TEXTSTYLE
  7
Standard
  9
$CLAYER
  8
Bake
  9
$CELTYPE
  6
ByLayer
  9
$CECOLOR
 62
   256
  9
$CELTSCALE
 40
1.0
  9
$DISPSILH
 70
     0
  9
$DIMSCALE
 40
1.0
  9
$DIMASZ
 40
0.18
  9
$DIMEXO
 40
0.0625
  9
$DIMDLI
 40
0.38
  9
$DIMRND
 40
0.0
  9
$DIMDLE
 40
0.0
  9
$DIMEXE
 40
0.18
  9
$DIMTP
 40
0.0
  9
$DIMTM
 40
0.0
  9
$DIMTXT
 40
0.18
  9
$DIMCEN
 40
0.09
  9
$DIMTSZ
 40
0.0
  9
$DIMTOL
 70
     0
  9
$DIMLIM
 70
     0
  9
$DIMTIH
 70
     1
  9
$DIMTOH
 70
     1
  9
$DIMSE1
 70
     0
  9
$DIMSE2
 70
     0
  9
$DIMTAD
 70
     0
  9
$DIMZIN
 70
     0
  9
$DIMBLK
  1

  9
$DIMASO
 70
     1
  9
$DIMSHO
 70
     1
  9
$DIMPOST
  1

  9
$DIMAPOST
  1

  9
$DIMALT
 70
     0
  9
$DIMALTD
 70
     2
  9
$DIMALTF
 40
25.4
  9
$DIMLFAC
 40
1.0
  9
$DIMTOFL
 70
     0
  9
$DIMTVP
 40
0.0
  9
$DIMTIX
 70
     0
  9
$DIMSOXD
 70
     0
  9
$DIMSAH
 70
     0
  9
$DIMBLK1
  1

  9
$DIMBLK2
  1

  9
$DIMSTYLE
  2
Standard
  9
$DIMCLRD
 70
     0
  9
$DIMCLRE
 70
     0
  9
$DIMCLRT
 70
     0
  9
$DIMTFAC
 40
1.0
  9
$DIMGAP
 40
0.09
  9
$DIMJUST
 70
     0
  9
$DIMSD1
 70
     0
  9
$DIMSD2
 70
     0
  9
$DIMTOLJ
 70
     1
  9
$DIMTZIN
 70
     0
  9
$DIMALTZ
 70
     0
  9
$DIMALTTZ
 70
     0
  9
$DIMUPT
 70
     0
  9
$DIMDEC
 70
     4
  9
$DIMTDEC
 70
     4
  9
$DIMALTU
 70
     2
  9
$DIMALTTD
 70
     2
  9
$DIMTXSTY
  7
Standard
  9
$DIMAUNIT
 70
     0
  9
$DIMADEC
 70
     0
  9
$DIMALTRND
 40
0.0
  9
$DIMAZIN
 70
     0
  9
$DIMDSEP
 70
    46
  9
$DIMATFIT
 70
     3
  9
$DIMFRAC
 70
     0
  9
$DIMLDRBLK
  1

  9
$DIMLUNIT
 70
     2
  9
$DIMLWD
 70
    -2
  9
$DIMLWE
 70
    -2
  9
$DIMTMOVE
 70
     2
  9
$LUNITS
 70
     2
  9
$LUPREC
 70
     3
  9
$SKETCHINC
 40
0.1
  9
$FILLETRAD
 40
0.5
  9
$AUNITS
 70
     0
  9
$AUPREC
 70
     0
  9
$MENU
  1
.
  9
$ELEVATION
 40
0.0
  9
$PELEVATION
 40
0.0
  9
$THICKNESS
 40
0.0
  9
$LIMCHECK
 70
     0
  9
$CHAMFERA
 40
0.0
  9
$CHAMFERB
 40
0.0
  9
$CHAMFERC
 40
0.0
  9
$CHAMFERD
 40
0.0
  9
$SKPOLY
 70
     0
  9
$TDCREATE
 40
2457431.652951539
  9
$TDUCREATE
 40
2457431.611284873
  9
$TDUPDATE
 40
2457431.652979838
  9
$TDUUPDATE
 40
2457431.611313171
  9
$TDINDWG
 40
0.0000000116
  9
$TDUSRTIMER
 40
0.0000000116
  9
$USRTIMER
 70
     1
  9
$ANGBASE
 50
0.0
  9
$ANGDIR
 70
     0
  9
$PDMODE
 70
     0
  9
$PDSIZE
 40
0.0
  9
$PLINEWID
 40
0.0
  9
$SPLFRAME
 70
     0
  9
$SPLINETYPE
 70
     6
  9
$SPLINESEGS
 70
     8
  9
$HANDSEED
  5
64D
  9
$SURFTAB1
 70
     6
  9
$SURFTAB2
 70
     6
  9
$SURFTYPE
 70
     6
  9
$SURFU
 70
     6
  9
$SURFV
 70
     6
  9
$UCSBASE
  2

  9
$UCSNAME
  2

  9
$UCSORG
 10
0.0
 20
0.0
 30
0.0
  9
$UCSXDIR
 10
1.0
 20
0.0
 30
0.0
  9
$UCSYDIR
 10
0.0
 20
1.0
 30
0.0
  9
$UCSORTHOREF
  2

  9
$UCSORTHOVIEW
 70
     0
  9
$UCSORGTOP
 10
0.0
 20
0.0
 30
0.0
  9
$UCSORGBOTTOM
 10
0.0
 20
0.0
 30
0.0
  9
$UCSORGLEFT
 10
0.0
 20
0.0
 30
0.0
  9
$UCSORGRIGHT
 10
0.0
 20
0.0
 30
0.0
  9
$UCSORGFRONT
 10
0.0
 20
0.0
 30
0.0
  9
$UCSORGBACK
 10
0.0
 20
0.0
 30
0.0
  9
$PUCSBASE
  2

  9
$PUCSNAME
  2

  9
$PUCSORG
 10
0.0
 20
0.0
 30
0.0
  9
$PUCSXDIR
 10
1.0
 20
0.0
 30
0.0
  9
$PUCSYDIR
 10
0.0
 20
1.0
 30
0.0
  9
$PUCSORTHOREF
  2

  9
$PUCSORTHOVIEW
 70
     0
  9
$PUCSORGTOP
 10
0.0
 20
0.0
 30
0.0
  9
$PUCSORGBOTTOM
 10
0.0
 20
0.0
 30
0.0
  9
$PUCSORGLEFT
 10
0.0
 20
0.0
 30
0.0
  9
$PUCSORGRIGHT
 10
0.0
 20
0.0
 30
0.0
  9
$PUCSORGFRONT
 10
0.0
 20
0.0
 30
0.0
  9
$PUCSORGBACK
 10
0.0
 20
0.0
 30
0.0
  9
$USERI1
 70
     0
  9
$USERI2
 70
     0
  9
$USERI3
 70
     0
  9
$USERI4
 70
     0
  9
$USERI5
 70
     0
  9
$USERR1
 40
0.0
  9
$USERR2
 40
0.0
  9
$USERR3
 40
0.0
  9
$USERR4
 40
0.0
  9
$USERR5
 40
0.0
  9
$WORLDVIEW
 70
     1
  9
$SHADEDGE
 70
     3
  9
$SHADEDIF
 70
    70
  9
$TILEMODE
 70
     1
  9
$MAXACTVP
 70
    64
  9
$PINSBASE
 10
0.0
 20
0.0
 30
0.0
  9
$PLIMCHECK
 70
     0
  9
$PEXTMIN
 10
1.000000000000000E+20
 20
1.000000000000000E+20
 30
1.000000000000000E+20
  9
$PEXTMAX
 10
-1.000000000000000E+20
 20
-1.000000000000000E+20
 30
-1.000000000000000E+20
  9
$PLIMMIN
 10
0.0
 20
0.0
  9
$PLIMMAX
 10
12.0
 20
9.0
  9
$UNITMODE
 70
     0
  9
$VISRETAIN
 70
     1
  9
$PLINEGEN
 70
     0
  9
$PSLTSCALE
 70
     1
  9
$TREEDEPTH
 70
  3020
  9
$CMLSTYLE
  2
Standard
  9
$CMLJUST
 70
     0
  9
$CMLSCALE
 40
1.0
  9
$PROXYGRAPHICS
 70
     1
  9
$MEASUREMENT
 70
     0
  9
$CELWEIGHT
370
    -1
  9
$ENDCAPS
280
     0
  9
$JOINSTYLE
280
     0
  9
$LWDISPLAY
290
     0
  9
$INSUNITS
 70
     4
  9
$HYPERLINKBASE
  1

  9
$STYLESHEET
  1

  9
$XEDIT
290
     1
  9
$CEPSNTYPE
380
     0
  9
$PSTYLEMODE
290
     1
  9
$FINGERPRINTGUID
  2
{75D49021-11C4-4146-9FD9-E147FE8A715F}
  9
$VERSIONGUID
  2
{FAEB1C32-E019-11D5-929B-00C0DF256EC4}
  9
$EXTNAMES
290
     1
  9
$PSVPSCALE
 40
0.0
  9
$OLESTARTUP
290
     0
  9
$SORTENTS
280
   127
  9
$INDEXCTL
280
     0
  9
$HIDETEXT
280
     1
  9
$XCLIPFRAME
290
     0
  9
$HALOGAP
280
     0
  9
$OBSCOLOR
 70
   257
  9
$OBSLTYPE
280
     0
  9
$INTERSECTIONDISPLAY
280
     0
  9
$INTERSECTIONCOLOR
 70
   257
  9
$DIMASSOC
280
     2
  9
$PROJECTNAME
  1

  0
ENDSEC
  0
SECTION
  2
CLASSES
  0
CLASS
  1
ACDBDICTIONARYWDFLT
  2
AcDbDictionaryWithDefault
  3
ObjectDBX Classes
 90
        0
 91
        4
280
     0
281
     0
  0
CLASS
  1
VISUALSTYLE
  2
AcDbVisualStyle
  3
ObjectDBX Classes
 90
     4095
 91
        4
280
     0
281
     0
  0
CLASS
  1
MATERIAL
  2
AcDbMaterial
  3
ObjectDBX Classes
 90
     1153
 91
        4
280
     0
281
     0
  0
CLASS
  1
SCALE
  2
AcDbScale
  3
ObjectDBX Classes
 90
     1153
 91
        4
280
     0
281
     0
  0
CLASS
  1
TABLESTYLE
  2
AcDbTableStyle
  3
ObjectDBX Classes
 90
     4095
 91
        4
280
     0
281
     0
  0
CLASS
  1
MLEADERSTYLE
  2
AcDbMLeaderStyle
  3
ACDB_MLEADERSTYLE_CLASS
 90
     4095
 91
        4
280
     0
281
     0
  0
CLASS
  1
SUN
  2
AcDbSun
  3
SCENEOE
 90
     1153
 91
        4
280
     0
281
     0
  0
CLASS
  1
DICTIONARYVAR
  2
AcDbDictionaryVar
  3
ObjectDBX Classes
 90
        0
 91
        4
280
     0
281
     0
  0
CLASS
  1
CELLSTYLEMAP
  2
AcDbCellStyleMap
  3
ObjectDBX Classes
 90
     1152
 91
        4
280
     0
281
     0
  0
ENDSEC
  0
SECTION
  2
TABLES
  0
TABLE
  2
VPORT
  5
8
102
{ACAD_XDICTIONARY
360
606
102
}
330
0
100
AcDbSymbolTable
 70
     1
  0
VPORT
  5
29
330
8
100
AcDbSymbolTableRecord
100
AcDbViewportTableRecord
  2
*Active
 70
     0
 10
0.0
 20
0.0
 11
1.0
 21
1.0
 12
-77.09612699887171
 22
-33.9131257625843
 13
0.0
 23
0.0
 14
0.5
 24
0.5
 15
0.5
 25
0.5
 16
0.0
 26
0.0
 36
1.0
 17
0.0
 27
0.0
 37
0.0
 40
170.348027017842
 41
2.120811760501686
 42
50.0
 43
0.0
 44
0.0
 50
0.0
 51
0.0
 71
     0
 72
   100
 73
     1
 74
     3
 75
     0
 76
     0
 77
     0
 78
     0
281
     0
 65
     1
110
0.0
120
0.0
130
0.0
111
1.0
121
0.0
131
0.0
112
0.0
122
1.0
132
0.0
 79
     0
146
0.0
  0
ENDTAB
  0
TABLE
  2
LTYPE
  5
5
330
0
100
AcDbSymbolTable
 70
     1
  0
LTYPE
  5
14
330
5
100
AcDbSymbolTableRecord
100
AcDbLinetypeTableRecord
  2
ByBlock
 70
     0
  3

 72
    65
 73
     0
 40
0.0
  0
LTYPE
  5
15
330
5
100
AcDbSymbolTableRecord
100
AcDbLinetypeTableRecord
  2
ByLayer
 70
     0
  3

 72
    65
 73
     0
 40
0.0
  0
LTYPE
  5
16
330
5
100
AcDbSymbolTableRecord
100
AcDbLinetypeTableRecord
  2
Continuous
 70
     0
  3
Solid line
 72
    65
 73
     0
 40
0.0
  0
ENDTAB
  0
TABLE
  2
LAYER
  5
2
330
0
100
AcDbSymbolTable
 70
     2
  0
LAYER
  5
10
330
2
100
AcDbSymbolTableRecord
100
AcDbLayerTableRecord
  2
0
 70
     0
 62
     7
  6
Continuous
370
    -3
390
F
  0
LAYER
  5
6E
330
2
100
AcDbSymbolTableRecord
100
AcDbLayerTableRecord
  2
Bake
 70
     0
 62
     4
420
    65535
  6
Continuous
370
    -3
390
F
  0
ENDTAB
  0
TABLE
  2
STYLE
  5
3
330
0
100
AcDbSymbolTable
 70
     1
  0
STYLE
  5
11
330
3
100
AcDbSymbolTableRecord
100
AcDbTextStyleTableRecord
  2
Standard
 70
     0
 40
0.0
 41
1.0
 50
0.0
 71
     0
 42
0.2
  3
txt
  4

  0
ENDTAB
  0
TABLE
  2
VIEW
  5
6
330
0
100
AcDbSymbolTable
 70
     0
  0
ENDTAB
  0
TABLE
  2
UCS
  5
7
330
0
100
AcDbSymbolTable
 70
     0
  0
ENDTAB
  0
TABLE
  2
APPID
  5
9
330
0
100
AcDbSymbolTable
 70
     2
  0
APPID
  5
12
330
9
100
AcDbSymbolTableRecord
100
AcDbRegAppTableRecord
  2
ACAD
 70
     0
  0
APPID
  5
645
330
9
100
AcDbSymbolTableRecord
100
AcDbRegAppTableRecord
  2
ACAD_MLEADERVER
 70
     0
  0
ENDTAB
  0
TABLE
  2
DIMSTYLE
  5
A
330
0
100
AcDbSymbolTable
 70
     1
100
AcDbDimStyleTable
  0
DIMSTYLE
105
27
330
A
100
AcDbSymbolTableRecord
100
AcDbDimStyleTableRecord
  2
Standard
 70
     0
178
     0
340
11
  0
ENDTAB
  0
TABLE
  2
BLOCK_RECORD
  5
1
330
0
100
AcDbSymbolTable
 70
     1
  0
BLOCK_RECORD
  5
1F
330
1
100
AcDbSymbolTableRecord
100
AcDbBlockTableRecord
  2
*Model_Space
340
22
  0
BLOCK_RECORD
  5
1B
330
1
100
AcDbSymbolTableRecord
100
AcDbBlockTableRecord
  2
*Paper_Space
340
1E
  0
BLOCK_RECORD
  5
23
330
1
100
AcDbSymbolTableRecord
100
AcDbBlockTableRecord
  2
*Paper_Space0
340
26
  0
ENDTAB
  0
ENDSEC
  0
SECTION
  2
BLOCKS
  0
BLOCK
  5
20
330
1F
100
AcDbEntity
  8
0
100
AcDbBlockBegin
  2
*Model_Space
 70
     0
 10
0.0
 20
0.0
 30
0.0
  3
*Model_Space
  1

  0
ENDBLK
  5
21
330
1F
100
AcDbEntity
  8
0
100
AcDbBlockEnd
  0
BLOCK
  5
1C
330
1B
100
AcDbEntity
 67
     1
  8
0
100
AcDbBlockBegin
  2
*Paper_Space
 70
     0
 10
0.0
 20
0.0
 30
0.0
  3
*Paper_Space
  1

  0
ENDBLK
  5
1D
330
1B
100
AcDbEntity
 67
     1
  8
0
100
AcDbBlockEnd
  0
BLOCK
  5
24
330
23
100
AcDbEntity
  8
0
100
AcDbBlockBegin
  2
*Paper_Space0
 70
     0
 10
0.0
 20
0.0
 30
0.0
  3
*Paper_Space0
  1

  0
ENDBLK
  5
25
330
23
100
AcDbEntity
  8
0
100
AcDbBlockEnd
  0
ENDSEC
  0
SECTION
  2
ENTITIES
  0
POLYLINE
  5
6F
330
1F
100
AcDbEntity
  8
Bake
100
AcDb2dPolyline
 66
     1
 10
0.0
 20
0.0
 30
0.0
  0
VERTEX
  5
70
330
6F
100
AcDbEntity
  8
Bake
100
AcDbVertex
100
AcDb2dVertex
 10
-211.6014452275278
 20
-103.0
 30
0.0
  0
VERTEX
  5
71
330
6F
100
AcDbEntity
  8
Bake
100
AcDbVertex
100
AcDb2dVertex
 10
-211.6014452275277
 20
-117.417060575252
 30
0.0
  0
VERTEX
  5
72
330
6F
100
AcDbEntity
  8
Bake
100
AcDbVertex
100
AcDb2dVertex
 10
-212.0328838093868
 20
-117.334582130977
 30
0.0
  0
VERTEX
  5
73
330
6F
100
AcDbEntity
  8
Bake
100
AcDbVertex
100
AcDb2dVertex
 10
-212.408052198145
 20
-117.2527829634923
 30
0.0
  0
VERTEX
  5
74
330
6F
100
AcDbEntity
  8
Bake
100
AcDbVertex
100
AcDb2dVertex
 10
-212.7343745471842
 20
-117.1715338305381
 30
0.0
  0
VERTEX
  5
75
330
6F
100
AcDbEntity
  8
Bake
100
AcDbVertex
100
AcDb2dVertex
 10
-213.019275009886
 20
-117.0907054898543
 30
0.0
  0
VERTEX
  5
76
330
6F
100
AcDbEntity
  8
Bake
100
AcDbVertex
100
AcDb2dVertex
 10
-213.2701777396324
 20
-117.010168699181
 30
0.0
  0
VERTEX
  5
77
330
6F
100
AcDbEntity
  8
Bake
100
AcDbVertex
100
AcDb2dVertex
 10
-213.4945068898052
 20
-116.9297942162584
 30
0.0
  0
VERTEX
  5
78
330
6F
100
AcDbEntity
  8
Bake
100
AcDbVertex
100
AcDb2dVertex
 10
-213.6996866137862
 20
-116.8494527988265
 30
0.0
  0
VERTEX
  5
79
330
6F
100
AcDbEntity
  8
Bake
100
AcDbVertex
100
AcDb2dVertex
 10
-214.1784128618756
 20
-116.6455382570182
 30
0.0
  0
VERTEX
  5
7A
330
6F
100
AcDbEntity
  8
Bake
100
AcDbVertex
100
AcDb2dVertex
 10
-214.4549188867788
 20
-116.5196487756802
 30
0.0
  0
VERTEX
  5
7B
330
6F
100
AcDbEntity
  8
Bake
100
AcDbVertex
100
AcDb2dVertex
 10
-214.7239113928118
 20
-116.3894592654302
 30
0.0
  0
VERTEX
  5
7C
330
6F
100
AcDbEntity
  8
Bake
100
AcDbVertex
100
AcDb2dVertex
 10
-214.9866426331196
 20
-116.2530822310868
 30
0.0
  0
VERTEX
  5
7D
330
6F
100
AcDbEntity
  8
Bake
100
AcDbVertex
100
AcDb2dVertex
 10
-215.2443648608473
 20
-116.1086301774687
 30
0.0
  0
VERTEX
  5
7E
330
6F
100
AcDbEntity
  8
Bake
100
AcDbVertex
100
AcDb2dVertex
 10
-215.3717389241014
 20
-116.0327861761874
 30
0.0
  0
VERTEX
  5
7F
330
6F
100
AcDbEntity
  8
Bake
100
AcDbVertex
100
AcDb2dVertex
 10
-215.4983303291399
 20
-115.9542156093945
 30
0.0
  0
VERTEX
  5
80
330
6F
100
AcDbEntity
  8
Bake
100
AcDbVertex
100
AcDb2dVertex
 10
-215.6242956076059
 20
-115.8726825401922
 30
0.0
  0
VERTEX
  5
81
330
6F
100
AcDbEntity
  8
Bake
100
AcDbVertex
100
AcDb2dVertex
 10
-215.7497912911425
 20
-115.787951031683
 30
0.0
  0
VERTEX
  5
82
330
6F
100
AcDbEntity
  8
Bake
100
AcDbVertex
100
AcDb2dVertex
 10
-215.8749739113928
 20
-115.699785146969
 30
0.0
  0
VERTEX
  5
83
330
6F
100
AcDbEntity
  8
Bake
100
AcDbVertex
100
AcDb2dVertex
 10
-215.9999999999999
 20
-115.6079489491527
 30
0.0
  0
VERTEX
  5
84
330
6F
100
AcDbEntity
  8
Bake
100
AcDbVertex
100
AcDb2dVertex
 10
-216.1249999999999
 20
-115.5122635099458
 30
0.0
  0
VERTEX
  5
85
330
6F
100
AcDbEntity
  8
Bake
100
AcDbVertex
100
AcDb2dVertex
 10
-216.2499999999999
 20
-115.4127779354977
 30
0.0
  0
VERTEX
  5
86
330
6F
100
AcDbEntity
  8
Bake
100
AcDbVertex
100
AcDb2dVertex
 10
-216.4999999999999
 20
-115.2028308399122
 30
0.0
  0
VERTEX
  5
87
330
6F
100
AcDbEntity
  8
Bake
100
AcDbVertex
100
AcDb2dVertex
 10
-216.7499999999999
 20
-114.978956580466
 30
0.0
  0
VERTEX
  5
88
330
6F
100
AcDbEntity
  8
Bake
100
AcDbVertex
100
AcDb2dVertex
 10
-216.9999999999999
 20
-114.7420040752286
 30
0.0
  0
VERTEX
  5
89
330
6F
100
AcDbEntity
  8
Bake
100
AcDbVertex
100
AcDb2dVertex
 10
-217.2499999999999
 20
-114.4928222422697
 30
0.0
  0
VERTEX
  5
8A
330
6F
100
AcDbEntity
  8
Bake
100
AcDbVertex
100
AcDb2dVertex
 10
-217.4999999999999
 20
-114.2322599996589
 30
0.0
  0
VERTEX
  5
8B
330
6F
100
AcDbEntity
  8
Bake
100
AcDbVertex
100
AcDb2dVertex
 10
-217.7499999999999
 20
-113.9611662654658
 30
0.0
  0
VERTEX
  5
8C
330
6F
100
AcDbEntity
  8
Bake
100
AcDbVertex
100
AcDb2dVertex
 10
-218.9999999999999
 20
-112.524550182232
 30
0.0
  0
VERTEX
  5
8D
330
6F
100
AcDbEntity
  8
Bake
100
AcDbVertex
100
AcDb2dVertex
 10
-219.2499999999999
 20
-112.252999193176
 30
0.0
  0
VERTEX
  5
8E
330
6F
100
AcDbEntity
  8
Bake
100
AcDbVertex
100
AcDb2dVertex
 10
-219.3749999999999
 20
-112.1234552421033
 30
0.0
  0
VERTEX
  5
8F
330
6F
100
AcDbEntity
  8
Bake
100
AcDbVertex
100
AcDb2dVertex
 10
-219.4999999999999
 20
-111.9989432776326
 30
0.0
  0
VERTEX
  5
90
330
6F
100
AcDbEntity
  8
Bake
100
AcDbVertex
100
AcDb2dVertex
 10
-219.6249999999999
 20
-111.880121517988
 30
0.0
  0
VERTEX
  5
91
330
6F
100
AcDbEntity
  8
Bake
100
AcDbVertex
100
AcDb2dVertex
 10
-219.7499999999999
 20
-111.7676481813931
 30
0.0
  0
VERTEX
  5
92
330
6F
100
AcDbEntity
  8
Bake
100
AcDbVertex
100
AcDb2dVertex
 10
-219.8749999999999
 20
-111.662181486072
 30
0.0
  0
VERTEX
  5
93
330
6F
100
AcDbEntity
  8
Bake
100
AcDbVertex
100
AcDb2dVertex
 10
-219.9374999999999
 20
-111.6122813220841
 30
0.0
  0
VERTEX
  5
94
330
6F
100
AcDbEntity
  8
Bake
100
AcDbVertex
100
AcDb2dVertex
 10
-219.9999999999999
 20
-111.5643796502486
 30
0.0
  0
VERTEX
  5
95
330
6F
100
AcDbEntity
  8
Bake
100
AcDbVertex
100
AcDb2dVertex
 10
-220.0625249337149
 20
-111.5185287789526
 30
0.0
  0
VERTEX
  5
96
330
6F
100
AcDbEntity
  8
Bake
100
AcDbVertex
100
AcDb2dVertex
 10
-220.12519946972
 20
-111.47466114102
 30
0.0
  0
VERTEX
  5
97
330
6F
100
AcDbEntity
  8
Bake
100
AcDbVertex
100
AcDb2dVertex
 10
-220.1881732103053
 20
-111.4326792003836
 30
0.0
  0
VERTEX
  5
98
330
6F
100
AcDbEntity
  8
Bake
100
AcDbVertex
100
AcDb2dVertex
 10
-220.2515957577608
 20
-111.3924854209765
 30
0.0
  0
VERTEX
  5
99
330
6F
100
AcDbEntity
  8
Bake
100
AcDbVertex
100
AcDb2dVertex
 10
-220.3156167143765
 20
-111.3539822667315
 30
0.0
  0
VERTEX
  5
9A
330
6F
100
AcDbEntity
  8
Bake
100
AcDbVertex
100
AcDb2dVertex
 10
-220.3803856824427
 20
-111.3170722015817
 30
0.0
  0
VERTEX
  5
9B
330
6F
100
AcDbEntity
  8
Bake
100
AcDbVertex
100
AcDb2dVertex
 10
-220.4460522642494
 20
-111.28165768946
 30
0.0
  0
VERTEX
  5
9C
330
6F
100
AcDbEntity
  8
Bake
100
AcDbVertex
100
AcDb2dVertex
 10
-220.5127660620866
 20
-111.2476411942993
 30
0.0
  0
VERTEX
  5
9D
330
6F
100
AcDbEntity
  8
Bake
100
AcDbVertex
100
AcDb2dVertex
 10
-220.5806766782444
 20
-111.2149251800326
 30
0.0
  0
VERTEX
  5
9E
330
6F
100
AcDbEntity
  8
Bake
100
AcDbVertex
100
AcDb2dVertex
 10
-220.649933715013
 20
-111.1834121105929
 30
0.0
  0
VERTEX
  5
9F
330
6F
100
AcDbEntity
  8
Bake
100
AcDbVertex
100
AcDb2dVertex
 10
-220.7206867746823
 20
-111.153004449913
 30
0.0
  0
VERTEX
  5
A0
330
6F
100
AcDbEntity
  8
Bake
100
AcDbVertex
100
AcDb2dVertex
 10
-220.7930854595425
 20
-111.123604661926
 30
0.0
  0
VERTEX
  5
A1
330
6F
100
AcDbEntity
  8
Bake
100
AcDbVertex
100
AcDb2dVertex
 10
-220.8672793718837
 20
-111.0951152105648
 30
0.0
  0
VERTEX
  5
A2
330
6F
100
AcDbEntity
  8
Bake
100
AcDbVertex
100
AcDb2dVertex
 10
-220.9434181139958
 20
-111.0674385597623
 30
0.0
  0
VERTEX
  5
A3
330
6F
100
AcDbEntity
  8
Bake
100
AcDbVertex
100
AcDb2dVertex
 10
-221.1021284966935
 20
-111.0141335155654
 30
0.0
  0
VERTEX
  5
A4
330
6F
100
AcDbEntity
  8
Bake
100
AcDbVertex
100
AcDb2dVertex
 10
-221.2704134259562
 20
-110.9629092407988
 30
0.0
  0
VERTEX
  5
A5
330
6F
100
AcDbEntity
  8
Bake
100
AcDbVertex
100
AcDb2dVertex
 10
-221.4494697201046
 20
-110.9129854469263
 30
0.0
  0
VERTEX
  5
A6
330
6F
100
AcDbEntity
  8
Bake
100
AcDbVertex
100
AcDb2dVertex
 10
-221.8446836763407
 20
-110.8139181477175
 30
0.0
  0
VERTEX
  5
A7
330
6F
100
AcDbEntity
  8
Bake
100
AcDbVertex
100
AcDb2dVertex
 10
-223.4056222932736
 20
-110.4632821508825
 30
0.0
  0
VERTEX
  5
A8
330
6F
100
AcDbEntity
  8
Bake
100
AcDbVertex
100
AcDb2dVertex
 10
-223.7172255491764
 20
-110.3816475728287
 30
0.0
  0
VERTEX
  5
A9
330
6F
100
AcDbEntity
  8
Bake
100
AcDbVertex
100
AcDb2dVertex
 10
-223.8753556309984
 20
-110.3356550677081
 30
0.0
  0
VERTEX
  5
AA
330
6F
100
AcDbEntity
  8
Bake
100
AcDbVertex
100
AcDb2dVertex
 10
-224.0342768458237
 20
-110.2856454163256
 30
0.0
  0
VERTEX
  5
AB
330
6F
100
AcDbEntity
  8
Bake
100
AcDbVertex
100
AcDb2dVertex
 10
-224.1934183164696
 20
-110.2311933670317
 30
0.0
  0
VERTEX
  5
AC
330
6F
100
AcDbEntity
  8
Bake
100
AcDbVertex
100
AcDb2dVertex
 10
-224.3522091657534
 20
-110.1718736681769
 30
0.0
  0
VERTEX
  5
AD
330
6F
100
AcDbEntity
  8
Bake
100
AcDbVertex
100
AcDb2dVertex
 10
-224.5100785164924
 20
-110.1072610681116
 30
0.0
  0
VERTEX
  5
AE
330
6F
100
AcDbEntity
  8
Bake
100
AcDbVertex
100
AcDb2dVertex
 10
-224.588489230788
 20
-110.0728370389846
 30
0.0
  0
VERTEX
  5
AF
330
6F
100
AcDbEntity
  8
Bake
100
AcDbVertex
100
AcDb2dVertex
 10
-224.6664554915038
 20
-110.0369303151864
 30
0.0
  0
VERTEX
  5
B0
330
6F
100
AcDbEntity
  8
Bake
100
AcDbVertex
100
AcDb2dVertex
 10
-224.743905938992
 20
-109.9994877402608
 30
0.0
  0
VERTEX
  5
B1
330
6F
100
AcDbEntity
  8
Bake
100
AcDbVertex
100
AcDb2dVertex
 10
-224.8207692136049
 20
-109.9604561577517
 30
0.0
  0
VERTEX
  5
B2
330
6F
100
AcDbEntity
  8
Bake
100
AcDbVertex
100
AcDb2dVertex
 10
-224.8969739556945
 20
-109.9197824112028
 30
0.0
  0
VERTEX
  5
B3
330
6F
100
AcDbEntity
  8
Bake
100
AcDbVertex
100
AcDb2dVertex
 10
-224.9724488056129
 20
-109.8774133441579
 30
0.0
  0
VERTEX
  5
B4
330
6F
100
AcDbEntity
  8
Bake
100
AcDbVertex
100
AcDb2dVertex
 10
-225.0471224037125
 20
-109.833295800161
 30
0.0
  0
VERTEX
  5
B5
330
6F
100
AcDbEntity
  8
Bake
100
AcDbVertex
100
AcDb2dVertex
 10
-225.1209233903452
 20
-109.7873766227557
 30
0.0
  0
VERTEX
  5
B6
330
6F
100
AcDbEntity
  8
Bake
100
AcDbVertex
100
AcDb2dVertex
 10
-225.1937804058633
 20
-109.7396026554858
 30
0.0
  0
VERTEX
  5
B7
330
6F
100
AcDbEntity
  8
Bake
100
AcDbVertex
100
AcDb2dVertex
 10
-225.2656220906189
 20
-109.6899207418953
 30
0.0
  0
VERTEX
  5
B8
330
6F
100
AcDbEntity
  8
Bake
100
AcDbVertex
100
AcDb2dVertex
 10
-225.3363770849642
 20
-109.6382777255279
 30
0.0
  0
VERTEX
  5
B9
330
6F
100
AcDbEntity
  8
Bake
100
AcDbVertex
100
AcDb2dVertex
 10
-225.4059740292514
 20
-109.5846204499273
 30
0.0
  0
VERTEX
  5
BA
330
6F
100
AcDbEntity
  8
Bake
100
AcDbVertex
100
AcDb2dVertex
 10
-225.4743415638326
 20
-109.5288957586375
 30
0.0
  0
VERTEX
  5
BB
330
6F
100
AcDbEntity
  8
Bake
100
AcDbVertex
100
AcDb2dVertex
 10
-225.5414083290599
 20
-109.4710504952023
 30
0.0
  0
VERTEX
  5
BC
330
6F
100
AcDbEntity
  8
Bake
100
AcDbVertex
100
AcDb2dVertex
 10
-225.6071029652855
 20
-109.4110315031653
 30
0.0
  0
VERTEX
  5
BD
330
6F
100
AcDbEntity
  8
Bake
100
AcDbVertex
100
AcDb2dVertex
 10
-225.6713541128616
 20
-109.3487856260705
 30
0.0
  0
VERTEX
  5
BE
330
6F
100
AcDbEntity
  8
Bake
100
AcDbVertex
100
AcDb2dVertex
 10
-225.7340904121404
 20
-109.2842597074617
 30
0.0
  0
VERTEX
  5
BF
330
6F
100
AcDbEntity
  8
Bake
100
AcDbVertex
100
AcDb2dVertex
 10
-225.7952405034739
 20
-109.2174005908827
 30
0.0
  0
VERTEX
  5
C0
330
6F
100
AcDbEntity
  8
Bake
100
AcDbVertex
100
AcDb2dVertex
 10
-225.8547330272144
 20
-109.1481551198772
 30
0.0
  0
VERTEX
  5
C1
330
6F
100
AcDbEntity
  8
Bake
100
AcDbVertex
100
AcDb2dVertex
 10
-225.912496623714
 20
-109.0764701379891
 30
0.0
  0
VERTEX
  5
C2
330
6F
100
AcDbEntity
  8
Bake
100
AcDbVertex
100
AcDb2dVertex
 10
-225.9684599333249
 20
-109.0022924887622
 30
0.0
  0
VERTEX
  5
C3
330
6F
100
AcDbEntity
  8
Bake
100
AcDbVertex
100
AcDb2dVertex
 10
-226.0225515963992
 20
-108.9255690157403
 30
0.0
  0
VERTEX
  5
C4
330
6F
100
AcDbEntity
  8
Bake
100
AcDbVertex
100
AcDb2dVertex
 10
-226.0747002532891
 20
-108.8462465624672
 30
0.0
  0
VERTEX
  5
C5
330
6F
100
AcDbEntity
  8
Bake
100
AcDbVertex
100
AcDb2dVertex
 10
-226.1248345443467
 20
-108.7642719724867
 30
0.0
  0
VERTEX
  5
C6
330
6F
100
AcDbEntity
  8
Bake
100
AcDbVertex
100
AcDb2dVertex
 10
-226.1728831099242
 20
-108.6795920893427
 30
0.0
  0
VERTEX
  5
C7
330
6F
100
AcDbEntity
  8
Bake
100
AcDbVertex
100
AcDb2dVertex
 10
-226.2187745903738
 20
-108.5921537565789
 30
0.0
  0
VERTEX
  5
C8
330
6F
100
AcDbEntity
  8
Bake
100
AcDbVertex
100
AcDb2dVertex
 10
-226.2624376260476
 20
-108.5019038177391
 30
0.0
  0
VERTEX
  5
C9
330
6F
100
AcDbEntity
  8
Bake
100
AcDbVertex
100
AcDb2dVertex
 10
-226.3038008572977
 20
-108.4087891163672
 30
0.0
  0
VERTEX
  5
CA
330
6F
100
AcDbEntity
  8
Bake
100
AcDbVertex
100
AcDb2dVertex
 10
-226.3427929244764
 20
-108.312756496007
 30
0.0
  0
VERTEX
  5
CB
330
6F
100
AcDbEntity
  8
Bake
100
AcDbVertex
100
AcDb2dVertex
 10
-226.3793424679358
 20
-108.2137528002023
 30
0.0
  0
VERTEX
  5
CC
330
6F
100
AcDbEntity
  8
Bake
100
AcDbVertex
100
AcDb2dVertex
 10
-226.4133781280281
 20
-108.1117248724969
 30
0.0
  0
VERTEX
  5
CD
330
6F
100
AcDbEntity
  8
Bake
100
AcDbVertex
100
AcDb2dVertex
 10
-226.4448285451053
 20
-108.0066195564345
 30
0.0
  0
VERTEX
  5
CE
330
6F
100
AcDbEntity
  8
Bake
100
AcDbVertex
100
AcDb2dVertex
 10
-226.4736223595197
 20
-107.8983836955591
 30
0.0
  0
VERTEX
  5
CF
330
6F
100
AcDbEntity
  8
Bake
100
AcDbVertex
100
AcDb2dVertex
 10
-226.4996882116234
 20
-107.7869641334143
 30
0.0
  0
VERTEX
  5
D0
330
6F
100
AcDbEntity
  8
Bake
100
AcDbVertex
100
AcDb2dVertex
 10
-226.5229547417686
 20
-107.6723077135441
 30
0.0
  0
VERTEX
  5
D1
330
6F
100
AcDbEntity
  8
Bake
100
AcDbVertex
100
AcDb2dVertex
 10
-226.5433505903074
 20
-107.5543612794923
 30
0.0
  0
VERTEX
  5
D2
330
6F
100
AcDbEntity
  8
Bake
100
AcDbVertex
100
AcDb2dVertex
 10
-226.5608043975921
 20
-107.4330716748025
 30
0.0
  0
VERTEX
  5
D3
330
6F
100
AcDbEntity
  8
Bake
100
AcDbVertex
100
AcDb2dVertex
 10
-226.5752448039747
 20
-107.3083857430188
 30
0.0
  0
VERTEX
  5
D4
330
6F
100
AcDbEntity
  8
Bake
100
AcDbVertex
100
AcDb2dVertex
 10
-226.5866004498074
 20
-107.1802503276847
 30
0.0
  0
VERTEX
  5
D5
330
6F
100
AcDbEntity
  8
Bake
100
AcDbVertex
100
AcDb2dVertex
 10
-226.5947999754424
 20
-107.0486122723443
 30
0.0
  0
VERTEX
  5
D6
330
6F
100
AcDbEntity
  8
Bake
100
AcDbVertex
100
AcDb2dVertex
 10
-226.5997720212318
 20
-106.9134184205412
 30
0.0
  0
VERTEX
  5
D7
330
6F
100
AcDbEntity
  8
Bake
100
AcDbVertex
100
AcDb2dVertex
 10
-226.6014452275278
 20
-106.7746156158194
 30
0.0
  0
VERTEX
  5
D8
330
6F
100
AcDbEntity
  8
Bake
100
AcDbVertex
100
AcDb2dVertex
 10
-226.6014452275278
 20
-75.92556981211266
 30
0.0
  0
VERTEX
  5
D9
330
6F
100
AcDbEntity
  8
Bake
100
AcDbVertex
100
AcDb2dVertex
 10
-226.973810519931
 20
-75.63505272575173
 30
0.0
  0
VERTEX
  5
DA
330
6F
100
AcDbEntity
  8
Bake
100
AcDbVertex
100
AcDb2dVertex
 10
-227.3271126116592
 20
-75.34756523418191
 30
0.0
  0
VERTEX
  5
DB
330
6F
100
AcDbEntity
  8
Bake
100
AcDbVertex
100
AcDb2dVertex
 10
-227.6619551158598
 20
-75.0626250011546
 30
0.0
  0
VERTEX
  5
DC
330
6F
100
AcDbEntity
  8
Bake
100
AcDbVertex
100
AcDb2dVertex
 10
-227.9789416456802
 20
-74.77974969042116
 30
0.0
  0
VERTEX
  5
DD
330
6F
100
AcDbEntity
  8
Bake
100
AcDbVertex
100
AcDb2dVertex
 10
-228.2786758142679
 20
-74.49845696573297
 30
0.0
  0
VERTEX
  5
DE
330
6F
100
AcDbEntity
  8
Bake
100
AcDbVertex
100
AcDb2dVertex
 10
-228.5617612347704
 20
-74.21826449084142
 30
0.0
  0
VERTEX
  5
DF
330
6F
100
AcDbEntity
  8
Bake
100
AcDbVertex
100
AcDb2dVertex
 10
-228.828801520335
 20
-73.93868992949788
 30
0.0
  0
VERTEX
  5
E0
330
6F
100
AcDbEntity
  8
Bake
100
AcDbVertex
100
AcDb2dVertex
 10
-229.0804002841094
 20
-73.65925094545376
 30
0.0
  0
VERTEX
  5
E1
330
6F
100
AcDbEntity
  8
Bake
100
AcDbVertex
100
AcDb2dVertex
 10
-229.3171611392409
 20
-73.37946520246042
 30
0.0
  0
VERTEX
  5
E2
330
6F
100
AcDbEntity
  8
Bake
100
AcDbVertex
100
AcDb2dVertex
 10
-229.5396876988769
 20
-73.09885036426923
 30
0.0
  0
VERTEX
  5
E3
330
6F
100
AcDbEntity
  8
Bake
100
AcDbVertex
100
AcDb2dVertex
 10
-229.7485835761649
 20
-72.81692409463159
 30
0.0
  0
VERTEX
  5
E4
330
6F
100
AcDbEntity
  8
Bake
100
AcDbVertex
100
AcDb2dVertex
 10
-229.9444523842524
 20
-72.53320405729886
 30
0.0
  0
VERTEX
  5
E5
330
6F
100
AcDbEntity
  8
Bake
100
AcDbVertex
100
AcDb2dVertex
 10
-230.1278977362869
 20
-72.24720791602243
 30
0.0
  0
VERTEX
  5
E6
330
6F
100
AcDbEntity
  8
Bake
100
AcDbVertex
100
AcDb2dVertex
 10
-230.2995232454157
 20
-71.9584533345537
 30
0.0
  0
VERTEX
  5
E7
330
6F
100
AcDbEntity
  8
Bake
100
AcDbVertex
100
AcDb2dVertex
 10
-230.4599325247864
 20
-71.66645797664401
 30
0.0
  0
VERTEX
  5
E8
330
6F
100
AcDbEntity
  8
Bake
100
AcDbVertex
100
AcDb2dVertex
 10
-230.6097291875464
 20
-71.3707395060448
 30
0.0
  0
VERTEX
  5
E9
330
6F
100
AcDbEntity
  8
Bake
100
AcDbVertex
100
AcDb2dVertex
 10
-230.7495168468431
 20
-71.07081558650741
 30
0.0
  0
VERTEX
  5
EA
330
6F
100
AcDbEntity
  8
Bake
100
AcDbVertex
100
AcDb2dVertex
 10
-230.8798991158241
 20
-70.76620388178321
 30
0.0
  0
VERTEX
  5
EB
330
6F
100
AcDbEntity
  8
Bake
100
AcDbVertex
100
AcDb2dVertex
 10
-231.0014796076367
 20
-70.45642205562359
 30
0.0
  0
VERTEX
  5
EC
330
6F
100
AcDbEntity
  8
Bake
100
AcDbVertex
100
AcDb2dVertex
 10
-231.1148619354285
 20
-70.14098777177995
 30
0.0
  0
VERTEX
  5
ED
330
6F
100
AcDbEntity
  8
Bake
100
AcDbVertex
100
AcDb2dVertex
 10
-231.2206497123468
 20
-69.81941869400364
 30
0.0
  0
VERTEX
  5
EE
330
6F
100
AcDbEntity
  8
Bake
100
AcDbVertex
100
AcDb2dVertex
 10
-231.3194465515391
 20
-69.49123248604607
 30
0.0
  0
VERTEX
  5
EF
330
6F
100
AcDbEntity
  8
Bake
100
AcDbVertex
100
AcDb2dVertex
 10
-231.4118560661529
 20
-69.1559468116586
 30
0.0
  0
VERTEX
  5
F0
330
6F
100
AcDbEntity
  8
Bake
100
AcDbVertex
100
AcDb2dVertex
 10
-231.4984818693356
 20
-68.81307933459263
 30
0.0
  0
VERTEX
  5
F1
330
6F
100
AcDbEntity
  8
Bake
100
AcDbVertex
100
AcDb2dVertex
 10
-231.6567967939977
 20
-68.10266962743069
 30
0.0
  0
VERTEX
  5
F2
330
6F
100
AcDbEntity
  8
Bake
100
AcDbVertex
100
AcDb2dVertex
 10
-231.799220230705
 20
-67.35614467457124
 30
0.0
  0
VERTEX
  5
F3
330
6F
100
AcDbEntity
  8
Bake
100
AcDbVertex
100
AcDb2dVertex
 10
-233.5387186961422
 20
-55.43251779840311
 30
0.0
  0
VERTEX
  5
F4
330
6F
100
AcDbEntity
  8
Bake
100
AcDbVertex
100
AcDb2dVertex
 10
-233.9858655604125
 20
-53.12258473258566
 30
0.0
  0
VERTEX
  5
F5
330
6F
100
AcDbEntity
  8
Bake
100
AcDbVertex
100
AcDb2dVertex
 10
-234.2406220135714
 20
-51.96045776361918
 30
0.0
  0
VERTEX
  5
F6
330
6F
100
AcDbEntity
  8
Bake
100
AcDbVertex
100
AcDb2dVertex
 10
-234.5187035420525
 20
-50.79846204965715
 30
0.0
  0
VERTEX
  5
F7
330
6F
100
AcDbEntity
  8
Bake
100
AcDbVertex
100
AcDb2dVertex
 10
-234.8220124418357
 20
-49.64027624998178
 30
0.0
  0
VERTEX
  5
F8
330
6F
100
AcDbEntity
  8
Bake
100
AcDbVertex
100
AcDb2dVertex
 10
-235.1524510089009
 20
-48.48957902387529
 30
0.0
  0
VERTEX
  5
F9
330
6F
100
AcDbEntity
  8
Bake
100
AcDbVertex
100
AcDb2dVertex
 10
-235.5116008212345
 20
-47.34900498490835
 30
0.0
  0
VERTEX
  5
FA
330
6F
100
AcDbEntity
  8
Bake
100
AcDbVertex
100
AcDb2dVertex
 10
-235.8997605848494
 20
-46.21701256380545
 30
0.0
  0
VERTEX
  5
FB
330
6F
100
AcDbEntity
  8
Bake
100
AcDbVertex
100
AcDb2dVertex
 10
-236.3169082877652
 20
-45.09101614557953
 30
0.0
  0
VERTEX
  5
FC
330
6F
100
AcDbEntity
  8
Bake
100
AcDbVertex
100
AcDb2dVertex
 10
-236.7630219180015
 20
-43.96843011524356
 30
0.0
  0
VERTEX
  5
FD
330
6F
100
AcDbEntity
  8
Bake
100
AcDbVertex
100
AcDb2dVertex
 10
-237.2380794635777
 20
-42.84666885781047
 30
0.0
  0
VERTEX
  5
FE
330
6F
100
AcDbEntity
  8
Bake
100
AcDbVertex
100
AcDb2dVertex
 10
-237.7420589125134
 20
-41.72314675829322
 30
0.0
  0
VERTEX
  5
FF
330
6F
100
AcDbEntity
  8
Bake
100
AcDbVertex
100
AcDb2dVertex
 10
-238.2749382528281
 20
-40.59527820170475
 30
0.0
  0
VERTEX
  5
100
330
6F
100
AcDbEntity
  8
Bake
100
AcDbVertex
100
AcDb2dVertex
 10
-238.8366954725414
 20
-39.46047757305801
 30
0.0
  0
VERTEX
  5
101
330
6F
100
AcDbEntity
  8
Bake
100
AcDbVertex
100
AcDb2dVertex
 10
-240.0467555022418
 20
-37.15973763964153
 30
0.0
  0
VERTEX
  5
102
330
6F
100
AcDbEntity
  8
Bake
100
AcDbVertex
100
AcDb2dVertex
 10
-241.3720629057708
 20
-34.80024203814737
 30
0.0
  0
VERTEX
  5
103
330
6F
100
AcDbEntity
  8
Bake
100
AcDbVertex
100
AcDb2dVertex
 10
-246.0245585030828
 20
-27.15568639752036
 30
0.0
  0
VERTEX
  5
104
330
6F
100
AcDbEntity
  8
Bake
100
AcDbVertex
100
AcDb2dVertex
 10
-247.7170451588203
 20
-24.30751952375123
 30
0.0
  0
VERTEX
  5
105
330
6F
100
AcDbEntity
  8
Bake
100
AcDbVertex
100
AcDb2dVertex
 10
-248.5519437496924
 20
-22.7963330755788
 30
0.0
  0
VERTEX
  5
106
330
6F
100
AcDbEntity
  8
Bake
100
AcDbVertex
100
AcDb2dVertex
 10
-249.3660999354496
 20
-21.21694483785074
 30
0.0
  0
VERTEX
  5
107
330
6F
100
AcDbEntity
  8
Bake
100
AcDbVertex
100
AcDb2dVertex
 10
-249.762310740367
 20
-20.39930009898999
 30
0.0
  0
VERTEX
  5
108
330
6F
100
AcDbEntity
  8
Bake
100
AcDbVertex
100
AcDb2dVertex
 10
-250.149629280754
 20
-19.56175497404429
 30
0.0
  0
VERTEX
  5
109
330
6F
100
AcDbEntity
  8
Bake
100
AcDbVertex
100
AcDb2dVertex
 10
-250.5268200021934
 20
-18.7033594834483
 30
0.0
  0
VERTEX
  5
10A
330
6F
100
AcDbEntity
  8
Bake
100
AcDbVertex
100
AcDb2dVertex
 10
-250.8926473502679
 20
-17.82316364763666
 30
0.0
  0
VERTEX
  5
10B
330
6F
100
AcDbEntity
  8
Bake
100
AcDbVertex
100
AcDb2dVertex
 10
-251.2458757705602
 20
-16.92021748704404
 30
0.0
  0
VERTEX
  5
10C
330
6F
100
AcDbEntity
  8
Bake
100
AcDbVertex
100
AcDb2dVertex
 10
-251.5852697086532
 20
-15.99357102210508
 30
0.0
  0
VERTEX
  5
10D
330
6F
100
AcDbEntity
  8
Bake
100
AcDbVertex
100
AcDb2dVertex
 10
-251.9095936101296
 20
-15.04227427325444
 30
0.0
  0
VERTEX
  5
10E
330
6F
100
AcDbEntity
  8
Bake
100
AcDbVertex
100
AcDb2dVertex
 10
-252.2176119205722
 20
-14.06537726092677
 30
0.0
  0
VERTEX
  5
10F
330
6F
100
AcDbEntity
  8
Bake
100
AcDbVertex
100
AcDb2dVertex
 10
-252.5080890855637
 20
-13.06193000555672
 30
0.0
  0
VERTEX
  5
110
330
6F
100
AcDbEntity
  8
Bake
100
AcDbVertex
100
AcDb2dVertex
 10
-252.779789550687
 20
-12.03098252757895
 30
0.0
  0
VERTEX
  5
111
330
6F
100
AcDbEntity
  8
Bake
100
AcDbVertex
100
AcDb2dVertex
 10
-253.0314777615247
 20
-10.97158484742811
 30
0.0
  0
VERTEX
  5
112
330
6F
100
AcDbEntity
  8
Bake
100
AcDbVertex
100
AcDb2dVertex
 10
-253.2619181636597
 20
-9.882786985538843
 30
0.0
  0
VERTEX
  5
113
330
6F
100
AcDbEntity
  8
Bake
100
AcDbVertex
100
AcDb2dVertex
 10
-253.4698752026748
 20
-8.763638962345814
 30
0.0
  0
VERTEX
  5
114
330
6F
100
AcDbEntity
  8
Bake
100
AcDbVertex
100
AcDb2dVertex
 10
-253.6541133241526
 20
-7.613190798283672
 30
0.0
  0
VERTEX
  5
115
330
6F
100
AcDbEntity
  8
Bake
100
AcDbVertex
100
AcDb2dVertex
 10
-253.813396973676
 20
-6.430492513787067
 30
0.0
  0
VERTEX
  5
116
330
6F
100
AcDbEntity
  8
Bake
100
AcDbVertex
100
AcDb2dVertex
 10
-253.9464905968277
 20
-5.214594129290656
 30
0.0
  0
VERTEX
  5
117
330
6F
100
AcDbEntity
  8
Bake
100
AcDbVertex
100
AcDb2dVertex
 10
-254.0521586391905
 20
-3.96454566522909
 30
0.0
  0
VERTEX
  5
118
330
6F
100
AcDbEntity
  8
Bake
100
AcDbVertex
100
AcDb2dVertex
 10
-254.1291655463472
 20
-2.67939714203702
 30
0.0
  0
VERTEX
  5
119
330
6F
100
AcDbEntity
  8
Bake
100
AcDbVertex
100
AcDb2dVertex
 10
-254.1762757638805
 20
-1.358198580149101
 30
0.0
  0
VERTEX
  5
11A
330
6F
100
AcDbEntity
  8
Bake
100
AcDbVertex
100
AcDb2dVertex
 10
-254.1922537373732
 20
0.0000000000000145
 30
0.0
 42
-0.4099752802203802
  0
VERTEX
  5
11B
330
6F
100
AcDbEntity
  8
Bake
100
AcDbVertex
100
AcDb2dVertex
 10
-208.9999999999999
 20
45.86174802054424
 30
0.0
  0
VERTEX
  5
11C
330
6F
100
AcDbEntity
  8
Bake
100
AcDbVertex
100
AcDb2dVertex
 10
-208.9999999999999
 20
30.8593722969388
 30
0.0
 42
0.4079044053058877
  0
VERTEX
  5
11D
330
6F
100
AcDbEntity
  8
Bake
100
AcDbVertex
100
AcDb2dVertex
 10
-239.1922537799529
 20
0.0007991836813491
 30
0.0
  0
VERTEX
  5
11E
330
6F
100
AcDbEntity
  8
Bake
100
AcDbVertex
100
AcDb2dVertex
 10
-239.1794188121987
 20
-1.047501211762514
 30
0.0
  0
VERTEX
  5
11F
330
6F
100
AcDbEntity
  8
Bake
100
AcDbVertex
100
AcDb2dVertex
 10
-239.1397848919378
 20
-2.095115798985811
 30
0.0
  0
VERTEX
  5
120
330
6F
100
AcDbEntity
  8
Bake
100
AcDbVertex
100
AcDb2dVertex
 10
-239.0783444721426
 20
-3.055844626618458
 30
0.0
  0
VERTEX
  5
121
330
6F
100
AcDbEntity
  8
Bake
100
AcDbVertex
100
AcDb2dVertex
 10
-238.9916145080842
 20
-4.014608826257594
 30
0.0
  0
VERTEX
  5
122
330
6F
100
AcDbEntity
  8
Bake
100
AcDbVertex
100
AcDb2dVertex
 10
-238.8884007796933
 20
-4.894244160241317
 30
0.0
  0
VERTEX
  5
123
330
6F
100
AcDbEntity
  8
Bake
100
AcDbVertex
100
AcDb2dVertex
 10
-238.7617312386322
 20
-5.770801057160474
 30
0.0
  0
VERTEX
  5
124
330
6F
100
AcDbEntity
  8
Bake
100
AcDbVertex
100
AcDb2dVertex
 10
-238.6229350407159
 20
-6.577813049072885
 30
0.0
  0
VERTEX
  5
125
330
6F
100
AcDbEntity
  8
Bake
100
AcDbVertex
100
AcDb2dVertex
 10
-238.4626890794183
 20
-7.380831815267173
 30
0.0
  0
VERTEX
  5
126
330
6F
100
AcDbEntity
  8
Bake
100
AcDbVertex
100
AcDb2dVertex
 10
-238.2923718512102
 20
-8.13001734923821
 30
0.0
  0
VERTEX
  5
127
330
6F
100
AcDbEntity
  8
Bake
100
AcDbVertex
100
AcDb2dVertex
 10
-238.1024649402698
 20
-8.874480012683094
 30
0.0
  0
VERTEX
  5
128
330
6F
100
AcDbEntity
  8
Bake
100
AcDbVertex
100
AcDb2dVertex
 10
-237.9028034300316
 20
-9.580042595161352
 30
0.0
  0
VERTEX
  5
129
330
6F
100
AcDbEntity
  8
Bake
100
AcDbVertex
100
AcDb2dVertex
 10
-237.6851950594749
 20
-10.28027027230731
 30
0.0
  0
VERTEX
  5
12A
330
6F
100
AcDbEntity
  8
Bake
100
AcDbVertex
100
AcDb2dVertex
 10
-237.4582654095214
 20
-10.95070575981621
 30
0.0
  0
VERTEX
  5
12B
330
6F
100
AcDbEntity
  8
Bake
100
AcDbVertex
100
AcDb2dVertex
 10
-237.2151887720806
 20
-11.61546960758254
 30
0.0
  0
VERTEX
  5
12C
330
6F
100
AcDbEntity
  8
Bake
100
AcDbVertex
100
AcDb2dVertex
 10
-236.9625693036845
 20
-12.2593316839816
 30
0.0
  0
VERTEX
  5
12D
330
6F
100
AcDbEntity
  8
Bake
100
AcDbVertex
100
AcDb2dVertex
 10
-236.6955885829024
 20
-12.89736839246613
 30
0.0
  0
VERTEX
  5
12E
330
6F
100
AcDbEntity
  8
Bake
100
AcDbVertex
100
AcDb2dVertex
 10
-236.4142169047185
 20
-13.5309440415567
 30
0.0
  0
VERTEX
  5
12F
330
6F
100
AcDbEntity
  8
Bake
100
AcDbVertex
100
AcDb2dVertex
 10
-236.1199965899642
 20
-14.15866938949482
 30
0.0
  0
VERTEX
  5
130
330
6F
100
AcDbEntity
  8
Bake
100
AcDbVertex
100
AcDb2dVertex
 10
-235.8139210125228
 20
-14.78074039376233
 30
0.0
  0
VERTEX
  5
131
330
6F
100
AcDbEntity
  8
Bake
100
AcDbVertex
100
AcDb2dVertex
 10
-235.4969835462776
 20
-15.39735301184106
 30
0.0
  0
VERTEX
  5
132
330
6F
100
AcDbEntity
  8
Bake
100
AcDbVertex
100
AcDb2dVertex
 10
-234.8052822391815
 20
-16.66761784724487
 30
0.0
  0
VERTEX
  5
133
330
6F
100
AcDbEntity
  8
Bake
100
AcDbVertex
100
AcDb2dVertex
 10
-234.0807236766332
 20
-17.91955442432916
 30
0.0
  0
VERTEX
  5
134
330
6F
100
AcDbEntity
  8
Bake
100
AcDbVertex
100
AcDb2dVertex
 10
-229.0212646422433
 20
-26.20307303952568
 30
0.0
  0
VERTEX
  5
135
330
6F
100
AcDbEntity
  8
Bake
100
AcDbVertex
100
AcDb2dVertex
 10
-227.3718913900873
 20
-29.08069921590646
 30
0.0
  0
VERTEX
  5
136
330
6F
100
AcDbEntity
  8
Bake
100
AcDbVertex
100
AcDb2dVertex
 10
-225.8157474053117
 20
-31.97772855249936
 30
0.0
  0
VERTEX
  5
137
330
6F
100
AcDbEntity
  8
Bake
100
AcDbVertex
100
AcDb2dVertex
 10
-225.0743892651076
 20
-33.4445745711138
 30
0.0
  0
VERTEX
  5
138
330
6F
100
AcDbEntity
  8
Bake
100
AcDbVertex
100
AcDb2dVertex
 10
-224.3609174136068
 20
-34.92516653249396
 30
0.0
  0
VERTEX
  5
139
330
6F
100
AcDbEntity
  8
Bake
100
AcDbVertex
100
AcDb2dVertex
 10
-223.6766807208886
 20
-36.42321109480034
 30
0.0
  0
VERTEX
  5
13A
330
6F
100
AcDbEntity
  8
Bake
100
AcDbVertex
100
AcDb2dVertex
 10
-223.0257459927656
 20
-37.93600034885046
 30
0.0
  0
VERTEX
  5
13B
330
6F
100
AcDbEntity
  8
Bake
100
AcDbVertex
100
AcDb2dVertex
 10
-222.4043060391093
 20
-39.47977512982254
 30
0.0
  0
VERTEX
  5
13C
330
6F
100
AcDbEntity
  8
Bake
100
AcDbVertex
100
AcDb2dVertex
 10
-221.8215193826651
 20
-41.0385418851468
 30
0.0
  0
VERTEX
  5
13D
330
6F
100
AcDbEntity
  8
Bake
100
AcDbVertex
100
AcDb2dVertex
 10
-221.2707068512861
 20
-42.6380209094668
 30
0.0
  0
VERTEX
  5
13E
330
6F
100
AcDbEntity
  8
Bake
100
AcDbVertex
100
AcDb2dVertex
 10
-220.7633123897108
 20
-44.25177270025787
 30
0.0
  0
VERTEX
  5
13F
330
6F
100
AcDbEntity
  8
Bake
100
AcDbVertex
100
AcDb2dVertex
 10
-220.3081228443416
 20
-45.84846350899984
 30
0.0
  0
VERTEX
  5
140
330
6F
100
AcDbEntity
  8
Bake
100
AcDbVertex
100
AcDb2dVertex
 10
-219.8930487827167
 20
-47.4560985610311
 30
0.0
  0
VERTEX
  5
141
330
6F
100
AcDbEntity
  8
Bake
100
AcDbVertex
100
AcDb2dVertex
 10
-219.5342447902389
 20
-48.98665281984849
 30
0.0
  0
VERTEX
  5
142
330
6F
100
AcDbEntity
  8
Bake
100
AcDbVertex
100
AcDb2dVertex
 10
-219.2058544147601
 20
-50.52403444907095
 30
0.0
  0
VERTEX
  5
143
330
6F
100
AcDbEntity
  8
Bake
100
AcDbVertex
100
AcDb2dVertex
 10
-218.6588630940753
 20
-53.44203753412047
 30
0.0
  0
VERTEX
  5
144
330
6F
100
AcDbEntity
  8
Bake
100
AcDbVertex
100
AcDb2dVertex
 10
-218.2193308574398
 20
-56.18843995522442
 30
0.0
  0
VERTEX
  5
145
330
6F
100
AcDbEntity
  8
Bake
100
AcDbVertex
100
AcDb2dVertex
 10
-217.1016858717469
 20
-64.30691412032803
 30
0.0
  0
VERTEX
  5
146
330
6F
100
AcDbEntity
  8
Bake
100
AcDbVertex
100
AcDb2dVertex
 10
-211.6014452275277
 20
-68.51298049531908
 30
0.0
  0
VERTEX
  5
147
330
6F
100
AcDbEntity
  8
Bake
100
AcDbVertex
100
AcDb2dVertex
 10
-211.6014452275277
 20
-79.9999999999999
 30
0.0
  0
SEQEND
  5
148
330
6F
100
AcDbEntity
  8
Bake
  0
POLYLINE
  5
149
330
1F
100
AcDbEntity
  8
Bake
100
AcDb2dPolyline
 66
     1
 10
0.0
 20
0.0
 30
0.0
  0
VERTEX
  5
14A
330
149
100
AcDbEntity
  8
Bake
100
AcDbVertex
100
AcDb2dVertex
 10
-171.6014452275278
 20
-103.0
 30
0.0
  0
VERTEX
  5
14B
330
149
100
AcDbEntity
  8
Bake
100
AcDbVertex
100
AcDb2dVertex
 10
-171.6014452275277
 20
-117.417060575252
 30
0.0
  0
VERTEX
  5
14C
330
149
100
AcDbEntity
  8
Bake
100
AcDbVertex
100
AcDb2dVertex
 10
-172.0328838093868
 20
-117.334582130977
 30
0.0
  0
VERTEX
  5
14D
330
149
100
AcDbEntity
  8
Bake
100
AcDbVertex
100
AcDb2dVertex
 10
-172.408052198145
 20
-117.2527829634923
 30
0.0
  0
VERTEX
  5
14E
330
149
100
AcDbEntity
  8
Bake
100
AcDbVertex
100
AcDb2dVertex
 10
-172.7343745471842
 20
-117.1715338305381
 30
0.0
  0
VERTEX
  5
14F
330
149
100
AcDbEntity
  8
Bake
100
AcDbVertex
100
AcDb2dVertex
 10
-173.019275009886
 20
-117.0907054898543
 30
0.0
  0
VERTEX
  5
150
330
149
100
AcDbEntity
  8
Bake
100
AcDbVertex
100
AcDb2dVertex
 10
-173.2701777396324
 20
-117.010168699181
 30
0.0
  0
VERTEX
  5
151
330
149
100
AcDbEntity
  8
Bake
100
AcDbVertex
100
AcDb2dVertex
 10
-173.4945068898052
 20
-116.9297942162584
 30
0.0
  0
VERTEX
  5
152
330
149
100
AcDbEntity
  8
Bake
100
AcDbVertex
100
AcDb2dVertex
 10
-173.6996866137862
 20
-116.8494527988265
 30
0.0
  0
VERTEX
  5
153
330
149
100
AcDbEntity
  8
Bake
100
AcDbVertex
100
AcDb2dVertex
 10
-174.1784128618757
 20
-116.6455382570182
 30
0.0
  0
VERTEX
  5
154
330
149
100
AcDbEntity
  8
Bake
100
AcDbVertex
100
AcDb2dVertex
 10
-174.4549188867788
 20
-116.5196487756802
 30
0.0
  0
VERTEX
  5
155
330
149
100
AcDbEntity
  8
Bake
100
AcDbVertex
100
AcDb2dVertex
 10
-174.7239113928118
 20
-116.3894592654302
 30
0.0
  0
VERTEX
  5
156
330
149
100
AcDbEntity
  8
Bake
100
AcDbVertex
100
AcDb2dVertex
 10
-174.9866426331196
 20
-116.2530822310868
 30
0.0
  0
VERTEX
  5
157
330
149
100
AcDbEntity
  8
Bake
100
AcDbVertex
100
AcDb2dVertex
 10
-175.2443648608473
 20
-116.1086301774687
 30
0.0
  0
VERTEX
  5
158
330
149
100
AcDbEntity
  8
Bake
100
AcDbVertex
100
AcDb2dVertex
 10
-175.3717389241014
 20
-116.0327861761874
 30
0.0
  0
VERTEX
  5
159
330
149
100
AcDbEntity
  8
Bake
100
AcDbVertex
100
AcDb2dVertex
 10
-175.4983303291399
 20
-115.9542156093945
 30
0.0
  0
VERTEX
  5
15A
330
149
100
AcDbEntity
  8
Bake
100
AcDbVertex
100
AcDb2dVertex
 10
-175.6242956076059
 20
-115.8726825401922
 30
0.0
  0
VERTEX
  5
15B
330
149
100
AcDbEntity
  8
Bake
100
AcDbVertex
100
AcDb2dVertex
 10
-175.7497912911425
 20
-115.787951031683
 30
0.0
  0
VERTEX
  5
15C
330
149
100
AcDbEntity
  8
Bake
100
AcDbVertex
100
AcDb2dVertex
 10
-175.8749739113928
 20
-115.699785146969
 30
0.0
  0
VERTEX
  5
15D
330
149
100
AcDbEntity
  8
Bake
100
AcDbVertex
100
AcDb2dVertex
 10
-175.9999999999999
 20
-115.6079489491527
 30
0.0
  0
VERTEX
  5
15E
330
149
100
AcDbEntity
  8
Bake
100
AcDbVertex
100
AcDb2dVertex
 10
-176.1249999999999
 20
-115.5122635099458
 30
0.0
  0
VERTEX
  5
15F
330
149
100
AcDbEntity
  8
Bake
100
AcDbVertex
100
AcDb2dVertex
 10
-176.2499999999999
 20
-115.4127779354977
 30
0.0
  0
VERTEX
  5
160
330
149
100
AcDbEntity
  8
Bake
100
AcDbVertex
100
AcDb2dVertex
 10
-176.4999999999999
 20
-115.2028308399122
 30
0.0
  0
VERTEX
  5
161
330
149
100
AcDbEntity
  8
Bake
100
AcDbVertex
100
AcDb2dVertex
 10
-176.7499999999999
 20
-114.978956580466
 30
0.0
  0
VERTEX
  5
162
330
149
100
AcDbEntity
  8
Bake
100
AcDbVertex
100
AcDb2dVertex
 10
-176.9999999999999
 20
-114.7420040752286
 30
0.0
  0
VERTEX
  5
163
330
149
100
AcDbEntity
  8
Bake
100
AcDbVertex
100
AcDb2dVertex
 10
-177.2499999999999
 20
-114.4928222422697
 30
0.0
  0
VERTEX
  5
164
330
149
100
AcDbEntity
  8
Bake
100
AcDbVertex
100
AcDb2dVertex
 10
-177.4999999999999
 20
-114.2322599996589
 30
0.0
  0
VERTEX
  5
165
330
149
100
AcDbEntity
  8
Bake
100
AcDbVertex
100
AcDb2dVertex
 10
-177.7499999999999
 20
-113.9611662654658
 30
0.0
  0
VERTEX
  5
166
330
149
100
AcDbEntity
  8
Bake
100
AcDbVertex
100
AcDb2dVertex
 10
-178.9999999999999
 20
-112.524550182232
 30
0.0
  0
VERTEX
  5
167
330
149
100
AcDbEntity
  8
Bake
100
AcDbVertex
100
AcDb2dVertex
 10
-179.2499999999999
 20
-112.252999193176
 30
0.0
  0
VERTEX
  5
168
330
149
100
AcDbEntity
  8
Bake
100
AcDbVertex
100
AcDb2dVertex
 10
-179.3749999999999
 20
-112.1234552421033
 30
0.0
  0
VERTEX
  5
169
330
149
100
AcDbEntity
  8
Bake
100
AcDbVertex
100
AcDb2dVertex
 10
-179.4999999999999
 20
-111.9989432776326
 30
0.0
  0
VERTEX
  5
16A
330
149
100
AcDbEntity
  8
Bake
100
AcDbVertex
100
AcDb2dVertex
 10
-179.6249999999999
 20
-111.880121517988
 30
0.0
  0
VERTEX
  5
16B
330
149
100
AcDbEntity
  8
Bake
100
AcDbVertex
100
AcDb2dVertex
 10
-179.7499999999999
 20
-111.7676481813931
 30
0.0
  0
VERTEX
  5
16C
330
149
100
AcDbEntity
  8
Bake
100
AcDbVertex
100
AcDb2dVertex
 10
-179.8749999999999
 20
-111.662181486072
 30
0.0
  0
VERTEX
  5
16D
330
149
100
AcDbEntity
  8
Bake
100
AcDbVertex
100
AcDb2dVertex
 10
-179.9374999999999
 20
-111.6122813220841
 30
0.0
  0
VERTEX
  5
16E
330
149
100
AcDbEntity
  8
Bake
100
AcDbVertex
100
AcDb2dVertex
 10
-179.9999999999999
 20
-111.5643796502486
 30
0.0
  0
VERTEX
  5
16F
330
149
100
AcDbEntity
  8
Bake
100
AcDbVertex
100
AcDb2dVertex
 10
-180.0625249337149
 20
-111.5185287789526
 30
0.0
  0
VERTEX
  5
170
330
149
100
AcDbEntity
  8
Bake
100
AcDbVertex
100
AcDb2dVertex
 10
-180.12519946972
 20
-111.47466114102
 30
0.0
  0
VERTEX
  5
171
330
149
100
AcDbEntity
  8
Bake
100
AcDbVertex
100
AcDb2dVertex
 10
-180.1881732103053
 20
-111.4326792003836
 30
0.0
  0
VERTEX
  5
172
330
149
100
AcDbEntity
  8
Bake
100
AcDbVertex
100
AcDb2dVertex
 10
-180.2515957577608
 20
-111.3924854209765
 30
0.0
  0
VERTEX
  5
173
330
149
100
AcDbEntity
  8
Bake
100
AcDbVertex
100
AcDb2dVertex
 10
-180.3156167143765
 20
-111.3539822667315
 30
0.0
  0
VERTEX
  5
174
330
149
100
AcDbEntity
  8
Bake
100
AcDbVertex
100
AcDb2dVertex
 10
-180.3803856824427
 20
-111.3170722015817
 30
0.0
  0
VERTEX
  5
175
330
149
100
AcDbEntity
  8
Bake
100
AcDbVertex
100
AcDb2dVertex
 10
-180.4460522642494
 20
-111.28165768946
 30
0.0
  0
VERTEX
  5
176
330
149
100
AcDbEntity
  8
Bake
100
AcDbVertex
100
AcDb2dVertex
 10
-180.5127660620866
 20
-111.2476411942993
 30
0.0
  0
VERTEX
  5
177
330
149
100
AcDbEntity
  8
Bake
100
AcDbVertex
100
AcDb2dVertex
 10
-180.5806766782445
 20
-111.2149251800326
 30
0.0
  0
VERTEX
  5
178
330
149
100
AcDbEntity
  8
Bake
100
AcDbVertex
100
AcDb2dVertex
 10
-180.649933715013
 20
-111.1834121105929
 30
0.0
  0
VERTEX
  5
179
330
149
100
AcDbEntity
  8
Bake
100
AcDbVertex
100
AcDb2dVertex
 10
-180.7206867746823
 20
-111.153004449913
 30
0.0
  0
VERTEX
  5
17A
330
149
100
AcDbEntity
  8
Bake
100
AcDbVertex
100
AcDb2dVertex
 10
-180.7930854595425
 20
-111.123604661926
 30
0.0
  0
VERTEX
  5
17B
330
149
100
AcDbEntity
  8
Bake
100
AcDbVertex
100
AcDb2dVertex
 10
-180.8672793718837
 20
-111.0951152105648
 30
0.0
  0
VERTEX
  5
17C
330
149
100
AcDbEntity
  8
Bake
100
AcDbVertex
100
AcDb2dVertex
 10
-180.9434181139958
 20
-111.0674385597623
 30
0.0
  0
VERTEX
  5
17D
330
149
100
AcDbEntity
  8
Bake
100
AcDbVertex
100
AcDb2dVertex
 10
-181.1021284966935
 20
-111.0141335155654
 30
0.0
  0
VERTEX
  5
17E
330
149
100
AcDbEntity
  8
Bake
100
AcDbVertex
100
AcDb2dVertex
 10
-181.2704134259562
 20
-110.9629092407988
 30
0.0
  0
VERTEX
  5
17F
330
149
100
AcDbEntity
  8
Bake
100
AcDbVertex
100
AcDb2dVertex
 10
-181.4494697201046
 20
-110.9129854469263
 30
0.0
  0
VERTEX
  5
180
330
149
100
AcDbEntity
  8
Bake
100
AcDbVertex
100
AcDb2dVertex
 10
-181.8446836763408
 20
-110.8139181477175
 30
0.0
  0
VERTEX
  5
181
330
149
100
AcDbEntity
  8
Bake
100
AcDbVertex
100
AcDb2dVertex
 10
-183.4056222932736
 20
-110.4632821508825
 30
0.0
  0
VERTEX
  5
182
330
149
100
AcDbEntity
  8
Bake
100
AcDbVertex
100
AcDb2dVertex
 10
-183.7172255491764
 20
-110.3816475728287
 30
0.0
  0
VERTEX
  5
183
330
149
100
AcDbEntity
  8
Bake
100
AcDbVertex
100
AcDb2dVertex
 10
-183.8753556309984
 20
-110.3356550677081
 30
0.0
  0
VERTEX
  5
184
330
149
100
AcDbEntity
  8
Bake
100
AcDbVertex
100
AcDb2dVertex
 10
-184.0342768458237
 20
-110.2856454163256
 30
0.0
  0
VERTEX
  5
185
330
149
100
AcDbEntity
  8
Bake
100
AcDbVertex
100
AcDb2dVertex
 10
-184.1934183164696
 20
-110.2311933670317
 30
0.0
  0
VERTEX
  5
186
330
149
100
AcDbEntity
  8
Bake
100
AcDbVertex
100
AcDb2dVertex
 10
-184.3522091657534
 20
-110.1718736681769
 30
0.0
  0
VERTEX
  5
187
330
149
100
AcDbEntity
  8
Bake
100
AcDbVertex
100
AcDb2dVertex
 10
-184.5100785164924
 20
-110.1072610681116
 30
0.0
  0
VERTEX
  5
188
330
149
100
AcDbEntity
  8
Bake
100
AcDbVertex
100
AcDb2dVertex
 10
-184.588489230788
 20
-110.0728370389846
 30
0.0
  0
VERTEX
  5
189
330
149
100
AcDbEntity
  8
Bake
100
AcDbVertex
100
AcDb2dVertex
 10
-184.6664554915038
 20
-110.0369303151864
 30
0.0
  0
VERTEX
  5
18A
330
149
100
AcDbEntity
  8
Bake
100
AcDbVertex
100
AcDb2dVertex
 10
-184.743905938992
 20
-109.9994877402608
 30
0.0
  0
VERTEX
  5
18B
330
149
100
AcDbEntity
  8
Bake
100
AcDbVertex
100
AcDb2dVertex
 10
-184.8207692136049
 20
-109.9604561577517
 30
0.0
  0
VERTEX
  5
18C
330
149
100
AcDbEntity
  8
Bake
100
AcDbVertex
100
AcDb2dVertex
 10
-184.8969739556945
 20
-109.9197824112028
 30
0.0
  0
VERTEX
  5
18D
330
149
100
AcDbEntity
  8
Bake
100
AcDbVertex
100
AcDb2dVertex
 10
-184.9724488056129
 20
-109.8774133441579
 30
0.0
  0
VERTEX
  5
18E
330
149
100
AcDbEntity
  8
Bake
100
AcDbVertex
100
AcDb2dVertex
 10
-185.0471224037125
 20
-109.833295800161
 30
0.0
  0
VERTEX
  5
18F
330
149
100
AcDbEntity
  8
Bake
100
AcDbVertex
100
AcDb2dVertex
 10
-185.1209233903452
 20
-109.7873766227557
 30
0.0
  0
VERTEX
  5
190
330
149
100
AcDbEntity
  8
Bake
100
AcDbVertex
100
AcDb2dVertex
 10
-185.1937804058633
 20
-109.7396026554858
 30
0.0
  0
VERTEX
  5
191
330
149
100
AcDbEntity
  8
Bake
100
AcDbVertex
100
AcDb2dVertex
 10
-185.2656220906189
 20
-109.6899207418953
 30
0.0
  0
VERTEX
  5
192
330
149
100
AcDbEntity
  8
Bake
100
AcDbVertex
100
AcDb2dVertex
 10
-185.3363770849642
 20
-109.6382777255279
 30
0.0
  0
VERTEX
  5
193
330
149
100
AcDbEntity
  8
Bake
100
AcDbVertex
100
AcDb2dVertex
 10
-185.4059740292514
 20
-109.5846204499273
 30
0.0
  0
VERTEX
  5
194
330
149
100
AcDbEntity
  8
Bake
100
AcDbVertex
100
AcDb2dVertex
 10
-185.4743415638326
 20
-109.5288957586375
 30
0.0
  0
VERTEX
  5
195
330
149
100
AcDbEntity
  8
Bake
100
AcDbVertex
100
AcDb2dVertex
 10
-185.5414083290599
 20
-109.4710504952023
 30
0.0
  0
VERTEX
  5
196
330
149
100
AcDbEntity
  8
Bake
100
AcDbVertex
100
AcDb2dVertex
 10
-185.6071029652855
 20
-109.4110315031653
 30
0.0
  0
VERTEX
  5
197
330
149
100
AcDbEntity
  8
Bake
100
AcDbVertex
100
AcDb2dVertex
 10
-185.6713541128616
 20
-109.3487856260705
 30
0.0
  0
VERTEX
  5
198
330
149
100
AcDbEntity
  8
Bake
100
AcDbVertex
100
AcDb2dVertex
 10
-185.7340904121404
 20
-109.2842597074617
 30
0.0
  0
VERTEX
  5
199
330
149
100
AcDbEntity
  8
Bake
100
AcDbVertex
100
AcDb2dVertex
 10
-185.7952405034739
 20
-109.2174005908827
 30
0.0
  0
VERTEX
  5
19A
330
149
100
AcDbEntity
  8
Bake
100
AcDbVertex
100
AcDb2dVertex
 10
-185.8547330272144
 20
-109.1481551198772
 30
0.0
  0
VERTEX
  5
19B
330
149
100
AcDbEntity
  8
Bake
100
AcDbVertex
100
AcDb2dVertex
 10
-185.912496623714
 20
-109.0764701379891
 30
0.0
  0
VERTEX
  5
19C
330
149
100
AcDbEntity
  8
Bake
100
AcDbVertex
100
AcDb2dVertex
 10
-185.9684599333249
 20
-109.0022924887622
 30
0.0
  0
VERTEX
  5
19D
330
149
100
AcDbEntity
  8
Bake
100
AcDbVertex
100
AcDb2dVertex
 10
-186.0225515963992
 20
-108.9255690157403
 30
0.0
  0
VERTEX
  5
19E
330
149
100
AcDbEntity
  8
Bake
100
AcDbVertex
100
AcDb2dVertex
 10
-186.0747002532891
 20
-108.8462465624672
 30
0.0
  0
VERTEX
  5
19F
330
149
100
AcDbEntity
  8
Bake
100
AcDbVertex
100
AcDb2dVertex
 10
-186.1248345443467
 20
-108.7642719724867
 30
0.0
  0
VERTEX
  5
1A0
330
149
100
AcDbEntity
  8
Bake
100
AcDbVertex
100
AcDb2dVertex
 10
-186.1728831099242
 20
-108.6795920893427
 30
0.0
  0
VERTEX
  5
1A1
330
149
100
AcDbEntity
  8
Bake
100
AcDbVertex
100
AcDb2dVertex
 10
-186.2187745903738
 20
-108.5921537565789
 30
0.0
  0
VERTEX
  5
1A2
330
149
100
AcDbEntity
  8
Bake
100
AcDbVertex
100
AcDb2dVertex
 10
-186.2624376260476
 20
-108.5019038177391
 30
0.0
  0
VERTEX
  5
1A3
330
149
100
AcDbEntity
  8
Bake
100
AcDbVertex
100
AcDb2dVertex
 10
-186.3038008572977
 20
-108.4087891163672
 30
0.0
  0
VERTEX
  5
1A4
330
149
100
AcDbEntity
  8
Bake
100
AcDbVertex
100
AcDb2dVertex
 10
-186.3427929244764
 20
-108.312756496007
 30
0.0
  0
VERTEX
  5
1A5
330
149
100
AcDbEntity
  8
Bake
100
AcDbVertex
100
AcDb2dVertex
 10
-186.3793424679358
 20
-108.2137528002023
 30
0.0
  0
VERTEX
  5
1A6
330
149
100
AcDbEntity
  8
Bake
100
AcDbVertex
100
AcDb2dVertex
 10
-186.4133781280281
 20
-108.1117248724969
 30
0.0
  0
VERTEX
  5
1A7
330
149
100
AcDbEntity
  8
Bake
100
AcDbVertex
100
AcDb2dVertex
 10
-186.4448285451053
 20
-108.0066195564345
 30
0.0
  0
VERTEX
  5
1A8
330
149
100
AcDbEntity
  8
Bake
100
AcDbVertex
100
AcDb2dVertex
 10
-186.4736223595197
 20
-107.8983836955591
 30
0.0
  0
VERTEX
  5
1A9
330
149
100
AcDbEntity
  8
Bake
100
AcDbVertex
100
AcDb2dVertex
 10
-186.4996882116234
 20
-107.7869641334143
 30
0.0
  0
VERTEX
  5
1AA
330
149
100
AcDbEntity
  8
Bake
100
AcDbVertex
100
AcDb2dVertex
 10
-186.5229547417686
 20
-107.6723077135441
 30
0.0
  0
VERTEX
  5
1AB
330
149
100
AcDbEntity
  8
Bake
100
AcDbVertex
100
AcDb2dVertex
 10
-186.5433505903074
 20
-107.5543612794923
 30
0.0
  0
VERTEX
  5
1AC
330
149
100
AcDbEntity
  8
Bake
100
AcDbVertex
100
AcDb2dVertex
 10
-186.5608043975921
 20
-107.4330716748025
 30
0.0
  0
VERTEX
  5
1AD
330
149
100
AcDbEntity
  8
Bake
100
AcDbVertex
100
AcDb2dVertex
 10
-186.5752448039747
 20
-107.3083857430188
 30
0.0
  0
VERTEX
  5
1AE
330
149
100
AcDbEntity
  8
Bake
100
AcDbVertex
100
AcDb2dVertex
 10
-186.5866004498074
 20
-107.1802503276847
 30
0.0
  0
VERTEX
  5
1AF
330
149
100
AcDbEntity
  8
Bake
100
AcDbVertex
100
AcDb2dVertex
 10
-186.5947999754424
 20
-107.0486122723443
 30
0.0
  0
VERTEX
  5
1B0
330
149
100
AcDbEntity
  8
Bake
100
AcDbVertex
100
AcDb2dVertex
 10
-186.5997720212318
 20
-106.9134184205412
 30
0.0
  0
VERTEX
  5
1B1
330
149
100
AcDbEntity
  8
Bake
100
AcDbVertex
100
AcDb2dVertex
 10
-186.6014452275278
 20
-106.7746156158194
 30
0.0
  0
VERTEX
  5
1B2
330
149
100
AcDbEntity
  8
Bake
100
AcDbVertex
100
AcDb2dVertex
 10
-186.6014452275278
 20
-75.92556981211266
 30
0.0
  0
VERTEX
  5
1B3
330
149
100
AcDbEntity
  8
Bake
100
AcDbVertex
100
AcDb2dVertex
 10
-186.973810519931
 20
-75.63505272575173
 30
0.0
  0
VERTEX
  5
1B4
330
149
100
AcDbEntity
  8
Bake
100
AcDbVertex
100
AcDb2dVertex
 10
-187.3271126116592
 20
-75.34756523418191
 30
0.0
  0
VERTEX
  5
1B5
330
149
100
AcDbEntity
  8
Bake
100
AcDbVertex
100
AcDb2dVertex
 10
-187.6619551158598
 20
-75.0626250011546
 30
0.0
  0
VERTEX
  5
1B6
330
149
100
AcDbEntity
  8
Bake
100
AcDbVertex
100
AcDb2dVertex
 10
-187.9789416456802
 20
-74.77974969042116
 30
0.0
  0
VERTEX
  5
1B7
330
149
100
AcDbEntity
  8
Bake
100
AcDbVertex
100
AcDb2dVertex
 10
-188.2786758142679
 20
-74.49845696573297
 30
0.0
  0
VERTEX
  5
1B8
330
149
100
AcDbEntity
  8
Bake
100
AcDbVertex
100
AcDb2dVertex
 10
-188.5617612347704
 20
-74.21826449084142
 30
0.0
  0
VERTEX
  5
1B9
330
149
100
AcDbEntity
  8
Bake
100
AcDbVertex
100
AcDb2dVertex
 10
-188.828801520335
 20
-73.93868992949788
 30
0.0
  0
VERTEX
  5
1BA
330
149
100
AcDbEntity
  8
Bake
100
AcDbVertex
100
AcDb2dVertex
 10
-189.0804002841094
 20
-73.65925094545376
 30
0.0
  0
VERTEX
  5
1BB
330
149
100
AcDbEntity
  8
Bake
100
AcDbVertex
100
AcDb2dVertex
 10
-189.3171611392409
 20
-73.37946520246042
 30
0.0
  0
VERTEX
  5
1BC
330
149
100
AcDbEntity
  8
Bake
100
AcDbVertex
100
AcDb2dVertex
 10
-189.5396876988769
 20
-73.09885036426923
 30
0.0
  0
VERTEX
  5
1BD
330
149
100
AcDbEntity
  8
Bake
100
AcDbVertex
100
AcDb2dVertex
 10
-189.7485835761649
 20
-72.81692409463159
 30
0.0
  0
VERTEX
  5
1BE
330
149
100
AcDbEntity
  8
Bake
100
AcDbVertex
100
AcDb2dVertex
 10
-189.9444523842524
 20
-72.53320405729886
 30
0.0
  0
VERTEX
  5
1BF
330
149
100
AcDbEntity
  8
Bake
100
AcDbVertex
100
AcDb2dVertex
 10
-190.1278977362869
 20
-72.24720791602243
 30
0.0
  0
VERTEX
  5
1C0
330
149
100
AcDbEntity
  8
Bake
100
AcDbVertex
100
AcDb2dVertex
 10
-190.2995232454157
 20
-71.9584533345537
 30
0.0
  0
VERTEX
  5
1C1
330
149
100
AcDbEntity
  8
Bake
100
AcDbVertex
100
AcDb2dVertex
 10
-190.4599325247864
 20
-71.66645797664401
 30
0.0
  0
VERTEX
  5
1C2
330
149
100
AcDbEntity
  8
Bake
100
AcDbVertex
100
AcDb2dVertex
 10
-190.6097291875464
 20
-71.3707395060448
 30
0.0
  0
VERTEX
  5
1C3
330
149
100
AcDbEntity
  8
Bake
100
AcDbVertex
100
AcDb2dVertex
 10
-190.7495168468431
 20
-71.07081558650741
 30
0.0
  0
VERTEX
  5
1C4
330
149
100
AcDbEntity
  8
Bake
100
AcDbVertex
100
AcDb2dVertex
 10
-190.8798991158241
 20
-70.76620388178321
 30
0.0
  0
VERTEX
  5
1C5
330
149
100
AcDbEntity
  8
Bake
100
AcDbVertex
100
AcDb2dVertex
 10
-191.0014796076367
 20
-70.45642205562359
 30
0.0
  0
VERTEX
  5
1C6
330
149
100
AcDbEntity
  8
Bake
100
AcDbVertex
100
AcDb2dVertex
 10
-191.1148619354285
 20
-70.14098777177995
 30
0.0
  0
VERTEX
  5
1C7
330
149
100
AcDbEntity
  8
Bake
100
AcDbVertex
100
AcDb2dVertex
 10
-191.2206497123468
 20
-69.81941869400364
 30
0.0
  0
VERTEX
  5
1C8
330
149
100
AcDbEntity
  8
Bake
100
AcDbVertex
100
AcDb2dVertex
 10
-191.3194465515391
 20
-69.49123248604607
 30
0.0
  0
VERTEX
  5
1C9
330
149
100
AcDbEntity
  8
Bake
100
AcDbVertex
100
AcDb2dVertex
 10
-191.4118560661529
 20
-69.1559468116586
 30
0.0
  0
VERTEX
  5
1CA
330
149
100
AcDbEntity
  8
Bake
100
AcDbVertex
100
AcDb2dVertex
 10
-191.4984818693356
 20
-68.81307933459263
 30
0.0
  0
VERTEX
  5
1CB
330
149
100
AcDbEntity
  8
Bake
100
AcDbVertex
100
AcDb2dVertex
 10
-191.6567967939977
 20
-68.10266962743069
 30
0.0
  0
VERTEX
  5
1CC
330
149
100
AcDbEntity
  8
Bake
100
AcDbVertex
100
AcDb2dVertex
 10
-191.799220230705
 20
-67.35614467457124
 30
0.0
  0
VERTEX
  5
1CD
330
149
100
AcDbEntity
  8
Bake
100
AcDbVertex
100
AcDb2dVertex
 10
-193.5387186961422
 20
-55.43251779840311
 30
0.0
  0
VERTEX
  5
1CE
330
149
100
AcDbEntity
  8
Bake
100
AcDbVertex
100
AcDb2dVertex
 10
-193.9858655604126
 20
-53.12258473258566
 30
0.0
  0
VERTEX
  5
1CF
330
149
100
AcDbEntity
  8
Bake
100
AcDbVertex
100
AcDb2dVertex
 10
-194.2406220135715
 20
-51.96045776361918
 30
0.0
  0
VERTEX
  5
1D0
330
149
100
AcDbEntity
  8
Bake
100
AcDbVertex
100
AcDb2dVertex
 10
-194.5187035420525
 20
-50.79846204965715
 30
0.0
  0
VERTEX
  5
1D1
330
149
100
AcDbEntity
  8
Bake
100
AcDbVertex
100
AcDb2dVertex
 10
-194.8220124418357
 20
-49.64027624998178
 30
0.0
  0
VERTEX
  5
1D2
330
149
100
AcDbEntity
  8
Bake
100
AcDbVertex
100
AcDb2dVertex
 10
-195.1524510089009
 20
-48.48957902387529
 30
0.0
  0
VERTEX
  5
1D3
330
149
100
AcDbEntity
  8
Bake
100
AcDbVertex
100
AcDb2dVertex
 10
-195.5116008212345
 20
-47.34900498490835
 30
0.0
  0
VERTEX
  5
1D4
330
149
100
AcDbEntity
  8
Bake
100
AcDbVertex
100
AcDb2dVertex
 10
-195.8997605848494
 20
-46.21701256380545
 30
0.0
  0
VERTEX
  5
1D5
330
149
100
AcDbEntity
  8
Bake
100
AcDbVertex
100
AcDb2dVertex
 10
-196.3169082877652
 20
-45.09101614557953
 30
0.0
  0
VERTEX
  5
1D6
330
149
100
AcDbEntity
  8
Bake
100
AcDbVertex
100
AcDb2dVertex
 10
-196.7630219180015
 20
-43.96843011524356
 30
0.0
  0
VERTEX
  5
1D7
330
149
100
AcDbEntity
  8
Bake
100
AcDbVertex
100
AcDb2dVertex
 10
-197.2380794635777
 20
-42.84666885781047
 30
0.0
  0
VERTEX
  5
1D8
330
149
100
AcDbEntity
  8
Bake
100
AcDbVertex
100
AcDb2dVertex
 10
-197.7420589125134
 20
-41.72314675829322
 30
0.0
  0
VERTEX
  5
1D9
330
149
100
AcDbEntity
  8
Bake
100
AcDbVertex
100
AcDb2dVertex
 10
-198.2749382528281
 20
-40.59527820170475
 30
0.0
  0
VERTEX
  5
1DA
330
149
100
AcDbEntity
  8
Bake
100
AcDbVertex
100
AcDb2dVertex
 10
-198.8366954725414
 20
-39.46047757305801
 30
0.0
  0
VERTEX
  5
1DB
330
149
100
AcDbEntity
  8
Bake
100
AcDbVertex
100
AcDb2dVertex
 10
-200.0467555022418
 20
-37.15973763964153
 30
0.0
  0
VERTEX
  5
1DC
330
149
100
AcDbEntity
  8
Bake
100
AcDbVertex
100
AcDb2dVertex
 10
-201.3720629057708
 20
-34.80024203814737
 30
0.0
  0
VERTEX
  5
1DD
330
149
100
AcDbEntity
  8
Bake
100
AcDbVertex
100
AcDb2dVertex
 10
-206.0245585030828
 20
-27.15568639752036
 30
0.0
  0
VERTEX
  5
1DE
330
149
100
AcDbEntity
  8
Bake
100
AcDbVertex
100
AcDb2dVertex
 10
-207.7170451588203
 20
-24.30751952375123
 30
0.0
  0
VERTEX
  5
1DF
330
149
100
AcDbEntity
  8
Bake
100
AcDbVertex
100
AcDb2dVertex
 10
-208.5519437496924
 20
-22.7963330755788
 30
0.0
  0
VERTEX
  5
1E0
330
149
100
AcDbEntity
  8
Bake
100
AcDbVertex
100
AcDb2dVertex
 10
-209.3660999354496
 20
-21.21694483785074
 30
0.0
  0
VERTEX
  5
1E1
330
149
100
AcDbEntity
  8
Bake
100
AcDbVertex
100
AcDb2dVertex
 10
-209.762310740367
 20
-20.39930009898999
 30
0.0
  0
VERTEX
  5
1E2
330
149
100
AcDbEntity
  8
Bake
100
AcDbVertex
100
AcDb2dVertex
 10
-210.149629280754
 20
-19.56175497404429
 30
0.0
  0
VERTEX
  5
1E3
330
149
100
AcDbEntity
  8
Bake
100
AcDbVertex
100
AcDb2dVertex
 10
-210.5268200021934
 20
-18.7033594834483
 30
0.0
  0
VERTEX
  5
1E4
330
149
100
AcDbEntity
  8
Bake
100
AcDbVertex
100
AcDb2dVertex
 10
-210.8926473502679
 20
-17.82316364763666
 30
0.0
  0
VERTEX
  5
1E5
330
149
100
AcDbEntity
  8
Bake
100
AcDbVertex
100
AcDb2dVertex
 10
-211.2458757705602
 20
-16.92021748704404
 30
0.0
  0
VERTEX
  5
1E6
330
149
100
AcDbEntity
  8
Bake
100
AcDbVertex
100
AcDb2dVertex
 10
-211.5852697086532
 20
-15.99357102210508
 30
0.0
  0
VERTEX
  5
1E7
330
149
100
AcDbEntity
  8
Bake
100
AcDbVertex
100
AcDb2dVertex
 10
-211.9095936101296
 20
-15.04227427325444
 30
0.0
  0
VERTEX
  5
1E8
330
149
100
AcDbEntity
  8
Bake
100
AcDbVertex
100
AcDb2dVertex
 10
-212.2176119205722
 20
-14.06537726092677
 30
0.0
  0
VERTEX
  5
1E9
330
149
100
AcDbEntity
  8
Bake
100
AcDbVertex
100
AcDb2dVertex
 10
-212.5080890855637
 20
-13.06193000555672
 30
0.0
  0
VERTEX
  5
1EA
330
149
100
AcDbEntity
  8
Bake
100
AcDbVertex
100
AcDb2dVertex
 10
-212.779789550687
 20
-12.03098252757895
 30
0.0
  0
VERTEX
  5
1EB
330
149
100
AcDbEntity
  8
Bake
100
AcDbVertex
100
AcDb2dVertex
 10
-213.0314777615247
 20
-10.97158484742811
 30
0.0
  0
VERTEX
  5
1EC
330
149
100
AcDbEntity
  8
Bake
100
AcDbVertex
100
AcDb2dVertex
 10
-213.2619181636597
 20
-9.882786985538843
 30
0.0
  0
VERTEX
  5
1ED
330
149
100
AcDbEntity
  8
Bake
100
AcDbVertex
100
AcDb2dVertex
 10
-213.4698752026748
 20
-8.763638962345814
 30
0.0
  0
VERTEX
  5
1EE
330
149
100
AcDbEntity
  8
Bake
100
AcDbVertex
100
AcDb2dVertex
 10
-213.6541133241526
 20
-7.613190798283672
 30
0.0
  0
VERTEX
  5
1EF
330
149
100
AcDbEntity
  8
Bake
100
AcDbVertex
100
AcDb2dVertex
 10
-213.813396973676
 20
-6.430492513787067
 30
0.0
  0
VERTEX
  5
1F0
330
149
100
AcDbEntity
  8
Bake
100
AcDbVertex
100
AcDb2dVertex
 10
-213.9464905968277
 20
-5.214594129290656
 30
0.0
  0
VERTEX
  5
1F1
330
149
100
AcDbEntity
  8
Bake
100
AcDbVertex
100
AcDb2dVertex
 10
-214.0521586391905
 20
-3.96454566522909
 30
0.0
  0
VERTEX
  5
1F2
330
149
100
AcDbEntity
  8
Bake
100
AcDbVertex
100
AcDb2dVertex
 10
-214.1291655463472
 20
-2.67939714203702
 30
0.0
  0
VERTEX
  5
1F3
330
149
100
AcDbEntity
  8
Bake
100
AcDbVertex
100
AcDb2dVertex
 10
-214.1762757638805
 20
-1.358198580149101
 30
0.0
  0
VERTEX
  5
1F4
330
149
100
AcDbEntity
  8
Bake
100
AcDbVertex
100
AcDb2dVertex
 10
-214.1922537373732
 20
0.0000000000000145
 30
0.0
 42
-0.4099752802203802
  0
VERTEX
  5
1F5
330
149
100
AcDbEntity
  8
Bake
100
AcDbVertex
100
AcDb2dVertex
 10
-168.9999999999999
 20
45.86174802054424
 30
0.0
  0
VERTEX
  5
1F6
330
149
100
AcDbEntity
  8
Bake
100
AcDbVertex
100
AcDb2dVertex
 10
-169.0
 20
30.8593722969388
 30
0.0
 42
0.4079044053058876
  0
VERTEX
  5
1F7
330
149
100
AcDbEntity
  8
Bake
100
AcDbVertex
100
AcDb2dVertex
 10
-199.1922537799529
 20
0.0007991836813508
 30
0.0
  0
VERTEX
  5
1F8
330
149
100
AcDbEntity
  8
Bake
100
AcDbVertex
100
AcDb2dVertex
 10
-199.1794188183862
 20
-1.047501024370963
 30
0.0
  0
VERTEX
  5
1F9
330
149
100
AcDbEntity
  8
Bake
100
AcDbVertex
100
AcDb2dVertex
 10
-199.1397848919378
 20
-2.095115798985797
 30
0.0
  0
VERTEX
  5
1FA
330
149
100
AcDbEntity
  8
Bake
100
AcDbVertex
100
AcDb2dVertex
 10
-199.0783444721426
 20
-3.055844626618457
 30
0.0
  0
VERTEX
  5
1FB
330
149
100
AcDbEntity
  8
Bake
100
AcDbVertex
100
AcDb2dVertex
 10
-198.9916145080842
 20
-4.014608826257602
 30
0.0
  0
VERTEX
  5
1FC
330
149
100
AcDbEntity
  8
Bake
100
AcDbVertex
100
AcDb2dVertex
 10
-198.8884007796933
 20
-4.894244160241317
 30
0.0
  0
VERTEX
  5
1FD
330
149
100
AcDbEntity
  8
Bake
100
AcDbVertex
100
AcDb2dVertex
 10
-198.7617312386322
 20
-5.770801057160464
 30
0.0
  0
VERTEX
  5
1FE
330
149
100
AcDbEntity
  8
Bake
100
AcDbVertex
100
AcDb2dVertex
 10
-198.6229350407159
 20
-6.57781304907288
 30
0.0
  0
VERTEX
  5
1FF
330
149
100
AcDbEntity
  8
Bake
100
AcDbVertex
100
AcDb2dVertex
 10
-198.4626890794183
 20
-7.380831815267171
 30
0.0
  0
VERTEX
  5
200
330
149
100
AcDbEntity
  8
Bake
100
AcDbVertex
100
AcDb2dVertex
 10
-198.2923718512102
 20
-8.130017349238216
 30
0.0
  0
VERTEX
  5
201
330
149
100
AcDbEntity
  8
Bake
100
AcDbVertex
100
AcDb2dVertex
 10
-198.1024649402698
 20
-8.874480012683108
 30
0.0
  0
VERTEX
  5
202
330
149
100
AcDbEntity
  8
Bake
100
AcDbVertex
100
AcDb2dVertex
 10
-197.9028034300316
 20
-9.58004259516136
 30
0.0
  0
VERTEX
  5
203
330
149
100
AcDbEntity
  8
Bake
100
AcDbVertex
100
AcDb2dVertex
 10
-197.6851950594749
 20
-10.28027027230731
 30
0.0
  0
VERTEX
  5
204
330
149
100
AcDbEntity
  8
Bake
100
AcDbVertex
100
AcDb2dVertex
 10
-197.4582654095214
 20
-10.9507057598162
 30
0.0
  0
VERTEX
  5
205
330
149
100
AcDbEntity
  8
Bake
100
AcDbVertex
100
AcDb2dVertex
 10
-197.2151887720806
 20
-11.61546960758252
 30
0.0
  0
VERTEX
  5
206
330
149
100
AcDbEntity
  8
Bake
100
AcDbVertex
100
AcDb2dVertex
 10
-196.9625693036845
 20
-12.25933168398159
 30
0.0
  0
VERTEX
  5
207
330
149
100
AcDbEntity
  8
Bake
100
AcDbVertex
100
AcDb2dVertex
 10
-196.6955885829023
 20
-12.89736839246613
 30
0.0
  0
VERTEX
  5
208
330
149
100
AcDbEntity
  8
Bake
100
AcDbVertex
100
AcDb2dVertex
 10
-196.4142169047184
 20
-13.5309440415567
 30
0.0
  0
VERTEX
  5
209
330
149
100
AcDbEntity
  8
Bake
100
AcDbVertex
100
AcDb2dVertex
 10
-196.1199965899642
 20
-14.15866938949482
 30
0.0
  0
VERTEX
  5
20A
330
149
100
AcDbEntity
  8
Bake
100
AcDbVertex
100
AcDb2dVertex
 10
-195.8139210125228
 20
-14.78074039376234
 30
0.0
  0
VERTEX
  5
20B
330
149
100
AcDbEntity
  8
Bake
100
AcDbVertex
100
AcDb2dVertex
 10
-195.4969835462776
 20
-15.39735301184107
 30
0.0
  0
VERTEX
  5
20C
330
149
100
AcDbEntity
  8
Bake
100
AcDbVertex
100
AcDb2dVertex
 10
-194.8052822391815
 20
-16.66761784724488
 30
0.0
  0
VERTEX
  5
20D
330
149
100
AcDbEntity
  8
Bake
100
AcDbVertex
100
AcDb2dVertex
 10
-194.0807236766332
 20
-17.91955442432917
 30
0.0
  0
VERTEX
  5
20E
330
149
100
AcDbEntity
  8
Bake
100
AcDbVertex
100
AcDb2dVertex
 10
-189.0212646422433
 20
-26.20307303952568
 30
0.0
  0
VERTEX
  5
20F
330
149
100
AcDbEntity
  8
Bake
100
AcDbVertex
100
AcDb2dVertex
 10
-187.3718913900873
 20
-29.08069921590646
 30
0.0
  0
VERTEX
  5
210
330
149
100
AcDbEntity
  8
Bake
100
AcDbVertex
100
AcDb2dVertex
 10
-185.8157474053117
 20
-31.97772855249938
 30
0.0
  0
VERTEX
  5
211
330
149
100
AcDbEntity
  8
Bake
100
AcDbVertex
100
AcDb2dVertex
 10
-185.0743892651076
 20
-33.44457457111381
 30
0.0
  0
VERTEX
  5
212
330
149
100
AcDbEntity
  8
Bake
100
AcDbVertex
100
AcDb2dVertex
 10
-184.3609174136068
 20
-34.92516653249396
 30
0.0
  0
VERTEX
  5
213
330
149
100
AcDbEntity
  8
Bake
100
AcDbVertex
100
AcDb2dVertex
 10
-183.6766807208886
 20
-36.42321109480034
 30
0.0
  0
VERTEX
  5
214
330
149
100
AcDbEntity
  8
Bake
100
AcDbVertex
100
AcDb2dVertex
 10
-183.0257459927657
 20
-37.93600034885046
 30
0.0
  0
VERTEX
  5
215
330
149
100
AcDbEntity
  8
Bake
100
AcDbVertex
100
AcDb2dVertex
 10
-182.4043060391093
 20
-39.47977512982255
 30
0.0
  0
VERTEX
  5
216
330
149
100
AcDbEntity
  8
Bake
100
AcDbVertex
100
AcDb2dVertex
 10
-181.821519382665
 20
-41.03854188514681
 30
0.0
  0
VERTEX
  5
217
330
149
100
AcDbEntity
  8
Bake
100
AcDbVertex
100
AcDb2dVertex
 10
-181.2707068512861
 20
-42.6380209094668
 30
0.0
  0
VERTEX
  5
218
330
149
100
AcDbEntity
  8
Bake
100
AcDbVertex
100
AcDb2dVertex
 10
-180.7633123897109
 20
-44.25177270025785
 30
0.0
  0
VERTEX
  5
219
330
149
100
AcDbEntity
  8
Bake
100
AcDbVertex
100
AcDb2dVertex
 10
-180.3081228443416
 20
-45.84846350899983
 30
0.0
  0
VERTEX
  5
21A
330
149
100
AcDbEntity
  8
Bake
100
AcDbVertex
100
AcDb2dVertex
 10
-179.8930487827167
 20
-47.4560985610311
 30
0.0
  0
VERTEX
  5
21B
330
149
100
AcDbEntity
  8
Bake
100
AcDbVertex
100
AcDb2dVertex
 10
-179.5342447902389
 20
-48.98665281984849
 30
0.0
  0
VERTEX
  5
21C
330
149
100
AcDbEntity
  8
Bake
100
AcDbVertex
100
AcDb2dVertex
 10
-179.2058544147601
 20
-50.52403444907095
 30
0.0
  0
VERTEX
  5
21D
330
149
100
AcDbEntity
  8
Bake
100
AcDbVertex
100
AcDb2dVertex
 10
-178.6588630940753
 20
-53.44203753412046
 30
0.0
  0
VERTEX
  5
21E
330
149
100
AcDbEntity
  8
Bake
100
AcDbVertex
100
AcDb2dVertex
 10
-178.2193308574398
 20
-56.18843995522445
 30
0.0
  0
VERTEX
  5
21F
330
149
100
AcDbEntity
  8
Bake
100
AcDbVertex
100
AcDb2dVertex
 10
-177.1016858717469
 20
-64.30691412032803
 30
0.0
  0
VERTEX
  5
220
330
149
100
AcDbEntity
  8
Bake
100
AcDbVertex
100
AcDb2dVertex
 10
-171.6014452275277
 20
-68.51298049531908
 30
0.0
  0
VERTEX
  5
221
330
149
100
AcDbEntity
  8
Bake
100
AcDbVertex
100
AcDb2dVertex
 10
-171.6014452275277
 20
-79.9999999999999
 30
0.0
  0
SEQEND
  5
222
330
149
100
AcDbEntity
  8
Bake
  0
POLYLINE
  5
223
330
1F
100
AcDbEntity
  8
Bake
100
AcDb2dPolyline
 66
     1
 10
0.0
 20
0.0
 30
0.0
  0
VERTEX
  5
224
330
223
100
AcDbEntity
  8
Bake
100
AcDbVertex
100
AcDb2dVertex
 10
-131.6014452275278
 20
-103.0
 30
0.0
  0
VERTEX
  5
225
330
223
100
AcDbEntity
  8
Bake
100
AcDbVertex
100
AcDb2dVertex
 10
-131.6014452275277
 20
-117.417060575252
 30
0.0
  0
VERTEX
  5
226
330
223
100
AcDbEntity
  8
Bake
100
AcDbVertex
100
AcDb2dVertex
 10
-132.0328838093868
 20
-117.334582130977
 30
0.0
  0
VERTEX
  5
227
330
223
100
AcDbEntity
  8
Bake
100
AcDbVertex
100
AcDb2dVertex
 10
-132.408052198145
 20
-117.2527829634923
 30
0.0
  0
VERTEX
  5
228
330
223
100
AcDbEntity
  8
Bake
100
AcDbVertex
100
AcDb2dVertex
 10
-132.7343745471842
 20
-117.1715338305381
 30
0.0
  0
VERTEX
  5
229
330
223
100
AcDbEntity
  8
Bake
100
AcDbVertex
100
AcDb2dVertex
 10
-133.019275009886
 20
-117.0907054898543
 30
0.0
  0
VERTEX
  5
22A
330
223
100
AcDbEntity
  8
Bake
100
AcDbVertex
100
AcDb2dVertex
 10
-133.2701777396324
 20
-117.010168699181
 30
0.0
  0
VERTEX
  5
22B
330
223
100
AcDbEntity
  8
Bake
100
AcDbVertex
100
AcDb2dVertex
 10
-133.4945068898052
 20
-116.9297942162584
 30
0.0
  0
VERTEX
  5
22C
330
223
100
AcDbEntity
  8
Bake
100
AcDbVertex
100
AcDb2dVertex
 10
-133.6996866137862
 20
-116.8494527988265
 30
0.0
  0
VERTEX
  5
22D
330
223
100
AcDbEntity
  8
Bake
100
AcDbVertex
100
AcDb2dVertex
 10
-134.1784128618756
 20
-116.6455382570182
 30
0.0
  0
VERTEX
  5
22E
330
223
100
AcDbEntity
  8
Bake
100
AcDbVertex
100
AcDb2dVertex
 10
-134.4549188867788
 20
-116.5196487756802
 30
0.0
  0
VERTEX
  5
22F
330
223
100
AcDbEntity
  8
Bake
100
AcDbVertex
100
AcDb2dVertex
 10
-134.7239113928118
 20
-116.3894592654302
 30
0.0
  0
VERTEX
  5
230
330
223
100
AcDbEntity
  8
Bake
100
AcDbVertex
100
AcDb2dVertex
 10
-134.9866426331196
 20
-116.2530822310868
 30
0.0
  0
VERTEX
  5
231
330
223
100
AcDbEntity
  8
Bake
100
AcDbVertex
100
AcDb2dVertex
 10
-135.2443648608473
 20
-116.1086301774687
 30
0.0
  0
VERTEX
  5
232
330
223
100
AcDbEntity
  8
Bake
100
AcDbVertex
100
AcDb2dVertex
 10
-135.3717389241014
 20
-116.0327861761874
 30
0.0
  0
VERTEX
  5
233
330
223
100
AcDbEntity
  8
Bake
100
AcDbVertex
100
AcDb2dVertex
 10
-135.4983303291399
 20
-115.9542156093945
 30
0.0
  0
VERTEX
  5
234
330
223
100
AcDbEntity
  8
Bake
100
AcDbVertex
100
AcDb2dVertex
 10
-135.6242956076059
 20
-115.8726825401922
 30
0.0
  0
VERTEX
  5
235
330
223
100
AcDbEntity
  8
Bake
100
AcDbVertex
100
AcDb2dVertex
 10
-135.7497912911425
 20
-115.787951031683
 30
0.0
  0
VERTEX
  5
236
330
223
100
AcDbEntity
  8
Bake
100
AcDbVertex
100
AcDb2dVertex
 10
-135.8749739113928
 20
-115.699785146969
 30
0.0
  0
VERTEX
  5
237
330
223
100
AcDbEntity
  8
Bake
100
AcDbVertex
100
AcDb2dVertex
 10
-135.9999999999999
 20
-115.6079489491527
 30
0.0
  0
VERTEX
  5
238
330
223
100
AcDbEntity
  8
Bake
100
AcDbVertex
100
AcDb2dVertex
 10
-136.1249999999999
 20
-115.5122635099458
 30
0.0
  0
VERTEX
  5
239
330
223
100
AcDbEntity
  8
Bake
100
AcDbVertex
100
AcDb2dVertex
 10
-136.2499999999999
 20
-115.4127779354977
 30
0.0
  0
VERTEX
  5
23A
330
223
100
AcDbEntity
  8
Bake
100
AcDbVertex
100
AcDb2dVertex
 10
-136.4999999999999
 20
-115.2028308399122
 30
0.0
  0
VERTEX
  5
23B
330
223
100
AcDbEntity
  8
Bake
100
AcDbVertex
100
AcDb2dVertex
 10
-136.7499999999999
 20
-114.978956580466
 30
0.0
  0
VERTEX
  5
23C
330
223
100
AcDbEntity
  8
Bake
100
AcDbVertex
100
AcDb2dVertex
 10
-136.9999999999999
 20
-114.7420040752286
 30
0.0
  0
VERTEX
  5
23D
330
223
100
AcDbEntity
  8
Bake
100
AcDbVertex
100
AcDb2dVertex
 10
-137.2499999999999
 20
-114.4928222422697
 30
0.0
  0
VERTEX
  5
23E
330
223
100
AcDbEntity
  8
Bake
100
AcDbVertex
100
AcDb2dVertex
 10
-137.4999999999999
 20
-114.2322599996589
 30
0.0
  0
VERTEX
  5
23F
330
223
100
AcDbEntity
  8
Bake
100
AcDbVertex
100
AcDb2dVertex
 10
-137.7499999999999
 20
-113.9611662654658
 30
0.0
  0
VERTEX
  5
240
330
223
100
AcDbEntity
  8
Bake
100
AcDbVertex
100
AcDb2dVertex
 10
-138.9999999999999
 20
-112.524550182232
 30
0.0
  0
VERTEX
  5
241
330
223
100
AcDbEntity
  8
Bake
100
AcDbVertex
100
AcDb2dVertex
 10
-139.2499999999999
 20
-112.252999193176
 30
0.0
  0
VERTEX
  5
242
330
223
100
AcDbEntity
  8
Bake
100
AcDbVertex
100
AcDb2dVertex
 10
-139.3749999999999
 20
-112.1234552421033
 30
0.0
  0
VERTEX
  5
243
330
223
100
AcDbEntity
  8
Bake
100
AcDbVertex
100
AcDb2dVertex
 10
-139.4999999999999
 20
-111.9989432776326
 30
0.0
  0
VERTEX
  5
244
330
223
100
AcDbEntity
  8
Bake
100
AcDbVertex
100
AcDb2dVertex
 10
-139.6249999999999
 20
-111.880121517988
 30
0.0
  0
VERTEX
  5
245
330
223
100
AcDbEntity
  8
Bake
100
AcDbVertex
100
AcDb2dVertex
 10
-139.7499999999999
 20
-111.7676481813931
 30
0.0
  0
VERTEX
  5
246
330
223
100
AcDbEntity
  8
Bake
100
AcDbVertex
100
AcDb2dVertex
 10
-139.8749999999999
 20
-111.662181486072
 30
0.0
  0
VERTEX
  5
247
330
223
100
AcDbEntity
  8
Bake
100
AcDbVertex
100
AcDb2dVertex
 10
-139.9374999999999
 20
-111.6122813220841
 30
0.0
  0
VERTEX
  5
248
330
223
100
AcDbEntity
  8
Bake
100
AcDbVertex
100
AcDb2dVertex
 10
-139.9999999999999
 20
-111.5643796502486
 30
0.0
  0
VERTEX
  5
249
330
223
100
AcDbEntity
  8
Bake
100
AcDbVertex
100
AcDb2dVertex
 10
-140.0625249337149
 20
-111.5185287789526
 30
0.0
  0
VERTEX
  5
24A
330
223
100
AcDbEntity
  8
Bake
100
AcDbVertex
100
AcDb2dVertex
 10
-140.12519946972
 20
-111.47466114102
 30
0.0
  0
VERTEX
  5
24B
330
223
100
AcDbEntity
  8
Bake
100
AcDbVertex
100
AcDb2dVertex
 10
-140.1881732103053
 20
-111.4326792003836
 30
0.0
  0
VERTEX
  5
24C
330
223
100
AcDbEntity
  8
Bake
100
AcDbVertex
100
AcDb2dVertex
 10
-140.2515957577608
 20
-111.3924854209765
 30
0.0
  0
VERTEX
  5
24D
330
223
100
AcDbEntity
  8
Bake
100
AcDbVertex
100
AcDb2dVertex
 10
-140.3156167143765
 20
-111.3539822667315
 30
0.0
  0
VERTEX
  5
24E
330
223
100
AcDbEntity
  8
Bake
100
AcDbVertex
100
AcDb2dVertex
 10
-140.3803856824427
 20
-111.3170722015817
 30
0.0
  0
VERTEX
  5
24F
330
223
100
AcDbEntity
  8
Bake
100
AcDbVertex
100
AcDb2dVertex
 10
-140.4460522642494
 20
-111.28165768946
 30
0.0
  0
VERTEX
  5
250
330
223
100
AcDbEntity
  8
Bake
100
AcDbVertex
100
AcDb2dVertex
 10
-140.5127660620866
 20
-111.2476411942993
 30
0.0
  0
VERTEX
  5
251
330
223
100
AcDbEntity
  8
Bake
100
AcDbVertex
100
AcDb2dVertex
 10
-140.5806766782445
 20
-111.2149251800326
 30
0.0
  0
VERTEX
  5
252
330
223
100
AcDbEntity
  8
Bake
100
AcDbVertex
100
AcDb2dVertex
 10
-140.649933715013
 20
-111.1834121105929
 30
0.0
  0
VERTEX
  5
253
330
223
100
AcDbEntity
  8
Bake
100
AcDbVertex
100
AcDb2dVertex
 10
-140.7206867746823
 20
-111.153004449913
 30
0.0
  0
VERTEX
  5
254
330
223
100
AcDbEntity
  8
Bake
100
AcDbVertex
100
AcDb2dVertex
 10
-140.7930854595425
 20
-111.123604661926
 30
0.0
  0
VERTEX
  5
255
330
223
100
AcDbEntity
  8
Bake
100
AcDbVertex
100
AcDb2dVertex
 10
-140.8672793718837
 20
-111.0951152105648
 30
0.0
  0
VERTEX
  5
256
330
223
100
AcDbEntity
  8
Bake
100
AcDbVertex
100
AcDb2dVertex
 10
-140.9434181139958
 20
-111.0674385597623
 30
0.0
  0
VERTEX
  5
257
330
223
100
AcDbEntity
  8
Bake
100
AcDbVertex
100
AcDb2dVertex
 10
-141.1021284966935
 20
-111.0141335155654
 30
0.0
  0
VERTEX
  5
258
330
223
100
AcDbEntity
  8
Bake
100
AcDbVertex
100
AcDb2dVertex
 10
-141.2704134259562
 20
-110.9629092407988
 30
0.0
  0
VERTEX
  5
259
330
223
100
AcDbEntity
  8
Bake
100
AcDbVertex
100
AcDb2dVertex
 10
-141.4494697201046
 20
-110.9129854469263
 30
0.0
  0
VERTEX
  5
25A
330
223
100
AcDbEntity
  8
Bake
100
AcDbVertex
100
AcDb2dVertex
 10
-141.8446836763408
 20
-110.8139181477175
 30
0.0
  0
VERTEX
  5
25B
330
223
100
AcDbEntity
  8
Bake
100
AcDbVertex
100
AcDb2dVertex
 10
-143.4056222932736
 20
-110.4632821508825
 30
0.0
  0
VERTEX
  5
25C
330
223
100
AcDbEntity
  8
Bake
100
AcDbVertex
100
AcDb2dVertex
 10
-143.7172255491764
 20
-110.3816475728287
 30
0.0
  0
VERTEX
  5
25D
330
223
100
AcDbEntity
  8
Bake
100
AcDbVertex
100
AcDb2dVertex
 10
-143.8753556309984
 20
-110.3356550677081
 30
0.0
  0
VERTEX
  5
25E
330
223
100
AcDbEntity
  8
Bake
100
AcDbVertex
100
AcDb2dVertex
 10
-144.0342768458237
 20
-110.2856454163256
 30
0.0
  0
VERTEX
  5
25F
330
223
100
AcDbEntity
  8
Bake
100
AcDbVertex
100
AcDb2dVertex
 10
-144.1934183164696
 20
-110.2311933670317
 30
0.0
  0
VERTEX
  5
260
330
223
100
AcDbEntity
  8
Bake
100
AcDbVertex
100
AcDb2dVertex
 10
-144.3522091657534
 20
-110.1718736681769
 30
0.0
  0
VERTEX
  5
261
330
223
100
AcDbEntity
  8
Bake
100
AcDbVertex
100
AcDb2dVertex
 10
-144.5100785164924
 20
-110.1072610681116
 30
0.0
  0
VERTEX
  5
262
330
223
100
AcDbEntity
  8
Bake
100
AcDbVertex
100
AcDb2dVertex
 10
-144.588489230788
 20
-110.0728370389846
 30
0.0
  0
VERTEX
  5
263
330
223
100
AcDbEntity
  8
Bake
100
AcDbVertex
100
AcDb2dVertex
 10
-144.6664554915038
 20
-110.0369303151864
 30
0.0
  0
VERTEX
  5
264
330
223
100
AcDbEntity
  8
Bake
100
AcDbVertex
100
AcDb2dVertex
 10
-144.743905938992
 20
-109.9994877402608
 30
0.0
  0
VERTEX
  5
265
330
223
100
AcDbEntity
  8
Bake
100
AcDbVertex
100
AcDb2dVertex
 10
-144.8207692136049
 20
-109.9604561577517
 30
0.0
  0
VERTEX
  5
266
330
223
100
AcDbEntity
  8
Bake
100
AcDbVertex
100
AcDb2dVertex
 10
-144.8969739556945
 20
-109.9197824112028
 30
0.0
  0
VERTEX
  5
267
330
223
100
AcDbEntity
  8
Bake
100
AcDbVertex
100
AcDb2dVertex
 10
-144.9724488056129
 20
-109.8774133441579
 30
0.0
  0
VERTEX
  5
268
330
223
100
AcDbEntity
  8
Bake
100
AcDbVertex
100
AcDb2dVertex
 10
-145.0471224037125
 20
-109.833295800161
 30
0.0
  0
VERTEX
  5
269
330
223
100
AcDbEntity
  8
Bake
100
AcDbVertex
100
AcDb2dVertex
 10
-145.1209233903452
 20
-109.7873766227557
 30
0.0
  0
VERTEX
  5
26A
330
223
100
AcDbEntity
  8
Bake
100
AcDbVertex
100
AcDb2dVertex
 10
-145.1937804058633
 20
-109.7396026554858
 30
0.0
  0
VERTEX
  5
26B
330
223
100
AcDbEntity
  8
Bake
100
AcDbVertex
100
AcDb2dVertex
 10
-145.2656220906189
 20
-109.6899207418953
 30
0.0
  0
VERTEX
  5
26C
330
223
100
AcDbEntity
  8
Bake
100
AcDbVertex
100
AcDb2dVertex
 10
-145.3363770849642
 20
-109.6382777255279
 30
0.0
  0
VERTEX
  5
26D
330
223
100
AcDbEntity
  8
Bake
100
AcDbVertex
100
AcDb2dVertex
 10
-145.4059740292514
 20
-109.5846204499273
 30
0.0
  0
VERTEX
  5
26E
330
223
100
AcDbEntity
  8
Bake
100
AcDbVertex
100
AcDb2dVertex
 10
-145.4743415638326
 20
-109.5288957586375
 30
0.0
  0
VERTEX
  5
26F
330
223
100
AcDbEntity
  8
Bake
100
AcDbVertex
100
AcDb2dVertex
 10
-145.5414083290599
 20
-109.4710504952023
 30
0.0
  0
VERTEX
  5
270
330
223
100
AcDbEntity
  8
Bake
100
AcDbVertex
100
AcDb2dVertex
 10
-145.6071029652855
 20
-109.4110315031653
 30
0.0
  0
VERTEX
  5
271
330
223
100
AcDbEntity
  8
Bake
100
AcDbVertex
100
AcDb2dVertex
 10
-145.6713541128616
 20
-109.3487856260705
 30
0.0
  0
VERTEX
  5
272
330
223
100
AcDbEntity
  8
Bake
100
AcDbVertex
100
AcDb2dVertex
 10
-145.7340904121404
 20
-109.2842597074617
 30
0.0
  0
VERTEX
  5
273
330
223
100
AcDbEntity
  8
Bake
100
AcDbVertex
100
AcDb2dVertex
 10
-145.7952405034739
 20
-109.2174005908827
 30
0.0
  0
VERTEX
  5
274
330
223
100
AcDbEntity
  8
Bake
100
AcDbVertex
100
AcDb2dVertex
 10
-145.8547330272144
 20
-109.1481551198772
 30
0.0
  0
VERTEX
  5
275
330
223
100
AcDbEntity
  8
Bake
100
AcDbVertex
100
AcDb2dVertex
 10
-145.912496623714
 20
-109.0764701379891
 30
0.0
  0
VERTEX
  5
276
330
223
100
AcDbEntity
  8
Bake
100
AcDbVertex
100
AcDb2dVertex
 10
-145.9684599333249
 20
-109.0022924887622
 30
0.0
  0
VERTEX
  5
277
330
223
100
AcDbEntity
  8
Bake
100
AcDbVertex
100
AcDb2dVertex
 10
-146.0225515963992
 20
-108.9255690157403
 30
0.0
  0
VERTEX
  5
278
330
223
100
AcDbEntity
  8
Bake
100
AcDbVertex
100
AcDb2dVertex
 10
-146.0747002532891
 20
-108.8462465624672
 30
0.0
  0
VERTEX
  5
279
330
223
100
AcDbEntity
  8
Bake
100
AcDbVertex
100
AcDb2dVertex
 10
-146.1248345443467
 20
-108.7642719724867
 30
0.0
  0
VERTEX
  5
27A
330
223
100
AcDbEntity
  8
Bake
100
AcDbVertex
100
AcDb2dVertex
 10
-146.1728831099242
 20
-108.6795920893427
 30
0.0
  0
VERTEX
  5
27B
330
223
100
AcDbEntity
  8
Bake
100
AcDbVertex
100
AcDb2dVertex
 10
-146.2187745903738
 20
-108.5921537565789
 30
0.0
  0
VERTEX
  5
27C
330
223
100
AcDbEntity
  8
Bake
100
AcDbVertex
100
AcDb2dVertex
 10
-146.2624376260476
 20
-108.5019038177391
 30
0.0
  0
VERTEX
  5
27D
330
223
100
AcDbEntity
  8
Bake
100
AcDbVertex
100
AcDb2dVertex
 10
-146.3038008572977
 20
-108.4087891163672
 30
0.0
  0
VERTEX
  5
27E
330
223
100
AcDbEntity
  8
Bake
100
AcDbVertex
100
AcDb2dVertex
 10
-146.3427929244764
 20
-108.312756496007
 30
0.0
  0
VERTEX
  5
27F
330
223
100
AcDbEntity
  8
Bake
100
AcDbVertex
100
AcDb2dVertex
 10
-146.3793424679358
 20
-108.2137528002023
 30
0.0
  0
VERTEX
  5
280
330
223
100
AcDbEntity
  8
Bake
100
AcDbVertex
100
AcDb2dVertex
 10
-146.4133781280281
 20
-108.1117248724969
 30
0.0
  0
VERTEX
  5
281
330
223
100
AcDbEntity
  8
Bake
100
AcDbVertex
100
AcDb2dVertex
 10
-146.4448285451053
 20
-108.0066195564345
 30
0.0
  0
VERTEX
  5
282
330
223
100
AcDbEntity
  8
Bake
100
AcDbVertex
100
AcDb2dVertex
 10
-146.4736223595197
 20
-107.8983836955591
 30
0.0
  0
VERTEX
  5
283
330
223
100
AcDbEntity
  8
Bake
100
AcDbVertex
100
AcDb2dVertex
 10
-146.4996882116234
 20
-107.7869641334143
 30
0.0
  0
VERTEX
  5
284
330
223
100
AcDbEntity
  8
Bake
100
AcDbVertex
100
AcDb2dVertex
 10
-146.5229547417686
 20
-107.6723077135441
 30
0.0
  0
VERTEX
  5
285
330
223
100
AcDbEntity
  8
Bake
100
AcDbVertex
100
AcDb2dVertex
 10
-146.5433505903074
 20
-107.5543612794923
 30
0.0
  0
VERTEX
  5
286
330
223
100
AcDbEntity
  8
Bake
100
AcDbVertex
100
AcDb2dVertex
 10
-146.5608043975921
 20
-107.4330716748025
 30
0.0
  0
VERTEX
  5
287
330
223
100
AcDbEntity
  8
Bake
100
AcDbVertex
100
AcDb2dVertex
 10
-146.5752448039747
 20
-107.3083857430188
 30
0.0
  0
VERTEX
  5
288
330
223
100
AcDbEntity
  8
Bake
100
AcDbVertex
100
AcDb2dVertex
 10
-146.5866004498074
 20
-107.1802503276847
 30
0.0
  0
VERTEX
  5
289
330
223
100
AcDbEntity
  8
Bake
100
AcDbVertex
100
AcDb2dVertex
 10
-146.5947999754424
 20
-107.0486122723443
 30
0.0
  0
VERTEX
  5
28A
330
223
100
AcDbEntity
  8
Bake
100
AcDbVertex
100
AcDb2dVertex
 10
-146.5997720212318
 20
-106.9134184205412
 30
0.0
  0
VERTEX
  5
28B
330
223
100
AcDbEntity
  8
Bake
100
AcDbVertex
100
AcDb2dVertex
 10
-146.6014452275278
 20
-106.7746156158194
 30
0.0
  0
VERTEX
  5
28C
330
223
100
AcDbEntity
  8
Bake
100
AcDbVertex
100
AcDb2dVertex
 10
-146.6014452275278
 20
-75.92556981211266
 30
0.0
  0
VERTEX
  5
28D
330
223
100
AcDbEntity
  8
Bake
100
AcDbVertex
100
AcDb2dVertex
 10
-146.973810519931
 20
-75.63505272575173
 30
0.0
  0
VERTEX
  5
28E
330
223
100
AcDbEntity
  8
Bake
100
AcDbVertex
100
AcDb2dVertex
 10
-147.3271126116592
 20
-75.34756523418191
 30
0.0
  0
VERTEX
  5
28F
330
223
100
AcDbEntity
  8
Bake
100
AcDbVertex
100
AcDb2dVertex
 10
-147.6619551158598
 20
-75.0626250011546
 30
0.0
  0
VERTEX
  5
290
330
223
100
AcDbEntity
  8
Bake
100
AcDbVertex
100
AcDb2dVertex
 10
-147.9789416456802
 20
-74.77974969042116
 30
0.0
  0
VERTEX
  5
291
330
223
100
AcDbEntity
  8
Bake
100
AcDbVertex
100
AcDb2dVertex
 10
-148.2786758142679
 20
-74.49845696573297
 30
0.0
  0
VERTEX
  5
292
330
223
100
AcDbEntity
  8
Bake
100
AcDbVertex
100
AcDb2dVertex
 10
-148.5617612347704
 20
-74.21826449084142
 30
0.0
  0
VERTEX
  5
293
330
223
100
AcDbEntity
  8
Bake
100
AcDbVertex
100
AcDb2dVertex
 10
-148.828801520335
 20
-73.93868992949788
 30
0.0
  0
VERTEX
  5
294
330
223
100
AcDbEntity
  8
Bake
100
AcDbVertex
100
AcDb2dVertex
 10
-149.0804002841094
 20
-73.65925094545376
 30
0.0
  0
VERTEX
  5
295
330
223
100
AcDbEntity
  8
Bake
100
AcDbVertex
100
AcDb2dVertex
 10
-149.3171611392409
 20
-73.37946520246042
 30
0.0
  0
VERTEX
  5
296
330
223
100
AcDbEntity
  8
Bake
100
AcDbVertex
100
AcDb2dVertex
 10
-149.5396876988769
 20
-73.09885036426923
 30
0.0
  0
VERTEX
  5
297
330
223
100
AcDbEntity
  8
Bake
100
AcDbVertex
100
AcDb2dVertex
 10
-149.7485835761649
 20
-72.81692409463159
 30
0.0
  0
VERTEX
  5
298
330
223
100
AcDbEntity
  8
Bake
100
AcDbVertex
100
AcDb2dVertex
 10
-149.9444523842524
 20
-72.53320405729886
 30
0.0
  0
VERTEX
  5
299
330
223
100
AcDbEntity
  8
Bake
100
AcDbVertex
100
AcDb2dVertex
 10
-150.1278977362869
 20
-72.24720791602243
 30
0.0
  0
VERTEX
  5
29A
330
223
100
AcDbEntity
  8
Bake
100
AcDbVertex
100
AcDb2dVertex
 10
-150.2995232454157
 20
-71.9584533345537
 30
0.0
  0
VERTEX
  5
29B
330
223
100
AcDbEntity
  8
Bake
100
AcDbVertex
100
AcDb2dVertex
 10
-150.4599325247864
 20
-71.66645797664401
 30
0.0
  0
VERTEX
  5
29C
330
223
100
AcDbEntity
  8
Bake
100
AcDbVertex
100
AcDb2dVertex
 10
-150.6097291875464
 20
-71.3707395060448
 30
0.0
  0
VERTEX
  5
29D
330
223
100
AcDbEntity
  8
Bake
100
AcDbVertex
100
AcDb2dVertex
 10
-150.7495168468431
 20
-71.07081558650741
 30
0.0
  0
VERTEX
  5
29E
330
223
100
AcDbEntity
  8
Bake
100
AcDbVertex
100
AcDb2dVertex
 10
-150.8798991158241
 20
-70.76620388178321
 30
0.0
  0
VERTEX
  5
29F
330
223
100
AcDbEntity
  8
Bake
100
AcDbVertex
100
AcDb2dVertex
 10
-151.0014796076367
 20
-70.45642205562359
 30
0.0
  0
VERTEX
  5
2A0
330
223
100
AcDbEntity
  8
Bake
100
AcDbVertex
100
AcDb2dVertex
 10
-151.1148619354285
 20
-70.14098777177995
 30
0.0
  0
VERTEX
  5
2A1
330
223
100
AcDbEntity
  8
Bake
100
AcDbVertex
100
AcDb2dVertex
 10
-151.2206497123467
 20
-69.81941869400364
 30
0.0
  0
VERTEX
  5
2A2
330
223
100
AcDbEntity
  8
Bake
100
AcDbVertex
100
AcDb2dVertex
 10
-151.319446551539
 20
-69.49123248604607
 30
0.0
  0
VERTEX
  5
2A3
330
223
100
AcDbEntity
  8
Bake
100
AcDbVertex
100
AcDb2dVertex
 10
-151.4118560661528
 20
-69.1559468116586
 30
0.0
  0
VERTEX
  5
2A4
330
223
100
AcDbEntity
  8
Bake
100
AcDbVertex
100
AcDb2dVertex
 10
-151.4984818693356
 20
-68.81307933459263
 30
0.0
  0
VERTEX
  5
2A5
330
223
100
AcDbEntity
  8
Bake
100
AcDbVertex
100
AcDb2dVertex
 10
-151.6567967939977
 20
-68.10266962743069
 30
0.0
  0
VERTEX
  5
2A6
330
223
100
AcDbEntity
  8
Bake
100
AcDbVertex
100
AcDb2dVertex
 10
-151.799220230705
 20
-67.35614467457124
 30
0.0
  0
VERTEX
  5
2A7
330
223
100
AcDbEntity
  8
Bake
100
AcDbVertex
100
AcDb2dVertex
 10
-153.5387186961422
 20
-55.43251779840311
 30
0.0
  0
VERTEX
  5
2A8
330
223
100
AcDbEntity
  8
Bake
100
AcDbVertex
100
AcDb2dVertex
 10
-153.9858655604126
 20
-53.12258473258566
 30
0.0
  0
VERTEX
  5
2A9
330
223
100
AcDbEntity
  8
Bake
100
AcDbVertex
100
AcDb2dVertex
 10
-154.2406220135715
 20
-51.96045776361918
 30
0.0
  0
VERTEX
  5
2AA
330
223
100
AcDbEntity
  8
Bake
100
AcDbVertex
100
AcDb2dVertex
 10
-154.5187035420525
 20
-50.79846204965715
 30
0.0
  0
VERTEX
  5
2AB
330
223
100
AcDbEntity
  8
Bake
100
AcDbVertex
100
AcDb2dVertex
 10
-154.8220124418357
 20
-49.64027624998178
 30
0.0
  0
VERTEX
  5
2AC
330
223
100
AcDbEntity
  8
Bake
100
AcDbVertex
100
AcDb2dVertex
 10
-155.1524510089009
 20
-48.48957902387529
 30
0.0
  0
VERTEX
  5
2AD
330
223
100
AcDbEntity
  8
Bake
100
AcDbVertex
100
AcDb2dVertex
 10
-155.5116008212345
 20
-47.34900498490835
 30
0.0
  0
VERTEX
  5
2AE
330
223
100
AcDbEntity
  8
Bake
100
AcDbVertex
100
AcDb2dVertex
 10
-155.8997605848494
 20
-46.21701256380545
 30
0.0
  0
VERTEX
  5
2AF
330
223
100
AcDbEntity
  8
Bake
100
AcDbVertex
100
AcDb2dVertex
 10
-156.3169082877652
 20
-45.09101614557953
 30
0.0
  0
VERTEX
  5
2B0
330
223
100
AcDbEntity
  8
Bake
100
AcDbVertex
100
AcDb2dVertex
 10
-156.7630219180015
 20
-43.96843011524356
 30
0.0
  0
VERTEX
  5
2B1
330
223
100
AcDbEntity
  8
Bake
100
AcDbVertex
100
AcDb2dVertex
 10
-157.2380794635777
 20
-42.84666885781047
 30
0.0
  0
VERTEX
  5
2B2
330
223
100
AcDbEntity
  8
Bake
100
AcDbVertex
100
AcDb2dVertex
 10
-157.7420589125134
 20
-41.72314675829322
 30
0.0
  0
VERTEX
  5
2B3
330
223
100
AcDbEntity
  8
Bake
100
AcDbVertex
100
AcDb2dVertex
 10
-158.2749382528281
 20
-40.59527820170475
 30
0.0
  0
VERTEX
  5
2B4
330
223
100
AcDbEntity
  8
Bake
100
AcDbVertex
100
AcDb2dVertex
 10
-158.8366954725414
 20
-39.46047757305801
 30
0.0
  0
VERTEX
  5
2B5
330
223
100
AcDbEntity
  8
Bake
100
AcDbVertex
100
AcDb2dVertex
 10
-160.0467555022418
 20
-37.15973763964153
 30
0.0
  0
VERTEX
  5
2B6
330
223
100
AcDbEntity
  8
Bake
100
AcDbVertex
100
AcDb2dVertex
 10
-161.3720629057708
 20
-34.80024203814737
 30
0.0
  0
VERTEX
  5
2B7
330
223
100
AcDbEntity
  8
Bake
100
AcDbVertex
100
AcDb2dVertex
 10
-166.0245585030828
 20
-27.15568639752036
 30
0.0
  0
VERTEX
  5
2B8
330
223
100
AcDbEntity
  8
Bake
100
AcDbVertex
100
AcDb2dVertex
 10
-167.7170451588203
 20
-24.30751952375123
 30
0.0
  0
VERTEX
  5
2B9
330
223
100
AcDbEntity
  8
Bake
100
AcDbVertex
100
AcDb2dVertex
 10
-168.5519437496924
 20
-22.7963330755788
 30
0.0
  0
VERTEX
  5
2BA
330
223
100
AcDbEntity
  8
Bake
100
AcDbVertex
100
AcDb2dVertex
 10
-169.3660999354496
 20
-21.21694483785074
 30
0.0
  0
VERTEX
  5
2BB
330
223
100
AcDbEntity
  8
Bake
100
AcDbVertex
100
AcDb2dVertex
 10
-169.762310740367
 20
-20.39930009898999
 30
0.0
  0
VERTEX
  5
2BC
330
223
100
AcDbEntity
  8
Bake
100
AcDbVertex
100
AcDb2dVertex
 10
-170.149629280754
 20
-19.56175497404429
 30
0.0
  0
VERTEX
  5
2BD
330
223
100
AcDbEntity
  8
Bake
100
AcDbVertex
100
AcDb2dVertex
 10
-170.5268200021934
 20
-18.7033594834483
 30
0.0
  0
VERTEX
  5
2BE
330
223
100
AcDbEntity
  8
Bake
100
AcDbVertex
100
AcDb2dVertex
 10
-170.8926473502679
 20
-17.82316364763666
 30
0.0
  0
VERTEX
  5
2BF
330
223
100
AcDbEntity
  8
Bake
100
AcDbVertex
100
AcDb2dVertex
 10
-171.2458757705602
 20
-16.92021748704404
 30
0.0
  0
VERTEX
  5
2C0
330
223
100
AcDbEntity
  8
Bake
100
AcDbVertex
100
AcDb2dVertex
 10
-171.5852697086532
 20
-15.99357102210508
 30
0.0
  0
VERTEX
  5
2C1
330
223
100
AcDbEntity
  8
Bake
100
AcDbVertex
100
AcDb2dVertex
 10
-171.9095936101296
 20
-15.04227427325444
 30
0.0
  0
VERTEX
  5
2C2
330
223
100
AcDbEntity
  8
Bake
100
AcDbVertex
100
AcDb2dVertex
 10
-172.2176119205722
 20
-14.06537726092677
 30
0.0
  0
VERTEX
  5
2C3
330
223
100
AcDbEntity
  8
Bake
100
AcDbVertex
100
AcDb2dVertex
 10
-172.5080890855637
 20
-13.06193000555672
 30
0.0
  0
VERTEX
  5
2C4
330
223
100
AcDbEntity
  8
Bake
100
AcDbVertex
100
AcDb2dVertex
 10
-172.779789550687
 20
-12.03098252757895
 30
0.0
  0
VERTEX
  5
2C5
330
223
100
AcDbEntity
  8
Bake
100
AcDbVertex
100
AcDb2dVertex
 10
-173.0314777615247
 20
-10.97158484742811
 30
0.0
  0
VERTEX
  5
2C6
330
223
100
AcDbEntity
  8
Bake
100
AcDbVertex
100
AcDb2dVertex
 10
-173.2619181636597
 20
-9.882786985538843
 30
0.0
  0
VERTEX
  5
2C7
330
223
100
AcDbEntity
  8
Bake
100
AcDbVertex
100
AcDb2dVertex
 10
-173.4698752026748
 20
-8.763638962345814
 30
0.0
  0
VERTEX
  5
2C8
330
223
100
AcDbEntity
  8
Bake
100
AcDbVertex
100
AcDb2dVertex
 10
-173.6541133241526
 20
-7.613190798283672
 30
0.0
  0
VERTEX
  5
2C9
330
223
100
AcDbEntity
  8
Bake
100
AcDbVertex
100
AcDb2dVertex
 10
-173.813396973676
 20
-6.430492513787067
 30
0.0
  0
VERTEX
  5
2CA
330
223
100
AcDbEntity
  8
Bake
100
AcDbVertex
100
AcDb2dVertex
 10
-173.9464905968277
 20
-5.214594129290656
 30
0.0
  0
VERTEX
  5
2CB
330
223
100
AcDbEntity
  8
Bake
100
AcDbVertex
100
AcDb2dVertex
 10
-174.0521586391905
 20
-3.96454566522909
 30
0.0
  0
VERTEX
  5
2CC
330
223
100
AcDbEntity
  8
Bake
100
AcDbVertex
100
AcDb2dVertex
 10
-174.1291655463472
 20
-2.67939714203702
 30
0.0
  0
VERTEX
  5
2CD
330
223
100
AcDbEntity
  8
Bake
100
AcDbVertex
100
AcDb2dVertex
 10
-174.1762757638805
 20
-1.358198580149101
 30
0.0
  0
VERTEX
  5
2CE
330
223
100
AcDbEntity
  8
Bake
100
AcDbVertex
100
AcDb2dVertex
 10
-174.1922537373732
 20
0.0000000000000093
 30
0.0
 42
-0.4099752802203803
  0
VERTEX
  5
2CF
330
223
100
AcDbEntity
  8
Bake
100
AcDbVertex
100
AcDb2dVertex
 10
-128.9999999999999
 20
45.86174802054424
 30
0.0
  0
VERTEX
  5
2D0
330
223
100
AcDbEntity
  8
Bake
100
AcDbVertex
100
AcDb2dVertex
 10
-128.9999999999999
 20
30.8593722969388
 30
0.0
 42
0.4079044053058878
  0
VERTEX
  5
2D1
330
223
100
AcDbEntity
  8
Bake
100
AcDbVertex
100
AcDb2dVertex
 10
-159.1922537799529
 20
0.0007991836813486
 30
0.0
  0
VERTEX
  5
2D2
330
223
100
AcDbEntity
  8
Bake
100
AcDbVertex
100
AcDb2dVertex
 10
-159.1794188121988
 20
-1.047501211762514
 30
0.0
  0
VERTEX
  5
2D3
330
223
100
AcDbEntity
  8
Bake
100
AcDbVertex
100
AcDb2dVertex
 10
-159.1397848919378
 20
-2.095115798985811
 30
0.0
  0
VERTEX
  5
2D4
330
223
100
AcDbEntity
  8
Bake
100
AcDbVertex
100
AcDb2dVertex
 10
-159.0783444721426
 20
-3.055844626618458
 30
0.0
  0
VERTEX
  5
2D5
330
223
100
AcDbEntity
  8
Bake
100
AcDbVertex
100
AcDb2dVertex
 10
-158.9916145080842
 20
-4.014608826257594
 30
0.0
  0
VERTEX
  5
2D6
330
223
100
AcDbEntity
  8
Bake
100
AcDbVertex
100
AcDb2dVertex
 10
-158.8884007796933
 20
-4.894244160241317
 30
0.0
  0
VERTEX
  5
2D7
330
223
100
AcDbEntity
  8
Bake
100
AcDbVertex
100
AcDb2dVertex
 10
-158.7617312386322
 20
-5.770801057160474
 30
0.0
  0
VERTEX
  5
2D8
330
223
100
AcDbEntity
  8
Bake
100
AcDbVertex
100
AcDb2dVertex
 10
-158.6229350407159
 20
-6.577813049072885
 30
0.0
  0
VERTEX
  5
2D9
330
223
100
AcDbEntity
  8
Bake
100
AcDbVertex
100
AcDb2dVertex
 10
-158.4626890794183
 20
-7.380831815267173
 30
0.0
  0
VERTEX
  5
2DA
330
223
100
AcDbEntity
  8
Bake
100
AcDbVertex
100
AcDb2dVertex
 10
-158.2923718512102
 20
-8.13001734923821
 30
0.0
  0
VERTEX
  5
2DB
330
223
100
AcDbEntity
  8
Bake
100
AcDbVertex
100
AcDb2dVertex
 10
-158.1024649402698
 20
-8.874480012683094
 30
0.0
  0
VERTEX
  5
2DC
330
223
100
AcDbEntity
  8
Bake
100
AcDbVertex
100
AcDb2dVertex
 10
-157.9028034300316
 20
-9.580042595161352
 30
0.0
  0
VERTEX
  5
2DD
330
223
100
AcDbEntity
  8
Bake
100
AcDbVertex
100
AcDb2dVertex
 10
-157.6851950594749
 20
-10.28027027230731
 30
0.0
  0
VERTEX
  5
2DE
330
223
100
AcDbEntity
  8
Bake
100
AcDbVertex
100
AcDb2dVertex
 10
-157.4582654095214
 20
-10.95070575981621
 30
0.0
  0
VERTEX
  5
2DF
330
223
100
AcDbEntity
  8
Bake
100
AcDbVertex
100
AcDb2dVertex
 10
-157.2151887720806
 20
-11.61546960758254
 30
0.0
  0
VERTEX
  5
2E0
330
223
100
AcDbEntity
  8
Bake
100
AcDbVertex
100
AcDb2dVertex
 10
-156.9625693036845
 20
-12.2593316839816
 30
0.0
  0
VERTEX
  5
2E1
330
223
100
AcDbEntity
  8
Bake
100
AcDbVertex
100
AcDb2dVertex
 10
-156.6955885829024
 20
-12.89736839246613
 30
0.0
  0
VERTEX
  5
2E2
330
223
100
AcDbEntity
  8
Bake
100
AcDbVertex
100
AcDb2dVertex
 10
-156.4142169047184
 20
-13.5309440415567
 30
0.0
  0
VERTEX
  5
2E3
330
223
100
AcDbEntity
  8
Bake
100
AcDbVertex
100
AcDb2dVertex
 10
-156.1199965899642
 20
-14.15866938949482
 30
0.0
  0
VERTEX
  5
2E4
330
223
100
AcDbEntity
  8
Bake
100
AcDbVertex
100
AcDb2dVertex
 10
-155.8139210125228
 20
-14.78074039376233
 30
0.0
  0
VERTEX
  5
2E5
330
223
100
AcDbEntity
  8
Bake
100
AcDbVertex
100
AcDb2dVertex
 10
-155.4969835462776
 20
-15.39735301184106
 30
0.0
  0
VERTEX
  5
2E6
330
223
100
AcDbEntity
  8
Bake
100
AcDbVertex
100
AcDb2dVertex
 10
-154.8052822391815
 20
-16.66761784724487
 30
0.0
  0
VERTEX
  5
2E7
330
223
100
AcDbEntity
  8
Bake
100
AcDbVertex
100
AcDb2dVertex
 10
-154.0807236766332
 20
-17.91955442432916
 30
0.0
  0
VERTEX
  5
2E8
330
223
100
AcDbEntity
  8
Bake
100
AcDbVertex
100
AcDb2dVertex
 10
-149.0212646422433
 20
-26.20307303952568
 30
0.0
  0
VERTEX
  5
2E9
330
223
100
AcDbEntity
  8
Bake
100
AcDbVertex
100
AcDb2dVertex
 10
-147.3718913900873
 20
-29.08069921590646
 30
0.0
  0
VERTEX
  5
2EA
330
223
100
AcDbEntity
  8
Bake
100
AcDbVertex
100
AcDb2dVertex
 10
-145.8157474053117
 20
-31.97772855249936
 30
0.0
  0
VERTEX
  5
2EB
330
223
100
AcDbEntity
  8
Bake
100
AcDbVertex
100
AcDb2dVertex
 10
-145.0743892651076
 20
-33.4445745711138
 30
0.0
  0
VERTEX
  5
2EC
330
223
100
AcDbEntity
  8
Bake
100
AcDbVertex
100
AcDb2dVertex
 10
-144.3609174136068
 20
-34.92516653249396
 30
0.0
  0
VERTEX
  5
2ED
330
223
100
AcDbEntity
  8
Bake
100
AcDbVertex
100
AcDb2dVertex
 10
-143.6766807208886
 20
-36.42321109480034
 30
0.0
  0
VERTEX
  5
2EE
330
223
100
AcDbEntity
  8
Bake
100
AcDbVertex
100
AcDb2dVertex
 10
-143.0257459927657
 20
-37.93600034885046
 30
0.0
  0
VERTEX
  5
2EF
330
223
100
AcDbEntity
  8
Bake
100
AcDbVertex
100
AcDb2dVertex
 10
-142.4043060391093
 20
-39.47977512982254
 30
0.0
  0
VERTEX
  5
2F0
330
223
100
AcDbEntity
  8
Bake
100
AcDbVertex
100
AcDb2dVertex
 10
-141.8215193826651
 20
-41.0385418851468
 30
0.0
  0
VERTEX
  5
2F1
330
223
100
AcDbEntity
  8
Bake
100
AcDbVertex
100
AcDb2dVertex
 10
-141.2707068512861
 20
-42.6380209094668
 30
0.0
  0
VERTEX
  5
2F2
330
223
100
AcDbEntity
  8
Bake
100
AcDbVertex
100
AcDb2dVertex
 10
-140.7633123897108
 20
-44.25177270025787
 30
0.0
  0
VERTEX
  5
2F3
330
223
100
AcDbEntity
  8
Bake
100
AcDbVertex
100
AcDb2dVertex
 10
-140.3081228443416
 20
-45.84846350899984
 30
0.0
  0
VERTEX
  5
2F4
330
223
100
AcDbEntity
  8
Bake
100
AcDbVertex
100
AcDb2dVertex
 10
-139.8930487827167
 20
-47.4560985610311
 30
0.0
  0
VERTEX
  5
2F5
330
223
100
AcDbEntity
  8
Bake
100
AcDbVertex
100
AcDb2dVertex
 10
-139.5342447902389
 20
-48.98665281984849
 30
0.0
  0
VERTEX
  5
2F6
330
223
100
AcDbEntity
  8
Bake
100
AcDbVertex
100
AcDb2dVertex
 10
-139.2058544147601
 20
-50.52403444907095
 30
0.0
  0
VERTEX
  5
2F7
330
223
100
AcDbEntity
  8
Bake
100
AcDbVertex
100
AcDb2dVertex
 10
-138.6588630940753
 20
-53.44203753412047
 30
0.0
  0
VERTEX
  5
2F8
330
223
100
AcDbEntity
  8
Bake
100
AcDbVertex
100
AcDb2dVertex
 10
-138.2193308574398
 20
-56.18843995522442
 30
0.0
  0
VERTEX
  5
2F9
330
223
100
AcDbEntity
  8
Bake
100
AcDbVertex
100
AcDb2dVertex
 10
-137.1016858717469
 20
-64.30691412032803
 30
0.0
  0
VERTEX
  5
2FA
330
223
100
AcDbEntity
  8
Bake
100
AcDbVertex
100
AcDb2dVertex
 10
-131.6014452275277
 20
-68.51298049531908
 30
0.0
  0
VERTEX
  5
2FB
330
223
100
AcDbEntity
  8
Bake
100
AcDbVertex
100
AcDb2dVertex
 10
-131.6014452275277
 20
-79.9999999999999
 30
0.0
  0
SEQEND
  5
2FC
330
223
100
AcDbEntity
  8
Bake
  0
POLYLINE
  5
2FD
330
1F
100
AcDbEntity
  8
Bake
100
AcDb2dPolyline
 66
     1
 10
0.0
 20
0.0
 30
0.0
  0
VERTEX
  5
2FE
330
2FD
100
AcDbEntity
  8
Bake
100
AcDbVertex
100
AcDb2dVertex
 10
-91.60144522752776
 20
-103.0
 30
0.0
  0
VERTEX
  5
2FF
330
2FD
100
AcDbEntity
  8
Bake
100
AcDbVertex
100
AcDb2dVertex
 10
-91.6014452275277
 20
-117.417060575252
 30
0.0
  0
VERTEX
  5
300
330
2FD
100
AcDbEntity
  8
Bake
100
AcDbVertex
100
AcDb2dVertex
 10
-92.03288380938685
 20
-117.334582130977
 30
0.0
  0
VERTEX
  5
301
330
2FD
100
AcDbEntity
  8
Bake
100
AcDbVertex
100
AcDb2dVertex
 10
-92.40805219814506
 20
-117.2527829634923
 30
0.0
  0
VERTEX
  5
302
330
2FD
100
AcDbEntity
  8
Bake
100
AcDbVertex
100
AcDb2dVertex
 10
-92.73437454718419
 20
-117.1715338305381
 30
0.0
  0
VERTEX
  5
303
330
2FD
100
AcDbEntity
  8
Bake
100
AcDbVertex
100
AcDb2dVertex
 10
-93.01927500988603
 20
-117.0907054898543
 30
0.0
  0
VERTEX
  5
304
330
2FD
100
AcDbEntity
  8
Bake
100
AcDbVertex
100
AcDb2dVertex
 10
-93.27017773963243
 20
-117.010168699181
 30
0.0
  0
VERTEX
  5
305
330
2FD
100
AcDbEntity
  8
Bake
100
AcDbVertex
100
AcDb2dVertex
 10
-93.49450688980522
 20
-116.9297942162584
 30
0.0
  0
VERTEX
  5
306
330
2FD
100
AcDbEntity
  8
Bake
100
AcDbVertex
100
AcDb2dVertex
 10
-93.69968661378621
 20
-116.8494527988265
 30
0.0
  0
VERTEX
  5
307
330
2FD
100
AcDbEntity
  8
Bake
100
AcDbVertex
100
AcDb2dVertex
 10
-94.17841286187564
 20
-116.6455382570182
 30
0.0
  0
VERTEX
  5
308
330
2FD
100
AcDbEntity
  8
Bake
100
AcDbVertex
100
AcDb2dVertex
 10
-94.45491888677881
 20
-116.5196487756802
 30
0.0
  0
VERTEX
  5
309
330
2FD
100
AcDbEntity
  8
Bake
100
AcDbVertex
100
AcDb2dVertex
 10
-94.7239113928118
 20
-116.3894592654302
 30
0.0
  0
VERTEX
  5
30A
330
2FD
100
AcDbEntity
  8
Bake
100
AcDbVertex
100
AcDb2dVertex
 10
-94.98664263311963
 20
-116.2530822310868
 30
0.0
  0
VERTEX
  5
30B
330
2FD
100
AcDbEntity
  8
Bake
100
AcDbVertex
100
AcDb2dVertex
 10
-95.24436486084733
 20
-116.1086301774687
 30
0.0
  0
VERTEX
  5
30C
330
2FD
100
AcDbEntity
  8
Bake
100
AcDbVertex
100
AcDb2dVertex
 10
-95.37173892410144
 20
-116.0327861761874
 30
0.0
  0
VERTEX
  5
30D
330
2FD
100
AcDbEntity
  8
Bake
100
AcDbVertex
100
AcDb2dVertex
 10
-95.49833032913992
 20
-115.9542156093945
 30
0.0
  0
VERTEX
  5
30E
330
2FD
100
AcDbEntity
  8
Bake
100
AcDbVertex
100
AcDb2dVertex
 10
-95.62429560760587
 20
-115.8726825401922
 30
0.0
  0
VERTEX
  5
30F
330
2FD
100
AcDbEntity
  8
Bake
100
AcDbVertex
100
AcDb2dVertex
 10
-95.74979129114244
 20
-115.787951031683
 30
0.0
  0
VERTEX
  5
310
330
2FD
100
AcDbEntity
  8
Bake
100
AcDbVertex
100
AcDb2dVertex
 10
-95.87497391139276
 20
-115.699785146969
 30
0.0
  0
VERTEX
  5
311
330
2FD
100
AcDbEntity
  8
Bake
100
AcDbVertex
100
AcDb2dVertex
 10
-95.99999999999994
 20
-115.6079489491527
 30
0.0
  0
VERTEX
  5
312
330
2FD
100
AcDbEntity
  8
Bake
100
AcDbVertex
100
AcDb2dVertex
 10
-96.12499999999994
 20
-115.5122635099458
 30
0.0
  0
VERTEX
  5
313
330
2FD
100
AcDbEntity
  8
Bake
100
AcDbVertex
100
AcDb2dVertex
 10
-96.24999999999994
 20
-115.4127779354977
 30
0.0
  0
VERTEX
  5
314
330
2FD
100
AcDbEntity
  8
Bake
100
AcDbVertex
100
AcDb2dVertex
 10
-96.49999999999994
 20
-115.2028308399122
 30
0.0
  0
VERTEX
  5
315
330
2FD
100
AcDbEntity
  8
Bake
100
AcDbVertex
100
AcDb2dVertex
 10
-96.74999999999994
 20
-114.978956580466
 30
0.0
  0
VERTEX
  5
316
330
2FD
100
AcDbEntity
  8
Bake
100
AcDbVertex
100
AcDb2dVertex
 10
-96.99999999999994
 20
-114.7420040752286
 30
0.0
  0
VERTEX
  5
317
330
2FD
100
AcDbEntity
  8
Bake
100
AcDbVertex
100
AcDb2dVertex
 10
-97.24999999999994
 20
-114.4928222422697
 30
0.0
  0
VERTEX
  5
318
330
2FD
100
AcDbEntity
  8
Bake
100
AcDbVertex
100
AcDb2dVertex
 10
-97.49999999999994
 20
-114.2322599996589
 30
0.0
  0
VERTEX
  5
319
330
2FD
100
AcDbEntity
  8
Bake
100
AcDbVertex
100
AcDb2dVertex
 10
-97.74999999999994
 20
-113.9611662654658
 30
0.0
  0
VERTEX
  5
31A
330
2FD
100
AcDbEntity
  8
Bake
100
AcDbVertex
100
AcDb2dVertex
 10
-98.99999999999993
 20
-112.524550182232
 30
0.0
  0
VERTEX
  5
31B
330
2FD
100
AcDbEntity
  8
Bake
100
AcDbVertex
100
AcDb2dVertex
 10
-99.24999999999993
 20
-112.252999193176
 30
0.0
  0
VERTEX
  5
31C
330
2FD
100
AcDbEntity
  8
Bake
100
AcDbVertex
100
AcDb2dVertex
 10
-99.37499999999991
 20
-112.1234552421033
 30
0.0
  0
VERTEX
  5
31D
330
2FD
100
AcDbEntity
  8
Bake
100
AcDbVertex
100
AcDb2dVertex
 10
-99.49999999999991
 20
-111.9989432776326
 30
0.0
  0
VERTEX
  5
31E
330
2FD
100
AcDbEntity
  8
Bake
100
AcDbVertex
100
AcDb2dVertex
 10
-99.62499999999991
 20
-111.880121517988
 30
0.0
  0
VERTEX
  5
31F
330
2FD
100
AcDbEntity
  8
Bake
100
AcDbVertex
100
AcDb2dVertex
 10
-99.74999999999991
 20
-111.7676481813931
 30
0.0
  0
VERTEX
  5
320
330
2FD
100
AcDbEntity
  8
Bake
100
AcDbVertex
100
AcDb2dVertex
 10
-99.87499999999991
 20
-111.662181486072
 30
0.0
  0
VERTEX
  5
321
330
2FD
100
AcDbEntity
  8
Bake
100
AcDbVertex
100
AcDb2dVertex
 10
-99.93749999999991
 20
-111.6122813220841
 30
0.0
  0
VERTEX
  5
322
330
2FD
100
AcDbEntity
  8
Bake
100
AcDbVertex
100
AcDb2dVertex
 10
-99.99999999999991
 20
-111.5643796502486
 30
0.0
  0
VERTEX
  5
323
330
2FD
100
AcDbEntity
  8
Bake
100
AcDbVertex
100
AcDb2dVertex
 10
-100.0625249337149
 20
-111.5185287789526
 30
0.0
  0
VERTEX
  5
324
330
2FD
100
AcDbEntity
  8
Bake
100
AcDbVertex
100
AcDb2dVertex
 10
-100.12519946972
 20
-111.47466114102
 30
0.0
  0
VERTEX
  5
325
330
2FD
100
AcDbEntity
  8
Bake
100
AcDbVertex
100
AcDb2dVertex
 10
-100.1881732103053
 20
-111.4326792003836
 30
0.0
  0
VERTEX
  5
326
330
2FD
100
AcDbEntity
  8
Bake
100
AcDbVertex
100
AcDb2dVertex
 10
-100.2515957577608
 20
-111.3924854209765
 30
0.0
  0
VERTEX
  5
327
330
2FD
100
AcDbEntity
  8
Bake
100
AcDbVertex
100
AcDb2dVertex
 10
-100.3156167143765
 20
-111.3539822667315
 30
0.0
  0
VERTEX
  5
328
330
2FD
100
AcDbEntity
  8
Bake
100
AcDbVertex
100
AcDb2dVertex
 10
-100.3803856824427
 20
-111.3170722015817
 30
0.0
  0
VERTEX
  5
329
330
2FD
100
AcDbEntity
  8
Bake
100
AcDbVertex
100
AcDb2dVertex
 10
-100.4460522642494
 20
-111.28165768946
 30
0.0
  0
VERTEX
  5
32A
330
2FD
100
AcDbEntity
  8
Bake
100
AcDbVertex
100
AcDb2dVertex
 10
-100.5127660620866
 20
-111.2476411942993
 30
0.0
  0
VERTEX
  5
32B
330
2FD
100
AcDbEntity
  8
Bake
100
AcDbVertex
100
AcDb2dVertex
 10
-100.5806766782445
 20
-111.2149251800326
 30
0.0
  0
VERTEX
  5
32C
330
2FD
100
AcDbEntity
  8
Bake
100
AcDbVertex
100
AcDb2dVertex
 10
-100.649933715013
 20
-111.1834121105929
 30
0.0
  0
VERTEX
  5
32D
330
2FD
100
AcDbEntity
  8
Bake
100
AcDbVertex
100
AcDb2dVertex
 10
-100.7206867746823
 20
-111.153004449913
 30
0.0
  0
VERTEX
  5
32E
330
2FD
100
AcDbEntity
  8
Bake
100
AcDbVertex
100
AcDb2dVertex
 10
-100.7930854595425
 20
-111.123604661926
 30
0.0
  0
VERTEX
  5
32F
330
2FD
100
AcDbEntity
  8
Bake
100
AcDbVertex
100
AcDb2dVertex
 10
-100.8672793718837
 20
-111.0951152105648
 30
0.0
  0
VERTEX
  5
330
330
2FD
100
AcDbEntity
  8
Bake
100
AcDbVertex
100
AcDb2dVertex
 10
-100.9434181139958
 20
-111.0674385597623
 30
0.0
  0
VERTEX
  5
331
330
2FD
100
AcDbEntity
  8
Bake
100
AcDbVertex
100
AcDb2dVertex
 10
-101.1021284966935
 20
-111.0141335155654
 30
0.0
  0
VERTEX
  5
332
330
2FD
100
AcDbEntity
  8
Bake
100
AcDbVertex
100
AcDb2dVertex
 10
-101.2704134259562
 20
-110.9629092407988
 30
0.0
  0
VERTEX
  5
333
330
2FD
100
AcDbEntity
  8
Bake
100
AcDbVertex
100
AcDb2dVertex
 10
-101.4494697201046
 20
-110.9129854469263
 30
0.0
  0
VERTEX
  5
334
330
2FD
100
AcDbEntity
  8
Bake
100
AcDbVertex
100
AcDb2dVertex
 10
-101.8446836763408
 20
-110.8139181477175
 30
0.0
  0
VERTEX
  5
335
330
2FD
100
AcDbEntity
  8
Bake
100
AcDbVertex
100
AcDb2dVertex
 10
-103.4056222932735
 20
-110.4632821508825
 30
0.0
  0
VERTEX
  5
336
330
2FD
100
AcDbEntity
  8
Bake
100
AcDbVertex
100
AcDb2dVertex
 10
-103.7172255491764
 20
-110.3816475728287
 30
0.0
  0
VERTEX
  5
337
330
2FD
100
AcDbEntity
  8
Bake
100
AcDbVertex
100
AcDb2dVertex
 10
-103.8753556309983
 20
-110.3356550677081
 30
0.0
  0
VERTEX
  5
338
330
2FD
100
AcDbEntity
  8
Bake
100
AcDbVertex
100
AcDb2dVertex
 10
-104.0342768458236
 20
-110.2856454163256
 30
0.0
  0
VERTEX
  5
339
330
2FD
100
AcDbEntity
  8
Bake
100
AcDbVertex
100
AcDb2dVertex
 10
-104.1934183164696
 20
-110.2311933670317
 30
0.0
  0
VERTEX
  5
33A
330
2FD
100
AcDbEntity
  8
Bake
100
AcDbVertex
100
AcDb2dVertex
 10
-104.3522091657534
 20
-110.1718736681769
 30
0.0
  0
VERTEX
  5
33B
330
2FD
100
AcDbEntity
  8
Bake
100
AcDbVertex
100
AcDb2dVertex
 10
-104.5100785164924
 20
-110.1072610681116
 30
0.0
  0
VERTEX
  5
33C
330
2FD
100
AcDbEntity
  8
Bake
100
AcDbVertex
100
AcDb2dVertex
 10
-104.5884892307879
 20
-110.0728370389846
 30
0.0
  0
VERTEX
  5
33D
330
2FD
100
AcDbEntity
  8
Bake
100
AcDbVertex
100
AcDb2dVertex
 10
-104.6664554915038
 20
-110.0369303151864
 30
0.0
  0
VERTEX
  5
33E
330
2FD
100
AcDbEntity
  8
Bake
100
AcDbVertex
100
AcDb2dVertex
 10
-104.743905938992
 20
-109.9994877402608
 30
0.0
  0
VERTEX
  5
33F
330
2FD
100
AcDbEntity
  8
Bake
100
AcDbVertex
100
AcDb2dVertex
 10
-104.8207692136049
 20
-109.9604561577517
 30
0.0
  0
VERTEX
  5
340
330
2FD
100
AcDbEntity
  8
Bake
100
AcDbVertex
100
AcDb2dVertex
 10
-104.8969739556944
 20
-109.9197824112028
 30
0.0
  0
VERTEX
  5
341
330
2FD
100
AcDbEntity
  8
Bake
100
AcDbVertex
100
AcDb2dVertex
 10
-104.9724488056129
 20
-109.8774133441579
 30
0.0
  0
VERTEX
  5
342
330
2FD
100
AcDbEntity
  8
Bake
100
AcDbVertex
100
AcDb2dVertex
 10
-105.0471224037124
 20
-109.833295800161
 30
0.0
  0
VERTEX
  5
343
330
2FD
100
AcDbEntity
  8
Bake
100
AcDbVertex
100
AcDb2dVertex
 10
-105.1209233903452
 20
-109.7873766227557
 30
0.0
  0
VERTEX
  5
344
330
2FD
100
AcDbEntity
  8
Bake
100
AcDbVertex
100
AcDb2dVertex
 10
-105.1937804058633
 20
-109.7396026554858
 30
0.0
  0
VERTEX
  5
345
330
2FD
100
AcDbEntity
  8
Bake
100
AcDbVertex
100
AcDb2dVertex
 10
-105.2656220906189
 20
-109.6899207418953
 30
0.0
  0
VERTEX
  5
346
330
2FD
100
AcDbEntity
  8
Bake
100
AcDbVertex
100
AcDb2dVertex
 10
-105.3363770849642
 20
-109.6382777255279
 30
0.0
  0
VERTEX
  5
347
330
2FD
100
AcDbEntity
  8
Bake
100
AcDbVertex
100
AcDb2dVertex
 10
-105.4059740292514
 20
-109.5846204499273
 30
0.0
  0
VERTEX
  5
348
330
2FD
100
AcDbEntity
  8
Bake
100
AcDbVertex
100
AcDb2dVertex
 10
-105.4743415638325
 20
-109.5288957586375
 30
0.0
  0
VERTEX
  5
349
330
2FD
100
AcDbEntity
  8
Bake
100
AcDbVertex
100
AcDb2dVertex
 10
-105.5414083290598
 20
-109.4710504952023
 30
0.0
  0
VERTEX
  5
34A
330
2FD
100
AcDbEntity
  8
Bake
100
AcDbVertex
100
AcDb2dVertex
 10
-105.6071029652855
 20
-109.4110315031653
 30
0.0
  0
VERTEX
  5
34B
330
2FD
100
AcDbEntity
  8
Bake
100
AcDbVertex
100
AcDb2dVertex
 10
-105.6713541128616
 20
-109.3487856260705
 30
0.0
  0
VERTEX
  5
34C
330
2FD
100
AcDbEntity
  8
Bake
100
AcDbVertex
100
AcDb2dVertex
 10
-105.7340904121404
 20
-109.2842597074617
 30
0.0
  0
VERTEX
  5
34D
330
2FD
100
AcDbEntity
  8
Bake
100
AcDbVertex
100
AcDb2dVertex
 10
-105.7952405034739
 20
-109.2174005908827
 30
0.0
  0
VERTEX
  5
34E
330
2FD
100
AcDbEntity
  8
Bake
100
AcDbVertex
100
AcDb2dVertex
 10
-105.8547330272144
 20
-109.1481551198772
 30
0.0
  0
VERTEX
  5
34F
330
2FD
100
AcDbEntity
  8
Bake
100
AcDbVertex
100
AcDb2dVertex
 10
-105.912496623714
 20
-109.0764701379891
 30
0.0
  0
VERTEX
  5
350
330
2FD
100
AcDbEntity
  8
Bake
100
AcDbVertex
100
AcDb2dVertex
 10
-105.9684599333249
 20
-109.0022924887622
 30
0.0
  0
VERTEX
  5
351
330
2FD
100
AcDbEntity
  8
Bake
100
AcDbVertex
100
AcDb2dVertex
 10
-106.0225515963992
 20
-108.9255690157403
 30
0.0
  0
VERTEX
  5
352
330
2FD
100
AcDbEntity
  8
Bake
100
AcDbVertex
100
AcDb2dVertex
 10
-106.0747002532891
 20
-108.8462465624672
 30
0.0
  0
VERTEX
  5
353
330
2FD
100
AcDbEntity
  8
Bake
100
AcDbVertex
100
AcDb2dVertex
 10
-106.1248345443467
 20
-108.7642719724867
 30
0.0
  0
VERTEX
  5
354
330
2FD
100
AcDbEntity
  8
Bake
100
AcDbVertex
100
AcDb2dVertex
 10
-106.1728831099242
 20
-108.6795920893427
 30
0.0
  0
VERTEX
  5
355
330
2FD
100
AcDbEntity
  8
Bake
100
AcDbVertex
100
AcDb2dVertex
 10
-106.2187745903738
 20
-108.5921537565789
 30
0.0
  0
VERTEX
  5
356
330
2FD
100
AcDbEntity
  8
Bake
100
AcDbVertex
100
AcDb2dVertex
 10
-106.2624376260476
 20
-108.5019038177391
 30
0.0
  0
VERTEX
  5
357
330
2FD
100
AcDbEntity
  8
Bake
100
AcDbVertex
100
AcDb2dVertex
 10
-106.3038008572977
 20
-108.4087891163672
 30
0.0
  0
VERTEX
  5
358
330
2FD
100
AcDbEntity
  8
Bake
100
AcDbVertex
100
AcDb2dVertex
 10
-106.3427929244764
 20
-108.312756496007
 30
0.0
  0
VERTEX
  5
359
330
2FD
100
AcDbEntity
  8
Bake
100
AcDbVertex
100
AcDb2dVertex
 10
-106.3793424679358
 20
-108.2137528002023
 30
0.0
  0
VERTEX
  5
35A
330
2FD
100
AcDbEntity
  8
Bake
100
AcDbVertex
100
AcDb2dVertex
 10
-106.4133781280281
 20
-108.1117248724969
 30
0.0
  0
VERTEX
  5
35B
330
2FD
100
AcDbEntity
  8
Bake
100
AcDbVertex
100
AcDb2dVertex
 10
-106.4448285451053
 20
-108.0066195564345
 30
0.0
  0
VERTEX
  5
35C
330
2FD
100
AcDbEntity
  8
Bake
100
AcDbVertex
100
AcDb2dVertex
 10
-106.4736223595197
 20
-107.8983836955591
 30
0.0
  0
VERTEX
  5
35D
330
2FD
100
AcDbEntity
  8
Bake
100
AcDbVertex
100
AcDb2dVertex
 10
-106.4996882116234
 20
-107.7869641334143
 30
0.0
  0
VERTEX
  5
35E
330
2FD
100
AcDbEntity
  8
Bake
100
AcDbVertex
100
AcDb2dVertex
 10
-106.5229547417686
 20
-107.6723077135441
 30
0.0
  0
VERTEX
  5
35F
330
2FD
100
AcDbEntity
  8
Bake
100
AcDbVertex
100
AcDb2dVertex
 10
-106.5433505903075
 20
-107.5543612794923
 30
0.0
  0
VERTEX
  5
360
330
2FD
100
AcDbEntity
  8
Bake
100
AcDbVertex
100
AcDb2dVertex
 10
-106.5608043975921
 20
-107.4330716748025
 30
0.0
  0
VERTEX
  5
361
330
2FD
100
AcDbEntity
  8
Bake
100
AcDbVertex
100
AcDb2dVertex
 10
-106.5752448039747
 20
-107.3083857430188
 30
0.0
  0
VERTEX
  5
362
330
2FD
100
AcDbEntity
  8
Bake
100
AcDbVertex
100
AcDb2dVertex
 10
-106.5866004498074
 20
-107.1802503276847
 30
0.0
  0
VERTEX
  5
363
330
2FD
100
AcDbEntity
  8
Bake
100
AcDbVertex
100
AcDb2dVertex
 10
-106.5947999754424
 20
-107.0486122723443
 30
0.0
  0
VERTEX
  5
364
330
2FD
100
AcDbEntity
  8
Bake
100
AcDbVertex
100
AcDb2dVertex
 10
-106.5997720212318
 20
-106.9134184205412
 30
0.0
  0
VERTEX
  5
365
330
2FD
100
AcDbEntity
  8
Bake
100
AcDbVertex
100
AcDb2dVertex
 10
-106.6014452275278
 20
-106.7746156158194
 30
0.0
  0
VERTEX
  5
366
330
2FD
100
AcDbEntity
  8
Bake
100
AcDbVertex
100
AcDb2dVertex
 10
-106.6014452275278
 20
-75.92556981211266
 30
0.0
  0
VERTEX
  5
367
330
2FD
100
AcDbEntity
  8
Bake
100
AcDbVertex
100
AcDb2dVertex
 10
-106.973810519931
 20
-75.63505272575173
 30
0.0
  0
VERTEX
  5
368
330
2FD
100
AcDbEntity
  8
Bake
100
AcDbVertex
100
AcDb2dVertex
 10
-107.3271126116592
 20
-75.34756523418191
 30
0.0
  0
VERTEX
  5
369
330
2FD
100
AcDbEntity
  8
Bake
100
AcDbVertex
100
AcDb2dVertex
 10
-107.6619551158598
 20
-75.0626250011546
 30
0.0
  0
VERTEX
  5
36A
330
2FD
100
AcDbEntity
  8
Bake
100
AcDbVertex
100
AcDb2dVertex
 10
-107.9789416456802
 20
-74.77974969042116
 30
0.0
  0
VERTEX
  5
36B
330
2FD
100
AcDbEntity
  8
Bake
100
AcDbVertex
100
AcDb2dVertex
 10
-108.2786758142679
 20
-74.49845696573297
 30
0.0
  0
VERTEX
  5
36C
330
2FD
100
AcDbEntity
  8
Bake
100
AcDbVertex
100
AcDb2dVertex
 10
-108.5617612347704
 20
-74.21826449084142
 30
0.0
  0
VERTEX
  5
36D
330
2FD
100
AcDbEntity
  8
Bake
100
AcDbVertex
100
AcDb2dVertex
 10
-108.828801520335
 20
-73.93868992949788
 30
0.0
  0
VERTEX
  5
36E
330
2FD
100
AcDbEntity
  8
Bake
100
AcDbVertex
100
AcDb2dVertex
 10
-109.0804002841094
 20
-73.65925094545376
 30
0.0
  0
VERTEX
  5
36F
330
2FD
100
AcDbEntity
  8
Bake
100
AcDbVertex
100
AcDb2dVertex
 10
-109.3171611392408
 20
-73.37946520246042
 30
0.0
  0
VERTEX
  5
370
330
2FD
100
AcDbEntity
  8
Bake
100
AcDbVertex
100
AcDb2dVertex
 10
-109.5396876988769
 20
-73.09885036426923
 30
0.0
  0
VERTEX
  5
371
330
2FD
100
AcDbEntity
  8
Bake
100
AcDbVertex
100
AcDb2dVertex
 10
-109.7485835761649
 20
-72.81692409463159
 30
0.0
  0
VERTEX
  5
372
330
2FD
100
AcDbEntity
  8
Bake
100
AcDbVertex
100
AcDb2dVertex
 10
-109.9444523842524
 20
-72.53320405729886
 30
0.0
  0
VERTEX
  5
373
330
2FD
100
AcDbEntity
  8
Bake
100
AcDbVertex
100
AcDb2dVertex
 10
-110.1278977362869
 20
-72.24720791602243
 30
0.0
  0
VERTEX
  5
374
330
2FD
100
AcDbEntity
  8
Bake
100
AcDbVertex
100
AcDb2dVertex
 10
-110.2995232454157
 20
-71.9584533345537
 30
0.0
  0
VERTEX
  5
375
330
2FD
100
AcDbEntity
  8
Bake
100
AcDbVertex
100
AcDb2dVertex
 10
-110.4599325247864
 20
-71.66645797664401
 30
0.0
  0
VERTEX
  5
376
330
2FD
100
AcDbEntity
  8
Bake
100
AcDbVertex
100
AcDb2dVertex
 10
-110.6097291875464
 20
-71.3707395060448
 30
0.0
  0
VERTEX
  5
377
330
2FD
100
AcDbEntity
  8
Bake
100
AcDbVertex
100
AcDb2dVertex
 10
-110.7495168468432
 20
-71.07081558650741
 30
0.0
  0
VERTEX
  5
378
330
2FD
100
AcDbEntity
  8
Bake
100
AcDbVertex
100
AcDb2dVertex
 10
-110.8798991158241
 20
-70.76620388178321
 30
0.0
  0
VERTEX
  5
379
330
2FD
100
AcDbEntity
  8
Bake
100
AcDbVertex
100
AcDb2dVertex
 10
-111.0014796076367
 20
-70.45642205562359
 30
0.0
  0
VERTEX
  5
37A
330
2FD
100
AcDbEntity
  8
Bake
100
AcDbVertex
100
AcDb2dVertex
 10
-111.1148619354284
 20
-70.14098777177995
 30
0.0
  0
VERTEX
  5
37B
330
2FD
100
AcDbEntity
  8
Bake
100
AcDbVertex
100
AcDb2dVertex
 10
-111.2206497123467
 20
-69.81941869400364
 30
0.0
  0
VERTEX
  5
37C
330
2FD
100
AcDbEntity
  8
Bake
100
AcDbVertex
100
AcDb2dVertex
 10
-111.319446551539
 20
-69.49123248604607
 30
0.0
  0
VERTEX
  5
37D
330
2FD
100
AcDbEntity
  8
Bake
100
AcDbVertex
100
AcDb2dVertex
 10
-111.4118560661529
 20
-69.1559468116586
 30
0.0
  0
VERTEX
  5
37E
330
2FD
100
AcDbEntity
  8
Bake
100
AcDbVertex
100
AcDb2dVertex
 10
-111.4984818693356
 20
-68.81307933459263
 30
0.0
  0
VERTEX
  5
37F
330
2FD
100
AcDbEntity
  8
Bake
100
AcDbVertex
100
AcDb2dVertex
 10
-111.6567967939977
 20
-68.10266962743069
 30
0.0
  0
VERTEX
  5
380
330
2FD
100
AcDbEntity
  8
Bake
100
AcDbVertex
100
AcDb2dVertex
 10
-111.799220230705
 20
-67.35614467457124
 30
0.0
  0
VERTEX
  5
381
330
2FD
100
AcDbEntity
  8
Bake
100
AcDbVertex
100
AcDb2dVertex
 10
-113.5387186961422
 20
-55.43251779840311
 30
0.0
  0
VERTEX
  5
382
330
2FD
100
AcDbEntity
  8
Bake
100
AcDbVertex
100
AcDb2dVertex
 10
-113.9858655604126
 20
-53.12258473258566
 30
0.0
  0
VERTEX
  5
383
330
2FD
100
AcDbEntity
  8
Bake
100
AcDbVertex
100
AcDb2dVertex
 10
-114.2406220135714
 20
-51.96045776361918
 30
0.0
  0
VERTEX
  5
384
330
2FD
100
AcDbEntity
  8
Bake
100
AcDbVertex
100
AcDb2dVertex
 10
-114.5187035420525
 20
-50.79846204965715
 30
0.0
  0
VERTEX
  5
385
330
2FD
100
AcDbEntity
  8
Bake
100
AcDbVertex
100
AcDb2dVertex
 10
-114.8220124418357
 20
-49.64027624998178
 30
0.0
  0
VERTEX
  5
386
330
2FD
100
AcDbEntity
  8
Bake
100
AcDbVertex
100
AcDb2dVertex
 10
-115.1524510089009
 20
-48.48957902387529
 30
0.0
  0
VERTEX
  5
387
330
2FD
100
AcDbEntity
  8
Bake
100
AcDbVertex
100
AcDb2dVertex
 10
-115.5116008212345
 20
-47.34900498490835
 30
0.0
  0
VERTEX
  5
388
330
2FD
100
AcDbEntity
  8
Bake
100
AcDbVertex
100
AcDb2dVertex
 10
-115.8997605848494
 20
-46.21701256380545
 30
0.0
  0
VERTEX
  5
389
330
2FD
100
AcDbEntity
  8
Bake
100
AcDbVertex
100
AcDb2dVertex
 10
-116.3169082877652
 20
-45.09101614557953
 30
0.0
  0
VERTEX
  5
38A
330
2FD
100
AcDbEntity
  8
Bake
100
AcDbVertex
100
AcDb2dVertex
 10
-116.7630219180015
 20
-43.96843011524356
 30
0.0
  0
VERTEX
  5
38B
330
2FD
100
AcDbEntity
  8
Bake
100
AcDbVertex
100
AcDb2dVertex
 10
-117.2380794635777
 20
-42.84666885781047
 30
0.0
  0
VERTEX
  5
38C
330
2FD
100
AcDbEntity
  8
Bake
100
AcDbVertex
100
AcDb2dVertex
 10
-117.7420589125134
 20
-41.72314675829322
 30
0.0
  0
VERTEX
  5
38D
330
2FD
100
AcDbEntity
  8
Bake
100
AcDbVertex
100
AcDb2dVertex
 10
-118.2749382528281
 20
-40.59527820170475
 30
0.0
  0
VERTEX
  5
38E
330
2FD
100
AcDbEntity
  8
Bake
100
AcDbVertex
100
AcDb2dVertex
 10
-118.8366954725414
 20
-39.46047757305801
 30
0.0
  0
VERTEX
  5
38F
330
2FD
100
AcDbEntity
  8
Bake
100
AcDbVertex
100
AcDb2dVertex
 10
-120.0467555022418
 20
-37.15973763964153
 30
0.0
  0
VERTEX
  5
390
330
2FD
100
AcDbEntity
  8
Bake
100
AcDbVertex
100
AcDb2dVertex
 10
-121.3720629057708
 20
-34.80024203814737
 30
0.0
  0
VERTEX
  5
391
330
2FD
100
AcDbEntity
  8
Bake
100
AcDbVertex
100
AcDb2dVertex
 10
-126.0245585030828
 20
-27.15568639752036
 30
0.0
  0
VERTEX
  5
392
330
2FD
100
AcDbEntity
  8
Bake
100
AcDbVertex
100
AcDb2dVertex
 10
-127.7170451588203
 20
-24.30751952375123
 30
0.0
  0
VERTEX
  5
393
330
2FD
100
AcDbEntity
  8
Bake
100
AcDbVertex
100
AcDb2dVertex
 10
-128.5519437496924
 20
-22.7963330755788
 30
0.0
  0
VERTEX
  5
394
330
2FD
100
AcDbEntity
  8
Bake
100
AcDbVertex
100
AcDb2dVertex
 10
-129.3660999354496
 20
-21.21694483785074
 30
0.0
  0
VERTEX
  5
395
330
2FD
100
AcDbEntity
  8
Bake
100
AcDbVertex
100
AcDb2dVertex
 10
-129.762310740367
 20
-20.39930009898999
 30
0.0
  0
VERTEX
  5
396
330
2FD
100
AcDbEntity
  8
Bake
100
AcDbVertex
100
AcDb2dVertex
 10
-130.149629280754
 20
-19.56175497404429
 30
0.0
  0
VERTEX
  5
397
330
2FD
100
AcDbEntity
  8
Bake
100
AcDbVertex
100
AcDb2dVertex
 10
-130.5268200021934
 20
-18.7033594834483
 30
0.0
  0
VERTEX
  5
398
330
2FD
100
AcDbEntity
  8
Bake
100
AcDbVertex
100
AcDb2dVertex
 10
-130.8926473502679
 20
-17.82316364763666
 30
0.0
  0
VERTEX
  5
399
330
2FD
100
AcDbEntity
  8
Bake
100
AcDbVertex
100
AcDb2dVertex
 10
-131.2458757705602
 20
-16.92021748704404
 30
0.0
  0
VERTEX
  5
39A
330
2FD
100
AcDbEntity
  8
Bake
100
AcDbVertex
100
AcDb2dVertex
 10
-131.5852697086532
 20
-15.99357102210508
 30
0.0
  0
VERTEX
  5
39B
330
2FD
100
AcDbEntity
  8
Bake
100
AcDbVertex
100
AcDb2dVertex
 10
-131.9095936101296
 20
-15.04227427325444
 30
0.0
  0
VERTEX
  5
39C
330
2FD
100
AcDbEntity
  8
Bake
100
AcDbVertex
100
AcDb2dVertex
 10
-132.2176119205722
 20
-14.06537726092677
 30
0.0
  0
VERTEX
  5
39D
330
2FD
100
AcDbEntity
  8
Bake
100
AcDbVertex
100
AcDb2dVertex
 10
-132.5080890855637
 20
-13.06193000555672
 30
0.0
  0
VERTEX
  5
39E
330
2FD
100
AcDbEntity
  8
Bake
100
AcDbVertex
100
AcDb2dVertex
 10
-132.779789550687
 20
-12.03098252757895
 30
0.0
  0
VERTEX
  5
39F
330
2FD
100
AcDbEntity
  8
Bake
100
AcDbVertex
100
AcDb2dVertex
 10
-133.0314777615247
 20
-10.97158484742811
 30
0.0
  0
VERTEX
  5
3A0
330
2FD
100
AcDbEntity
  8
Bake
100
AcDbVertex
100
AcDb2dVertex
 10
-133.2619181636597
 20
-9.882786985538843
 30
0.0
  0
VERTEX
  5
3A1
330
2FD
100
AcDbEntity
  8
Bake
100
AcDbVertex
100
AcDb2dVertex
 10
-133.4698752026748
 20
-8.763638962345814
 30
0.0
  0
VERTEX
  5
3A2
330
2FD
100
AcDbEntity
  8
Bake
100
AcDbVertex
100
AcDb2dVertex
 10
-133.6541133241526
 20
-7.613190798283672
 30
0.0
  0
VERTEX
  5
3A3
330
2FD
100
AcDbEntity
  8
Bake
100
AcDbVertex
100
AcDb2dVertex
 10
-133.813396973676
 20
-6.430492513787067
 30
0.0
  0
VERTEX
  5
3A4
330
2FD
100
AcDbEntity
  8
Bake
100
AcDbVertex
100
AcDb2dVertex
 10
-133.9464905968277
 20
-5.214594129290656
 30
0.0
  0
VERTEX
  5
3A5
330
2FD
100
AcDbEntity
  8
Bake
100
AcDbVertex
100
AcDb2dVertex
 10
-134.0521586391905
 20
-3.96454566522909
 30
0.0
  0
VERTEX
  5
3A6
330
2FD
100
AcDbEntity
  8
Bake
100
AcDbVertex
100
AcDb2dVertex
 10
-134.1291655463472
 20
-2.67939714203702
 30
0.0
  0
VERTEX
  5
3A7
330
2FD
100
AcDbEntity
  8
Bake
100
AcDbVertex
100
AcDb2dVertex
 10
-134.1762757638805
 20
-1.358198580149101
 30
0.0
  0
VERTEX
  5
3A8
330
2FD
100
AcDbEntity
  8
Bake
100
AcDbVertex
100
AcDb2dVertex
 10
-134.1922537373732
 20
0.0000000000000174
 30
0.0
 42
-0.4099752802203805
  0
VERTEX
  5
3A9
330
2FD
100
AcDbEntity
  8
Bake
100
AcDbVertex
100
AcDb2dVertex
 10
-88.99999999999994
 20
45.86174802054424
 30
0.0
  0
VERTEX
  5
3AA
330
2FD
100
AcDbEntity
  8
Bake
100
AcDbVertex
100
AcDb2dVertex
 10
-88.99999999999994
 20
30.8593722969388
 30
0.0
 42
0.4079044053058877
  0
VERTEX
  5
3AB
330
2FD
100
AcDbEntity
  8
Bake
100
AcDbVertex
100
AcDb2dVertex
 10
-119.1922537799528
 20
0.0007991836813498
 30
0.0
  0
VERTEX
  5
3AC
330
2FD
100
AcDbEntity
  8
Bake
100
AcDbVertex
100
AcDb2dVertex
 10
-119.1794188183862
 20
-1.047501024370963
 30
0.0
  0
VERTEX
  5
3AD
330
2FD
100
AcDbEntity
  8
Bake
100
AcDbVertex
100
AcDb2dVertex
 10
-119.1397848919378
 20
-2.095115798985797
 30
0.0
  0
VERTEX
  5
3AE
330
2FD
100
AcDbEntity
  8
Bake
100
AcDbVertex
100
AcDb2dVertex
 10
-119.0783444721426
 20
-3.055844626618457
 30
0.0
  0
VERTEX
  5
3AF
330
2FD
100
AcDbEntity
  8
Bake
100
AcDbVertex
100
AcDb2dVertex
 10
-118.9916145080842
 20
-4.014608826257602
 30
0.0
  0
VERTEX
  5
3B0
330
2FD
100
AcDbEntity
  8
Bake
100
AcDbVertex
100
AcDb2dVertex
 10
-118.8884007796932
 20
-4.894244160241317
 30
0.0
  0
VERTEX
  5
3B1
330
2FD
100
AcDbEntity
  8
Bake
100
AcDbVertex
100
AcDb2dVertex
 10
-118.7617312386322
 20
-5.770801057160464
 30
0.0
  0
VERTEX
  5
3B2
330
2FD
100
AcDbEntity
  8
Bake
100
AcDbVertex
100
AcDb2dVertex
 10
-118.6229350407159
 20
-6.57781304907288
 30
0.0
  0
VERTEX
  5
3B3
330
2FD
100
AcDbEntity
  8
Bake
100
AcDbVertex
100
AcDb2dVertex
 10
-118.4626890794183
 20
-7.380831815267171
 30
0.0
  0
VERTEX
  5
3B4
330
2FD
100
AcDbEntity
  8
Bake
100
AcDbVertex
100
AcDb2dVertex
 10
-118.2923718512102
 20
-8.130017349238216
 30
0.0
  0
VERTEX
  5
3B5
330
2FD
100
AcDbEntity
  8
Bake
100
AcDbVertex
100
AcDb2dVertex
 10
-118.1024649402698
 20
-8.874480012683108
 30
0.0
  0
VERTEX
  5
3B6
330
2FD
100
AcDbEntity
  8
Bake
100
AcDbVertex
100
AcDb2dVertex
 10
-117.9028034300316
 20
-9.58004259516136
 30
0.0
  0
VERTEX
  5
3B7
330
2FD
100
AcDbEntity
  8
Bake
100
AcDbVertex
100
AcDb2dVertex
 10
-117.6851950594749
 20
-10.28027027230731
 30
0.0
  0
VERTEX
  5
3B8
330
2FD
100
AcDbEntity
  8
Bake
100
AcDbVertex
100
AcDb2dVertex
 10
-117.4582654095214
 20
-10.9507057598162
 30
0.0
  0
VERTEX
  5
3B9
330
2FD
100
AcDbEntity
  8
Bake
100
AcDbVertex
100
AcDb2dVertex
 10
-117.2151887720806
 20
-11.61546960758252
 30
0.0
  0
VERTEX
  5
3BA
330
2FD
100
AcDbEntity
  8
Bake
100
AcDbVertex
100
AcDb2dVertex
 10
-116.9625693036845
 20
-12.25933168398159
 30
0.0
  0
VERTEX
  5
3BB
330
2FD
100
AcDbEntity
  8
Bake
100
AcDbVertex
100
AcDb2dVertex
 10
-116.6955885829023
 20
-12.89736839246613
 30
0.0
  0
VERTEX
  5
3BC
330
2FD
100
AcDbEntity
  8
Bake
100
AcDbVertex
100
AcDb2dVertex
 10
-116.4142169047185
 20
-13.5309440415567
 30
0.0
  0
VERTEX
  5
3BD
330
2FD
100
AcDbEntity
  8
Bake
100
AcDbVertex
100
AcDb2dVertex
 10
-116.1199965899642
 20
-14.15866938949482
 30
0.0
  0
VERTEX
  5
3BE
330
2FD
100
AcDbEntity
  8
Bake
100
AcDbVertex
100
AcDb2dVertex
 10
-115.8139210125228
 20
-14.78074039376234
 30
0.0
  0
VERTEX
  5
3BF
330
2FD
100
AcDbEntity
  8
Bake
100
AcDbVertex
100
AcDb2dVertex
 10
-115.4969835462776
 20
-15.39735301184107
 30
0.0
  0
VERTEX
  5
3C0
330
2FD
100
AcDbEntity
  8
Bake
100
AcDbVertex
100
AcDb2dVertex
 10
-114.8052822391815
 20
-16.66761784724488
 30
0.0
  0
VERTEX
  5
3C1
330
2FD
100
AcDbEntity
  8
Bake
100
AcDbVertex
100
AcDb2dVertex
 10
-114.0807236766332
 20
-17.91955442432917
 30
0.0
  0
VERTEX
  5
3C2
330
2FD
100
AcDbEntity
  8
Bake
100
AcDbVertex
100
AcDb2dVertex
 10
-109.0212646422433
 20
-26.20307303952568
 30
0.0
  0
VERTEX
  5
3C3
330
2FD
100
AcDbEntity
  8
Bake
100
AcDbVertex
100
AcDb2dVertex
 10
-107.3718913900873
 20
-29.08069921590646
 30
0.0
  0
VERTEX
  5
3C4
330
2FD
100
AcDbEntity
  8
Bake
100
AcDbVertex
100
AcDb2dVertex
 10
-105.8157474053117
 20
-31.97772855249938
 30
0.0
  0
VERTEX
  5
3C5
330
2FD
100
AcDbEntity
  8
Bake
100
AcDbVertex
100
AcDb2dVertex
 10
-105.0743892651076
 20
-33.44457457111381
 30
0.0
  0
VERTEX
  5
3C6
330
2FD
100
AcDbEntity
  8
Bake
100
AcDbVertex
100
AcDb2dVertex
 10
-104.3609174136068
 20
-34.92516653249396
 30
0.0
  0
VERTEX
  5
3C7
330
2FD
100
AcDbEntity
  8
Bake
100
AcDbVertex
100
AcDb2dVertex
 10
-103.6766807208886
 20
-36.42321109480034
 30
0.0
  0
VERTEX
  5
3C8
330
2FD
100
AcDbEntity
  8
Bake
100
AcDbVertex
100
AcDb2dVertex
 10
-103.0257459927657
 20
-37.93600034885046
 30
0.0
  0
VERTEX
  5
3C9
330
2FD
100
AcDbEntity
  8
Bake
100
AcDbVertex
100
AcDb2dVertex
 10
-102.4043060391093
 20
-39.47977512982255
 30
0.0
  0
VERTEX
  5
3CA
330
2FD
100
AcDbEntity
  8
Bake
100
AcDbVertex
100
AcDb2dVertex
 10
-101.821519382665
 20
-41.03854188514681
 30
0.0
  0
VERTEX
  5
3CB
330
2FD
100
AcDbEntity
  8
Bake
100
AcDbVertex
100
AcDb2dVertex
 10
-101.2707068512862
 20
-42.6380209094668
 30
0.0
  0
VERTEX
  5
3CC
330
2FD
100
AcDbEntity
  8
Bake
100
AcDbVertex
100
AcDb2dVertex
 10
-100.7633123897109
 20
-44.25177270025785
 30
0.0
  0
VERTEX
  5
3CD
330
2FD
100
AcDbEntity
  8
Bake
100
AcDbVertex
100
AcDb2dVertex
 10
-100.3081228443416
 20
-45.84846350899983
 30
0.0
  0
VERTEX
  5
3CE
330
2FD
100
AcDbEntity
  8
Bake
100
AcDbVertex
100
AcDb2dVertex
 10
-99.8930487827167
 20
-47.4560985610311
 30
0.0
  0
VERTEX
  5
3CF
330
2FD
100
AcDbEntity
  8
Bake
100
AcDbVertex
100
AcDb2dVertex
 10
-99.5342447902389
 20
-48.98665281984849
 30
0.0
  0
VERTEX
  5
3D0
330
2FD
100
AcDbEntity
  8
Bake
100
AcDbVertex
100
AcDb2dVertex
 10
-99.2058544147601
 20
-50.52403444907095
 30
0.0
  0
VERTEX
  5
3D1
330
2FD
100
AcDbEntity
  8
Bake
100
AcDbVertex
100
AcDb2dVertex
 10
-98.65886309407531
 20
-53.44203753412046
 30
0.0
  0
VERTEX
  5
3D2
330
2FD
100
AcDbEntity
  8
Bake
100
AcDbVertex
100
AcDb2dVertex
 10
-98.21933085743976
 20
-56.18843995522445
 30
0.0
  0
VERTEX
  5
3D3
330
2FD
100
AcDbEntity
  8
Bake
100
AcDbVertex
100
AcDb2dVertex
 10
-97.10168587174687
 20
-64.30691412032803
 30
0.0
  0
VERTEX
  5
3D4
330
2FD
100
AcDbEntity
  8
Bake
100
AcDbVertex
100
AcDb2dVertex
 10
-91.6014452275277
 20
-68.51298049531908
 30
0.0
  0
VERTEX
  5
3D5
330
2FD
100
AcDbEntity
  8
Bake
100
AcDbVertex
100
AcDb2dVertex
 10
-91.60144522752773
 20
-79.9999999999999
 30
0.0
  0
SEQEND
  5
3D6
330
2FD
100
AcDbEntity
  8
Bake
  0
POLYLINE
  5
3D7
330
1F
100
AcDbEntity
  8
Bake
100
AcDb2dPolyline
 66
     1
 10
0.0
 20
0.0
 30
0.0
  0
VERTEX
  5
3D8
330
3D7
100
AcDbEntity
  8
Bake
100
AcDbVertex
100
AcDb2dVertex
 10
-51.60144522752775
 20
-103.0
 30
0.0
  0
VERTEX
  5
3D9
330
3D7
100
AcDbEntity
  8
Bake
100
AcDbVertex
100
AcDb2dVertex
 10
-51.60144522752771
 20
-117.417060575252
 30
0.0
  0
VERTEX
  5
3DA
330
3D7
100
AcDbEntity
  8
Bake
100
AcDbVertex
100
AcDb2dVertex
 10
-52.03288380938683
 20
-117.334582130977
 30
0.0
  0
VERTEX
  5
3DB
330
3D7
100
AcDbEntity
  8
Bake
100
AcDbVertex
100
AcDb2dVertex
 10
-52.40805219814506
 20
-117.2527829634923
 30
0.0
  0
VERTEX
  5
3DC
330
3D7
100
AcDbEntity
  8
Bake
100
AcDbVertex
100
AcDb2dVertex
 10
-52.73437454718417
 20
-117.1715338305381
 30
0.0
  0
VERTEX
  5
3DD
330
3D7
100
AcDbEntity
  8
Bake
100
AcDbVertex
100
AcDb2dVertex
 10
-53.01927500988603
 20
-117.0907054898543
 30
0.0
  0
VERTEX
  5
3DE
330
3D7
100
AcDbEntity
  8
Bake
100
AcDbVertex
100
AcDb2dVertex
 10
-53.27017773963244
 20
-117.010168699181
 30
0.0
  0
VERTEX
  5
3DF
330
3D7
100
AcDbEntity
  8
Bake
100
AcDbVertex
100
AcDb2dVertex
 10
-53.49450688980523
 20
-116.9297942162584
 30
0.0
  0
VERTEX
  5
3E0
330
3D7
100
AcDbEntity
  8
Bake
100
AcDbVertex
100
AcDb2dVertex
 10
-53.69968661378623
 20
-116.8494527988265
 30
0.0
  0
VERTEX
  5
3E1
330
3D7
100
AcDbEntity
  8
Bake
100
AcDbVertex
100
AcDb2dVertex
 10
-54.17841286187564
 20
-116.6455382570182
 30
0.0
  0
VERTEX
  5
3E2
330
3D7
100
AcDbEntity
  8
Bake
100
AcDbVertex
100
AcDb2dVertex
 10
-54.45491888677883
 20
-116.5196487756802
 30
0.0
  0
VERTEX
  5
3E3
330
3D7
100
AcDbEntity
  8
Bake
100
AcDbVertex
100
AcDb2dVertex
 10
-54.72391139281181
 20
-116.3894592654302
 30
0.0
  0
VERTEX
  5
3E4
330
3D7
100
AcDbEntity
  8
Bake
100
AcDbVertex
100
AcDb2dVertex
 10
-54.98664263311963
 20
-116.2530822310868
 30
0.0
  0
VERTEX
  5
3E5
330
3D7
100
AcDbEntity
  8
Bake
100
AcDbVertex
100
AcDb2dVertex
 10
-55.24436486084733
 20
-116.1086301774687
 30
0.0
  0
VERTEX
  5
3E6
330
3D7
100
AcDbEntity
  8
Bake
100
AcDbVertex
100
AcDb2dVertex
 10
-55.37173892410144
 20
-116.0327861761874
 30
0.0
  0
VERTEX
  5
3E7
330
3D7
100
AcDbEntity
  8
Bake
100
AcDbVertex
100
AcDb2dVertex
 10
-55.49833032913992
 20
-115.9542156093945
 30
0.0
  0
VERTEX
  5
3E8
330
3D7
100
AcDbEntity
  8
Bake
100
AcDbVertex
100
AcDb2dVertex
 10
-55.62429560760588
 20
-115.8726825401922
 30
0.0
  0
VERTEX
  5
3E9
330
3D7
100
AcDbEntity
  8
Bake
100
AcDbVertex
100
AcDb2dVertex
 10
-55.74979129114246
 20
-115.787951031683
 30
0.0
  0
VERTEX
  5
3EA
330
3D7
100
AcDbEntity
  8
Bake
100
AcDbVertex
100
AcDb2dVertex
 10
-55.87497391139277
 20
-115.699785146969
 30
0.0
  0
VERTEX
  5
3EB
330
3D7
100
AcDbEntity
  8
Bake
100
AcDbVertex
100
AcDb2dVertex
 10
-55.99999999999996
 20
-115.6079489491527
 30
0.0
  0
VERTEX
  5
3EC
330
3D7
100
AcDbEntity
  8
Bake
100
AcDbVertex
100
AcDb2dVertex
 10
-56.12499999999996
 20
-115.5122635099458
 30
0.0
  0
VERTEX
  5
3ED
330
3D7
100
AcDbEntity
  8
Bake
100
AcDbVertex
100
AcDb2dVertex
 10
-56.24999999999996
 20
-115.4127779354977
 30
0.0
  0
VERTEX
  5
3EE
330
3D7
100
AcDbEntity
  8
Bake
100
AcDbVertex
100
AcDb2dVertex
 10
-56.49999999999995
 20
-115.2028308399122
 30
0.0
  0
VERTEX
  5
3EF
330
3D7
100
AcDbEntity
  8
Bake
100
AcDbVertex
100
AcDb2dVertex
 10
-56.74999999999995
 20
-114.978956580466
 30
0.0
  0
VERTEX
  5
3F0
330
3D7
100
AcDbEntity
  8
Bake
100
AcDbVertex
100
AcDb2dVertex
 10
-56.99999999999995
 20
-114.7420040752286
 30
0.0
  0
VERTEX
  5
3F1
330
3D7
100
AcDbEntity
  8
Bake
100
AcDbVertex
100
AcDb2dVertex
 10
-57.24999999999995
 20
-114.4928222422697
 30
0.0
  0
VERTEX
  5
3F2
330
3D7
100
AcDbEntity
  8
Bake
100
AcDbVertex
100
AcDb2dVertex
 10
-57.49999999999995
 20
-114.2322599996589
 30
0.0
  0
VERTEX
  5
3F3
330
3D7
100
AcDbEntity
  8
Bake
100
AcDbVertex
100
AcDb2dVertex
 10
-57.74999999999995
 20
-113.9611662654658
 30
0.0
  0
VERTEX
  5
3F4
330
3D7
100
AcDbEntity
  8
Bake
100
AcDbVertex
100
AcDb2dVertex
 10
-58.99999999999994
 20
-112.524550182232
 30
0.0
  0
VERTEX
  5
3F5
330
3D7
100
AcDbEntity
  8
Bake
100
AcDbVertex
100
AcDb2dVertex
 10
-59.24999999999994
 20
-112.252999193176
 30
0.0
  0
VERTEX
  5
3F6
330
3D7
100
AcDbEntity
  8
Bake
100
AcDbVertex
100
AcDb2dVertex
 10
-59.37499999999994
 20
-112.1234552421033
 30
0.0
  0
VERTEX
  5
3F7
330
3D7
100
AcDbEntity
  8
Bake
100
AcDbVertex
100
AcDb2dVertex
 10
-59.49999999999994
 20
-111.9989432776326
 30
0.0
  0
VERTEX
  5
3F8
330
3D7
100
AcDbEntity
  8
Bake
100
AcDbVertex
100
AcDb2dVertex
 10
-59.62499999999994
 20
-111.880121517988
 30
0.0
  0
VERTEX
  5
3F9
330
3D7
100
AcDbEntity
  8
Bake
100
AcDbVertex
100
AcDb2dVertex
 10
-59.74999999999993
 20
-111.7676481813931
 30
0.0
  0
VERTEX
  5
3FA
330
3D7
100
AcDbEntity
  8
Bake
100
AcDbVertex
100
AcDb2dVertex
 10
-59.87499999999993
 20
-111.662181486072
 30
0.0
  0
VERTEX
  5
3FB
330
3D7
100
AcDbEntity
  8
Bake
100
AcDbVertex
100
AcDb2dVertex
 10
-59.93749999999993
 20
-111.6122813220841
 30
0.0
  0
VERTEX
  5
3FC
330
3D7
100
AcDbEntity
  8
Bake
100
AcDbVertex
100
AcDb2dVertex
 10
-59.99999999999993
 20
-111.5643796502486
 30
0.0
  0
VERTEX
  5
3FD
330
3D7
100
AcDbEntity
  8
Bake
100
AcDbVertex
100
AcDb2dVertex
 10
-60.06252493371494
 20
-111.5185287789526
 30
0.0
  0
VERTEX
  5
3FE
330
3D7
100
AcDbEntity
  8
Bake
100
AcDbVertex
100
AcDb2dVertex
 10
-60.12519946972003
 20
-111.47466114102
 30
0.0
  0
VERTEX
  5
3FF
330
3D7
100
AcDbEntity
  8
Bake
100
AcDbVertex
100
AcDb2dVertex
 10
-60.18817321030528
 20
-111.4326792003836
 30
0.0
  0
VERTEX
  5
400
330
3D7
100
AcDbEntity
  8
Bake
100
AcDbVertex
100
AcDb2dVertex
 10
-60.25159575776077
 20
-111.3924854209765
 30
0.0
  0
VERTEX
  5
401
330
3D7
100
AcDbEntity
  8
Bake
100
AcDbVertex
100
AcDb2dVertex
 10
-60.31561671437656
 20
-111.3539822667315
 30
0.0
  0
VERTEX
  5
402
330
3D7
100
AcDbEntity
  8
Bake
100
AcDbVertex
100
AcDb2dVertex
 10
-60.38038568244275
 20
-111.3170722015817
 30
0.0
  0
VERTEX
  5
403
330
3D7
100
AcDbEntity
  8
Bake
100
AcDbVertex
100
AcDb2dVertex
 10
-60.44605226424942
 20
-111.28165768946
 30
0.0
  0
VERTEX
  5
404
330
3D7
100
AcDbEntity
  8
Bake
100
AcDbVertex
100
AcDb2dVertex
 10
-60.51276606208663
 20
-111.2476411942993
 30
0.0
  0
VERTEX
  5
405
330
3D7
100
AcDbEntity
  8
Bake
100
AcDbVertex
100
AcDb2dVertex
 10
-60.58067667824447
 20
-111.2149251800326
 30
0.0
  0
VERTEX
  5
406
330
3D7
100
AcDbEntity
  8
Bake
100
AcDbVertex
100
AcDb2dVertex
 10
-60.64993371501301
 20
-111.1834121105929
 30
0.0
  0
VERTEX
  5
407
330
3D7
100
AcDbEntity
  8
Bake
100
AcDbVertex
100
AcDb2dVertex
 10
-60.72068677468235
 20
-111.153004449913
 30
0.0
  0
VERTEX
  5
408
330
3D7
100
AcDbEntity
  8
Bake
100
AcDbVertex
100
AcDb2dVertex
 10
-60.79308545954254
 20
-111.123604661926
 30
0.0
  0
VERTEX
  5
409
330
3D7
100
AcDbEntity
  8
Bake
100
AcDbVertex
100
AcDb2dVertex
 10
-60.86727937188367
 20
-111.0951152105648
 30
0.0
  0
VERTEX
  5
40A
330
3D7
100
AcDbEntity
  8
Bake
100
AcDbVertex
100
AcDb2dVertex
 10
-60.94341811399583
 20
-111.0674385597623
 30
0.0
  0
VERTEX
  5
40B
330
3D7
100
AcDbEntity
  8
Bake
100
AcDbVertex
100
AcDb2dVertex
 10
-61.10212849669351
 20
-111.0141335155654
 30
0.0
  0
VERTEX
  5
40C
330
3D7
100
AcDbEntity
  8
Bake
100
AcDbVertex
100
AcDb2dVertex
 10
-61.27041342595622
 20
-110.9629092407988
 30
0.0
  0
VERTEX
  5
40D
330
3D7
100
AcDbEntity
  8
Bake
100
AcDbVertex
100
AcDb2dVertex
 10
-61.44946972010457
 20
-110.9129854469263
 30
0.0
  0
VERTEX
  5
40E
330
3D7
100
AcDbEntity
  8
Bake
100
AcDbVertex
100
AcDb2dVertex
 10
-61.84468367634076
 20
-110.8139181477175
 30
0.0
  0
VERTEX
  5
40F
330
3D7
100
AcDbEntity
  8
Bake
100
AcDbVertex
100
AcDb2dVertex
 10
-63.40562229327354
 20
-110.4632821508825
 30
0.0
  0
VERTEX
  5
410
330
3D7
100
AcDbEntity
  8
Bake
100
AcDbVertex
100
AcDb2dVertex
 10
-63.71722554917638
 20
-110.3816475728287
 30
0.0
  0
VERTEX
  5
411
330
3D7
100
AcDbEntity
  8
Bake
100
AcDbVertex
100
AcDb2dVertex
 10
-63.87535563099832
 20
-110.3356550677081
 30
0.0
  0
VERTEX
  5
412
330
3D7
100
AcDbEntity
  8
Bake
100
AcDbVertex
100
AcDb2dVertex
 10
-64.03427684582363
 20
-110.2856454163256
 30
0.0
  0
VERTEX
  5
413
330
3D7
100
AcDbEntity
  8
Bake
100
AcDbVertex
100
AcDb2dVertex
 10
-64.19341831646958
 20
-110.2311933670317
 30
0.0
  0
VERTEX
  5
414
330
3D7
100
AcDbEntity
  8
Bake
100
AcDbVertex
100
AcDb2dVertex
 10
-64.3522091657534
 20
-110.1718736681769
 30
0.0
  0
VERTEX
  5
415
330
3D7
100
AcDbEntity
  8
Bake
100
AcDbVertex
100
AcDb2dVertex
 10
-64.51007851649237
 20
-110.1072610681116
 30
0.0
  0
VERTEX
  5
416
330
3D7
100
AcDbEntity
  8
Bake
100
AcDbVertex
100
AcDb2dVertex
 10
-64.58848923078794
 20
-110.0728370389846
 30
0.0
  0
VERTEX
  5
417
330
3D7
100
AcDbEntity
  8
Bake
100
AcDbVertex
100
AcDb2dVertex
 10
-64.66645549150377
 20
-110.0369303151864
 30
0.0
  0
VERTEX
  5
418
330
3D7
100
AcDbEntity
  8
Bake
100
AcDbVertex
100
AcDb2dVertex
 10
-64.74390593899201
 20
-109.9994877402608
 30
0.0
  0
VERTEX
  5
419
330
3D7
100
AcDbEntity
  8
Bake
100
AcDbVertex
100
AcDb2dVertex
 10
-64.82076921360486
 20
-109.9604561577517
 30
0.0
  0
VERTEX
  5
41A
330
3D7
100
AcDbEntity
  8
Bake
100
AcDbVertex
100
AcDb2dVertex
 10
-64.89697395569443
 20
-109.9197824112028
 30
0.0
  0
VERTEX
  5
41B
330
3D7
100
AcDbEntity
  8
Bake
100
AcDbVertex
100
AcDb2dVertex
 10
-64.9724488056129
 20
-109.8774133441579
 30
0.0
  0
VERTEX
  5
41C
330
3D7
100
AcDbEntity
  8
Bake
100
AcDbVertex
100
AcDb2dVertex
 10
-65.04712240371242
 20
-109.833295800161
 30
0.0
  0
VERTEX
  5
41D
330
3D7
100
AcDbEntity
  8
Bake
100
AcDbVertex
100
AcDb2dVertex
 10
-65.12092339034515
 20
-109.7873766227557
 30
0.0
  0
VERTEX
  5
41E
330
3D7
100
AcDbEntity
  8
Bake
100
AcDbVertex
100
AcDb2dVertex
 10
-65.19378040586327
 20
-109.7396026554858
 30
0.0
  0
VERTEX
  5
41F
330
3D7
100
AcDbEntity
  8
Bake
100
AcDbVertex
100
AcDb2dVertex
 10
-65.26562209061889
 20
-109.6899207418953
 30
0.0
  0
VERTEX
  5
420
330
3D7
100
AcDbEntity
  8
Bake
100
AcDbVertex
100
AcDb2dVertex
 10
-65.3363770849642
 20
-109.6382777255279
 30
0.0
  0
VERTEX
  5
421
330
3D7
100
AcDbEntity
  8
Bake
100
AcDbVertex
100
AcDb2dVertex
 10
-65.40597402925137
 20
-109.5846204499273
 30
0.0
  0
VERTEX
  5
422
330
3D7
100
AcDbEntity
  8
Bake
100
AcDbVertex
100
AcDb2dVertex
 10
-65.47434156383252
 20
-109.5288957586375
 30
0.0
  0
VERTEX
  5
423
330
3D7
100
AcDbEntity
  8
Bake
100
AcDbVertex
100
AcDb2dVertex
 10
-65.54140832905985
 20
-109.4710504952023
 30
0.0
  0
VERTEX
  5
424
330
3D7
100
AcDbEntity
  8
Bake
100
AcDbVertex
100
AcDb2dVertex
 10
-65.60710296528549
 20
-109.4110315031653
 30
0.0
  0
VERTEX
  5
425
330
3D7
100
AcDbEntity
  8
Bake
100
AcDbVertex
100
AcDb2dVertex
 10
-65.67135411286162
 20
-109.3487856260705
 30
0.0
  0
VERTEX
  5
426
330
3D7
100
AcDbEntity
  8
Bake
100
AcDbVertex
100
AcDb2dVertex
 10
-65.73409041214038
 20
-109.2842597074617
 30
0.0
  0
VERTEX
  5
427
330
3D7
100
AcDbEntity
  8
Bake
100
AcDbVertex
100
AcDb2dVertex
 10
-65.7952405034739
 20
-109.2174005908827
 30
0.0
  0
VERTEX
  5
428
330
3D7
100
AcDbEntity
  8
Bake
100
AcDbVertex
100
AcDb2dVertex
 10
-65.85473302721441
 20
-109.1481551198772
 30
0.0
  0
VERTEX
  5
429
330
3D7
100
AcDbEntity
  8
Bake
100
AcDbVertex
100
AcDb2dVertex
 10
-65.91249662371402
 20
-109.0764701379891
 30
0.0
  0
VERTEX
  5
42A
330
3D7
100
AcDbEntity
  8
Bake
100
AcDbVertex
100
AcDb2dVertex
 10
-65.9684599333249
 20
-109.0022924887622
 30
0.0
  0
VERTEX
  5
42B
330
3D7
100
AcDbEntity
  8
Bake
100
AcDbVertex
100
AcDb2dVertex
 10
-66.02255159639918
 20
-108.9255690157403
 30
0.0
  0
VERTEX
  5
42C
330
3D7
100
AcDbEntity
  8
Bake
100
AcDbVertex
100
AcDb2dVertex
 10
-66.07470025328905
 20
-108.8462465624672
 30
0.0
  0
VERTEX
  5
42D
330
3D7
100
AcDbEntity
  8
Bake
100
AcDbVertex
100
AcDb2dVertex
 10
-66.12483454434668
 20
-108.7642719724867
 30
0.0
  0
VERTEX
  5
42E
330
3D7
100
AcDbEntity
  8
Bake
100
AcDbVertex
100
AcDb2dVertex
 10
-66.1728831099242
 20
-108.6795920893427
 30
0.0
  0
VERTEX
  5
42F
330
3D7
100
AcDbEntity
  8
Bake
100
AcDbVertex
100
AcDb2dVertex
 10
-66.21877459037378
 20
-108.5921537565789
 30
0.0
  0
VERTEX
  5
430
330
3D7
100
AcDbEntity
  8
Bake
100
AcDbVertex
100
AcDb2dVertex
 10
-66.26243762604759
 20
-108.5019038177391
 30
0.0
  0
VERTEX
  5
431
330
3D7
100
AcDbEntity
  8
Bake
100
AcDbVertex
100
AcDb2dVertex
 10
-66.30380085729774
 20
-108.4087891163672
 30
0.0
  0
VERTEX
  5
432
330
3D7
100
AcDbEntity
  8
Bake
100
AcDbVertex
100
AcDb2dVertex
 10
-66.34279292447644
 20
-108.312756496007
 30
0.0
  0
VERTEX
  5
433
330
3D7
100
AcDbEntity
  8
Bake
100
AcDbVertex
100
AcDb2dVertex
 10
-66.37934246793583
 20
-108.2137528002023
 30
0.0
  0
VERTEX
  5
434
330
3D7
100
AcDbEntity
  8
Bake
100
AcDbVertex
100
AcDb2dVertex
 10
-66.41337812802806
 20
-108.1117248724969
 30
0.0
  0
VERTEX
  5
435
330
3D7
100
AcDbEntity
  8
Bake
100
AcDbVertex
100
AcDb2dVertex
 10
-66.44482854510531
 20
-108.0066195564345
 30
0.0
  0
VERTEX
  5
436
330
3D7
100
AcDbEntity
  8
Bake
100
AcDbVertex
100
AcDb2dVertex
 10
-66.47362235951971
 20
-107.8983836955591
 30
0.0
  0
VERTEX
  5
437
330
3D7
100
AcDbEntity
  8
Bake
100
AcDbVertex
100
AcDb2dVertex
 10
-66.49968821162344
 20
-107.7869641334143
 30
0.0
  0
VERTEX
  5
438
330
3D7
100
AcDbEntity
  8
Bake
100
AcDbVertex
100
AcDb2dVertex
 10
-66.52295474176864
 20
-107.6723077135441
 30
0.0
  0
VERTEX
  5
439
330
3D7
100
AcDbEntity
  8
Bake
100
AcDbVertex
100
AcDb2dVertex
 10
-66.54335059030748
 20
-107.5543612794923
 30
0.0
  0
VERTEX
  5
43A
330
3D7
100
AcDbEntity
  8
Bake
100
AcDbVertex
100
AcDb2dVertex
 10
-66.56080439759211
 20
-107.4330716748025
 30
0.0
  0
VERTEX
  5
43B
330
3D7
100
AcDbEntity
  8
Bake
100
AcDbVertex
100
AcDb2dVertex
 10
-66.5752448039747
 20
-107.3083857430188
 30
0.0
  0
VERTEX
  5
43C
330
3D7
100
AcDbEntity
  8
Bake
100
AcDbVertex
100
AcDb2dVertex
 10
-66.5866004498074
 20
-107.1802503276847
 30
0.0
  0
VERTEX
  5
43D
330
3D7
100
AcDbEntity
  8
Bake
100
AcDbVertex
100
AcDb2dVertex
 10
-66.59479997544238
 20
-107.0486122723443
 30
0.0
  0
VERTEX
  5
43E
330
3D7
100
AcDbEntity
  8
Bake
100
AcDbVertex
100
AcDb2dVertex
 10
-66.59977202123179
 20
-106.9134184205412
 30
0.0
  0
VERTEX
  5
43F
330
3D7
100
AcDbEntity
  8
Bake
100
AcDbVertex
100
AcDb2dVertex
 10
-66.60144522752776
 20
-106.7746156158194
 30
0.0
  0
VERTEX
  5
440
330
3D7
100
AcDbEntity
  8
Bake
100
AcDbVertex
100
AcDb2dVertex
 10
-66.60144522752776
 20
-75.92556981211266
 30
0.0
  0
VERTEX
  5
441
330
3D7
100
AcDbEntity
  8
Bake
100
AcDbVertex
100
AcDb2dVertex
 10
-66.97381051993102
 20
-75.63505272575173
 30
0.0
  0
VERTEX
  5
442
330
3D7
100
AcDbEntity
  8
Bake
100
AcDbVertex
100
AcDb2dVertex
 10
-67.3271126116592
 20
-75.34756523418191
 30
0.0
  0
VERTEX
  5
443
330
3D7
100
AcDbEntity
  8
Bake
100
AcDbVertex
100
AcDb2dVertex
 10
-67.66195511585978
 20
-75.0626250011546
 30
0.0
  0
VERTEX
  5
444
330
3D7
100
AcDbEntity
  8
Bake
100
AcDbVertex
100
AcDb2dVertex
 10
-67.97894164568021
 20
-74.77974969042116
 30
0.0
  0
VERTEX
  5
445
330
3D7
100
AcDbEntity
  8
Bake
100
AcDbVertex
100
AcDb2dVertex
 10
-68.27867581426791
 20
-74.49845696573297
 30
0.0
  0
VERTEX
  5
446
330
3D7
100
AcDbEntity
  8
Bake
100
AcDbVertex
100
AcDb2dVertex
 10
-68.56176123477039
 20
-74.21826449084142
 30
0.0
  0
VERTEX
  5
447
330
3D7
100
AcDbEntity
  8
Bake
100
AcDbVertex
100
AcDb2dVertex
 10
-68.82880152033505
 20
-73.93868992949788
 30
0.0
  0
VERTEX
  5
448
330
3D7
100
AcDbEntity
  8
Bake
100
AcDbVertex
100
AcDb2dVertex
 10
-69.08040028410939
 20
-73.65925094545376
 30
0.0
  0
VERTEX
  5
449
330
3D7
100
AcDbEntity
  8
Bake
100
AcDbVertex
100
AcDb2dVertex
 10
-69.31716113924084
 20
-73.37946520246042
 30
0.0
  0
VERTEX
  5
44A
330
3D7
100
AcDbEntity
  8
Bake
100
AcDbVertex
100
AcDb2dVertex
 10
-69.53968769887686
 20
-73.09885036426923
 30
0.0
  0
VERTEX
  5
44B
330
3D7
100
AcDbEntity
  8
Bake
100
AcDbVertex
100
AcDb2dVertex
 10
-69.7485835761649
 20
-72.81692409463159
 30
0.0
  0
VERTEX
  5
44C
330
3D7
100
AcDbEntity
  8
Bake
100
AcDbVertex
100
AcDb2dVertex
 10
-69.94445238425243
 20
-72.53320405729886
 30
0.0
  0
VERTEX
  5
44D
330
3D7
100
AcDbEntity
  8
Bake
100
AcDbVertex
100
AcDb2dVertex
 10
-70.12789773628688
 20
-72.24720791602243
 30
0.0
  0
VERTEX
  5
44E
330
3D7
100
AcDbEntity
  8
Bake
100
AcDbVertex
100
AcDb2dVertex
 10
-70.29952324541573
 20
-71.9584533345537
 30
0.0
  0
VERTEX
  5
44F
330
3D7
100
AcDbEntity
  8
Bake
100
AcDbVertex
100
AcDb2dVertex
 10
-70.45993252478641
 20
-71.66645797664401
 30
0.0
  0
VERTEX
  5
450
330
3D7
100
AcDbEntity
  8
Bake
100
AcDbVertex
100
AcDb2dVertex
 10
-70.6097291875464
 20
-71.3707395060448
 30
0.0
  0
VERTEX
  5
451
330
3D7
100
AcDbEntity
  8
Bake
100
AcDbVertex
100
AcDb2dVertex
 10
-70.74951684684315
 20
-71.07081558650741
 30
0.0
  0
VERTEX
  5
452
330
3D7
100
AcDbEntity
  8
Bake
100
AcDbVertex
100
AcDb2dVertex
 10
-70.8798991158241
 20
-70.76620388178321
 30
0.0
  0
VERTEX
  5
453
330
3D7
100
AcDbEntity
  8
Bake
100
AcDbVertex
100
AcDb2dVertex
 10
-71.00147960763672
 20
-70.45642205562359
 30
0.0
  0
VERTEX
  5
454
330
3D7
100
AcDbEntity
  8
Bake
100
AcDbVertex
100
AcDb2dVertex
 10
-71.11486193542844
 20
-70.14098777177995
 30
0.0
  0
VERTEX
  5
455
330
3D7
100
AcDbEntity
  8
Bake
100
AcDbVertex
100
AcDb2dVertex
 10
-71.22064971234673
 20
-69.81941869400364
 30
0.0
  0
VERTEX
  5
456
330
3D7
100
AcDbEntity
  8
Bake
100
AcDbVertex
100
AcDb2dVertex
 10
-71.31944655153904
 20
-69.49123248604607
 30
0.0
  0
VERTEX
  5
457
330
3D7
100
AcDbEntity
  8
Bake
100
AcDbVertex
100
AcDb2dVertex
 10
-71.41185606615285
 20
-69.1559468116586
 30
0.0
  0
VERTEX
  5
458
330
3D7
100
AcDbEntity
  8
Bake
100
AcDbVertex
100
AcDb2dVertex
 10
-71.49848186933559
 20
-68.81307933459263
 30
0.0
  0
VERTEX
  5
459
330
3D7
100
AcDbEntity
  8
Bake
100
AcDbVertex
100
AcDb2dVertex
 10
-71.65679679399769
 20
-68.10266962743069
 30
0.0
  0
VERTEX
  5
45A
330
3D7
100
AcDbEntity
  8
Bake
100
AcDbVertex
100
AcDb2dVertex
 10
-71.79922023070498
 20
-67.35614467457124
 30
0.0
  0
VERTEX
  5
45B
330
3D7
100
AcDbEntity
  8
Bake
100
AcDbVertex
100
AcDb2dVertex
 10
-73.53871869614221
 20
-55.43251779840311
 30
0.0
  0
VERTEX
  5
45C
330
3D7
100
AcDbEntity
  8
Bake
100
AcDbVertex
100
AcDb2dVertex
 10
-73.98586556041258
 20
-53.12258473258566
 30
0.0
  0
VERTEX
  5
45D
330
3D7
100
AcDbEntity
  8
Bake
100
AcDbVertex
100
AcDb2dVertex
 10
-74.24062201357142
 20
-51.96045776361918
 30
0.0
  0
VERTEX
  5
45E
330
3D7
100
AcDbEntity
  8
Bake
100
AcDbVertex
100
AcDb2dVertex
 10
-74.51870354205252
 20
-50.79846204965715
 30
0.0
  0
VERTEX
  5
45F
330
3D7
100
AcDbEntity
  8
Bake
100
AcDbVertex
100
AcDb2dVertex
 10
-74.82201244183571
 20
-49.64027624998178
 30
0.0
  0
VERTEX
  5
460
330
3D7
100
AcDbEntity
  8
Bake
100
AcDbVertex
100
AcDb2dVertex
 10
-75.15245100890087
 20
-48.48957902387529
 30
0.0
  0
VERTEX
  5
461
330
3D7
100
AcDbEntity
  8
Bake
100
AcDbVertex
100
AcDb2dVertex
 10
-75.51160082123447
 20
-47.34900498490835
 30
0.0
  0
VERTEX
  5
462
330
3D7
100
AcDbEntity
  8
Bake
100
AcDbVertex
100
AcDb2dVertex
 10
-75.89976058484939
 20
-46.21701256380545
 30
0.0
  0
VERTEX
  5
463
330
3D7
100
AcDbEntity
  8
Bake
100
AcDbVertex
100
AcDb2dVertex
 10
-76.31690828776522
 20
-45.09101614557953
 30
0.0
  0
VERTEX
  5
464
330
3D7
100
AcDbEntity
  8
Bake
100
AcDbVertex
100
AcDb2dVertex
 10
-76.76302191800147
 20
-43.96843011524356
 30
0.0
  0
VERTEX
  5
465
330
3D7
100
AcDbEntity
  8
Bake
100
AcDbVertex
100
AcDb2dVertex
 10
-77.23807946357769
 20
-42.84666885781047
 30
0.0
  0
VERTEX
  5
466
330
3D7
100
AcDbEntity
  8
Bake
100
AcDbVertex
100
AcDb2dVertex
 10
-77.74205891251337
 20
-41.72314675829322
 30
0.0
  0
VERTEX
  5
467
330
3D7
100
AcDbEntity
  8
Bake
100
AcDbVertex
100
AcDb2dVertex
 10
-78.2749382528281
 20
-40.59527820170475
 30
0.0
  0
VERTEX
  5
468
330
3D7
100
AcDbEntity
  8
Bake
100
AcDbVertex
100
AcDb2dVertex
 10
-78.83669547254138
 20
-39.46047757305801
 30
0.0
  0
VERTEX
  5
469
330
3D7
100
AcDbEntity
  8
Bake
100
AcDbVertex
100
AcDb2dVertex
 10
-80.04675550224175
 20
-37.15973763964153
 30
0.0
  0
VERTEX
  5
46A
330
3D7
100
AcDbEntity
  8
Bake
100
AcDbVertex
100
AcDb2dVertex
 10
-81.3720629057708
 20
-34.80024203814737
 30
0.0
  0
VERTEX
  5
46B
330
3D7
100
AcDbEntity
  8
Bake
100
AcDbVertex
100
AcDb2dVertex
 10
-86.02455850308283
 20
-27.15568639752036
 30
0.0
  0
VERTEX
  5
46C
330
3D7
100
AcDbEntity
  8
Bake
100
AcDbVertex
100
AcDb2dVertex
 10
-87.71704515882033
 20
-24.30751952375123
 30
0.0
  0
VERTEX
  5
46D
330
3D7
100
AcDbEntity
  8
Bake
100
AcDbVertex
100
AcDb2dVertex
 10
-88.55194374969241
 20
-22.7963330755788
 30
0.0
  0
VERTEX
  5
46E
330
3D7
100
AcDbEntity
  8
Bake
100
AcDbVertex
100
AcDb2dVertex
 10
-89.3660999354496
 20
-21.21694483785074
 30
0.0
  0
VERTEX
  5
46F
330
3D7
100
AcDbEntity
  8
Bake
100
AcDbVertex
100
AcDb2dVertex
 10
-89.76231074036701
 20
-20.39930009898999
 30
0.0
  0
VERTEX
  5
470
330
3D7
100
AcDbEntity
  8
Bake
100
AcDbVertex
100
AcDb2dVertex
 10
-90.14962928075403
 20
-19.56175497404429
 30
0.0
  0
VERTEX
  5
471
330
3D7
100
AcDbEntity
  8
Bake
100
AcDbVertex
100
AcDb2dVertex
 10
-90.52682000219338
 20
-18.7033594834483
 30
0.0
  0
VERTEX
  5
472
330
3D7
100
AcDbEntity
  8
Bake
100
AcDbVertex
100
AcDb2dVertex
 10
-90.89264735026784
 20
-17.82316364763666
 30
0.0
  0
VERTEX
  5
473
330
3D7
100
AcDbEntity
  8
Bake
100
AcDbVertex
100
AcDb2dVertex
 10
-91.24587577056019
 20
-16.92021748704404
 30
0.0
  0
VERTEX
  5
474
330
3D7
100
AcDbEntity
  8
Bake
100
AcDbVertex
100
AcDb2dVertex
 10
-91.58526970865319
 20
-15.99357102210508
 30
0.0
  0
VERTEX
  5
475
330
3D7
100
AcDbEntity
  8
Bake
100
AcDbVertex
100
AcDb2dVertex
 10
-91.90959361012958
 20
-15.04227427325444
 30
0.0
  0
VERTEX
  5
476
330
3D7
100
AcDbEntity
  8
Bake
100
AcDbVertex
100
AcDb2dVertex
 10
-92.21761192057217
 20
-14.06537726092677
 30
0.0
  0
VERTEX
  5
477
330
3D7
100
AcDbEntity
  8
Bake
100
AcDbVertex
100
AcDb2dVertex
 10
-92.50808908556371
 20
-13.06193000555672
 30
0.0
  0
VERTEX
  5
478
330
3D7
100
AcDbEntity
  8
Bake
100
AcDbVertex
100
AcDb2dVertex
 10
-92.77978955068698
 20
-12.03098252757895
 30
0.0
  0
VERTEX
  5
479
330
3D7
100
AcDbEntity
  8
Bake
100
AcDbVertex
100
AcDb2dVertex
 10
-93.03147776152473
 20
-10.97158484742811
 30
0.0
  0
VERTEX
  5
47A
330
3D7
100
AcDbEntity
  8
Bake
100
AcDbVertex
100
AcDb2dVertex
 10
-93.26191816365974
 20
-9.882786985538843
 30
0.0
  0
VERTEX
  5
47B
330
3D7
100
AcDbEntity
  8
Bake
100
AcDbVertex
100
AcDb2dVertex
 10
-93.46987520267479
 20
-8.763638962345814
 30
0.0
  0
VERTEX
  5
47C
330
3D7
100
AcDbEntity
  8
Bake
100
AcDbVertex
100
AcDb2dVertex
 10
-93.6541133241526
 20
-7.613190798283672
 30
0.0
  0
VERTEX
  5
47D
330
3D7
100
AcDbEntity
  8
Bake
100
AcDbVertex
100
AcDb2dVertex
 10
-93.81339697367598
 20
-6.430492513787067
 30
0.0
  0
VERTEX
  5
47E
330
3D7
100
AcDbEntity
  8
Bake
100
AcDbVertex
100
AcDb2dVertex
 10
-93.94649059682769
 20
-5.214594129290656
 30
0.0
  0
VERTEX
  5
47F
330
3D7
100
AcDbEntity
  8
Bake
100
AcDbVertex
100
AcDb2dVertex
 10
-94.05215863919051
 20
-3.96454566522909
 30
0.0
  0
VERTEX
  5
480
330
3D7
100
AcDbEntity
  8
Bake
100
AcDbVertex
100
AcDb2dVertex
 10
-94.1291655463472
 20
-2.67939714203702
 30
0.0
  0
VERTEX
  5
481
330
3D7
100
AcDbEntity
  8
Bake
100
AcDbVertex
100
AcDb2dVertex
 10
-94.1762757638805
 20
-1.358198580149101
 30
0.0
  0
VERTEX
  5
482
330
3D7
100
AcDbEntity
  8
Bake
100
AcDbVertex
100
AcDb2dVertex
 10
-94.19225373737322
 20
0.000000000000012
 30
0.0
 42
-0.4099752802203805
  0
VERTEX
  5
483
330
3D7
100
AcDbEntity
  8
Bake
100
AcDbVertex
100
AcDb2dVertex
 10
-48.99999999999994
 20
45.86174802054424
 30
0.0
  0
VERTEX
  5
484
330
3D7
100
AcDbEntity
  8
Bake
100
AcDbVertex
100
AcDb2dVertex
 10
-48.99999999999994
 20
30.8593722969388
 30
0.0
 42
0.4079044053058881
  0
VERTEX
  5
485
330
3D7
100
AcDbEntity
  8
Bake
100
AcDbVertex
100
AcDb2dVertex
 10
-79.19225377995285
 20
0.000799183681353
 30
0.0
  0
VERTEX
  5
486
330
3D7
100
AcDbEntity
  8
Bake
100
AcDbVertex
100
AcDb2dVertex
 10
-79.17941881838622
 20
-1.047501024370963
 30
0.0
  0
VERTEX
  5
487
330
3D7
100
AcDbEntity
  8
Bake
100
AcDbVertex
100
AcDb2dVertex
 10
-79.13978489193784
 20
-2.095115798985797
 30
0.0
  0
VERTEX
  5
488
330
3D7
100
AcDbEntity
  8
Bake
100
AcDbVertex
100
AcDb2dVertex
 10
-79.07834447214256
 20
-3.055844626618457
 30
0.0
  0
VERTEX
  5
489
330
3D7
100
AcDbEntity
  8
Bake
100
AcDbVertex
100
AcDb2dVertex
 10
-78.99161450808418
 20
-4.014608826257602
 30
0.0
  0
VERTEX
  5
48A
330
3D7
100
AcDbEntity
  8
Bake
100
AcDbVertex
100
AcDb2dVertex
 10
-78.88840077969324
 20
-4.894244160241317
 30
0.0
  0
VERTEX
  5
48B
330
3D7
100
AcDbEntity
  8
Bake
100
AcDbVertex
100
AcDb2dVertex
 10
-78.76173123863217
 20
-5.770801057160464
 30
0.0
  0
VERTEX
  5
48C
330
3D7
100
AcDbEntity
  8
Bake
100
AcDbVertex
100
AcDb2dVertex
 10
-78.62293504071587
 20
-6.57781304907288
 30
0.0
  0
VERTEX
  5
48D
330
3D7
100
AcDbEntity
  8
Bake
100
AcDbVertex
100
AcDb2dVertex
 10
-78.46268907941834
 20
-7.380831815267171
 30
0.0
  0
VERTEX
  5
48E
330
3D7
100
AcDbEntity
  8
Bake
100
AcDbVertex
100
AcDb2dVertex
 10
-78.2923718512102
 20
-8.130017349238216
 30
0.0
  0
VERTEX
  5
48F
330
3D7
100
AcDbEntity
  8
Bake
100
AcDbVertex
100
AcDb2dVertex
 10
-78.10246494026977
 20
-8.874480012683108
 30
0.0
  0
VERTEX
  5
490
330
3D7
100
AcDbEntity
  8
Bake
100
AcDbVertex
100
AcDb2dVertex
 10
-77.90280343003161
 20
-9.58004259516136
 30
0.0
  0
VERTEX
  5
491
330
3D7
100
AcDbEntity
  8
Bake
100
AcDbVertex
100
AcDb2dVertex
 10
-77.68519505947489
 20
-10.28027027230731
 30
0.0
  0
VERTEX
  5
492
330
3D7
100
AcDbEntity
  8
Bake
100
AcDbVertex
100
AcDb2dVertex
 10
-77.45826540952142
 20
-10.9507057598162
 30
0.0
  0
VERTEX
  5
493
330
3D7
100
AcDbEntity
  8
Bake
100
AcDbVertex
100
AcDb2dVertex
 10
-77.21518877208058
 20
-11.61546960758252
 30
0.0
  0
VERTEX
  5
494
330
3D7
100
AcDbEntity
  8
Bake
100
AcDbVertex
100
AcDb2dVertex
 10
-76.96256930368449
 20
-12.25933168398159
 30
0.0
  0
VERTEX
  5
495
330
3D7
100
AcDbEntity
  8
Bake
100
AcDbVertex
100
AcDb2dVertex
 10
-76.69558858290235
 20
-12.89736839246613
 30
0.0
  0
VERTEX
  5
496
330
3D7
100
AcDbEntity
  8
Bake
100
AcDbVertex
100
AcDb2dVertex
 10
-76.41421690471846
 20
-13.5309440415567
 30
0.0
  0
VERTEX
  5
497
330
3D7
100
AcDbEntity
  8
Bake
100
AcDbVertex
100
AcDb2dVertex
 10
-76.1199965899642
 20
-14.15866938949482
 30
0.0
  0
VERTEX
  5
498
330
3D7
100
AcDbEntity
  8
Bake
100
AcDbVertex
100
AcDb2dVertex
 10
-75.81392101252283
 20
-14.78074039376234
 30
0.0
  0
VERTEX
  5
499
330
3D7
100
AcDbEntity
  8
Bake
100
AcDbVertex
100
AcDb2dVertex
 10
-75.4969835462776
 20
-15.39735301184107
 30
0.0
  0
VERTEX
  5
49A
330
3D7
100
AcDbEntity
  8
Bake
100
AcDbVertex
100
AcDb2dVertex
 10
-74.80528223918147
 20
-16.66761784724488
 30
0.0
  0
VERTEX
  5
49B
330
3D7
100
AcDbEntity
  8
Bake
100
AcDbVertex
100
AcDb2dVertex
 10
-74.08072367663321
 20
-17.91955442432917
 30
0.0
  0
VERTEX
  5
49C
330
3D7
100
AcDbEntity
  8
Bake
100
AcDbVertex
100
AcDb2dVertex
 10
-69.02126464224331
 20
-26.20307303952568
 30
0.0
  0
VERTEX
  5
49D
330
3D7
100
AcDbEntity
  8
Bake
100
AcDbVertex
100
AcDb2dVertex
 10
-67.37189139008728
 20
-29.08069921590646
 30
0.0
  0
VERTEX
  5
49E
330
3D7
100
AcDbEntity
  8
Bake
100
AcDbVertex
100
AcDb2dVertex
 10
-65.81574740531167
 20
-31.97772855249938
 30
0.0
  0
VERTEX
  5
49F
330
3D7
100
AcDbEntity
  8
Bake
100
AcDbVertex
100
AcDb2dVertex
 10
-65.07438926510761
 20
-33.44457457111381
 30
0.0
  0
VERTEX
  5
4A0
330
3D7
100
AcDbEntity
  8
Bake
100
AcDbVertex
100
AcDb2dVertex
 10
-64.36091741360676
 20
-34.92516653249396
 30
0.0
  0
VERTEX
  5
4A1
330
3D7
100
AcDbEntity
  8
Bake
100
AcDbVertex
100
AcDb2dVertex
 10
-63.67668072088863
 20
-36.42321109480034
 30
0.0
  0
VERTEX
  5
4A2
330
3D7
100
AcDbEntity
  8
Bake
100
AcDbVertex
100
AcDb2dVertex
 10
-63.02574599276566
 20
-37.93600034885046
 30
0.0
  0
VERTEX
  5
4A3
330
3D7
100
AcDbEntity
  8
Bake
100
AcDbVertex
100
AcDb2dVertex
 10
-62.40430603910931
 20
-39.47977512982255
 30
0.0
  0
VERTEX
  5
4A4
330
3D7
100
AcDbEntity
  8
Bake
100
AcDbVertex
100
AcDb2dVertex
 10
-61.82151938266504
 20
-41.03854188514681
 30
0.0
  0
VERTEX
  5
4A5
330
3D7
100
AcDbEntity
  8
Bake
100
AcDbVertex
100
AcDb2dVertex
 10
-61.27070685128616
 20
-42.6380209094668
 30
0.0
  0
VERTEX
  5
4A6
330
3D7
100
AcDbEntity
  8
Bake
100
AcDbVertex
100
AcDb2dVertex
 10
-60.76331238971086
 20
-44.25177270025785
 30
0.0
  0
VERTEX
  5
4A7
330
3D7
100
AcDbEntity
  8
Bake
100
AcDbVertex
100
AcDb2dVertex
 10
-60.30812284434157
 20
-45.84846350899983
 30
0.0
  0
VERTEX
  5
4A8
330
3D7
100
AcDbEntity
  8
Bake
100
AcDbVertex
100
AcDb2dVertex
 10
-59.8930487827167
 20
-47.4560985610311
 30
0.0
  0
VERTEX
  5
4A9
330
3D7
100
AcDbEntity
  8
Bake
100
AcDbVertex
100
AcDb2dVertex
 10
-59.53424479023892
 20
-48.98665281984849
 30
0.0
  0
VERTEX
  5
4AA
330
3D7
100
AcDbEntity
  8
Bake
100
AcDbVertex
100
AcDb2dVertex
 10
-59.2058544147601
 20
-50.52403444907095
 30
0.0
  0
VERTEX
  5
4AB
330
3D7
100
AcDbEntity
  8
Bake
100
AcDbVertex
100
AcDb2dVertex
 10
-58.65886309407533
 20
-53.44203753412046
 30
0.0
  0
VERTEX
  5
4AC
330
3D7
100
AcDbEntity
  8
Bake
100
AcDbVertex
100
AcDb2dVertex
 10
-58.21933085743976
 20
-56.18843995522445
 30
0.0
  0
VERTEX
  5
4AD
330
3D7
100
AcDbEntity
  8
Bake
100
AcDbVertex
100
AcDb2dVertex
 10
-57.10168587174687
 20
-64.30691412032803
 30
0.0
  0
VERTEX
  5
4AE
330
3D7
100
AcDbEntity
  8
Bake
100
AcDbVertex
100
AcDb2dVertex
 10
-51.60144522752771
 20
-68.51298049531908
 30
0.0
  0
VERTEX
  5
4AF
330
3D7
100
AcDbEntity
  8
Bake
100
AcDbVertex
100
AcDb2dVertex
 10
-51.60144522752773
 20
-79.9999999999999
 30
0.0
  0
SEQEND
  5
4B0
330
3D7
100
AcDbEntity
  8
Bake
  0
CIRCLE
  5
4B1
330
1F
100
AcDbEntity
  8
Bake
100
AcDbCircle
 10
78.0
 20
-94.0
 30
-0.0000000000000939
 40
7.0
  0
CIRCLE
  5
4B2
330
1F
100
AcDbEntity
  8
Bake
100
AcDbCircle
 10
28.00000000000001
 20
-94.0
 30
-0.0000000000000939
 40
7.0
  0
CIRCLE
  5
4B3
330
1F
100
AcDbEntity
  8
Bake
100
AcDbCircle
 10
-22.0
 20
-94.00000000000001
 30
-0.0000000000000939
 40
7.000000000000004
  0
POLYLINE
  5
4B4
330
1F
100
AcDbEntity
  8
Bake
100
AcDb2dPolyline
 66
     1
 10
0.0
 20
0.0
 30
-0.0000000000001148
  0
VERTEX
  5
4B5
330
4B4
100
AcDbEntity
  8
Bake
100
AcDbVertex
100
AcDb2dVertex
 10
87.8417545660116
 20
-113.9343890566626
 30
-0.0000000000001148
  0
VERTEX
  5
4B6
330
4B4
100
AcDbEntity
  8
Bake
100
AcDbVertex
100
AcDb2dVertex
 10
86.3296663594834
 20
-113.1639416180412
 30
-0.0000000000001148
  0
VERTEX
  5
4B7
330
4B4
100
AcDbEntity
  8
Bake
100
AcDbVertex
100
AcDb2dVertex
 10
84.38285934372813
 20
-107.1722855495234
 30
-0.0000000000001148
  0
VERTEX
  5
4B8
330
4B4
100
AcDbEntity
  8
Bake
100
AcDbVertex
100
AcDb2dVertex
 10
82.48074630610343
 20
-107.790319522779
 30
-0.0000000000001148
  0
VERTEX
  5
4B9
330
4B4
100
AcDbEntity
  8
Bake
100
AcDbVertex
100
AcDb2dVertex
 10
80.57863326847874
 20
-108.4083534960347
 30
-0.0000000000001148
  0
VERTEX
  5
4BA
330
4B4
100
AcDbEntity
  8
Bake
100
AcDbVertex
100
AcDb2dVertex
 10
82.52544028423401
 20
-114.4000095645524
 30
-0.0000000000001148
  0
VERTEX
  5
4BB
330
4B4
100
AcDbEntity
  8
Bake
100
AcDbVertex
100
AcDb2dVertex
 10
81.75499284561258
 20
-115.9120977710807
 30
-0.0000000000001148
  0
SEQEND
  5
4BC
330
4B4
100
AcDbEntity
  8
Bake
  0
POLYLINE
  5
4BD
330
1F
100
AcDbEntity
  8
Bake
100
AcDb2dPolyline
 66
     1
 10
0.0
 20
0.0
 30
-0.0000000000001148
  0
VERTEX
  5
4BE
330
4BD
100
AcDbEntity
  8
Bake
100
AcDbVertex
100
AcDb2dVertex
 10
37.8417545660116
 20
-113.9343890566626
 30
-0.0000000000001148
  0
VERTEX
  5
4BF
330
4BD
100
AcDbEntity
  8
Bake
100
AcDbVertex
100
AcDb2dVertex
 10
36.3296663594834
 20
-113.1639416180412
 30
-0.0000000000001148
  0
VERTEX
  5
4C0
330
4BD
100
AcDbEntity
  8
Bake
100
AcDbVertex
100
AcDb2dVertex
 10
34.38285934372813
 20
-107.1722855495234
 30
-0.0000000000001148
  0
VERTEX
  5
4C1
330
4BD
100
AcDbEntity
  8
Bake
100
AcDbVertex
100
AcDb2dVertex
 10
30.57863326847874
 20
-108.4083534960347
 30
-0.0000000000001148
  0
VERTEX
  5
4C2
330
4BD
100
AcDbEntity
  8
Bake
100
AcDbVertex
100
AcDb2dVertex
 10
32.52544028423401
 20
-114.4000095645524
 30
-0.0000000000001148
  0
VERTEX
  5
4C3
330
4BD
100
AcDbEntity
  8
Bake
100
AcDbVertex
100
AcDb2dVertex
 10
31.75499284561258
 20
-115.9120977710807
 30
-0.0000000000001148
  0
SEQEND
  5
4C4
330
4BD
100
AcDbEntity
  8
Bake
  0
POLYLINE
  5
4C5
330
1F
100
AcDbEntity
  8
Bake
100
AcDb2dPolyline
 66
     1
 10
0.0
 20
0.0
 30
-0.0000000000001148
  0
VERTEX
  5
4C6
330
4C5
100
AcDbEntity
  8
Bake
100
AcDbVertex
100
AcDb2dVertex
 10
-12.15824543398839
 20
-113.9343890566626
 30
-0.0000000000001148
  0
VERTEX
  5
4C7
330
4C5
100
AcDbEntity
  8
Bake
100
AcDbVertex
100
AcDb2dVertex
 10
-13.6703336405166
 20
-113.1639416180412
 30
-0.0000000000001148
  0
VERTEX
  5
4C8
330
4C5
100
AcDbEntity
  8
Bake
100
AcDbVertex
100
AcDb2dVertex
 10
-15.61714065627188
 20
-107.1722855495234
 30
-0.0000000000001148
  0
VERTEX
  5
4C9
330
4C5
100
AcDbEntity
  8
Bake
100
AcDbVertex
100
AcDb2dVertex
 10
-17.51925369389657
 20
-107.790319522779
 30
-0.0000000000001148
  0
VERTEX
  5
4CA
330
4C5
100
AcDbEntity
  8
Bake
100
AcDbVertex
100
AcDb2dVertex
 10
-19.42136673152126
 20
-108.4083534960347
 30
-0.0000000000001148
  0
VERTEX
  5
4CB
330
4C5
100
AcDbEntity
  8
Bake
100
AcDbVertex
100
AcDb2dVertex
 10
-17.47455971576599
 20
-114.4000095645524
 30
-0.0000000000001148
  0
VERTEX
  5
4CC
330
4C5
100
AcDbEntity
  8
Bake
100
AcDbVertex
100
AcDb2dVertex
 10
-18.24500715438742
 20
-115.9120977710807
 30
-0.0000000000001148
  0
SEQEND
  5
4CD
330
4C5
100
AcDbEntity
  8
Bake
  0
LINE
  5
4CE
330
1F
100
AcDbEntity
  8
Bake
100
AcDbLine
 10
-211.6014452275277
 20
-79.99999999999993
 30
0.0
 11
-211.6014452275278
 21
-103.0
 31
0.0
  0
LINE
  5
4CF
330
1F
100
AcDbEntity
  8
Bake
100
AcDbLine
 10
-171.6014452275277
 20
-79.99999999999993
 30
0.0
 11
-171.6014452275278
 21
-103.0
 31
0.0
  0
POLYLINE
  5
4D0
330
1F
100
AcDbEntity
  8
Bake
100
AcDb2dPolyline
 66
     1
 10
0.0
 20
0.0
 30
-0.0000000000001068
  0
VERTEX
  5
4D1
330
4D0
100
AcDbEntity
  8
Bake
100
AcDbVertex
100
AcDb2dVertex
 10
62.08253895829881
 20
-109.5201299603426
 30
-0.0000000000001068
  0
VERTEX
  5
4D2
330
4D0
100
AcDbEntity
  8
Bake
100
AcDbVertex
100
AcDb2dVertex
 10
62.34801704585894
 20
-107.8439672638762
 30
-0.0000000000001068
  0
VERTEX
  5
4D3
330
4D0
100
AcDbEntity
  8
Bake
100
AcDbVertex
100
AcDb2dVertex
 10
67.44482410392848
 20
-104.1409201654973
 30
-0.0000000000001068
  0
VERTEX
  5
4D4
330
4D0
100
AcDbEntity
  8
Bake
100
AcDbVertex
100
AcDb2dVertex
 10
66.2692535965066
 20
-102.5228861788086
 30
-0.0000000000001068
  0
VERTEX
  5
4D5
330
4D0
100
AcDbEntity
  8
Bake
100
AcDbVertex
100
AcDb2dVertex
 10
65.09368308908472
 20
-100.9048521921198
 30
-0.0000000000001068
  0
VERTEX
  5
4D6
330
4D0
100
AcDbEntity
  8
Bake
100
AcDbVertex
100
AcDb2dVertex
 10
59.99687603101518
 20
-104.6078992904988
 30
-0.0000000000001068
  0
VERTEX
  5
4D7
330
4D0
100
AcDbEntity
  8
Bake
100
AcDbVertex
100
AcDb2dVertex
 10
58.3207133345488
 20
-104.3424212029386
 30
-0.0000000000001068
  0
SEQEND
  5
4D8
330
4D0
100
AcDbEntity
  8
Bake
  0
POLYLINE
  5
4D9
330
1F
100
AcDbEntity
  8
Bake
100
AcDb2dPolyline
 66
     1
 10
0.0
 20
0.0
 30
-0.0000000000001068
  0
VERTEX
  5
4DA
330
4D9
100
AcDbEntity
  8
Bake
100
AcDbVertex
100
AcDb2dVertex
 10
12.08253895829881
 20
-109.5201299603426
 30
-0.0000000000001068
  0
VERTEX
  5
4DB
330
4D9
100
AcDbEntity
  8
Bake
100
AcDbVertex
100
AcDb2dVertex
 10
12.34801704585894
 20
-107.8439672638762
 30
-0.0000000000001068
  0
VERTEX
  5
4DC
330
4D9
100
AcDbEntity
  8
Bake
100
AcDbVertex
100
AcDb2dVertex
 10
17.44482410392848
 20
-104.1409201654973
 30
-0.0000000000001068
  0
VERTEX
  5
4DD
330
4D9
100
AcDbEntity
  8
Bake
100
AcDbVertex
100
AcDb2dVertex
 10
16.2692535965066
 20
-102.5228861788086
 30
-0.0000000000001068
  0
VERTEX
  5
4DE
330
4D9
100
AcDbEntity
  8
Bake
100
AcDbVertex
100
AcDb2dVertex
 10
15.09368308908472
 20
-100.9048521921198
 30
-0.0000000000001068
  0
VERTEX
  5
4DF
330
4D9
100
AcDbEntity
  8
Bake
100
AcDbVertex
100
AcDb2dVertex
 10
9.996876031015177
 20
-104.6078992904988
 30
-0.0000000000001068
  0
VERTEX
  5
4E0
330
4D9
100
AcDbEntity
  8
Bake
100
AcDbVertex
100
AcDb2dVertex
 10
8.320713334548799
 20
-104.3424212029386
 30
-0.0000000000001068
  0
SEQEND
  5
4E1
330
4D9
100
AcDbEntity
  8
Bake
  0
POLYLINE
  5
4E2
330
1F
100
AcDbEntity
  8
Bake
100
AcDb2dPolyline
 66
     1
 10
0.0
 20
0.0
 30
-0.0000000000001068
  0
VERTEX
  5
4E3
330
4E2
100
AcDbEntity
  8
Bake
100
AcDbVertex
100
AcDb2dVertex
 10
-37.91746104170119
 20
-109.5201299603426
 30
-0.0000000000001068
  0
VERTEX
  5
4E4
330
4E2
100
AcDbEntity
  8
Bake
100
AcDbVertex
100
AcDb2dVertex
 10
-37.65198295414106
 20
-107.8439672638762
 30
-0.0000000000001068
  0
VERTEX
  5
4E5
330
4E2
100
AcDbEntity
  8
Bake
100
AcDbVertex
100
AcDb2dVertex
 10
-32.55517589607152
 20
-104.1409201654973
 30
-0.0000000000001068
  0
VERTEX
  5
4E6
330
4E2
100
AcDbEntity
  8
Bake
100
AcDbVertex
100
AcDb2dVertex
 10
-33.7307464034934
 20
-102.5228861788086
 30
-0.0000000000001068
  0
VERTEX
  5
4E7
330
4E2
100
AcDbEntity
  8
Bake
100
AcDbVertex
100
AcDb2dVertex
 10
-34.90631691091528
 20
-100.9048521921198
 30
-0.0000000000001068
  0
VERTEX
  5
4E8
330
4E2
100
AcDbEntity
  8
Bake
100
AcDbVertex
100
AcDb2dVertex
 10
-40.00312396898482
 20
-104.6078992904988
 30
-0.0000000000001068
  0
VERTEX
  5
4E9
330
4E2
100
AcDbEntity
  8
Bake
100
AcDbVertex
100
AcDb2dVertex
 10
-41.6792866654512
 20
-104.3424212029386
 30
-0.0000000000001068
  0
SEQEND
  5
4EA
330
4E2
100
AcDbEntity
  8
Bake
  0
POLYLINE
  5
4EB
330
1F
100
AcDbEntity
  8
Bake
100
AcDb2dPolyline
 66
     1
 10
0.0
 20
0.0
 30
0.0
  0
VERTEX
  5
4EC
330
4EB
100
AcDbEntity
  8
Bake
100
AcDbVertex
100
AcDb2dVertex
 10
-211.6014452275277
 20
-99.79999999999998
 30
0.0
  0
VERTEX
  5
4ED
330
4EB
100
AcDbEntity
  8
Bake
100
AcDbVertex
100
AcDb2dVertex
 10
-212.8014452275278
 20
-101.0
 30
0.0
  0
VERTEX
  5
4EE
330
4EB
100
AcDbEntity
  8
Bake
100
AcDbVertex
100
AcDb2dVertex
 10
-219.1014452275277
 20
-101.0
 30
0.0
  0
VERTEX
  5
4EF
330
4EB
100
AcDbEntity
  8
Bake
100
AcDbVertex
100
AcDb2dVertex
 10
-219.1014452275277
 20
-105.0
 30
0.0
  0
VERTEX
  5
4F0
330
4EB
100
AcDbEntity
  8
Bake
100
AcDbVertex
100
AcDb2dVertex
 10
-212.8014452275278
 20
-105.0
 30
0.0
  0
VERTEX
  5
4F1
330
4EB
100
AcDbEntity
  8
Bake
100
AcDbVertex
100
AcDb2dVertex
 10
-211.6014452275277
 20
-106.2
 30
0.0
  0
SEQEND
  5
4F2
330
4EB
100
AcDbEntity
  8
Bake
  0
POLYLINE
  5
4F3
330
1F
100
AcDbEntity
  8
Bake
100
AcDb2dPolyline
 66
     1
 10
0.0
 20
0.0
 30
0.0
  0
VERTEX
  5
4F4
330
4F3
100
AcDbEntity
  8
Bake
100
AcDbVertex
100
AcDb2dVertex
 10
-171.6014452275277
 20
-99.79999999999998
 30
0.0
  0
VERTEX
  5
4F5
330
4F3
100
AcDbEntity
  8
Bake
100
AcDbVertex
100
AcDb2dVertex
 10
-172.8014452275278
 20
-101.0
 30
0.0
  0
VERTEX
  5
4F6
330
4F3
100
AcDbEntity
  8
Bake
100
AcDbVertex
100
AcDb2dVertex
 10
-179.1014452275277
 20
-101.0
 30
0.0
  0
VERTEX
  5
4F7
330
4F3
100
AcDbEntity
  8
Bake
100
AcDbVertex
100
AcDb2dVertex
 10
-179.1014452275277
 20
-105.0
 30
0.0
  0
VERTEX
  5
4F8
330
4F3
100
AcDbEntity
  8
Bake
100
AcDbVertex
100
AcDb2dVertex
 10
-172.8014452275278
 20
-105.0
 30
0.0
  0
VERTEX
  5
4F9
330
4F3
100
AcDbEntity
  8
Bake
100
AcDbVertex
100
AcDb2dVertex
 10
-171.6014452275277
 20
-106.2
 30
0.0
  0
SEQEND
  5
4FA
330
4F3
100
AcDbEntity
  8
Bake
  0
POLYLINE
  5
4FB
330
1F
100
AcDbEntity
  8
Bake
100
AcDb2dPolyline
 66
     1
 10
0.0
 20
0.0
 30
0.0
  0
VERTEX
  5
4FC
330
4FB
100
AcDbEntity
  8
Bake
100
AcDbVertex
100
AcDb2dVertex
 10
-131.6014452275277
 20
-99.79999999999998
 30
0.0
  0
VERTEX
  5
4FD
330
4FB
100
AcDbEntity
  8
Bake
100
AcDbVertex
100
AcDb2dVertex
 10
-132.8014452275278
 20
-101.0
 30
0.0
  0
VERTEX
  5
4FE
330
4FB
100
AcDbEntity
  8
Bake
100
AcDbVertex
100
AcDb2dVertex
 10
-139.1014452275277
 20
-101.0
 30
0.0
  0
VERTEX
  5
4FF
330
4FB
100
AcDbEntity
  8
Bake
100
AcDbVertex
100
AcDb2dVertex
 10
-139.1014452275277
 20
-105.0
 30
0.0
  0
VERTEX
  5
500
330
4FB
100
AcDbEntity
  8
Bake
100
AcDbVertex
100
AcDb2dVertex
 10
-132.8014452275278
 20
-105.0
 30
0.0
  0
VERTEX
  5
501
330
4FB
100
AcDbEntity
  8
Bake
100
AcDbVertex
100
AcDb2dVertex
 10
-131.6014452275277
 20
-106.2
 30
0.0
  0
SEQEND
  5
502
330
4FB
100
AcDbEntity
  8
Bake
  0
POLYLINE
  5
503
330
1F
100
AcDbEntity
  8
Bake
100
AcDb2dPolyline
 66
     1
 10
0.0
 20
0.0
 30
0.0
  0
VERTEX
  5
504
330
503
100
AcDbEntity
  8
Bake
100
AcDbVertex
100
AcDb2dVertex
 10
-91.60144522752775
 20
-99.79999999999998
 30
0.0
  0
VERTEX
  5
505
330
503
100
AcDbEntity
  8
Bake
100
AcDbVertex
100
AcDb2dVertex
 10
-92.80144522752775
 20
-101.0
 30
0.0
  0
VERTEX
  5
506
330
503
100
AcDbEntity
  8
Bake
100
AcDbVertex
100
AcDb2dVertex
 10
-99.10144522752775
 20
-101.0
 30
0.0
  0
VERTEX
  5
507
330
503
100
AcDbEntity
  8
Bake
100
AcDbVertex
100
AcDb2dVertex
 10
-99.10144522752775
 20
-105.0
 30
0.0
  0
VERTEX
  5
508
330
503
100
AcDbEntity
  8
Bake
100
AcDbVertex
100
AcDb2dVertex
 10
-92.80144522752775
 20
-105.0
 30
0.0
  0
VERTEX
  5
509
330
503
100
AcDbEntity
  8
Bake
100
AcDbVertex
100
AcDb2dVertex
 10
-91.60144522752775
 20
-106.2
 30
0.0
  0
SEQEND
  5
50A
330
503
100
AcDbEntity
  8
Bake
  0
POLYLINE
  5
50B
330
1F
100
AcDbEntity
  8
Bake
100
AcDb2dPolyline
 66
     1
 10
0.0
 20
0.0
 30
0.0
  0
VERTEX
  5
50C
330
50B
100
AcDbEntity
  8
Bake
100
AcDbVertex
100
AcDb2dVertex
 10
-51.60144522752775
 20
-99.79999999999998
 30
0.0
  0
VERTEX
  5
50D
330
50B
100
AcDbEntity
  8
Bake
100
AcDbVertex
100
AcDb2dVertex
 10
-52.80144522752775
 20
-101.0
 30
0.0
  0
VERTEX
  5
50E
330
50B
100
AcDbEntity
  8
Bake
100
AcDbVertex
100
AcDb2dVertex
 10
-59.10144522752775
 20
-101.0
 30
0.0
  0
VERTEX
  5
50F
330
50B
100
AcDbEntity
  8
Bake
100
AcDbVertex
100
AcDb2dVertex
 10
-59.10144522752775
 20
-105.0
 30
0.0
  0
VERTEX
  5
510
330
50B
100
AcDbEntity
  8
Bake
100
AcDbVertex
100
AcDb2dVertex
 10
-52.80144522752775
 20
-105.0
 30
0.0
  0
VERTEX
  5
511
330
50B
100
AcDbEntity
  8
Bake
100
AcDbVertex
100
AcDb2dVertex
 10
-51.60144522752775
 20
-106.2
 30
0.0
  0
SEQEND
  5
512
330
50B
100
AcDbEntity
  8
Bake
  0
CIRCLE
  5
513
330
1F
100
AcDbEntity
  8
Bake
100
AcDbCircle
 10
78.0
 20
-94.0
 30
-0.0000000000000939
 40
22.0
  0
LINE
  5
514
330
1F
100
AcDbEntity
  8
Bake
100
AcDbLine
 10
-131.6014452275277
 20
-79.99999999999993
 30
0.0
 11
-131.6014452275278
 21
-103.0
 31
0.0
  0
POLYLINE
  5
515
330
1F
100
AcDbEntity
  8
Bake
100
AcDb2dPolyline
 66
     1
 10
0.0
 20
0.0
 30
-0.000000000000081
  0
VERTEX
  5
516
330
515
100
AcDbEntity
  8
Bake
100
AcDbVertex
100
AcDb2dVertex
 10
58.32071327074487
 20
-83.6575789184658
 30
-0.000000000000081
  0
VERTEX
  5
517
330
515
100
AcDbEntity
  8
Bake
100
AcDbVertex
100
AcDb2dVertex
 10
59.99687596557347
 20
-83.39210082056519
 30
-0.000000000000081
  0
VERTEX
  5
518
330
515
100
AcDbEntity
  8
Bake
100
AcDbVertex
100
AcDb2dVertex
 10
65.09368304648767
 20
-87.09514788750113
 30
-0.000000000000081
  0
VERTEX
  5
519
330
515
100
AcDbEntity
  8
Bake
100
AcDbVertex
100
AcDb2dVertex
 10
67.44482404136764
 20
-83.85907989961909
 30
-0.000000000000081
  0
VERTEX
  5
51A
330
515
100
AcDbEntity
  8
Bake
100
AcDbVertex
100
AcDb2dVertex
 10
62.34801696045344
 20
-80.15603283268315
 30
-0.000000000000081
  0
VERTEX
  5
51B
330
515
100
AcDbEntity
  8
Bake
100
AcDbVertex
100
AcDb2dVertex
 10
62.08253886255282
 20
-78.47987013785456
 30
-0.000000000000081
  0
SEQEND
  5
51C
330
515
100
AcDbEntity
  8
Bake
  0
POLYLINE
  5
51D
330
1F
100
AcDbEntity
  8
Bake
100
AcDb2dPolyline
 66
     1
 10
0.0
 20
0.0
 30
-0.000000000000081
  0
VERTEX
  5
51E
330
51D
100
AcDbEntity
  8
Bake
100
AcDbVertex
100
AcDb2dVertex
 10
8.320713270744875
 20
-83.6575789184658
 30
-0.000000000000081
  0
VERTEX
  5
51F
330
51D
100
AcDbEntity
  8
Bake
100
AcDbVertex
100
AcDb2dVertex
 10
9.996875965573466
 20
-83.39210082056519
 30
-0.000000000000081
  0
VERTEX
  5
520
330
51D
100
AcDbEntity
  8
Bake
100
AcDbVertex
100
AcDb2dVertex
 10
15.09368304648767
 20
-87.09514788750113
 30
-0.000000000000081
  0
VERTEX
  5
521
330
51D
100
AcDbEntity
  8
Bake
100
AcDbVertex
100
AcDb2dVertex
 10
17.44482404136764
 20
-83.85907989961909
 30
-0.000000000000081
  0
VERTEX
  5
522
330
51D
100
AcDbEntity
  8
Bake
100
AcDbVertex
100
AcDb2dVertex
 10
12.34801696045344
 20
-80.15603283268315
 30
-0.000000000000081
  0
VERTEX
  5
523
330
51D
100
AcDbEntity
  8
Bake
100
AcDbVertex
100
AcDb2dVertex
 10
12.08253886255282
 20
-78.47987013785456
 30
-0.000000000000081
  0
SEQEND
  5
524
330
51D
100
AcDbEntity
  8
Bake
  0
POLYLINE
  5
525
330
1F
100
AcDbEntity
  8
Bake
100
AcDb2dPolyline
 66
     1
 10
0.0
 20
0.0
 30
-0.000000000000081
  0
VERTEX
  5
526
330
525
100
AcDbEntity
  8
Bake
100
AcDbVertex
100
AcDb2dVertex
 10
-41.67928672925513
 20
-83.6575789184658
 30
-0.000000000000081
  0
VERTEX
  5
527
330
525
100
AcDbEntity
  8
Bake
100
AcDbVertex
100
AcDb2dVertex
 10
-40.00312403442653
 20
-83.39210082056519
 30
-0.000000000000081
  0
VERTEX
  5
528
330
525
100
AcDbEntity
  8
Bake
100
AcDbVertex
100
AcDb2dVertex
 10
-34.90631695351233
 20
-87.09514788750113
 30
-0.000000000000081
  0
VERTEX
  5
529
330
525
100
AcDbEntity
  8
Bake
100
AcDbVertex
100
AcDb2dVertex
 10
-32.55517595863236
 20
-83.85907989961909
 30
-0.000000000000081
  0
VERTEX
  5
52A
330
525
100
AcDbEntity
  8
Bake
100
AcDbVertex
100
AcDb2dVertex
 10
-37.65198303954656
 20
-80.15603283268315
 30
-0.000000000000081
  0
VERTEX
  5
52B
330
525
100
AcDbEntity
  8
Bake
100
AcDbVertex
100
AcDb2dVertex
 10
-37.91746113744718
 20
-78.47987013785456
 30
-0.000000000000081
  0
SEQEND
  5
52C
330
525
100
AcDbEntity
  8
Bake
  0
POLYLINE
  5
52D
330
1F
100
AcDbEntity
  8
Bake
100
AcDb2dPolyline
 66
     1
 10
0.0
 20
0.0
 30
0.0
  0
VERTEX
  5
52E
330
52D
100
AcDbEntity
  8
Bake
100
AcDbVertex
100
AcDb2dVertex
 10
-211.6014452275278
 20
-88.29999999999991
 30
0.0
  0
VERTEX
  5
52F
330
52D
100
AcDbEntity
  8
Bake
100
AcDbVertex
100
AcDb2dVertex
 10
-212.8014452275278
 20
-89.49999999999991
 30
0.0
  0
VERTEX
  5
530
330
52D
100
AcDbEntity
  8
Bake
100
AcDbVertex
100
AcDb2dVertex
 10
-219.1014452275278
 20
-89.49999999999991
 30
0.0
  0
VERTEX
  5
531
330
52D
100
AcDbEntity
  8
Bake
100
AcDbVertex
100
AcDb2dVertex
 10
-219.1014452275278
 20
-93.49999999999991
 30
0.0
  0
VERTEX
  5
532
330
52D
100
AcDbEntity
  8
Bake
100
AcDbVertex
100
AcDb2dVertex
 10
-212.8014452275278
 20
-93.49999999999991
 30
0.0
  0
VERTEX
  5
533
330
52D
100
AcDbEntity
  8
Bake
100
AcDbVertex
100
AcDb2dVertex
 10
-211.6014452275278
 20
-94.69999999999992
 30
0.0
  0
SEQEND
  5
534
330
52D
100
AcDbEntity
  8
Bake
  0
POLYLINE
  5
535
330
1F
100
AcDbEntity
  8
Bake
100
AcDb2dPolyline
 66
     1
 10
0.0
 20
0.0
 30
0.0
  0
VERTEX
  5
536
330
535
100
AcDbEntity
  8
Bake
100
AcDbVertex
100
AcDb2dVertex
 10
-171.6014452275278
 20
-88.29999999999991
 30
0.0
  0
VERTEX
  5
537
330
535
100
AcDbEntity
  8
Bake
100
AcDbVertex
100
AcDb2dVertex
 10
-172.8014452275278
 20
-89.49999999999991
 30
0.0
  0
VERTEX
  5
538
330
535
100
AcDbEntity
  8
Bake
100
AcDbVertex
100
AcDb2dVertex
 10
-179.1014452275278
 20
-89.49999999999991
 30
0.0
  0
VERTEX
  5
539
330
535
100
AcDbEntity
  8
Bake
100
AcDbVertex
100
AcDb2dVertex
 10
-179.1014452275278
 20
-93.49999999999991
 30
0.0
  0
VERTEX
  5
53A
330
535
100
AcDbEntity
  8
Bake
100
AcDbVertex
100
AcDb2dVertex
 10
-172.8014452275278
 20
-93.49999999999991
 30
0.0
  0
VERTEX
  5
53B
330
535
100
AcDbEntity
  8
Bake
100
AcDbVertex
100
AcDb2dVertex
 10
-171.6014452275278
 20
-94.69999999999992
 30
0.0
  0
SEQEND
  5
53C
330
535
100
AcDbEntity
  8
Bake
  0
POLYLINE
  5
53D
330
1F
100
AcDbEntity
  8
Bake
100
AcDb2dPolyline
 66
     1
 10
0.0
 20
0.0
 30
0.0
  0
VERTEX
  5
53E
330
53D
100
AcDbEntity
  8
Bake
100
AcDbVertex
100
AcDb2dVertex
 10
-131.6014452275278
 20
-88.29999999999991
 30
0.0
  0
VERTEX
  5
53F
330
53D
100
AcDbEntity
  8
Bake
100
AcDbVertex
100
AcDb2dVertex
 10
-132.8014452275278
 20
-89.49999999999991
 30
0.0
  0
VERTEX
  5
540
330
53D
100
AcDbEntity
  8
Bake
100
AcDbVertex
100
AcDb2dVertex
 10
-139.1014452275278
 20
-89.49999999999991
 30
0.0
  0
VERTEX
  5
541
330
53D
100
AcDbEntity
  8
Bake
100
AcDbVertex
100
AcDb2dVertex
 10
-139.1014452275278
 20
-93.49999999999991
 30
0.0
  0
VERTEX
  5
542
330
53D
100
AcDbEntity
  8
Bake
100
AcDbVertex
100
AcDb2dVertex
 10
-132.8014452275278
 20
-93.49999999999991
 30
0.0
  0
VERTEX
  5
543
330
53D
100
AcDbEntity
  8
Bake
100
AcDbVertex
100
AcDb2dVertex
 10
-131.6014452275278
 20
-94.69999999999992
 30
0.0
  0
SEQEND
  5
544
330
53D
100
AcDbEntity
  8
Bake
  0
POLYLINE
  5
545
330
1F
100
AcDbEntity
  8
Bake
100
AcDb2dPolyline
 66
     1
 10
0.0
 20
0.0
 30
0.0
  0
VERTEX
  5
546
330
545
100
AcDbEntity
  8
Bake
100
AcDbVertex
100
AcDb2dVertex
 10
-91.60144522752776
 20
-88.29999999999991
 30
0.0
  0
VERTEX
  5
547
330
545
100
AcDbEntity
  8
Bake
100
AcDbVertex
100
AcDb2dVertex
 10
-92.80144522752776
 20
-89.49999999999991
 30
0.0
  0
VERTEX
  5
548
330
545
100
AcDbEntity
  8
Bake
100
AcDbVertex
100
AcDb2dVertex
 10
-99.10144522752776
 20
-89.49999999999991
 30
0.0
  0
VERTEX
  5
549
330
545
100
AcDbEntity
  8
Bake
100
AcDbVertex
100
AcDb2dVertex
 10
-99.10144522752776
 20
-93.49999999999991
 30
0.0
  0
VERTEX
  5
54A
330
545
100
AcDbEntity
  8
Bake
100
AcDbVertex
100
AcDb2dVertex
 10
-92.80144522752776
 20
-93.49999999999991
 30
0.0
  0
VERTEX
  5
54B
330
545
100
AcDbEntity
  8
Bake
100
AcDbVertex
100
AcDb2dVertex
 10
-91.60144522752776
 20
-94.69999999999992
 30
0.0
  0
SEQEND
  5
54C
330
545
100
AcDbEntity
  8
Bake
  0
POLYLINE
  5
54D
330
1F
100
AcDbEntity
  8
Bake
100
AcDb2dPolyline
 66
     1
 10
0.0
 20
0.0
 30
0.0
  0
VERTEX
  5
54E
330
54D
100
AcDbEntity
  8
Bake
100
AcDbVertex
100
AcDb2dVertex
 10
-51.60144522752776
 20
-88.29999999999991
 30
0.0
  0
VERTEX
  5
54F
330
54D
100
AcDbEntity
  8
Bake
100
AcDbVertex
100
AcDb2dVertex
 10
-52.80144522752776
 20
-89.49999999999991
 30
0.0
  0
VERTEX
  5
550
330
54D
100
AcDbEntity
  8
Bake
100
AcDbVertex
100
AcDb2dVertex
 10
-59.10144522752776
 20
-89.49999999999991
 30
0.0
  0
VERTEX
  5
551
330
54D
100
AcDbEntity
  8
Bake
100
AcDbVertex
100
AcDb2dVertex
 10
-59.10144522752776
 20
-93.49999999999991
 30
0.0
  0
VERTEX
  5
552
330
54D
100
AcDbEntity
  8
Bake
100
AcDbVertex
100
AcDb2dVertex
 10
-52.80144522752776
 20
-93.49999999999991
 30
0.0
  0
VERTEX
  5
553
330
54D
100
AcDbEntity
  8
Bake
100
AcDbVertex
100
AcDb2dVertex
 10
-51.60144522752776
 20
-94.69999999999992
 30
0.0
  0
SEQEND
  5
554
330
54D
100
AcDbEntity
  8
Bake
  0
CIRCLE
  5
555
330
1F
100
AcDbEntity
  8
Bake
100
AcDbCircle
 10
28.00000000000001
 20
-94.0
 30
-0.0000000000000939
 40
22.0
  0
LINE
  5
556
330
1F
100
AcDbEntity
  8
Bake
100
AcDbLine
 10
-91.60144522752773
 20
-79.99999999999993
 30
0.0
 11
-91.60144522752776
 21
-103.0
 31
0.0
  0
POLYLINE
  5
557
330
1F
100
AcDbEntity
  8
Bake
100
AcDb2dPolyline
 66
     1
 10
0.0
 20
0.0
 30
-0.000000000000073
  0
VERTEX
  5
558
330
557
100
AcDbEntity
  8
Bake
100
AcDbVertex
100
AcDb2dVertex
 10
81.75499219035625
 20
-72.08790211663057
 30
-0.000000000000073
  0
VERTEX
  5
559
330
557
100
AcDbEntity
  8
Bake
100
AcDbVertex
100
AcDb2dVertex
 10
82.52543967419496
 20
-73.59999030011942
 30
-0.000000000000073
  0
VERTEX
  5
55A
330
557
100
AcDbEntity
  8
Bake
100
AcDbVertex
100
AcDb2dVertex
 10
80.57863283761333
 20
-79.59164642685425
 30
-0.000000000000073
  0
VERTEX
  5
55B
330
557
100
AcDbEntity
  8
Bake
100
AcDbVertex
100
AcDb2dVertex
 10
84.38285894982592
 20
-80.82771425960449
 30
-0.000000000000073
  0
VERTEX
  5
55C
330
557
100
AcDbEntity
  8
Bake
100
AcDbVertex
100
AcDb2dVertex
 10
86.32966578640755
 20
-74.83605813286965
 30
-0.000000000000073
  0
VERTEX
  5
55D
330
557
100
AcDbEntity
  8
Bake
100
AcDbVertex
100
AcDb2dVertex
 10
87.84175396989639
 20
-74.06561064903096
 30
-0.000000000000073
  0
SEQEND
  5
55E
330
557
100
AcDbEntity
  8
Bake
  0
POLYLINE
  5
55F
330
1F
100
AcDbEntity
  8
Bake
100
AcDb2dPolyline
 66
     1
 10
0.0
 20
0.0
 30
-0.000000000000073
  0
VERTEX
  5
560
330
55F
100
AcDbEntity
  8
Bake
100
AcDbVertex
100
AcDb2dVertex
 10
31.75499219035625
 20
-72.08790211663057
 30
-0.000000000000073
  0
VERTEX
  5
561
330
55F
100
AcDbEntity
  8
Bake
100
AcDbVertex
100
AcDb2dVertex
 10
32.52543967419496
 20
-73.59999030011942
 30
-0.000000000000073
  0
VERTEX
  5
562
330
55F
100
AcDbEntity
  8
Bake
100
AcDbVertex
100
AcDb2dVertex
 10
30.57863283761333
 20
-79.59164642685425
 30
-0.000000000000073
  0
VERTEX
  5
563
330
55F
100
AcDbEntity
  8
Bake
100
AcDbVertex
100
AcDb2dVertex
 10
32.48074589371962
 20
-80.20968034322937
 30
-0.000000000000073
  0
VERTEX
  5
564
330
55F
100
AcDbEntity
  8
Bake
100
AcDbVertex
100
AcDb2dVertex
 10
34.38285894982592
 20
-80.82771425960449
 30
-0.000000000000073
  0
VERTEX
  5
565
330
55F
100
AcDbEntity
  8
Bake
100
AcDbVertex
100
AcDb2dVertex
 10
36.32966578640755
 20
-74.83605813286965
 30
-0.000000000000073
  0
VERTEX
  5
566
330
55F
100
AcDbEntity
  8
Bake
100
AcDbVertex
100
AcDb2dVertex
 10
37.84175396989639
 20
-74.06561064903096
 30
-0.000000000000073
  0
SEQEND
  5
567
330
55F
100
AcDbEntity
  8
Bake
  0
POLYLINE
  5
568
330
1F
100
AcDbEntity
  8
Bake
100
AcDb2dPolyline
 66
     1
 10
0.0
 20
0.0
 30
-0.000000000000073
  0
VERTEX
  5
569
330
568
100
AcDbEntity
  8
Bake
100
AcDbVertex
100
AcDb2dVertex
 10
-18.24500780964375
 20
-72.08790211663057
 30
-0.000000000000073
  0
VERTEX
  5
56A
330
568
100
AcDbEntity
  8
Bake
100
AcDbVertex
100
AcDb2dVertex
 10
-17.47456032580504
 20
-73.59999030011942
 30
-0.000000000000073
  0
VERTEX
  5
56B
330
568
100
AcDbEntity
  8
Bake
100
AcDbVertex
100
AcDb2dVertex
 10
-19.42136716238667
 20
-79.59164642685425
 30
-0.000000000000073
  0
VERTEX
  5
56C
330
568
100
AcDbEntity
  8
Bake
100
AcDbVertex
100
AcDb2dVertex
 10
-17.51925410628038
 20
-80.20968034322937
 30
-0.000000000000073
  0
VERTEX
  5
56D
330
568
100
AcDbEntity
  8
Bake
100
AcDbVertex
100
AcDb2dVertex
 10
-15.61714105017408
 20
-80.82771425960449
 30
-0.000000000000073
  0
VERTEX
  5
56E
330
568
100
AcDbEntity
  8
Bake
100
AcDbVertex
100
AcDb2dVertex
 10
-13.67033421359245
 20
-74.83605813286965
 30
-0.000000000000073
  0
VERTEX
  5
56F
330
568
100
AcDbEntity
  8
Bake
100
AcDbVertex
100
AcDb2dVertex
 10
-12.15824603010361
 20
-74.06561064903096
 30
-0.000000000000073
  0
SEQEND
  5
570
330
568
100
AcDbEntity
  8
Bake
  0
POLYLINE
  5
571
330
1F
100
AcDbEntity
  8
Bake
100
AcDb2dPolyline
 66
     1
 10
0.0
 20
0.0
 30
0.0
  0
VERTEX
  5
572
330
571
100
AcDbEntity
  8
Bake
100
AcDbVertex
100
AcDb2dVertex
 10
-211.6014452275277
 20
-76.79999999999993
 30
0.0
  0
VERTEX
  5
573
330
571
100
AcDbEntity
  8
Bake
100
AcDbVertex
100
AcDb2dVertex
 10
-212.8014452275278
 20
-77.99999999999993
 30
0.0
  0
VERTEX
  5
574
330
571
100
AcDbEntity
  8
Bake
100
AcDbVertex
100
AcDb2dVertex
 10
-219.1014452275277
 20
-77.99999999999993
 30
0.0
  0
VERTEX
  5
575
330
571
100
AcDbEntity
  8
Bake
100
AcDbVertex
100
AcDb2dVertex
 10
-219.1014452275277
 20
-81.99999999999993
 30
0.0
  0
VERTEX
  5
576
330
571
100
AcDbEntity
  8
Bake
100
AcDbVertex
100
AcDb2dVertex
 10
-212.8014452275278
 20
-81.99999999999993
 30
0.0
  0
VERTEX
  5
577
330
571
100
AcDbEntity
  8
Bake
100
AcDbVertex
100
AcDb2dVertex
 10
-211.6014452275277
 20
-83.19999999999993
 30
0.0
  0
SEQEND
  5
578
330
571
100
AcDbEntity
  8
Bake
  0
POLYLINE
  5
579
330
1F
100
AcDbEntity
  8
Bake
100
AcDb2dPolyline
 66
     1
 10
0.0
 20
0.0
 30
0.0
  0
VERTEX
  5
57A
330
579
100
AcDbEntity
  8
Bake
100
AcDbVertex
100
AcDb2dVertex
 10
-171.6014452275277
 20
-76.79999999999993
 30
0.0
  0
VERTEX
  5
57B
330
579
100
AcDbEntity
  8
Bake
100
AcDbVertex
100
AcDb2dVertex
 10
-172.8014452275278
 20
-77.99999999999993
 30
0.0
  0
VERTEX
  5
57C
330
579
100
AcDbEntity
  8
Bake
100
AcDbVertex
100
AcDb2dVertex
 10
-179.1014452275277
 20
-77.99999999999993
 30
0.0
  0
VERTEX
  5
57D
330
579
100
AcDbEntity
  8
Bake
100
AcDbVertex
100
AcDb2dVertex
 10
-179.1014452275277
 20
-81.99999999999993
 30
0.0
  0
VERTEX
  5
57E
330
579
100
AcDbEntity
  8
Bake
100
AcDbVertex
100
AcDb2dVertex
 10
-172.8014452275278
 20
-81.99999999999993
 30
0.0
  0
VERTEX
  5
57F
330
579
100
AcDbEntity
  8
Bake
100
AcDbVertex
100
AcDb2dVertex
 10
-171.6014452275277
 20
-83.19999999999993
 30
0.0
  0
SEQEND
  5
580
330
579
100
AcDbEntity
  8
Bake
  0
POLYLINE
  5
581
330
1F
100
AcDbEntity
  8
Bake
100
AcDb2dPolyline
 66
     1
 10
0.0
 20
0.0
 30
0.0
  0
VERTEX
  5
582
330
581
100
AcDbEntity
  8
Bake
100
AcDbVertex
100
AcDb2dVertex
 10
-131.6014452275277
 20
-76.79999999999993
 30
0.0
  0
VERTEX
  5
583
330
581
100
AcDbEntity
  8
Bake
100
AcDbVertex
100
AcDb2dVertex
 10
-132.8014452275278
 20
-77.99999999999993
 30
0.0
  0
VERTEX
  5
584
330
581
100
AcDbEntity
  8
Bake
100
AcDbVertex
100
AcDb2dVertex
 10
-139.1014452275277
 20
-77.99999999999993
 30
0.0
  0
VERTEX
  5
585
330
581
100
AcDbEntity
  8
Bake
100
AcDbVertex
100
AcDb2dVertex
 10
-139.1014452275277
 20
-81.99999999999993
 30
0.0
  0
VERTEX
  5
586
330
581
100
AcDbEntity
  8
Bake
100
AcDbVertex
100
AcDb2dVertex
 10
-132.8014452275278
 20
-81.99999999999993
 30
0.0
  0
VERTEX
  5
587
330
581
100
AcDbEntity
  8
Bake
100
AcDbVertex
100
AcDb2dVertex
 10
-131.6014452275277
 20
-83.19999999999993
 30
0.0
  0
SEQEND
  5
588
330
581
100
AcDbEntity
  8
Bake
  0
POLYLINE
  5
589
330
1F
100
AcDbEntity
  8
Bake
100
AcDb2dPolyline
 66
     1
 10
0.0
 20
0.0
 30
0.0
  0
VERTEX
  5
58A
330
589
100
AcDbEntity
  8
Bake
100
AcDbVertex
100
AcDb2dVertex
 10
-91.60144522752775
 20
-76.79999999999993
 30
0.0
  0
VERTEX
  5
58B
330
589
100
AcDbEntity
  8
Bake
100
AcDbVertex
100
AcDb2dVertex
 10
-92.80144522752775
 20
-77.99999999999993
 30
0.0
  0
VERTEX
  5
58C
330
589
100
AcDbEntity
  8
Bake
100
AcDbVertex
100
AcDb2dVertex
 10
-99.10144522752775
 20
-77.99999999999993
 30
0.0
  0
VERTEX
  5
58D
330
589
100
AcDbEntity
  8
Bake
100
AcDbVertex
100
AcDb2dVertex
 10
-99.10144522752775
 20
-81.99999999999993
 30
0.0
  0
VERTEX
  5
58E
330
589
100
AcDbEntity
  8
Bake
100
AcDbVertex
100
AcDb2dVertex
 10
-92.80144522752775
 20
-81.99999999999993
 30
0.0
  0
VERTEX
  5
58F
330
589
100
AcDbEntity
  8
Bake
100
AcDbVertex
100
AcDb2dVertex
 10
-91.60144522752775
 20
-83.19999999999993
 30
0.0
  0
SEQEND
  5
590
330
589
100
AcDbEntity
  8
Bake
  0
POLYLINE
  5
591
330
1F
100
AcDbEntity
  8
Bake
100
AcDb2dPolyline
 66
     1
 10
0.0
 20
0.0
 30
0.0
  0
VERTEX
  5
592
330
591
100
AcDbEntity
  8
Bake
100
AcDbVertex
100
AcDb2dVertex
 10
-51.60144522752775
 20
-76.79999999999993
 30
0.0
  0
VERTEX
  5
593
330
591
100
AcDbEntity
  8
Bake
100
AcDbVertex
100
AcDb2dVertex
 10
-52.80144522752775
 20
-77.99999999999993
 30
0.0
  0
VERTEX
  5
594
330
591
100
AcDbEntity
  8
Bake
100
AcDbVertex
100
AcDb2dVertex
 10
-59.10144522752775
 20
-77.99999999999993
 30
0.0
  0
VERTEX
  5
595
330
591
100
AcDbEntity
  8
Bake
100
AcDbVertex
100
AcDb2dVertex
 10
-59.10144522752775
 20
-81.99999999999993
 30
0.0
  0
VERTEX
  5
596
330
591
100
AcDbEntity
  8
Bake
100
AcDbVertex
100
AcDb2dVertex
 10
-52.80144522752775
 20
-81.99999999999993
 30
0.0
  0
VERTEX
  5
597
330
591
100
AcDbEntity
  8
Bake
100
AcDbVertex
100
AcDb2dVertex
 10
-51.60144522752775
 20
-83.19999999999993
 30
0.0
  0
SEQEND
  5
598
330
591
100
AcDbEntity
  8
Bake
  0
POLYLINE
  5
599
330
1F
100
AcDbEntity
  8
Bake
100
AcDb2dPolyline
 66
     1
 10
0.0
 20
0.0
 30
-0.0000000000000939
  0
VERTEX
  5
59A
330
599
100
AcDbEntity
  8
Bake
100
AcDbVertex
100
AcDb2dVertex
 10
100.0
 20
-90.8
 30
-0.0000000000000939
  0
VERTEX
  5
59B
330
599
100
AcDbEntity
  8
Bake
100
AcDbVertex
100
AcDb2dVertex
 10
98.8
 20
-92.0
 30
-0.0000000000000939
  0
VERTEX
  5
59C
330
599
100
AcDbEntity
  8
Bake
100
AcDbVertex
100
AcDb2dVertex
 10
92.5
 20
-92.0
 30
-0.0000000000000939
  0
VERTEX
  5
59D
330
599
100
AcDbEntity
  8
Bake
100
AcDbVertex
100
AcDb2dVertex
 10
92.5
 20
-96.0
 30
-0.0000000000000939
  0
VERTEX
  5
59E
330
599
100
AcDbEntity
  8
Bake
100
AcDbVertex
100
AcDb2dVertex
 10
98.8
 20
-96.0
 30
-0.0000000000000939
  0
VERTEX
  5
59F
330
599
100
AcDbEntity
  8
Bake
100
AcDbVertex
100
AcDb2dVertex
 10
100.0
 20
-97.19999999999999
 30
-0.0000000000000939
  0
SEQEND
  5
5A0
330
599
100
AcDbEntity
  8
Bake
  0
POLYLINE
  5
5A1
330
1F
100
AcDbEntity
  8
Bake
100
AcDb2dPolyline
 66
     1
 10
0.0
 20
0.0
 30
-0.0000000000000939
  0
VERTEX
  5
5A2
330
5A1
100
AcDbEntity
  8
Bake
100
AcDbVertex
100
AcDb2dVertex
 10
50.0
 20
-90.8
 30
-0.0000000000000939
  0
VERTEX
  5
5A3
330
5A1
100
AcDbEntity
  8
Bake
100
AcDbVertex
100
AcDb2dVertex
 10
48.8
 20
-92.0
 30
-0.0000000000000939
  0
VERTEX
  5
5A4
330
5A1
100
AcDbEntity
  8
Bake
100
AcDbVertex
100
AcDb2dVertex
 10
42.5
 20
-92.0
 30
-0.0000000000000939
  0
VERTEX
  5
5A5
330
5A1
100
AcDbEntity
  8
Bake
100
AcDbVertex
100
AcDb2dVertex
 10
42.5
 20
-96.0
 30
-0.0000000000000939
  0
VERTEX
  5
5A6
330
5A1
100
AcDbEntity
  8
Bake
100
AcDbVertex
100
AcDb2dVertex
 10
48.8
 20
-96.0
 30
-0.0000000000000939
  0
VERTEX
  5
5A7
330
5A1
100
AcDbEntity
  8
Bake
100
AcDbVertex
100
AcDb2dVertex
 10
50.0
 20
-97.19999999999999
 30
-0.0000000000000939
  0
SEQEND
  5
5A8
330
5A1
100
AcDbEntity
  8
Bake
  0
POLYLINE
  5
5A9
330
1F
100
AcDbEntity
  8
Bake
100
AcDb2dPolyline
 66
     1
 10
0.0
 20
0.0
 30
-0.0000000000000939
  0
VERTEX
  5
5AA
330
5A9
100
AcDbEntity
  8
Bake
100
AcDbVertex
100
AcDb2dVertex
 10
0.0
 20
-90.8
 30
-0.0000000000000939
  0
VERTEX
  5
5AB
330
5A9
100
AcDbEntity
  8
Bake
100
AcDbVertex
100
AcDb2dVertex
 10
-1.200000000000003
 20
-92.0
 30
-0.0000000000000939
  0
VERTEX
  5
5AC
330
5A9
100
AcDbEntity
  8
Bake
100
AcDbVertex
100
AcDb2dVertex
 10
-7.5
 20
-92.0
 30
-0.0000000000000939
  0
VERTEX
  5
5AD
330
5A9
100
AcDbEntity
  8
Bake
100
AcDbVertex
100
AcDb2dVertex
 10
-7.5
 20
-96.0
 30
-0.0000000000000939
  0
VERTEX
  5
5AE
330
5A9
100
AcDbEntity
  8
Bake
100
AcDbVertex
100
AcDb2dVertex
 10
-1.200000000000003
 20
-96.0
 30
-0.0000000000000939
  0
VERTEX
  5
5AF
330
5A9
100
AcDbEntity
  8
Bake
100
AcDbVertex
100
AcDb2dVertex
 10
0.0
 20
-97.19999999999999
 30
-0.0000000000000939
  0
SEQEND
  5
5B0
330
5A9
100
AcDbEntity
  8
Bake
  0
CIRCLE
  5
5B1
330
1F
100
AcDbEntity
  8
Bake
100
AcDbCircle
 10
-21.99999999999999
 20
-94.0
 30
-0.0000000000000939
 40
22.0
  0
POLYLINE
  5
5B2
330
1F
100
AcDbEntity
  8
Bake
100
AcDb2dPolyline
 66
     1
 10
0.0
 20
0.0
 30
-0.0000000000000075
  0
VERTEX
  5
5B3
330
5B2
100
AcDbEntity
  8
Bake
100
AcDbVertex
100
AcDb2dVertex
 10
18.36778323729183
 20
-46.17480786305114
 30
-0.0000000000000075
  0
VERTEX
  5
5B4
330
5B2
100
AcDbEntity
  8
Bake
100
AcDbVertex
100
AcDb2dVertex
 10
16.85569503076363
 20
-45.4043604244297
 30
-0.0000000000000075
  0
VERTEX
  5
5B5
330
5B2
100
AcDbEntity
  8
Bake
100
AcDbVertex
100
AcDb2dVertex
 10
14.90888801500838
 20
-39.41270435591191
 30
-0.0000000000000075
  0
VERTEX
  5
5B6
330
5B2
100
AcDbEntity
  8
Bake
100
AcDbVertex
100
AcDb2dVertex
 10
11.10466193975899
 20
-40.64877230242319
 30
-0.0000000000000075
  0
VERTEX
  5
5B7
330
5B2
100
AcDbEntity
  8
Bake
100
AcDbVertex
100
AcDb2dVertex
 10
13.05146895551424
 20
-46.64042837094097
 30
-0.0000000000000075
  0
VERTEX
  5
5B8
330
5B2
100
AcDbEntity
  8
Bake
100
AcDbVertex
100
AcDb2dVertex
 10
12.28102151689281
 20
-48.15251657746919
 30
-0.0000000000000075
  0
SEQEND
  5
5B9
330
5B2
100
AcDbEntity
  8
Bake
  0
POLYLINE
  5
5BA
330
1F
100
AcDbEntity
  8
Bake
100
AcDb2dPolyline
 66
     1
 10
0.0
 20
0.0
 30
-0.0000000000000075
  0
VERTEX
  5
5BB
330
5BA
100
AcDbEntity
  8
Bake
100
AcDbVertex
100
AcDb2dVertex
 10
-38.23889442333834
 20
-31.73760065793588
 30
-0.0000000000000075
  0
VERTEX
  5
5BC
330
5BA
100
AcDbEntity
  8
Bake
100
AcDbVertex
100
AcDb2dVertex
 10
-37.97341633577823
 20
-30.06143796146951
 30
-0.0000000000000075
  0
VERTEX
  5
5BD
330
5BA
100
AcDbEntity
  8
Bake
100
AcDbVertex
100
AcDb2dVertex
 10
-32.87660927770867
 20
-26.3583908630906
 30
-0.0000000000000075
  0
VERTEX
  5
5BE
330
5BA
100
AcDbEntity
  8
Bake
100
AcDbVertex
100
AcDb2dVertex
 10
-35.22775029255243
 20
-23.12232288971311
 30
-0.0000000000000075
  0
VERTEX
  5
5BF
330
5BA
100
AcDbEntity
  8
Bake
100
AcDbVertex
100
AcDb2dVertex
 10
-40.32455735062197
 20
-26.82536998809202
 30
-0.0000000000000075
  0
VERTEX
  5
5C0
330
5BA
100
AcDbEntity
  8
Bake
100
AcDbVertex
100
AcDb2dVertex
 10
-42.00072004708835
 20
-26.55989190053189
 30
-0.0000000000000075
  0
SEQEND
  5
5C1
330
5BA
100
AcDbEntity
  8
Bake
  0
POLYLINE
  5
5C2
330
1F
100
AcDbEntity
  8
Bake
100
AcDb2dPolyline
 66
     1
 10
0.0
 20
0.0
 30
-0.0000000000000075
  0
VERTEX
  5
5C3
330
5C2
100
AcDbEntity
  8
Bake
100
AcDbVertex
100
AcDb2dVertex
 10
-42.00072021094024
 20
26.55989164142323
 30
-0.0000000000000075
  0
VERTEX
  5
5C4
330
5C2
100
AcDbEntity
  8
Bake
100
AcDbVertex
100
AcDb2dVertex
 10
-40.32455751611165
 20
26.82536973932385
 30
-0.0000000000000075
  0
VERTEX
  5
5C5
330
5C2
100
AcDbEntity
  8
Bake
100
AcDbVertex
100
AcDb2dVertex
 10
-35.22775043519745
 20
23.1223226723879
 30
-0.0000000000000075
  0
VERTEX
  5
5C6
330
5C2
100
AcDbEntity
  8
Bake
100
AcDbVertex
100
AcDb2dVertex
 10
-32.87660944031748
 20
26.35839066026992
 30
-0.0000000000000075
  0
VERTEX
  5
5C7
330
5C2
100
AcDbEntity
  8
Bake
100
AcDbVertex
100
AcDb2dVertex
 10
-37.97341652123168
 20
30.06143772720588
 30
-0.0000000000000075
  0
VERTEX
  5
5C8
330
5C2
100
AcDbEntity
  8
Bake
100
AcDbVertex
100
AcDb2dVertex
 10
-38.2388946191323
 20
31.73760042203448
 30
-0.0000000000000075
  0
SEQEND
  5
5C9
330
5C2
100
AcDbEntity
  8
Bake
  0
POLYLINE
  5
5CA
330
1F
100
AcDbEntity
  8
Bake
100
AcDb2dPolyline
 66
     1
 10
0.0
 20
0.0
 30
-0.0000000000000075
  0
VERTEX
  5
5CB
330
5CA
100
AcDbEntity
  8
Bake
100
AcDbVertex
100
AcDb2dVertex
 10
12.28102007694685
 20
48.15251694471905
 30
-0.0000000000000075
  0
VERTEX
  5
5CC
330
5CA
100
AcDbEntity
  8
Bake
100
AcDbVertex
100
AcDb2dVertex
 10
13.05146756078555
 20
46.64042876123021
 30
-0.0000000000000075
  0
VERTEX
  5
5CD
330
5CA
100
AcDbEntity
  8
Bake
100
AcDbVertex
100
AcDb2dVertex
 10
11.10466072420392
 20
40.64877263449538
 30
-0.0000000000000075
  0
VERTEX
  5
5CE
330
5CA
100
AcDbEntity
  8
Bake
100
AcDbVertex
100
AcDb2dVertex
 10
13.00677378031021
 20
40.03073871812025
 30
-0.0000000000000075
  0
VERTEX
  5
5CF
330
5CA
100
AcDbEntity
  8
Bake
100
AcDbVertex
100
AcDb2dVertex
 10
14.90888683641651
 20
39.41270480174514
 30
-0.0000000000000075
  0
VERTEX
  5
5D0
330
5CA
100
AcDbEntity
  8
Bake
100
AcDbVertex
100
AcDb2dVertex
 10
16.85569367299814
 20
45.40436092847997
 30
-0.0000000000000075
  0
VERTEX
  5
5D1
330
5CA
100
AcDbEntity
  8
Bake
100
AcDbVertex
100
AcDb2dVertex
 10
18.36778185648699
 20
46.17480841231867
 30
-0.0000000000000075
  0
SEQEND
  5
5D2
330
5CA
100
AcDbEntity
  8
Bake
  0
POLYLINE
  5
5D3
330
1F
100
AcDbEntity
  8
Bake
100
AcDb2dPolyline
 66
     1
 10
0.0
 20
0.0
 30
-0.0000000000000075
  0
VERTEX
  5
5D4
330
5D3
100
AcDbEntity
  8
Bake
100
AcDbVertex
100
AcDb2dVertex
 10
49.59080905008335
 20
3.200000000000003
 30
-0.0000000000000075
  0
VERTEX
  5
5D5
330
5D3
100
AcDbEntity
  8
Bake
100
AcDbVertex
100
AcDb2dVertex
 10
48.39080905008335
 20
2.0
 30
-0.0000000000000075
  0
VERTEX
  5
5D6
330
5D3
100
AcDbEntity
  8
Bake
100
AcDbVertex
100
AcDb2dVertex
 10
42.09080905008335
 20
2.0
 30
-0.0000000000000075
  0
VERTEX
  5
5D7
330
5D3
100
AcDbEntity
  8
Bake
100
AcDbVertex
100
AcDb2dVertex
 10
42.09080905008335
 20
-2.0
 30
-0.0000000000000075
  0
VERTEX
  5
5D8
330
5D3
100
AcDbEntity
  8
Bake
100
AcDbVertex
100
AcDb2dVertex
 10
48.39080905008335
 20
-2.0
 30
-0.0000000000000075
  0
VERTEX
  5
5D9
330
5D3
100
AcDbEntity
  8
Bake
100
AcDbVertex
100
AcDb2dVertex
 10
49.59080905008335
 20
-3.200000000000003
 30
-0.0000000000000075
  0
SEQEND
  5
5DA
330
5D3
100
AcDbEntity
  8
Bake
  0
CIRCLE
  5
5DB
330
1F
100
AcDbEntity
  8
Bake
100
AcDbCircle
 10
-0.0000000000000013
 20
-0.0000000000000013
 30
-0.0000000000000075
 40
34.59080905008335
  0
CIRCLE
  5
5DC
330
1F
100
AcDbEntity
  8
Bake
100
AcDbCircle
 10
0.0
 20
0.0
 30
-0.0000000000000075
 40
49.59080905008335
  0
POLYLINE
  5
5DD
330
1F
100
AcDbEntity
  8
Bake
100
AcDb2dPolyline
 66
     1
 10
0.0
 20
0.0
 30
0.0
  0
VERTEX
  5
5DE
330
5DD
100
AcDbEntity
  8
Bake
100
AcDbVertex
100
AcDb2dVertex
 10
-239.1922537799529
 20
3.200799183681355
 30
0.0
  0
VERTEX
  5
5DF
330
5DD
100
AcDbEntity
  8
Bake
100
AcDbVertex
100
AcDb2dVertex
 10
-240.3922537799529
 20
2.000799183681352
 30
0.0
  0
VERTEX
  5
5E0
330
5DD
100
AcDbEntity
  8
Bake
100
AcDbVertex
100
AcDb2dVertex
 10
-246.6922537799529
 20
2.000799183681352
 30
0.0
  0
VERTEX
  5
5E1
330
5DD
100
AcDbEntity
  8
Bake
100
AcDbVertex
100
AcDb2dVertex
 10
-246.6922537799529
 20
-1.999200816318648
 30
0.0
  0
VERTEX
  5
5E2
330
5DD
100
AcDbEntity
  8
Bake
100
AcDbVertex
100
AcDb2dVertex
 10
-240.3922537799529
 20
-1.999200816318648
 30
0.0
  0
VERTEX
  5
5E3
330
5DD
100
AcDbEntity
  8
Bake
100
AcDbVertex
100
AcDb2dVertex
 10
-239.1922537799529
 20
-3.199200816318651
 30
0.0
  0
SEQEND
  5
5E4
330
5DD
100
AcDbEntity
  8
Bake
  0
POLYLINE
  5
5E5
330
1F
100
AcDbEntity
  8
Bake
100
AcDb2dPolyline
 66
     1
 10
0.0
 20
0.0
 30
0.0
  0
VERTEX
  5
5E6
330
5E5
100
AcDbEntity
  8
Bake
100
AcDbVertex
100
AcDb2dVertex
 10
-199.1922537799529
 20
3.200799183681355
 30
0.0
  0
VERTEX
  5
5E7
330
5E5
100
AcDbEntity
  8
Bake
100
AcDbVertex
100
AcDb2dVertex
 10
-200.3922537799529
 20
2.000799183681352
 30
0.0
  0
VERTEX
  5
5E8
330
5E5
100
AcDbEntity
  8
Bake
100
AcDbVertex
100
AcDb2dVertex
 10
-206.6922537799529
 20
2.000799183681352
 30
0.0
  0
VERTEX
  5
5E9
330
5E5
100
AcDbEntity
  8
Bake
100
AcDbVertex
100
AcDb2dVertex
 10
-206.6922537799529
 20
-1.999200816318648
 30
0.0
  0
VERTEX
  5
5EA
330
5E5
100
AcDbEntity
  8
Bake
100
AcDbVertex
100
AcDb2dVertex
 10
-200.3922537799529
 20
-1.999200816318648
 30
0.0
  0
VERTEX
  5
5EB
330
5E5
100
AcDbEntity
  8
Bake
100
AcDbVertex
100
AcDb2dVertex
 10
-199.1922537799529
 20
-3.199200816318651
 30
0.0
  0
SEQEND
  5
5EC
330
5E5
100
AcDbEntity
  8
Bake
  0
POLYLINE
  5
5ED
330
1F
100
AcDbEntity
  8
Bake
100
AcDb2dPolyline
 66
     1
 10
0.0
 20
0.0
 30
0.0
  0
VERTEX
  5
5EE
330
5ED
100
AcDbEntity
  8
Bake
100
AcDbVertex
100
AcDb2dVertex
 10
-159.1922537799529
 20
3.200799183681355
 30
0.0
  0
VERTEX
  5
5EF
330
5ED
100
AcDbEntity
  8
Bake
100
AcDbVertex
100
AcDb2dVertex
 10
-160.3922537799529
 20
2.000799183681352
 30
0.0
  0
VERTEX
  5
5F0
330
5ED
100
AcDbEntity
  8
Bake
100
AcDbVertex
100
AcDb2dVertex
 10
-166.6922537799529
 20
2.000799183681352
 30
0.0
  0
VERTEX
  5
5F1
330
5ED
100
AcDbEntity
  8
Bake
100
AcDbVertex
100
AcDb2dVertex
 10
-166.6922537799529
 20
-1.999200816318648
 30
0.0
  0
VERTEX
  5
5F2
330
5ED
100
AcDbEntity
  8
Bake
100
AcDbVertex
100
AcDb2dVertex
 10
-160.3922537799529
 20
-1.999200816318648
 30
0.0
  0
VERTEX
  5
5F3
330
5ED
100
AcDbEntity
  8
Bake
100
AcDbVertex
100
AcDb2dVertex
 10
-159.1922537799529
 20
-3.199200816318651
 30
0.0
  0
SEQEND
  5
5F4
330
5ED
100
AcDbEntity
  8
Bake
  0
POLYLINE
  5
5F5
330
1F
100
AcDbEntity
  8
Bake
100
AcDb2dPolyline
 66
     1
 10
0.0
 20
0.0
 30
0.0
  0
VERTEX
  5
5F6
330
5F5
100
AcDbEntity
  8
Bake
100
AcDbVertex
100
AcDb2dVertex
 10
-119.1922537799528
 20
3.200799183681355
 30
0.0
  0
VERTEX
  5
5F7
330
5F5
100
AcDbEntity
  8
Bake
100
AcDbVertex
100
AcDb2dVertex
 10
-120.3922537799529
 20
2.000799183681352
 30
0.0
  0
VERTEX
  5
5F8
330
5F5
100
AcDbEntity
  8
Bake
100
AcDbVertex
100
AcDb2dVertex
 10
-126.6922537799528
 20
2.000799183681352
 30
0.0
  0
VERTEX
  5
5F9
330
5F5
100
AcDbEntity
  8
Bake
100
AcDbVertex
100
AcDb2dVertex
 10
-126.6922537799528
 20
-1.999200816318648
 30
0.0
  0
VERTEX
  5
5FA
330
5F5
100
AcDbEntity
  8
Bake
100
AcDbVertex
100
AcDb2dVertex
 10
-120.3922537799529
 20
-1.999200816318648
 30
0.0
  0
VERTEX
  5
5FB
330
5F5
100
AcDbEntity
  8
Bake
100
AcDbVertex
100
AcDb2dVertex
 10
-119.1922537799528
 20
-3.199200816318651
 30
0.0
  0
SEQEND
  5
5FC
330
5F5
100
AcDbEntity
  8
Bake
  0
POLYLINE
  5
5FD
330
1F
100
AcDbEntity
  8
Bake
100
AcDb2dPolyline
 66
     1
 10
0.0
 20
0.0
 30
0.0
  0
VERTEX
  5
5FE
330
5FD
100
AcDbEntity
  8
Bake
100
AcDbVertex
100
AcDb2dVertex
 10
-79.19225377995285
 20
3.200799183681355
 30
0.0
  0
VERTEX
  5
5FF
330
5FD
100
AcDbEntity
  8
Bake
100
AcDbVertex
100
AcDb2dVertex
 10
-80.39225377995285
 20
2.000799183681352
 30
0.0
  0
VERTEX
  5
600
330
5FD
100
AcDbEntity
  8
Bake
100
AcDbVertex
100
AcDb2dVertex
 10
-86.69225377995285
 20
2.000799183681352
 30
0.0
  0
VERTEX
  5
601
330
5FD
100
AcDbEntity
  8
Bake
100
AcDbVertex
100
AcDb2dVertex
 10
-86.69225377995285
 20
-1.999200816318648
 30
0.0
  0
VERTEX
  5
602
330
5FD
100
AcDbEntity
  8
Bake
100
AcDbVertex
100
AcDb2dVertex
 10
-80.39225377995285
 20
-1.999200816318648
 30
0.0
  0
VERTEX
  5
603
330
5FD
100
AcDbEntity
  8
Bake
100
AcDbVertex
100
AcDb2dVertex
 10
-79.19225377995285
 20
-3.199200816318651
 30
0.0
  0
SEQEND
  5
604
330
5FD
100
AcDbEntity
  8
Bake
  0
LINE
  5
605
330
1F
100
AcDbEntity
  8
Bake
100
AcDbLine
 10
-51.60144522752773
 20
-79.99999999999993
 30
0.0
 11
-51.60144522752775
 21
-103.0
 31
0.0
  0
ENDSEC
  0
SECTION
  2
OBJECTS
  0
DICTIONARY
  5
C
330
0
100
AcDbDictionary
281
     1
  3
ACAD_DETAILVIEWSTYLE
350
64B
  3
ACAD_GROUP
350
D
  3
ACAD_LAYOUT
350
1A
  3
ACAD_MATERIAL
350
43
  3
ACAD_MLEADERSTYLE
350
6B
  3
ACAD_MLINESTYLE
350
17
  3
ACAD_PLOTSETTINGS
350
19
  3
ACAD_PLOTSTYLENAME
350
E
  3
ACAD_SCALELIST
350
47
  3
ACAD_SECTIONVIEWSTYLE
350
64C
  3
ACAD_TABLESTYLE
350
69
  3
ACAD_VISUALSTYLE
350
2A
  3
ACDB_RECOMPOSE_DATA
350
648
  3
AcDbVariableDictionary
350
608
  0
DICTIONARY
  5
606
330
8
100
AcDbDictionary
280
     1
281
     1
  3
ACAD_XREC_ROUNDTRIP
360
607
  0
DICTIONARY
  5
64B
102
{ACAD_REACTORS
330
C
102
}
330
C
100
AcDbDictionary
281
     1
  0
DICTIONARY
  5
D
102
{ACAD_REACTORS
330
C
102
}
330
C
100
AcDbDictionary
281
     1
  0
DICTIONARY
  5
1A
102
{ACAD_REACTORS
330
C
102
}
330
C
100
AcDbDictionary
281
     1
  3
Layout1
350
1E
  3
Layout2
350
26
  3
Model
350
22
  0
DICTIONARY
  5
43
102
{ACAD_REACTORS
330
C
102
}
330
C
100
AcDbDictionary
281
     1
  3
ByBlock
350
45
  3
ByLayer
350
44
  3
Global
350
46
  0
DICTIONARY
  5
6B
102
{ACAD_REACTORS
330
C
102
}
330
C
100
AcDbDictionary
281
     1
  3
Standard
350
6C
  0
DICTIONARY
  5
17
102
{ACAD_REACTORS
330
C
102
}
330
C
100
AcDbDictionary
281
     1
  3
Standard
350
18
  0
DICTIONARY
  5
19
102
{ACAD_REACTORS
330
C
102
}
330
C
100
AcDbDictionary
281
     1
  0
ACDBDICTIONARYWDFLT
  5
E
102
{ACAD_REACTORS
330
C
102
}
330
C
100
AcDbDictionary
281
     1
  3
Normal
350
F
100
AcDbDictionaryWithDefault
340
F
  0
DICTIONARY
  5
47
102
{ACAD_REACTORS
330
C
102
}
330
C
100
AcDbDictionary
281
     1
  3
A0
350
48
  3
A1
350
49
  3
A2
350
4A
  3
A3
350
4B
  3
A4
350
4C
  3
A5
350
4D
  3
A6
350
4E
  3
A7
350
4F
  3
A8
350
50
  3
A9
350
51
  3
B0
350
52
  3
B1
350
53
  3
B2
350
54
  3
B3
350
55
  3
B4
350
56
  3
B5
350
57
  3
B6
350
58
  3
B7
350
59
  3
B8
350
5A
  3
B9
350
5B
  3
C0
350
5C
  3
C1
350
5D
  3
C2
350
5E
  3
C3
350
5F
  3
C4
350
60
  3
C5
350
61
  3
C6
350
62
  3
C7
350
63
  3
C8
350
64
  3
C9
350
65
  3
D0
350
66
  3
D1
350
67
  3
D2
350
68
  0
DICTIONARY
  5
64C
102
{ACAD_REACTORS
330
C
102
}
330
C
100
AcDbDictionary
281
     1
  0
DICTIONARY
  5
69
102
{ACAD_REACTORS
330
C
102
}
330
C
100
AcDbDictionary
281
     1
  3
Standard
350
6A
  0
DICTIONARY
  5
2A
102
{ACAD_REACTORS
330
C
102
}
330
C
100
AcDbDictionary
281
     1
  3
2dWireframe
350
2F
  3
Basic
350
32
  3
Brighten
350
36
  3
ColorChange
350
3A
  3
Conceptual
350
34
  3
Dim
350
35
  3
EdgeColorOff
350
3D
  3
Facepattern
350
39
  3
Flat
350
2B
  3
FlatWithEdges
350
2C
  3
Gouraud
350
2D
  3
GouraudWithEdges
350
2E
  3
Hidden
350
31
  3
JitterOff
350
3B
  3
Linepattern
350
38
  3
OverhangOff
350
3C
  3
Realistic
350
33
  3
Shaded
350
42
  3
Shaded with edges
350
41
  3
Shades of Gray
350
3E
  3
Sketchy
350
3F
  3
Thicken
350
37
  3
Wireframe
350
30
  3
X-Ray
350
40
  0
XRECORD
  5
648
102
{ACAD_REACTORS
330
C
102
}
330
C
100
AcDbXrecord
280
     1
 90
        1
330
6A
  0
DICTIONARY
  5
608
102
{ACAD_REACTORS
330
C
102
}
330
C
100
AcDbDictionary
281
     1
  3
CANNOSCALE
350
609
  3
CMLEADERSTYLE
350
64A
  3
CTABLESTYLE
350
649
  3
MSLTSCALE
350
60A
  3
XCLIPFRAME
350
60B
  0
XRECORD
  5
607
102
{ACAD_REACTORS
330
606
102
}
330
606
100
AcDbXrecord
280
     1
102
VTR_0.000_0.000_1.000_1.000_GRIDDISPLAY
 70
     3
102
VTR_0.000_0.000_1.000_1.000_GRIDMAJOR
 70
     5
102
VTR_0.000_0.000_1.000_1.000_DEFAULTLIGHTING
280
     1
102
VTR_0.000_0.000_1.000_1.000_DEFAULTLIGHTINGTYPE
 70
     1
102
VTR_0.000_0.000_1.000_1.000_BRIGHTNESS
141
0.0
102
VTR_0.000_0.000_1.000_1.000_CONTRAST
142
0.0
  0
LAYOUT
  5
1E
102
{ACAD_REACTORS
330
1A
102
}
330
1A
100
AcDbPlotSettings
  1

  2
none_device
  4

  6

 40
0.0
 41
0.0
 42
0.0
 43
0.0
 44
0.0
 45
0.0
 46
0.0
 47
0.0
 48
0.0
 49
0.0
140
0.0
141
0.0
142
1.0
143
1.0
 70
   688
 72
     0
 73
     0
 74
     5
  7

 75
    16
 76
     0
 77
     2
 78
   300
147
1.0
148
0.0
149
0.0
100
AcDbLayout
  1
Layout1
 70
     1
 71
     1
 10
0.0
 20
0.0
 11
12.0
 21
9.0
 12
0.0
 22
0.0
 32
0.0
 14
1.000000000000000E+20
 24
1.000000000000000E+20
 34
1.000000000000000E+20
 15
-1.000000000000000E+20
 25
-1.000000000000000E+20
 35
-1.000000000000000E+20
146
0.0
 13
0.0
 23
0.0
 33
0.0
 16
1.0
 26
0.0
 36
0.0
 17
0.0
 27
1.0
 37
0.0
 76
     0
330
1B
  0
LAYOUT
  5
26
102
{ACAD_REACTORS
330
1A
102
}
330
1A
100
AcDbPlotSettings
  1

  2
none_device
  4

  6

 40
0.0
 41
0.0
 42
0.0
 43
0.0
 44
0.0
 45
0.0
 46
0.0
 47
0.0
 48
0.0
 49
0.0
140
0.0
141
0.0
142
1.0
143
1.0
 70
   688
 72
     0
 73
     0
 74
     5
  7

 75
    16
 76
     0
 77
     2
 78
   300
147
1.0
148
0.0
149
0.0
100
AcDbLayout
  1
Layout2
 70
     1
 71
     2
 10
0.0
 20
0.0
 11
0.0
 21
0.0
 12
0.0
 22
0.0
 32
0.0
 14
0.0
 24
0.0
 34
0.0
 15
0.0
 25
0.0
 35
0.0
146
0.0
 13
0.0
 23
0.0
 33
0.0
 16
1.0
 26
0.0
 36
0.0
 17
0.0
 27
1.0
 37
0.0
 76
     0
330
23
  0
LAYOUT
  5
22
102
{ACAD_REACTORS
330
1A
102
}
330
1A
100
AcDbPlotSettings
  1

  2
none_device
  4
Letter_(8.50_x_11.00_Inches)
  6

 40
6.35
 41
6.35
 42
6.35000508
 43
6.35000508
 44
215.9
 45
279.4
 46
0.0
 47
0.0
 48
0.0
 49
0.0
140
0.0
141
0.0
142
1.0
143
1.0
 70
  1712
 72
     0
 73
     0
 74
     0
  7

 75
     0
 76
     0
 77
     2
 78
   300
147
1.0
148
0.0
149
0.0
100
AcDbLayout
  1
Model
 70
     1
 71
     0
 10
0.0
 20
0.0
 11
12.0
 21
9.0
 12
0.0
 22
0.0
 32
0.0
 14
-254.1922539977434
 24
-117.417060575252
 34
-0.0000000000001159
 15
100.0
 25
49.59080905008335
 35
0.0
146
0.0
 13
0.0
 23
0.0
 33
0.0
 16
1.0
 26
0.0
 36
0.0
 17
0.0
 27
1.0
 37
0.0
 76
     0
330
1F
331
29
  0
MATERIAL
  5
45
102
{ACAD_REACTORS
330
43
102
}
102
{ACAD_XDICTIONARY
360
63E
102
}
330
43
100
AcDbMaterial
  1
ByBlock
  0
MATERIAL
  5
44
102
{ACAD_REACTORS
330
43
102
}
102
{ACAD_XDICTIONARY
360
63C
102
}
330
43
100
AcDbMaterial
  1
ByLayer
  0
MATERIAL
  5
46
102
{ACAD_REACTORS
330
43
102
}
102
{ACAD_XDICTIONARY
360
640
102
}
330
43
100
AcDbMaterial
  1
Global
  0
MLEADERSTYLE
  5
6C
102
{ACAD_REACTORS
330
6B
102
}
102
{ACAD_XDICTIONARY
360
646
102
}
330
6B
100
AcDbMLeaderStyle
170
     2
171
     1
172
     0
 90
        2
 40
0.0
 41
0.0
173
     1
 91
-1056964608
340
14
 92
       -2
290
     1
 42
0.09
291
     1
 43
0.36
  3
Standard
341
0
 44
0.18
300

342
11
174
     1
178
     6
175
     1
176
     0
 93
-1056964608
 45
0.18
292
     0
297
     0
 46
0.18
343
0
 94
-1056964608
 47
1.0
 49
1.0
140
1.0
293
     1
141
0.0
294
     1
177
     0
142
1.0
295
     0
296
     0
143
0.125
1001
ACAD_MLEADERVER
1070
     2
  0
MLINESTYLE
  5
18
102
{ACAD_REACTORS
330
17
102
}
330
17
100
AcDbMlineStyle
  2
Standard
 70
     0
  3

 62
   256
 51
90.0
 52
90.0
 71
     2
 49
0.5
 62
   256
  6
BYLAYER
 49
-0.5
 62
   256
  6
BYLAYER
  0
ACDBPLACEHOLDER
  5
F
102
{ACAD_REACTORS
330
E
102
}
330
E
  0
SCALE
  5
48
102
{ACAD_REACTORS
330
47
102
}
330
47
100
AcDbScale
 70
     0
300
1:1
140
1.0
141
1.0
290
     1
  0
SCALE
  5
49
102
{ACAD_REACTORS
330
47
102
}
330
47
100
AcDbScale
 70
     0
300
1:2
140
1.0
141
2.0
290
     0
  0
SCALE
  5
4A
102
{ACAD_REACTORS
330
47
102
}
330
47
100
AcDbScale
 70
     0
300
1:4
140
1.0
141
4.0
290
     0
  0
SCALE
  5
4B
102
{ACAD_REACTORS
330
47
102
}
330
47
100
AcDbScale
 70
     0
300
1:5
140
1.0
141
5.0
290
     0
  0
SCALE
  5
4C
102
{ACAD_REACTORS
330
47
102
}
330
47
100
AcDbScale
 70
     0
300
1:8
140
1.0
141
8.0
290
     0
  0
SCALE
  5
4D
102
{ACAD_REACTORS
330
47
102
}
330
47
100
AcDbScale
 70
     0
300
1:10
140
1.0
141
10.0
290
     0
  0
SCALE
  5
4E
102
{ACAD_REACTORS
330
47
102
}
330
47
100
AcDbScale
 70
     0
300
1:16
140
1.0
141
16.0
290
     0
  0
SCALE
  5
4F
102
{ACAD_REACTORS
330
47
102
}
330
47
100
AcDbScale
 70
     0
300
1:20
140
1.0
141
20.0
290
     0
  0
SCALE
  5
50
102
{ACAD_REACTORS
330
47
102
}
330
47
100
AcDbScale
 70
     0
300
1:30
140
1.0
141
30.0
290
     0
  0
SCALE
  5
51
102
{ACAD_REACTORS
330
47
102
}
330
47
100
AcDbScale
 70
     0
300
1:40
140
1.0
141
40.0
290
     0
  0
SCALE
  5
52
102
{ACAD_REACTORS
330
47
102
}
330
47
100
AcDbScale
 70
     0
300
1:50
140
1.0
141
50.0
290
     0
  0
SCALE
  5
53
102
{ACAD_REACTORS
330
47
102
}
330
47
100
AcDbScale
 70
     0
300
1:100
140
1.0
141
100.0
290
     0
  0
SCALE
  5
54
102
{ACAD_REACTORS
330
47
102
}
330
47
100
AcDbScale
 70
     0
300
2:1
140
2.0
141
1.0
290
     0
  0
SCALE
  5
55
102
{ACAD_REACTORS
330
47
102
}
330
47
100
AcDbScale
 70
     0
300
4:1
140
4.0
141
1.0
290
     0
  0
SCALE
  5
56
102
{ACAD_REACTORS
330
47
102
}
330
47
100
AcDbScale
 70
     0
300
8:1
140
8.0
141
1.0
290
     0
  0
SCALE
  5
57
102
{ACAD_REACTORS
330
47
102
}
330
47
100
AcDbScale
 70
     0
300
10:1
140
10.0
141
1.0
290
     0
  0
SCALE
  5
58
102
{ACAD_REACTORS
330
47
102
}
330
47
100
AcDbScale
 70
     0
300
100:1
140
100.0
141
1.0
290
     0
  0
SCALE
  5
59
102
{ACAD_REACTORS
330
47
102
}
330
47
100
AcDbScale
 70
     0
300
1/128" = 1'-0"
140
0.0078125
141
12.0
290
     0
  0
SCALE
  5
5A
102
{ACAD_REACTORS
330
47
102
}
330
47
100
AcDbScale
 70
     0
300
1/64" = 1'-0"
140
0.015625
141
12.0
290
     0
  0
SCALE
  5
5B
102
{ACAD_REACTORS
330
47
102
}
330
47
100
AcDbScale
 70
     0
300
1/32" = 1'-0"
140
0.03125
141
12.0
290
     0
  0
SCALE
  5
5C
102
{ACAD_REACTORS
330
47
102
}
330
47
100
AcDbScale
 70
     0
300
1/16" = 1'-0"
140
0.0625
141
12.0
290
     0
  0
SCALE
  5
5D
102
{ACAD_REACTORS
330
47
102
}
330
47
100
AcDbScale
 70
     0
300
3/32" = 1'-0"
140
0.09375
141
12.0
290
     0
  0
SCALE
  5
5E
102
{ACAD_REACTORS
330
47
102
}
330
47
100
AcDbScale
 70
     0
300
1/8" = 1'-0"
140
0.125
141
12.0
290
     0
  0
SCALE
  5
5F
102
{ACAD_REACTORS
330
47
102
}
330
47
100
AcDbScale
 70
     0
300
3/16" = 1'-0"
140
0.1875
141
12.0
290
     0
  0
SCALE
  5
60
102
{ACAD_REACTORS
330
47
102
}
330
47
100
AcDbScale
 70
     0
300
1/4" = 1'-0"
140
0.25
141
12.0
290
     0
  0
SCALE
  5
61
102
{ACAD_REACTORS
330
47
102
}
330
47
100
AcDbScale
 70
     0
300
3/8" = 1'-0"
140
0.375
141
12.0
290
     0
  0
SCALE
  5
62
102
{ACAD_REACTORS
330
47
102
}
330
47
100
AcDbScale
 70
     0
300
1/2" = 1'-0"
140
0.5
141
12.0
290
     0
  0
SCALE
  5
63
102
{ACAD_REACTORS
330
47
102
}
330
47
100
AcDbScale
 70
     0
300
3/4" = 1'-0"
140
0.75
141
12.0
290
     0
  0
SCALE
  5
64
102
{ACAD_REACTORS
330
47
102
}
330
47
100
AcDbScale
 70
     0
300
1" = 1'-0"
140
1.0
141
12.0
290
     0
  0
SCALE
  5
65
102
{ACAD_REACTORS
330
47
102
}
330
47
100
AcDbScale
 70
     0
300
1-1/2" = 1'-0"
140
1.5
141
12.0
290
     0
  0
SCALE
  5
66
102
{ACAD_REACTORS
330
47
102
}
330
47
100
AcDbScale
 70
     0
300
3" = 1'-0"
140
3.0
141
12.0
290
     0
  0
SCALE
  5
67
102
{ACAD_REACTORS
330
47
102
}
330
47
100
AcDbScale
 70
     0
300
6" = 1'-0"
140
6.0
141
12.0
290
     0
  0
SCALE
  5
68
102
{ACAD_REACTORS
330
47
102
}
330
47
100
AcDbScale
 70
     0
300
1'-0" = 1'-0"
140
12.0
141
12.0
290
     0
  0
TABLESTYLE
  5
6A
102
{ACAD_REACTORS
330
69
102
}
102
{ACAD_XDICTIONARY
360
642
102
}
330
69
100
AcDbTableStyle
  3
Standard
 70
     0
 71
     0
 40
0.06
 41
0.06
280
     0
281
     0
  7
Standard
140
0.18
170
     2
 62
     0
 63
   257
283
     0
274
    -2
284
     1
 64
     0
275
    -2
285
     1
 65
     0
276
    -2
286
     1
 66
     0
277
    -2
287
     1
 67
     0
278
    -2
288
     1
 68
     0
279
    -2
289
     1
 69
     0
  7
Standard
140
0.25
170
     5
 62
     0
 63
   257
283
     0
274
    -2
284
     1
 64
     0
275
    -2
285
     1
 65
     0
276
    -2
286
     1
 66
     0
277
    -2
287
     1
 67
     0
278
    -2
288
     1
 68
     0
279
    -2
289
     1
 69
     0
  7
Standard
140
0.18
170
     5
 62
     0
 63
   257
283
     0
274
    -2
284
     1
 64
     0
275
    -2
285
     1
 65
     0
276
    -2
286
     1
 66
     0
277
    -2
287
     1
 67
     0
278
    -2
288
     1
 68
     0
279
    -2
289
     1
 69
     0
  0
VISUALSTYLE
  5
2F
102
{ACAD_REACTORS
330
2A
102
}
102
{ACAD_XDICTIONARY
360
614
102
}
330
2A
100
AcDbVisualStyle
  2
2dWireframe
 70
     4
 71
     0
 72
     2
 73
     0
 90
        0
 40
0.6
 41
30.0
 62
     5
 63
     7
421
 16777215
 74
     1
 91
        4
 64
     7
 65
   257
 75
     1
175
     1
 42
1.0
 92
        0
 66
   257
 43
1.0
 76
     1
 77
     6
 78
     2
 67
     7
 79
     5
170
     0
171
     0
290
     0
174
     0
 93
        1
 44
0.0
173
     0
291
     0
 45
0.0
1001
ACAD
1000
AcDbSavedByObjectVersion
1070
     0
  0
VISUALSTYLE
  5
32
102
{ACAD_REACTORS
330
2A
102
}
102
{ACAD_XDICTIONARY
360
61A
102
}
330
2A
100
AcDbVisualStyle
  2
Basic
 70
     7
 71
     1
 72
     0
 73
     1
 90
        0
 40
0.6
 41
30.0
 62
     5
 63
     7
421
 16777215
 74
     0
 91
        4
 64
     7
 65
   257
 75
     1
175
     1
 42
1.0
 92
        8
 66
     7
 43
1.0
 76
     1
 77
     6
 78
     2
 67
     7
 79
     5
170
     0
171
     0
290
     0
174
     0
 93
        1
 44
0.0
173
     0
291
     1
 45
0.0
1001
ACAD
1000
AcDbSavedByObjectVersion
1070
     0
  0
VISUALSTYLE
  5
36
102
{ACAD_REACTORS
330
2A
102
}
102
{ACAD_XDICTIONARY
360
622
102
}
330
2A
100
AcDbVisualStyle
  2
Brighten
 70
    12
 71
     2
 72
     2
 73
     0
 90
        0
 40
0.6
 41
30.0
 62
     5
 63
     7
421
 16777215
 74
     1
 91
        4
 64
     7
 65
   257
 75
     1
175
     1
 42
1.0
 92
        8
 66
     7
 43
1.0
 76
     1
 77
     6
 78
     2
 67
     7
 79
     5
170
     0
171
     0
290
     0
174
     0
 93
        1
 44
50.0
173
     0
291
     1
 45
0.0
1001
ACAD
1000
AcDbSavedByObjectVersion
1070
     0
  0
VISUALSTYLE
  5
3A
102
{ACAD_REACTORS
330
2A
102
}
102
{ACAD_XDICTIONARY
360
62A
102
}
330
2A
100
AcDbVisualStyle
  2
ColorChange
 70
    16
 71
     2
 72
     2
 73
     3
 90
        0
 40
0.6
 41
30.0
 62
     5
 63
     8
421
  8421504
 74
     1
 91
        4
 64
     7
 65
   257
 75
     1
175
     1
 42
1.0
 92
        8
 66
     8
424
  8421504
 43
1.0
 76
     1
 77
     6
 78
     2
 67
     7
 79
     5
170
     0
171
     0
290
     0
174
     0
 93
        1
 44
0.0
173
     0
291
     1
 45
0.0
1001
ACAD
1000
AcDbSavedByObjectVersion
1070
     0
  0
VISUALSTYLE
  5
34
102
{ACAD_REACTORS
330
2A
102
}
102
{ACAD_XDICTIONARY
360
61E
102
}
330
2A
100
AcDbVisualStyle
  2
Conceptual
 70
     9
 71
     3
 72
     2
 73
     0
 90
        0
 40
0.6
 41
30.0
 62
     5
 63
     7
421
 16777215
 74
     2
 91
        2
 64
     7
 65
   257
 75
     1
175
     1
 42
179.0
 92
        8
 66
     7
 43
1.0
 76
     1
 77
     6
 78
     2
 67
     7
 79
     3
170
     0
171
     0
290
     0
174
     0
 93
        1
 44
0.0
173
     0
291
     0
 45
0.0
1001
ACAD
1000
AcDbSavedByObjectVersion
1070
     0
  0
VISUALSTYLE
  5
35
102
{ACAD_REACTORS
330
2A
102
}
102
{ACAD_XDICTIONARY
360
620
102
}
330
2A
100
AcDbVisualStyle
  2
Dim
 70
    11
 71
     2
 72
     2
 73
     0
 90
        0
 40
0.6
 41
30.0
 62
     5
 63
     7
421
 16777215
 74
     1
 91
        4
 64
     7
 65
   257
 75
     1
175
     1
 42
1.0
 92
        8
 66
     7
 43
1.0
 76
     1
 77
     6
 78
     2
 67
     7
 79
     5
170
     0
171
     0
290
     0
174
     0
 93
        1
 44
-50.0
173
     0
291
     1
 45
0.0
1001
ACAD
1000
AcDbSavedByObjectVersion
1070
     0
  0
VISUALSTYLE
  5
3D
102
{ACAD_REACTORS
330
2A
102
}
102
{ACAD_XDICTIONARY
360
630
102
}
330
2A
100
AcDbVisualStyle
  2
EdgeColorOff
 70
    22
 71
     2
 72
     2
 73
     0
 90
        0
 40
0.6
 41
30.0
 62
     5
 63
     7
421
 16777215
 74
     1
 91
        4
 64
     7
 65
   257
 75
     1
175
     1
 42
1.0
 92
        8
 66
     7
 43
1.0
 76
     1
 77
     6
 78
     2
 67
     7
 79
     5
170
     0
171
     0
290
     0
174
     0
 93
        1
 44
0.0
173
     0
291
     1
 45
0.0
1001
ACAD
1000
AcDbSavedByObjectVersion
1070
     0
  0
VISUALSTYLE
  5
39
102
{ACAD_REACTORS
330
2A
102
}
102
{ACAD_XDICTIONARY
360
628
102
}
330
2A
100
AcDbVisualStyle
  2
Facepattern
 70
    15
 71
     2
 72
     2
 73
     0
 90
        0
 40
0.6
 41
30.0
 62
     5
 63
     7
421
 16777215
 74
     1
 91
        4
 64
     7
 65
   257
 75
     1
175
     1
 42
1.0
 92
        8
 66
     7
 43
1.0
 76
     1
 77
     6
 78
     2
 67
     7
 79
     5
170
     0
171
     0
290
     0
174
     0
 93
        1
 44
0.0
173
     0
291
     1
 45
0.0
1001
ACAD
1000
AcDbSavedByObjectVersion
1070
     0
  0
VISUALSTYLE
  5
2B
102
{ACAD_REACTORS
330
2A
102
}
102
{ACAD_XDICTIONARY
360
60C
102
}
330
2A
100
AcDbVisualStyle
  2
Flat
 70
     0
 71
     2
 72
     1
 73
     1
 90
        2
 40
0.6
 41
30.0
 62
     5
 63
     7
421
 16777215
 74
     0
 91
        0
 64
     7
 65
   257
 75
     1
175
     1
 42
1.0
 92
        8
 66
     7
 43
1.0
 76
     1
 77
     6
 78
     2
 67
     7
 79
     5
170
     0
171
     0
290
     0
174
     0
 93
       13
 44
0.0
173
     0
291
     1
 45
0.0
1001
ACAD
1000
AcDbSavedByObjectVersion
1070
     0
  0
VISUALSTYLE
  5
2C
102
{ACAD_REACTORS
330
2A
102
}
102
{ACAD_XDICTIONARY
360
60E
102
}
330
2A
100
AcDbVisualStyle
  2
FlatWithEdges
 70
     1
 71
     2
 72
     1
 73
     1
 90
        2
 40
0.6
 41
30.0
 62
     5
 63
     7
421
 16777215
 74
     1
 91
        0
 64
     7
 65
   257
 75
     1
175
     1
 42
1.0
 92
        0
 66
   257
 43
1.0
 76
     1
 77
     6
 78
     2
 67
     7
 79
     5
170
     0
171
     0
290
     0
174
     0
 93
       13
 44
0.0
173
     0
291
     1
 45
0.0
1001
ACAD
1000
AcDbSavedByObjectVersion
1070
     0
  0
VISUALSTYLE
  5
2D
102
{ACAD_REACTORS
330
2A
102
}
102
{ACAD_XDICTIONARY
360
610
102
}
330
2A
100
AcDbVisualStyle
  2
Gouraud
 70
     2
 71
     2
 72
     2
 73
     1
 90
        2
 40
0.6
 41
30.0
 62
     5
 63
     7
421
 16777215
 74
     0
 91
        0
 64
     7
 65
   257
 75
     1
175
     1
 42
1.0
 92
        0
 66
     7
 43
1.0
 76
     1
 77
     6
 78
     2
 67
     7
 79
     5
170
     0
171
     0
290
     0
174
     0
 93
       13
 44
0.0
173
     0
291
     1
 45
0.0
1001
ACAD
1000
AcDbSavedByObjectVersion
1070
     0
  0
VISUALSTYLE
  5
2E
102
{ACAD_REACTORS
330
2A
102
}
102
{ACAD_XDICTIONARY
360
612
102
}
330
2A
100
AcDbVisualStyle
  2
GouraudWithEdges
 70
     3
 71
     2
 72
     2
 73
     1
 90
        2
 40
0.6
 41
30.0
 62
     5
 63
     7
421
 16777215
 74
     1
 91
        0
 64
     7
 65
   257
 75
     1
175
     1
 42
1.0
 92
        0
 66
   257
 43
1.0
 76
     1
 77
     6
 78
     2
 67
     7
 79
     5
170
     0
171
     0
290
     0
174
     0
 93
       13
 44
0.0
173
     0
291
     1
 45
0.0
1001
ACAD
1000
AcDbSavedByObjectVersion
1070
     0
  0
VISUALSTYLE
  5
31
102
{ACAD_REACTORS
330
2A
102
}
102
{ACAD_XDICTIONARY
360
618
102
}
330
2A
100
AcDbVisualStyle
  2
Hidden
 70
     6
 71
     1
 72
     2
 73
     2
 90
        0
 40
0.6
 41
30.0
 62
     5
 63
     7
421
 16777215
 74
     2
 91
        2
 64
     7
 65
   257
 75
     2
175
     1
 42
40.0
 92
        0
 66
   257
 43
1.0
 76
     1
 77
     6
 78
     2
 67
     7
 79
     3
170
     0
171
     0
290
     0
174
     0
 93
        1
 44
0.0
173
     0
291
     0
 45
0.0
1001
ACAD
1000
AcDbSavedByObjectVersion
1070
     0
  0
VISUALSTYLE
  5
3B
102
{ACAD_REACTORS
330
2A
102
}
102
{ACAD_XDICTIONARY
360
62C
102
}
330
2A
100
AcDbVisualStyle
  2
JitterOff
 70
    20
 71
     2
 72
     2
 73
     0
 90
        0
 40
0.6
 41
30.0
 62
     5
 63
     7
421
 16777215
 74
     1
 91
        4
 64
     7
 65
   257
 75
     1
175
     1
 42
1.0
 92
       10
 66
     7
 43
1.0
 76
     1
 77
     6
 78
     2
 67
     7
 79
     5
170
     0
171
     0
290
     0
174
     0
 93
        1
 44
0.0
173
     0
291
     1
 45
0.0
1001
ACAD
1000
AcDbSavedByObjectVersion
1070
     0
  0
VISUALSTYLE
  5
38
102
{ACAD_REACTORS
330
2A
102
}
102
{ACAD_XDICTIONARY
360
626
102
}
330
2A
100
AcDbVisualStyle
  2
Linepattern
 70
    14
 71
     2
 72
     2
 73
     0
 90
        0
 40
0.6
 41
30.0
 62
     5
 63
     7
421
 16777215
 74
     1
 91
        4
 64
     7
 65
   257
 75
     7
175
     7
 42
1.0
 92
        8
 66
     7
 43
1.0
 76
     1
 77
     6
 78
     2
 67
     7
 79
     5
170
     0
171
     0
290
     0
174
     0
 93
        1
 44
0.0
173
     0
291
     1
 45
0.0
1001
ACAD
1000
AcDbSavedByObjectVersion
1070
     0
  0
VISUALSTYLE
  5
3C
102
{ACAD_REACTORS
330
2A
102
}
102
{ACAD_XDICTIONARY
360
62E
102
}
330
2A
100
AcDbVisualStyle
  2
OverhangOff
 70
    21
 71
     2
 72
     2
 73
     0
 90
        0
 40
0.6
 41
30.0
 62
     5
 63
     7
421
 16777215
 74
     1
 91
        4
 64
     7
 65
   257
 75
     1
175
     1
 42
1.0
 92
        9
 66
     7
 43
1.0
 76
     1
 77
     6
 78
     2
 67
     7
 79
     5
170
     0
171
     0
290
     0
174
     0
 93
        1
 44
0.0
173
     0
291
     1
 45
0.0
1001
ACAD
1000
AcDbSavedByObjectVersion
1070
     0
  0
VISUALSTYLE
  5
33
102
{ACAD_REACTORS
330
2A
102
}
102
{ACAD_XDICTIONARY
360
61C
102
}
330
2A
100
AcDbVisualStyle
  2
Realistic
 70
     8
 71
     2
 72
     3
 73
     0
 90
        2
 40
0.6
 41
30.0
 62
     5
 63
     7
421
 16777215
 74
     0
 91
        0
 64
     7
 65
   257
 75
     1
175
     1
 42
1.0
 92
        8
 66
   257
 43
1.0
 76
     1
 77
     6
 78
     2
 67
     7
 79
     3
170
     0
171
     0
290
     0
174
     0
 93
       13
 44
0.0
173
     0
291
     0
 45
0.0
1001
ACAD
1000
AcDbSavedByObjectVersion
1070
     0
  0
VISUALSTYLE
  5
42
102
{ACAD_REACTORS
330
2A
102
}
102
{ACAD_XDICTIONARY
360
63A
102
}
330
2A
100
AcDbVisualStyle
  2
Shaded
 70
    27
 71
     2
 72
     2
 73
     1
 90
        2
 40
0.6
 41
30.0
 62
     5
 63
     7
421
 16777215
 74
     0
 91
        4
 64
     7
 65
   257
 75
     1
175
     1
 42
1.0
 92
        8
 66
   257
 43
1.0
 76
     1
 77
     6
 78
     2
 67
     8
425
  7895160
 79
     3
170
     0
171
     0
290
     0
174
     0
 93
        5
 44
0.0
173
     0
291
     0
 45
0.0
1001
ACAD
1000
AcDbSavedByObjectVersion
1070
     0
  0
VISUALSTYLE
  5
41
102
{ACAD_REACTORS
330
2A
102
}
102
{ACAD_XDICTIONARY
360
638
102
}
330
2A
100
AcDbVisualStyle
  2
Shaded with edges
 70
    26
 71
     2
 72
     2
 73
     1
 90
        2
 40
0.6
 41
30.0
 62
     5
 63
     7
421
 16777215
 74
     1
 91
       10
 64
     7
 65
   257
 75
     2
175
     1
 42
1.0
 92
        8
 66
   257
 43
1.0
 76
     1
 77
     6
 78
     2
 67
     7
 79
     3
170
     0
171
     0
290
     0
174
     0
 93
        5
 44
0.0
173
     0
291
     0
 45
0.0
1001
ACAD
1000
AcDbSavedByObjectVersion
1070
     0
  0
VISUALSTYLE
  5
3E
102
{ACAD_REACTORS
330
2A
102
}
102
{ACAD_XDICTIONARY
360
632
102
}
330
2A
100
AcDbVisualStyle
  2
Shades of Gray
 70
    23
 71
     2
 72
     2
 73
     3
 90
        0
 40
0.6
 41
30.0
 62
     5
 63
     7
421
 16777215
 74
     2
 91
        2
 64
     7
 65
     7
 75
     1
175
     1
 42
40.0
 92
        8
 66
     7
 43
1.0
 76
     1
 77
     6
 78
     2
 67
     7
 79
     3
170
     0
171
     0
290
     0
174
     0
 93
        1
 44
0.0
173
     0
291
     0
 45
0.0
1001
ACAD
1000
AcDbSavedByObjectVersion
1070
     0
  0
VISUALSTYLE
  5
3F
102
{ACAD_REACTORS
330
2A
102
}
102
{ACAD_XDICTIONARY
360
634
102
}
330
2A
100
AcDbVisualStyle
  2
Sketchy
 70
    24
 71
     1
 72
     2
 73
     2
 90
        0
 40
0.6
 41
30.0
 62
     5
 63
     7
421
 16777215
 74
     2
 91
        2
 64
     7
 65
     7
 75
     1
175
     1
 42
40.0
 92
       11
 66
     7
 43
1.0
 76
     1
 77
     6
 78
     2
 67
     7
 79
     6
170
     0
171
     0
290
     0
174
     0
 93
        1
 44
0.0
173
     0
291
     0
 45
0.0
1001
ACAD
1000
AcDbSavedByObjectVersion
1070
     0
  0
VISUALSTYLE
  5
37
102
{ACAD_REACTORS
330
2A
102
}
102
{ACAD_XDICTIONARY
360
624
102
}
330
2A
100
AcDbVisualStyle
  2
Thicken
 70
    13
 71
     2
 72
     2
 73
     0
 90
        0
 40
0.6
 41
30.0
 62
     5
 63
     7
421
 16777215
 74
     1
 91
        4
 64
     7
 65
   257
 75
     1
175
     1
 42
1.0
 92
       12
 66
     7
 43
1.0
 76
     1
 77
     6
 78
     2
 67
     7
 79
     5
170
     0
171
     0
290
     0
174
     0
 93
        1
 44
0.0
173
     0
291
     1
 45
0.0
1001
ACAD
1000
AcDbSavedByObjectVersion
1070
     0
  0
VISUALSTYLE
  5
30
102
{ACAD_REACTORS
330
2A
102
}
102
{ACAD_XDICTIONARY
360
616
102
}
330
2A
100
AcDbVisualStyle
  2
Wireframe
 70
     5
 71
     0
 72
     2
 73
     0
 90
        0
 40
0.6
 41
30.0
 62
     5
 63
     7
421
 16777215
 74
     1
 91
        4
 64
     7
 65
   257
 75
     1
175
     1
 42
1.0
 92
        0
 66
   257
 43
1.0
 76
     1
 77
     6
 78
     2
 67
     7
 79
     3
170
     0
171
     0
290
     0
174
     0
 93
        1
 44
0.0
173
     0
291
     0
 45
0.0
1001
ACAD
1000
AcDbSavedByObjectVersion
1070
     0
  0
VISUALSTYLE
  5
40
102
{ACAD_REACTORS
330
2A
102
}
102
{ACAD_XDICTIONARY
360
636
102
}
330
2A
100
AcDbVisualStyle
  2
X-Ray
 70
    25
 71
     2
 72
     2
 73
     1
 90
        1
 40
0.5
 41
30.0
 62
     5
 63
     7
421
 16777215
 74
     1
 91
        0
 64
     7
 65
   257
 75
     1
175
     1
 42
1.0
 92
        8
 66
     7
 43
1.0
 76
     1
 77
     6
 78
     2
 67
     7
 79
     3
170
     0
171
     0
290
     0
174
     0
 93
       13
 44
0.0
173
     0
291
     0
 45
0.0
1001
ACAD
1000
AcDbSavedByObjectVersion
1070
     0
  0
DICTIONARYVAR
  5
609
102
{ACAD_REACTORS
330
608
102
}
330
608
100
DictionaryVariables
280
     0
  1
1:1
  0
DICTIONARYVAR
  5
64A
102
{ACAD_REACTORS
330
608
102
}
330
608
100
DictionaryVariables
280
     0
  1
Standard
  0
DICTIONARYVAR
  5
649
102
{ACAD_REACTORS
330
608
102
}
330
608
100
DictionaryVariables
280
     0
  1
Standard
  0
DICTIONARYVAR
  5
60A
102
{ACAD_REACTORS
330
608
102
}
330
608
100
DictionaryVariables
280
     0
  1
1
  0
DICTIONARYVAR
  5
60B
102
{ACAD_REACTORS
330
608
102
}
330
608
100
DictionaryVariables
280
     0
  1
2
  0
DICTIONARY
  5
63E
330
45
100
AcDbDictionary
280
     1
281
     1
  3
ACAD_XREC_ROUNDTRIP
360
63F
  0
DICTIONARY
  5
63C
330
44
100
AcDbDictionary
280
     1
281
     1
  3
ACAD_XREC_ROUNDTRIP
360
63D
  0
DICTIONARY
  5
640
330
46
100
AcDbDictionary
280
     1
281
     1
  3
ACAD_XREC_ROUNDTRIP
360
641
  0
DICTIONARY
  5
646
330
6C
100
AcDbDictionary
280
     1
281
     1
  3
ACAD_XREC_ROUNDTRIP
360
647
  0
DICTIONARY
  5
642
330
6A
100
AcDbDictionary
280
     1
281
     1
  3
ACAD_ROUNDTRIP_2008_TABLESTYLE_CELLSTYLEMAP
360
644
  3
ACAD_XREC_ROUNDTRIP
360
643
  0
DICTIONARY
  5
614
330
2F
100
AcDbDictionary
280
     1
281
     1
  3
ACAD_XREC_ROUNDTRIP
360
615
  0
DICTIONARY
  5
61A
330
32
100
AcDbDictionary
280
     1
281
     1
  3
ACAD_XREC_ROUNDTRIP
360
61B
  0
DICTIONARY
  5
622
330
36
100
AcDbDictionary
280
     1
281
     1
  3
ACAD_XREC_ROUNDTRIP
360
623
  0
DICTIONARY
  5
62A
330
3A
100
AcDbDictionary
280
     1
281
     1
  3
ACAD_XREC_ROUNDTRIP
360
62B
  0
DICTIONARY
  5
61E
330
34
100
AcDbDictionary
280
     1
281
     1
  3
ACAD_XREC_ROUNDTRIP
360
61F
  0
DICTIONARY
  5
620
330
35
100
AcDbDictionary
280
     1
281
     1
  3
ACAD_XREC_ROUNDTRIP
360
621
  0
DICTIONARY
  5
630
330
3D
100
AcDbDictionary
280
     1
281
     1
  3
ACAD_XREC_ROUNDTRIP
360
631
  0
DICTIONARY
  5
628
330
39
100
AcDbDictionary
280
     1
281
     1
  3
ACAD_XREC_ROUNDTRIP
360
629
  0
DICTIONARY
  5
60C
330
2B
100
AcDbDictionary
280
     1
281
     1
  3
ACAD_XREC_ROUNDTRIP
360
60D
  0
DICTIONARY
  5
60E
330
2C
100
AcDbDictionary
280
     1
281
     1
  3
ACAD_XREC_ROUNDTRIP
360
60F
  0
DICTIONARY
  5
610
330
2D
100
AcDbDictionary
280
     1
281
     1
  3
ACAD_XREC_ROUNDTRIP
360
611
  0
DICTIONARY
  5
612
330
2E
100
AcDbDictionary
280
     1
281
     1
  3
ACAD_XREC_ROUNDTRIP
360
613
  0
DICTIONARY
  5
618
330
31
100
AcDbDictionary
280
     1
281
     1
  3
ACAD_XREC_ROUNDTRIP
360
619
  0
DICTIONARY
  5
62C
330
3B
100
AcDbDictionary
280
     1
281
     1
  3
ACAD_XREC_ROUNDTRIP
360
62D
  0
DICTIONARY
  5
626
330
38
100
AcDbDictionary
280
     1
281
     1
  3
ACAD_XREC_ROUNDTRIP
360
627
  0
DICTIONARY
  5
62E
330
3C
100
AcDbDictionary
280
     1
281
     1
  3
ACAD_XREC_ROUNDTRIP
360
62F
  0
DICTIONARY
  5
61C
330
33
100
AcDbDictionary
280
     1
281
     1
  3
ACAD_XREC_ROUNDTRIP
360
61D
  0
DICTIONARY
  5
63A
330
42
100
AcDbDictionary
280
     1
281
     1
  3
ACAD_XREC_ROUNDTRIP
360
63B
  0
DICTIONARY
  5
638
330
41
100
AcDbDictionary
280
     1
281
     1
  3
ACAD_XREC_ROUNDTRIP
360
639
  0
DICTIONARY
  5
632
330
3E
100
AcDbDictionary
280
     1
281
     1
  3
ACAD_XREC_ROUNDTRIP
360
633
  0
DICTIONARY
  5
634
330
3F
100
AcDbDictionary
280
     1
281
     1
  3
ACAD_XREC_ROUNDTRIP
360
635
  0
DICTIONARY
  5
624
330
37
100
AcDbDictionary
280
     1
281
     1
  3
ACAD_XREC_ROUNDTRIP
360
625
  0
DICTIONARY
  5
616
330
30
100
AcDbDictionary
280
     1
281
     1
  3
ACAD_XREC_ROUNDTRIP
360
617
  0
DICTIONARY
  5
636
330
40
100
AcDbDictionary
280
     1
281
     1
  3
ACAD_XREC_ROUNDTRIP
360
637
  0
XRECORD
  5
63F
102
{ACAD_REACTORS
330
63E
102
}
330
63E
100
AcDbXrecord
280
     1
102
MATERIAL
148
0.0
149
0.0
149
0.0
 93
        0
 94
      127
282
     0
 72
     1
 77
     1
171
     1
175
     1
179
     1
273
     0
  0
XRECORD
  5
63D
102
{ACAD_REACTORS
330
63C
102
}
330
63C
100
AcDbXrecord
280
     1
102
MATERIAL
148
0.0
149
0.0
149
0.0
 93
        0
 94
      127
282
     0
 72
     1
 77
     1
171
     1
175
     1
179
     1
273
     0
  0
XRECORD
  5
641
102
{ACAD_REACTORS
330
640
102
}
330
640
100
AcDbXrecord
280
     1
102
MATERIAL
148
0.0
149
0.0
149
0.0
 93
        0
 94
      127
282
     0
 72
     1
 77
     1
171
     1
175
     1
179
     1
273
     0
  0
XRECORD
  5
647
102
{ACAD_REACTORS
330
646
102
}
330
646
100
AcDbXrecord
280
     1
102
ACAD_ROUNDTRIP_2010_MLEADER_STYLE
  0
CELLSTYLEMAP
  5
644
102
{ACAD_REACTORS
330
642
102
}
330
642
100
AcDbCellStyleMap
 90
        3
300
CELLSTYLE
  1
TABLEFORMAT_BEGIN
 90
        5
170
     1
 91
        0
 92
    32768
 62
   257
 93
        1
300
CONTENTFORMAT
  1
CONTENTFORMAT_BEGIN
 90
        0
 91
        0
 92
        4
 93
        0
300

 40
0.0
140
1.0
 94
        5
 62
     0
340
11
144
0.25
309
CONTENTFORMAT_END
171
     1
301
MARGIN
  1
CELLMARGIN_BEGIN
 40
0.06
 40
0.06
 40
0.06
 40
0.06
 40
0.06
 40
0.06
309
CELLMARGIN_END
 94
        6
 95
        1
302
GRIDFORMAT
  1
GRIDFORMAT_BEGIN
 90
        0
 91
        1
 62
     0
 92
       -2
340
14
 93
        0
 40
0.045
309
GRIDFORMAT_END
 95
        2
302
GRIDFORMAT
  1
GRIDFORMAT_BEGIN
 90
        0
 91
        1
 62
     0
 92
       -2
340
14
 93
        0
 40
0.045
309
GRIDFORMAT_END
 95
        4
302
GRIDFORMAT
  1
GRIDFORMAT_BEGIN
 90
        0
 91
        1
 62
     0
 92
       -2
340
14
 93
        0
 40
0.045
309
GRIDFORMAT_END
 95
        8
302
GRIDFORMAT
  1
GRIDFORMAT_BEGIN
 90
        0
 91
        1
 62
     0
 92
       -2
340
14
 93
        0
 40
0.045
309
GRIDFORMAT_END
 95
       16
302
GRIDFORMAT
  1
GRIDFORMAT_BEGIN
 90
        0
 91
        1
 62
     0
 92
       -2
340
14
 93
        0
 40
0.045
309
GRIDFORMAT_END
 95
       32
302
GRIDFORMAT
  1
GRIDFORMAT_BEGIN
 90
        0
 91
        1
 62
     0
 92
       -2
340
14
 93
        0
 40
0.045
309
GRIDFORMAT_END
309
TABLEFORMAT_END
  1
CELLSTYLE_BEGIN
 90
        1
 91
        1
300
_TITLE
309
CELLSTYLE_END
300
CELLSTYLE
  1
TABLEFORMAT_BEGIN
 90
        5
170
     1
 91
        0
 92
        0
 62
   257
 93
        1
300
CONTENTFORMAT
  1
CONTENTFORMAT_BEGIN
 90
        0
 91
        0
 92
        4
 93
        0
300

 40
0.0
140
1.0
 94
        5
 62
     0
340
11
144
0.18
309
CONTENTFORMAT_END
171
     1
301
MARGIN
  1
CELLMARGIN_BEGIN
 40
0.06
 40
0.06
 40
0.06
 40
0.06
 40
0.06
 40
0.06
309
CELLMARGIN_END
 94
        6
 95
        1
302
GRIDFORMAT
  1
GRIDFORMAT_BEGIN
 90
        0
 91
        1
 62
     0
 92
       -2
340
14
 93
        0
 40
0.045
309
GRIDFORMAT_END
 95
        2
302
GRIDFORMAT
  1
GRIDFORMAT_BEGIN
 90
        0
 91
        1
 62
     0
 92
       -2
340
14
 93
        0
 40
0.045
309
GRIDFORMAT_END
 95
        4
302
GRIDFORMAT
  1
GRIDFORMAT_BEGIN
 90
        0
 91
        1
 62
     0
 92
       -2
340
14
 93
        0
 40
0.045
309
GRIDFORMAT_END
 95
        8
302
GRIDFORMAT
  1
GRIDFORMAT_BEGIN
 90
        0
 91
        1
 62
     0
 92
       -2
340
14
 93
        0
 40
0.045
309
GRIDFORMAT_END
 95
       16
302
GRIDFORMAT
  1
GRIDFORMAT_BEGIN
 90
        0
 91
        1
 62
     0
 92
       -2
340
14
 93
        0
 40
0.045
309
GRIDFORMAT_END
 95
       32
302
GRIDFORMAT
  1
GRIDFORMAT_BEGIN
 90
        0
 91
        1
 62
     0
 92
       -2
340
14
 93
        0
 40
0.045
309
GRIDFORMAT_END
309
TABLEFORMAT_END
  1
CELLSTYLE_BEGIN
 90
        2
 91
        1
300
_HEADER
309
CELLSTYLE_END
300
CELLSTYLE
  1
TABLEFORMAT_BEGIN
 90
        5
170
     1
 91
        0
 92
        0
 62
   257
 93
        1
300
CONTENTFORMAT
  1
CONTENTFORMAT_BEGIN
 90
        0
 91
        0
 92
        4
 93
        0
300

 40
0.0
140
1.0
 94
        2
 62
     0
340
11
144
0.18
309
CONTENTFORMAT_END
171
     1
301
MARGIN
  1
CELLMARGIN_BEGIN
 40
0.06
 40
0.06
 40
0.06
 40
0.06
 40
0.06
 40
0.06
309
CELLMARGIN_END
 94
        6
 95
        1
302
GRIDFORMAT
  1
GRIDFORMAT_BEGIN
 90
        0
 91
        1
 62
     0
 92
       -2
340
14
 93
        0
 40
0.045
309
GRIDFORMAT_END
 95
        2
302
GRIDFORMAT
  1
GRIDFORMAT_BEGIN
 90
        0
 91
        1
 62
     0
 92
       -2
340
14
 93
        0
 40
0.045
309
GRIDFORMAT_END
 95
        4
302
GRIDFORMAT
  1
GRIDFORMAT_BEGIN
 90
        0
 91
        1
 62
     0
 92
       -2
340
14
 93
        0
 40
0.045
309
GRIDFORMAT_END
 95
        8
302
GRIDFORMAT
  1
GRIDFORMAT_BEGIN
 90
        0
 91
        1
 62
     0
 92
       -2
340
14
 93
        0
 40
0.045
309
GRIDFORMAT_END
 95
       16
302
GRIDFORMAT
  1
GRIDFORMAT_BEGIN
 90
        0
 91
        1
 62
     0
 92
       -2
340
14
 93
        0
 40
0.045
309
GRIDFORMAT_END
 95
       32
302
GRIDFORMAT
  1
GRIDFORMAT_BEGIN
 90
        0
 91
        1
 62
     0
 92
       -2
340
14
 93
        0
 40
0.045
309
GRIDFORMAT_END
309
TABLEFORMAT_END
  1
CELLSTYLE_BEGIN
 90
        3
 91
        2
300
_DATA
309
CELLSTYLE_END
  0
XRECORD
  5
643
102
{ACAD_REACTORS
330
642
102
}
330
642
100
AcDbXrecord
280
     1
102
ACAD_ROUNDTRIP_PRE2007_TABLESTYLE
 90
        4
 91
        0
  1

 92
        4
 93
        0
  2

 94
        4
 95
        0
  3

  0
XRECORD
  5
615
102
{ACAD_REACTORS
330
614
102
}
330
614
100
AcDbXrecord
280
     1
102
RTVSPropertyOp0
 70
     1
102
RTVSPropertyOp1
 70
     1
102
RTVSPropertyOp2
 70
     1
102
RTVSPropertyOp3
 70
     1
102
RTVSPropertyOp4
 70
     1
102
RTVSPropertyOp5
 70
     1
102
RTVSPropertyOp6
 70
     1
102
RTVSPropertyOp7
 70
     1
102
RTVSPropertyOp8
 70
     1
102
RTVSPropertyOp9
 70
     1
102
RTVSPropertyOp10
 70
     1
102
RTVSPropertyOp11
 70
     1
102
RTVSPropertyOp12
 70
     1
102
RTVSPropertyOp13
 70
     1
102
RTVSPropertyOp14
 70
     1
102
RTVSPropertyOp15
 70
     1
102
RTVSPropertyOp16
 70
     1
102
RTVSPropertyOp17
 70
     1
102
RTVSPropertyOp18
 70
     1
102
RTVSPropertyOp19
 70
     1
102
RTVSPropertyOp20
 70
     1
102
RTVSPropertyOp21
 70
     1
102
RTVSPropertyOp22
 70
     1
102
RTVSPropertyOp23
 70
     1
102
RTVSPropertyOp24
 70
     1
102
RTVSPropertyOp25
 70
     1
102
RTVSPropertyOp26
 70
     1
102
RTVSPropertyOp27
 70
     1
102
RTVSPropertyOp28
 70
     1
102
RTVSPropertyOp29
 70
     1
102
RTVSPropertyOp30
 70
     1
102
RTVSPropertyOp31
 70
     1
102
RTVSPropertyOp32
 70
     1
102
RTVSPropertyOp33
 70
     1
102
RTVSPropertyOp34
 70
     1
102
RTVSPropertyOp35
 70
     1
102
RTVSPropertyOp36
 70
     1
102
RTVSPropertyOp37
 70
     1
102
RTVSPropertyOp38
 70
     1
102
RTVSPropertyOp39
 70
     1
102
RTVSPropertyOp40
 70
     1
102
RTVSPropertyOp41
 70
     1
102
RTVSPropertyOp42
 70
     1
102
RTVSPropertyOp43
 70
     1
102
RTVSPropertyOp44
 70
     1
102
RTVSPropertyOp45
 70
     1
102
RTVSPropertyOp46
 70
     1
102
RTVSPropertyOp47
 70
     1
102
RTVSPropertyOp48
 70
     1
102
RTVSPropertyOp49
 70
     1
102
RTVSPropertyOp50
 70
     1
102
RTVSPropertyOp51
 70
     0
102
RTVSPropertyOp52
 70
     0
102
RTVSPropertyOp53
 70
     1
102
RTVSPropertyOp54
 70
     1
102
RTVSPropertyOp55
 70
     1
102
RTVSPropertyOp56
 70
     1
102
RTVSPropertyOp57
 70
     1
102
RTVSPost2010Prop28
280
     1
102
RTVSPost2010PropOp28
 70
     1
102
RTVSPost2010Prop29
280
     1
102
RTVSPost2010PropOp29
 70
     1
102
RTVSPost2010Prop30
280
     0
102
RTVSPost2010PropOp30
 70
     1
102
RTVSPost2010Prop31
280
     0
102
RTVSPost2010PropOp31
 70
     1
102
RTVSPost2010Prop32
280
     0
102
RTVSPost2010PropOp32
 70
     1
102
RTVSPost2010Prop33
280
     0
102
RTVSPost2010PropOp33
 70
     1
102
RTVSPost2010Prop34
280
     0
102
RTVSPost2010PropOp34
 70
     1
102
RTVSPost2010Prop35
280
     0
102
RTVSPost2010PropOp35
 70
     1
102
RTVSPost2010Prop36
280
     0
102
RTVSPost2010PropOp36
 70
     1
102
RTVSPost2010Prop37
 90
       50
102
RTVSPost2010PropOp37
 70
     1
102
RTVSPost2010Prop38
140
0.0
102
RTVSPost2010PropOp38
 70
     1
102
RTVSPost2010Prop39
140
1.0
102
RTVSPost2010PropOp39
 70
     1
102
RTVSPost2010Prop40
 90
        0
102
RTVSPost2010PropOp40
 70
     1
102
RTVSPost2010Prop41ColorIndex
 90
       18
102
RTVSPost2010Prop41ColorRGB
 90
        0
102
RTVSPost2010PropOp41
 70
     1
102
RTVSPost2010Prop42
 90
       50
102
RTVSPost2010PropOp42
 70
     1
102
RTVSPost2010Prop43
 90
        3
102
RTVSPost2010PropOp43
 70
     1
102
RTVSPost2010Prop44ColorIndex
 90
        5
102
RTVSPost2010Prop44ColorRGB
 90
      255
102
RTVSPost2010PropOp44
 70
     1
102
RTVSPost2010Prop45
280
     0
102
RTVSPost2010PropOp45
 70
     1
102
RTVSPost2010Prop46
 90
       50
102
RTVSPost2010PropOp46
 70
     1
102
RTVSPost2010Prop47
 90
       50
102
RTVSPost2010PropOp47
 70
     1
102
RTVSPost2010Prop48
 90
       50
102
RTVSPost2010PropOp48
 70
     1
102
RTVSPost2010Prop49
280
     0
102
RTVSPost2010PropOp49
 70
     1
102
RTVSPost2010Prop50
 90
       50
102
RTVSPost2010PropOp50
 70
     1
102
RTVSPost2010Prop51ColorIndex
 90
      256
102
RTVSPost2010Prop51ColorRGB
 90
-16777216
102
RTVSPost2010PropOp51
 70
     0
102
RTVSPost2010Prop52
140
1.0
102
RTVSPost2010PropOp52
 70
     0
102
RTVSPost2010Prop53
 90
        2
102
RTVSPost2010PropOp53
 70
     1
102
RTVSPost2010Prop54
  1
strokes_ogs.tif
102
RTVSPost2010PropOp54
 70
     1
102
RTVSPost2010Prop55
280
     0
102
RTVSPost2010PropOp55
 70
     1
102
RTVSPost2010Prop56
140
1.0
102
RTVSPost2010PropOp56
 70
     1
102
RTVSPost2010Prop57
140
1.0
102
RTVSPost2010PropOp57
 70
     1
  0
XRECORD
  5
61B
102
{ACAD_REACTORS
330
61A
102
}
330
61A
100
AcDbXrecord
280
     1
102
RTVSPropertyOp0
 70
     1
102
RTVSPropertyOp1
 70
     1
102
RTVSPropertyOp2
 70
     1
102
RTVSPropertyOp3
 70
     1
102
RTVSPropertyOp4
 70
     1
102
RTVSPropertyOp5
 70
     1
102
RTVSPropertyOp6
 70
     1
102
RTVSPropertyOp7
 70
     1
102
RTVSPropertyOp8
 70
     1
102
RTVSPropertyOp9
 70
     1
102
RTVSPropertyOp10
 70
     1
102
RTVSPropertyOp11
 70
     1
102
RTVSPropertyOp12
 70
     1
102
RTVSPropertyOp13
 70
     1
102
RTVSPropertyOp14
 70
     1
102
RTVSPropertyOp15
 70
     1
102
RTVSPropertyOp16
 70
     1
102
RTVSPropertyOp17
 70
     1
102
RTVSPropertyOp18
 70
     1
102
RTVSPropertyOp19
 70
     1
102
RTVSPropertyOp20
 70
     1
102
RTVSPropertyOp21
 70
     1
102
RTVSPropertyOp22
 70
     1
102
RTVSPropertyOp23
 70
     1
102
RTVSPropertyOp24
 70
     1
102
RTVSPropertyOp25
 70
     1
102
RTVSPropertyOp26
 70
     1
102
RTVSPropertyOp27
 70
     1
102
RTVSPropertyOp28
 70
     1
102
RTVSPropertyOp29
 70
     1
102
RTVSPropertyOp30
 70
     1
102
RTVSPropertyOp31
 70
     1
102
RTVSPropertyOp32
 70
     1
102
RTVSPropertyOp33
 70
     1
102
RTVSPropertyOp34
 70
     1
102
RTVSPropertyOp35
 70
     1
102
RTVSPropertyOp36
 70
     1
102
RTVSPropertyOp37
 70
     1
102
RTVSPropertyOp38
 70
     1
102
RTVSPropertyOp39
 70
     1
102
RTVSPropertyOp40
 70
     1
102
RTVSPropertyOp41
 70
     1
102
RTVSPropertyOp42
 70
     1
102
RTVSPropertyOp43
 70
     1
102
RTVSPropertyOp44
 70
     1
102
RTVSPropertyOp45
 70
     1
102
RTVSPropertyOp46
 70
     1
102
RTVSPropertyOp47
 70
     1
102
RTVSPropertyOp48
 70
     1
102
RTVSPropertyOp49
 70
     1
102
RTVSPropertyOp50
 70
     1
102
RTVSPropertyOp51
 70
     0
102
RTVSPropertyOp52
 70
     0
102
RTVSPropertyOp53
 70
     1
102
RTVSPropertyOp54
 70
     1
102
RTVSPropertyOp55
 70
     1
102
RTVSPropertyOp56
 70
     1
102
RTVSPropertyOp57
 70
     1
102
RTVSPost2010Prop28
280
     0
102
RTVSPost2010PropOp28
 70
     1
102
RTVSPost2010Prop29
280
     1
102
RTVSPost2010PropOp29
 70
     1
102
RTVSPost2010Prop30
280
     1
102
RTVSPost2010PropOp30
 70
     1
102
RTVSPost2010Prop31
280
     0
102
RTVSPost2010PropOp31
 70
     1
102
RTVSPost2010Prop32
280
     0
102
RTVSPost2010PropOp32
 70
     1
102
RTVSPost2010Prop33
280
     0
102
RTVSPost2010PropOp33
 70
     1
102
RTVSPost2010Prop34
280
     0
102
RTVSPost2010PropOp34
 70
     1
102
RTVSPost2010Prop35
280
     0
102
RTVSPost2010PropOp35
 70
     1
102
RTVSPost2010Prop36
280
     0
102
RTVSPost2010PropOp36
 70
     1
102
RTVSPost2010Prop37
 90
       50
102
RTVSPost2010PropOp37
 70
     1
102
RTVSPost2010Prop38
140
0.0
102
RTVSPost2010PropOp38
 70
     1
102
RTVSPost2010Prop39
140
1.0
102
RTVSPost2010PropOp39
 70
     1
102
RTVSPost2010Prop40
 90
        0
102
RTVSPost2010PropOp40
 70
     1
102
RTVSPost2010Prop41ColorIndex
 90
       18
102
RTVSPost2010Prop41ColorRGB
 90
        0
102
RTVSPost2010PropOp41
 70
     1
102
RTVSPost2010Prop42
 90
       50
102
RTVSPost2010PropOp42
 70
     1
102
RTVSPost2010Prop43
 90
        3
102
RTVSPost2010PropOp43
 70
     1
102
RTVSPost2010Prop44ColorIndex
 90
        5
102
RTVSPost2010Prop44ColorRGB
 90
      255
102
RTVSPost2010PropOp44
 70
     1
102
RTVSPost2010Prop45
280
     0
102
RTVSPost2010PropOp45
 70
     1
102
RTVSPost2010Prop46
 90
       50
102
RTVSPost2010PropOp46
 70
     1
102
RTVSPost2010Prop47
 90
       50
102
RTVSPost2010PropOp47
 70
     1
102
RTVSPost2010Prop48
 90
       50
102
RTVSPost2010PropOp48
 70
     1
102
RTVSPost2010Prop49
280
     0
102
RTVSPost2010PropOp49
 70
     1
102
RTVSPost2010Prop50
 90
       50
102
RTVSPost2010PropOp50
 70
     1
102
RTVSPost2010Prop51ColorIndex
 90
      256
102
RTVSPost2010Prop51ColorRGB
 90
-16777216
102
RTVSPost2010PropOp51
 70
     0
102
RTVSPost2010Prop52
140
1.0
102
RTVSPost2010PropOp52
 70
     0
102
RTVSPost2010Prop53
 90
        2
102
RTVSPost2010PropOp53
 70
     1
102
RTVSPost2010Prop54
  1
strokes_ogs.tif
102
RTVSPost2010PropOp54
 70
     1
102
RTVSPost2010Prop55
280
     0
102
RTVSPost2010PropOp55
 70
     1
102
RTVSPost2010Prop56
140
1.0
102
RTVSPost2010PropOp56
 70
     1
102
RTVSPost2010Prop57
140
1.0
102
RTVSPost2010PropOp57
 70
     1
  0
XRECORD
  5
623
102
{ACAD_REACTORS
330
622
102
}
330
622
100
AcDbXrecord
280
     1
102
RTVSPropertyOp0
 70
     1
102
RTVSPropertyOp1
 70
     1
102
RTVSPropertyOp2
 70
     1
102
RTVSPropertyOp3
 70
     1
102
RTVSPropertyOp4
 70
     1
102
RTVSPropertyOp5
 70
     1
102
RTVSPropertyOp6
 70
     1
102
RTVSPropertyOp7
 70
     1
102
RTVSPropertyOp8
 70
     1
102
RTVSPropertyOp9
 70
     1
102
RTVSPropertyOp10
 70
     1
102
RTVSPropertyOp11
 70
     1
102
RTVSPropertyOp12
 70
     1
102
RTVSPropertyOp13
 70
     1
102
RTVSPropertyOp14
 70
     1
102
RTVSPropertyOp15
 70
     1
102
RTVSPropertyOp16
 70
     1
102
RTVSPropertyOp17
 70
     1
102
RTVSPropertyOp18
 70
     1
102
RTVSPropertyOp19
 70
     1
102
RTVSPropertyOp20
 70
     1
102
RTVSPropertyOp21
 70
     1
102
RTVSPropertyOp22
 70
     1
102
RTVSPropertyOp23
 70
     1
102
RTVSPropertyOp24
 70
     1
102
RTVSPropertyOp25
 70
     1
102
RTVSPropertyOp26
 70
     1
102
RTVSPropertyOp27
 70
     1
102
RTVSPropertyOp28
 70
     1
102
RTVSPropertyOp29
 70
     1
102
RTVSPropertyOp30
 70
     1
102
RTVSPropertyOp31
 70
     1
102
RTVSPropertyOp32
 70
     1
102
RTVSPropertyOp33
 70
     1
102
RTVSPropertyOp34
 70
     1
102
RTVSPropertyOp35
 70
     1
102
RTVSPropertyOp36
 70
     1
102
RTVSPropertyOp37
 70
     1
102
RTVSPropertyOp38
 70
     1
102
RTVSPropertyOp39
 70
     1
102
RTVSPropertyOp40
 70
     1
102
RTVSPropertyOp41
 70
     1
102
RTVSPropertyOp42
 70
     1
102
RTVSPropertyOp43
 70
     1
102
RTVSPropertyOp44
 70
     1
102
RTVSPropertyOp45
 70
     1
102
RTVSPropertyOp46
 70
     1
102
RTVSPropertyOp47
 70
     1
102
RTVSPropertyOp48
 70
     1
102
RTVSPropertyOp49
 70
     1
102
RTVSPropertyOp50
 70
     1
102
RTVSPropertyOp51
 70
     0
102
RTVSPropertyOp52
 70
     0
102
RTVSPropertyOp53
 70
     1
102
RTVSPropertyOp54
 70
     1
102
RTVSPropertyOp55
 70
     1
102
RTVSPropertyOp56
 70
     1
102
RTVSPropertyOp57
 70
     1
102
RTVSPost2010Prop28
280
     0
102
RTVSPost2010PropOp28
 70
     1
102
RTVSPost2010Prop29
280
     1
102
RTVSPost2010PropOp29
 70
     1
102
RTVSPost2010Prop30
280
     1
102
RTVSPost2010PropOp30
 70
     1
102
RTVSPost2010Prop31
280
     0
102
RTVSPost2010PropOp31
 70
     1
102
RTVSPost2010Prop32
280
     0
102
RTVSPost2010PropOp32
 70
     1
102
RTVSPost2010Prop33
280
     0
102
RTVSPost2010PropOp33
 70
     1
102
RTVSPost2010Prop34
280
     0
102
RTVSPost2010PropOp34
 70
     1
102
RTVSPost2010Prop35
280
     0
102
RTVSPost2010PropOp35
 70
     1
102
RTVSPost2010Prop36
280
     0
102
RTVSPost2010PropOp36
 70
     1
102
RTVSPost2010Prop37
 90
       50
102
RTVSPost2010PropOp37
 70
     1
102
RTVSPost2010Prop38
140
0.0
102
RTVSPost2010PropOp38
 70
     1
102
RTVSPost2010Prop39
140
1.0
102
RTVSPost2010PropOp39
 70
     1
102
RTVSPost2010Prop40
 90
        0
102
RTVSPost2010PropOp40
 70
     1
102
RTVSPost2010Prop41ColorIndex
 90
       18
102
RTVSPost2010Prop41ColorRGB
 90
        0
102
RTVSPost2010PropOp41
 70
     1
102
RTVSPost2010Prop42
 90
       50
102
RTVSPost2010PropOp42
 70
     1
102
RTVSPost2010Prop43
 90
        3
102
RTVSPost2010PropOp43
 70
     1
102
RTVSPost2010Prop44ColorIndex
 90
        5
102
RTVSPost2010Prop44ColorRGB
 90
      255
102
RTVSPost2010PropOp44
 70
     1
102
RTVSPost2010Prop45
280
     0
102
RTVSPost2010PropOp45
 70
     1
102
RTVSPost2010Prop46
 90
       50
102
RTVSPost2010PropOp46
 70
     1
102
RTVSPost2010Prop47
 90
       50
102
RTVSPost2010PropOp47
 70
     1
102
RTVSPost2010Prop48
 90
       50
102
RTVSPost2010PropOp48
 70
     1
102
RTVSPost2010Prop49
280
     0
102
RTVSPost2010PropOp49
 70
     1
102
RTVSPost2010Prop50
 90
       50
102
RTVSPost2010PropOp50
 70
     1
102
RTVSPost2010Prop51ColorIndex
 90
      256
102
RTVSPost2010Prop51ColorRGB
 90
-16777216
102
RTVSPost2010PropOp51
 70
     0
102
RTVSPost2010Prop52
140
1.0
102
RTVSPost2010PropOp52
 70
     0
102
RTVSPost2010Prop53
 90
        2
102
RTVSPost2010PropOp53
 70
     1
102
RTVSPost2010Prop54
  1
strokes_ogs.tif
102
RTVSPost2010PropOp54
 70
     1
102
RTVSPost2010Prop55
280
     0
102
RTVSPost2010PropOp55
 70
     1
102
RTVSPost2010Prop56
140
1.0
102
RTVSPost2010PropOp56
 70
     1
102
RTVSPost2010Prop57
140
1.0
102
RTVSPost2010PropOp57
 70
     1
  0
XRECORD
  5
62B
102
{ACAD_REACTORS
330
62A
102
}
330
62A
100
AcDbXrecord
280
     1
102
RTVSPropertyOp0
 70
     1
102
RTVSPropertyOp1
 70
     1
102
RTVSPropertyOp2
 70
     1
102
RTVSPropertyOp3
 70
     1
102
RTVSPropertyOp4
 70
     1
102
RTVSPropertyOp5
 70
     1
102
RTVSPropertyOp6
 70
     1
102
RTVSPropertyOp7
 70
     1
102
RTVSPropertyOp8
 70
     1
102
RTVSPropertyOp9
 70
     1
102
RTVSPropertyOp10
 70
     1
102
RTVSPropertyOp11
 70
     1
102
RTVSPropertyOp12
 70
     1
102
RTVSPropertyOp13
 70
     1
102
RTVSPropertyOp14
 70
     1
102
RTVSPropertyOp15
 70
     1
102
RTVSPropertyOp16
 70
     1
102
RTVSPropertyOp17
 70
     1
102
RTVSPropertyOp18
 70
     1
102
RTVSPropertyOp19
 70
     1
102
RTVSPropertyOp20
 70
     1
102
RTVSPropertyOp21
 70
     1
102
RTVSPropertyOp22
 70
     1
102
RTVSPropertyOp23
 70
     1
102
RTVSPropertyOp24
 70
     1
102
RTVSPropertyOp25
 70
     1
102
RTVSPropertyOp26
 70
     1
102
RTVSPropertyOp27
 70
     1
102
RTVSPropertyOp28
 70
     1
102
RTVSPropertyOp29
 70
     1
102
RTVSPropertyOp30
 70
     1
102
RTVSPropertyOp31
 70
     1
102
RTVSPropertyOp32
 70
     1
102
RTVSPropertyOp33
 70
     1
102
RTVSPropertyOp34
 70
     1
102
RTVSPropertyOp35
 70
     1
102
RTVSPropertyOp36
 70
     1
102
RTVSPropertyOp37
 70
     1
102
RTVSPropertyOp38
 70
     1
102
RTVSPropertyOp39
 70
     1
102
RTVSPropertyOp40
 70
     1
102
RTVSPropertyOp41
 70
     1
102
RTVSPropertyOp42
 70
     1
102
RTVSPropertyOp43
 70
     1
102
RTVSPropertyOp44
 70
     1
102
RTVSPropertyOp45
 70
     1
102
RTVSPropertyOp46
 70
     1
102
RTVSPropertyOp47
 70
     1
102
RTVSPropertyOp48
 70
     1
102
RTVSPropertyOp49
 70
     1
102
RTVSPropertyOp50
 70
     1
102
RTVSPropertyOp51
 70
     0
102
RTVSPropertyOp52
 70
     0
102
RTVSPropertyOp53
 70
     1
102
RTVSPropertyOp54
 70
     1
102
RTVSPropertyOp55
 70
     1
102
RTVSPropertyOp56
 70
     1
102
RTVSPropertyOp57
 70
     1
102
RTVSPost2010Prop28
280
     0
102
RTVSPost2010PropOp28
 70
     1
102
RTVSPost2010Prop29
280
     1
102
RTVSPost2010PropOp29
 70
     1
102
RTVSPost2010Prop30
280
     1
102
RTVSPost2010PropOp30
 70
     1
102
RTVSPost2010Prop31
280
     0
102
RTVSPost2010PropOp31
 70
     1
102
RTVSPost2010Prop32
280
     0
102
RTVSPost2010PropOp32
 70
     1
102
RTVSPost2010Prop33
280
     0
102
RTVSPost2010PropOp33
 70
     1
102
RTVSPost2010Prop34
280
     0
102
RTVSPost2010PropOp34
 70
     1
102
RTVSPost2010Prop35
280
     0
102
RTVSPost2010PropOp35
 70
     1
102
RTVSPost2010Prop36
280
     0
102
RTVSPost2010PropOp36
 70
     1
102
RTVSPost2010Prop37
 90
       50
102
RTVSPost2010PropOp37
 70
     1
102
RTVSPost2010Prop38
140
0.0
102
RTVSPost2010PropOp38
 70
     1
102
RTVSPost2010Prop39
140
1.0
102
RTVSPost2010PropOp39
 70
     1
102
RTVSPost2010Prop40
 90
        0
102
RTVSPost2010PropOp40
 70
     1
102
RTVSPost2010Prop41ColorIndex
 90
       18
102
RTVSPost2010Prop41ColorRGB
 90
        0
102
RTVSPost2010PropOp41
 70
     1
102
RTVSPost2010Prop42
 90
       50
102
RTVSPost2010PropOp42
 70
     1
102
RTVSPost2010Prop43
 90
        3
102
RTVSPost2010PropOp43
 70
     1
102
RTVSPost2010Prop44ColorIndex
 90
        5
102
RTVSPost2010Prop44ColorRGB
 90
      255
102
RTVSPost2010PropOp44
 70
     1
102
RTVSPost2010Prop45
280
     0
102
RTVSPost2010PropOp45
 70
     1
102
RTVSPost2010Prop46
 90
       50
102
RTVSPost2010PropOp46
 70
     1
102
RTVSPost2010Prop47
 90
       50
102
RTVSPost2010PropOp47
 70
     1
102
RTVSPost2010Prop48
 90
       50
102
RTVSPost2010PropOp48
 70
     1
102
RTVSPost2010Prop49
280
     0
102
RTVSPost2010PropOp49
 70
     1
102
RTVSPost2010Prop50
 90
       50
102
RTVSPost2010PropOp50
 70
     1
102
RTVSPost2010Prop51ColorIndex
 90
      256
102
RTVSPost2010Prop51ColorRGB
 90
-16777216
102
RTVSPost2010PropOp51
 70
     0
102
RTVSPost2010Prop52
140
1.0
102
RTVSPost2010PropOp52
 70
     0
102
RTVSPost2010Prop53
 90
        2
102
RTVSPost2010PropOp53
 70
     1
102
RTVSPost2010Prop54
  1
strokes_ogs.tif
102
RTVSPost2010PropOp54
 70
     1
102
RTVSPost2010Prop55
280
     0
102
RTVSPost2010PropOp55
 70
     1
102
RTVSPost2010Prop56
140
1.0
102
RTVSPost2010PropOp56
 70
     1
102
RTVSPost2010Prop57
140
1.0
102
RTVSPost2010PropOp57
 70
     1
  0
XRECORD
  5
61F
102
{ACAD_REACTORS
330
61E
102
}
330
61E
100
AcDbXrecord
280
     1
102
RTVSPropertyOp0
 70
     1
102
RTVSPropertyOp1
 70
     1
102
RTVSPropertyOp2
 70
     1
102
RTVSPropertyOp3
 70
     1
102
RTVSPropertyOp4
 70
     1
102
RTVSPropertyOp5
 70
     1
102
RTVSPropertyOp6
 70
     1
102
RTVSPropertyOp7
 70
     1
102
RTVSPropertyOp8
 70
     1
102
RTVSPropertyOp9
 70
     1
102
RTVSPropertyOp10
 70
     1
102
RTVSPropertyOp11
 70
     1
102
RTVSPropertyOp12
 70
     1
102
RTVSPropertyOp13
 70
     1
102
RTVSPropertyOp14
 70
     1
102
RTVSPropertyOp15
 70
     1
102
RTVSPropertyOp16
 70
     1
102
RTVSPropertyOp17
 70
     1
102
RTVSPropertyOp18
 70
     1
102
RTVSPropertyOp19
 70
     1
102
RTVSPropertyOp20
 70
     1
102
RTVSPropertyOp21
 70
     1
102
RTVSPropertyOp22
 70
     1
102
RTVSPropertyOp23
 70
     1
102
RTVSPropertyOp24
 70
     1
102
RTVSPropertyOp25
 70
     1
102
RTVSPropertyOp26
 70
     1
102
RTVSPropertyOp27
 70
     1
102
RTVSPropertyOp28
 70
     1
102
RTVSPropertyOp29
 70
     1
102
RTVSPropertyOp30
 70
     1
102
RTVSPropertyOp31
 70
     1
102
RTVSPropertyOp32
 70
     1
102
RTVSPropertyOp33
 70
     1
102
RTVSPropertyOp34
 70
     1
102
RTVSPropertyOp35
 70
     1
102
RTVSPropertyOp36
 70
     1
102
RTVSPropertyOp37
 70
     1
102
RTVSPropertyOp38
 70
     1
102
RTVSPropertyOp39
 70
     1
102
RTVSPropertyOp40
 70
     1
102
RTVSPropertyOp41
 70
     1
102
RTVSPropertyOp42
 70
     1
102
RTVSPropertyOp43
 70
     1
102
RTVSPropertyOp44
 70
     1
102
RTVSPropertyOp45
 70
     1
102
RTVSPropertyOp46
 70
     1
102
RTVSPropertyOp47
 70
     1
102
RTVSPropertyOp48
 70
     1
102
RTVSPropertyOp49
 70
     1
102
RTVSPropertyOp50
 70
     1
102
RTVSPropertyOp51
 70
     0
102
RTVSPropertyOp52
 70
     0
102
RTVSPropertyOp53
 70
     1
102
RTVSPropertyOp54
 70
     1
102
RTVSPropertyOp55
 70
     1
102
RTVSPropertyOp56
 70
     1
102
RTVSPropertyOp57
 70
     1
102
RTVSPost2010Prop28
280
     0
102
RTVSPost2010PropOp28
 70
     1
102
RTVSPost2010Prop29
280
     1
102
RTVSPost2010PropOp29
 70
     1
102
RTVSPost2010Prop30
280
     1
102
RTVSPost2010PropOp30
 70
     1
102
RTVSPost2010Prop31
280
     0
102
RTVSPost2010PropOp31
 70
     1
102
RTVSPost2010Prop32
280
     0
102
RTVSPost2010PropOp32
 70
     1
102
RTVSPost2010Prop33
280
     0
102
RTVSPost2010PropOp33
 70
     1
102
RTVSPost2010Prop34
280
     0
102
RTVSPost2010PropOp34
 70
     1
102
RTVSPost2010Prop35
280
     0
102
RTVSPost2010PropOp35
 70
     1
102
RTVSPost2010Prop36
280
     0
102
RTVSPost2010PropOp36
 70
     1
102
RTVSPost2010Prop37
 90
       50
102
RTVSPost2010PropOp37
 70
     1
102
RTVSPost2010Prop38
140
0.0
102
RTVSPost2010PropOp38
 70
     1
102
RTVSPost2010Prop39
140
1.0
102
RTVSPost2010PropOp39
 70
     1
102
RTVSPost2010Prop40
 90
        0
102
RTVSPost2010PropOp40
 70
     1
102
RTVSPost2010Prop41ColorIndex
 90
       18
102
RTVSPost2010Prop41ColorRGB
 90
        0
102
RTVSPost2010PropOp41
 70
     1
102
RTVSPost2010Prop42
 90
       50
102
RTVSPost2010PropOp42
 70
     1
102
RTVSPost2010Prop43
 90
        3
102
RTVSPost2010PropOp43
 70
     1
102
RTVSPost2010Prop44ColorIndex
 90
        5
102
RTVSPost2010Prop44ColorRGB
 90
      255
102
RTVSPost2010PropOp44
 70
     1
102
RTVSPost2010Prop45
280
     0
102
RTVSPost2010PropOp45
 70
     1
102
RTVSPost2010Prop46
 90
       50
102
RTVSPost2010PropOp46
 70
     1
102
RTVSPost2010Prop47
 90
       50
102
RTVSPost2010PropOp47
 70
     1
102
RTVSPost2010Prop48
 90
       50
102
RTVSPost2010PropOp48
 70
     1
102
RTVSPost2010Prop49
280
     0
102
RTVSPost2010PropOp49
 70
     1
102
RTVSPost2010Prop50
 90
       50
102
RTVSPost2010PropOp50
 70
     1
102
RTVSPost2010Prop51ColorIndex
 90
      256
102
RTVSPost2010Prop51ColorRGB
 90
-16777216
102
RTVSPost2010PropOp51
 70
     0
102
RTVSPost2010Prop52
140
1.0
102
RTVSPost2010PropOp52
 70
     0
102
RTVSPost2010Prop53
 90
        2
102
RTVSPost2010PropOp53
 70
     1
102
RTVSPost2010Prop54
  1
strokes_ogs.tif
102
RTVSPost2010PropOp54
 70
     1
102
RTVSPost2010Prop55
280
     0
102
RTVSPost2010PropOp55
 70
     1
102
RTVSPost2010Prop56
140
1.0
102
RTVSPost2010PropOp56
 70
     1
102
RTVSPost2010Prop57
140
1.0
102
RTVSPost2010PropOp57
 70
     1
  0
XRECORD
  5
621
102
{ACAD_REACTORS
330
620
102
}
330
620
100
AcDbXrecord
280
     1
102
RTVSPropertyOp0
 70
     1
102
RTVSPropertyOp1
 70
     1
102
RTVSPropertyOp2
 70
     1
102
RTVSPropertyOp3
 70
     1
102
RTVSPropertyOp4
 70
     1
102
RTVSPropertyOp5
 70
     1
102
RTVSPropertyOp6
 70
     1
102
RTVSPropertyOp7
 70
     1
102
RTVSPropertyOp8
 70
     1
102
RTVSPropertyOp9
 70
     1
102
RTVSPropertyOp10
 70
     1
102
RTVSPropertyOp11
 70
     1
102
RTVSPropertyOp12
 70
     1
102
RTVSPropertyOp13
 70
     1
102
RTVSPropertyOp14
 70
     1
102
RTVSPropertyOp15
 70
     1
102
RTVSPropertyOp16
 70
     1
102
RTVSPropertyOp17
 70
     1
102
RTVSPropertyOp18
 70
     1
102
RTVSPropertyOp19
 70
     1
102
RTVSPropertyOp20
 70
     1
102
RTVSPropertyOp21
 70
     1
102
RTVSPropertyOp22
 70
     1
102
RTVSPropertyOp23
 70
     1
102
RTVSPropertyOp24
 70
     1
102
RTVSPropertyOp25
 70
     1
102
RTVSPropertyOp26
 70
     1
102
RTVSPropertyOp27
 70
     1
102
RTVSPropertyOp28
 70
     1
102
RTVSPropertyOp29
 70
     1
102
RTVSPropertyOp30
 70
     1
102
RTVSPropertyOp31
 70
     1
102
RTVSPropertyOp32
 70
     1
102
RTVSPropertyOp33
 70
     1
102
RTVSPropertyOp34
 70
     1
102
RTVSPropertyOp35
 70
     1
102
RTVSPropertyOp36
 70
     1
102
RTVSPropertyOp37
 70
     1
102
RTVSPropertyOp38
 70
     1
102
RTVSPropertyOp39
 70
     1
102
RTVSPropertyOp40
 70
     1
102
RTVSPropertyOp41
 70
     1
102
RTVSPropertyOp42
 70
     1
102
RTVSPropertyOp43
 70
     1
102
RTVSPropertyOp44
 70
     1
102
RTVSPropertyOp45
 70
     1
102
RTVSPropertyOp46
 70
     1
102
RTVSPropertyOp47
 70
     1
102
RTVSPropertyOp48
 70
     1
102
RTVSPropertyOp49
 70
     1
102
RTVSPropertyOp50
 70
     1
102
RTVSPropertyOp51
 70
     0
102
RTVSPropertyOp52
 70
     0
102
RTVSPropertyOp53
 70
     1
102
RTVSPropertyOp54
 70
     1
102
RTVSPropertyOp55
 70
     1
102
RTVSPropertyOp56
 70
     1
102
RTVSPropertyOp57
 70
     1
102
RTVSPost2010Prop28
280
     0
102
RTVSPost2010PropOp28
 70
     1
102
RTVSPost2010Prop29
280
     1
102
RTVSPost2010PropOp29
 70
     1
102
RTVSPost2010Prop30
280
     1
102
RTVSPost2010PropOp30
 70
     1
102
RTVSPost2010Prop31
280
     0
102
RTVSPost2010PropOp31
 70
     1
102
RTVSPost2010Prop32
280
     0
102
RTVSPost2010PropOp32
 70
     1
102
RTVSPost2010Prop33
280
     0
102
RTVSPost2010PropOp33
 70
     1
102
RTVSPost2010Prop34
280
     0
102
RTVSPost2010PropOp34
 70
     1
102
RTVSPost2010Prop35
280
     0
102
RTVSPost2010PropOp35
 70
     1
102
RTVSPost2010Prop36
280
     0
102
RTVSPost2010PropOp36
 70
     1
102
RTVSPost2010Prop37
 90
       50
102
RTVSPost2010PropOp37
 70
     1
102
RTVSPost2010Prop38
140
0.0
102
RTVSPost2010PropOp38
 70
     1
102
RTVSPost2010Prop39
140
1.0
102
RTVSPost2010PropOp39
 70
     1
102
RTVSPost2010Prop40
 90
        0
102
RTVSPost2010PropOp40
 70
     1
102
RTVSPost2010Prop41ColorIndex
 90
       18
102
RTVSPost2010Prop41ColorRGB
 90
        0
102
RTVSPost2010PropOp41
 70
     1
102
RTVSPost2010Prop42
 90
       50
102
RTVSPost2010PropOp42
 70
     1
102
RTVSPost2010Prop43
 90
        3
102
RTVSPost2010PropOp43
 70
     1
102
RTVSPost2010Prop44ColorIndex
 90
        5
102
RTVSPost2010Prop44ColorRGB
 90
      255
102
RTVSPost2010PropOp44
 70
     1
102
RTVSPost2010Prop45
280
     0
102
RTVSPost2010PropOp45
 70
     1
102
RTVSPost2010Prop46
 90
       50
102
RTVSPost2010PropOp46
 70
     1
102
RTVSPost2010Prop47
 90
       50
102
RTVSPost2010PropOp47
 70
     1
102
RTVSPost2010Prop48
 90
       50
102
RTVSPost2010PropOp48
 70
     1
102
RTVSPost2010Prop49
280
     0
102
RTVSPost2010PropOp49
 70
     1
102
RTVSPost2010Prop50
 90
       50
102
RTVSPost2010PropOp50
 70
     1
102
RTVSPost2010Prop51ColorIndex
 90
      256
102
RTVSPost2010Prop51ColorRGB
 90
-16777216
102
RTVSPost2010PropOp51
 70
     0
102
RTVSPost2010Prop52
140
1.0
102
RTVSPost2010PropOp52
 70
     0
102
RTVSPost2010Prop53
 90
        2
102
RTVSPost2010PropOp53
 70
     1
102
RTVSPost2010Prop54
  1
strokes_ogs.tif
102
RTVSPost2010PropOp54
 70
     1
102
RTVSPost2010Prop55
280
     0
102
RTVSPost2010PropOp55
 70
     1
102
RTVSPost2010Prop56
140
1.0
102
RTVSPost2010PropOp56
 70
     1
102
RTVSPost2010Prop57
140
1.0
102
RTVSPost2010PropOp57
 70
     1
  0
XRECORD
  5
631
102
{ACAD_REACTORS
330
630
102
}
330
630
100
AcDbXrecord
280
     1
102
RTVSPropertyOp0
 70
     0
102
RTVSPropertyOp1
 70
     0
102
RTVSPropertyOp2
 70
     0
102
RTVSPropertyOp3
 70
     0
102
RTVSPropertyOp4
 70
     0
102
RTVSPropertyOp5
 70
     0
102
RTVSPropertyOp6
 70
     0
102
RTVSPropertyOp7
 70
     0
102
RTVSPropertyOp8
 70
     0
102
RTVSPropertyOp9
 70
     0
102
RTVSPropertyOp10
 70
     0
102
RTVSPropertyOp11
 70
     0
102
RTVSPropertyOp12
 70
     0
102
RTVSPropertyOp13
 70
     0
102
RTVSPropertyOp14
 70
     2
102
RTVSPropertyOp15
 70
     0
102
RTVSPropertyOp16
 70
     0
102
RTVSPropertyOp17
 70
     0
102
RTVSPropertyOp18
 70
     0
102
RTVSPropertyOp19
 70
     0
102
RTVSPropertyOp20
 70
     0
102
RTVSPropertyOp21
 70
     0
102
RTVSPropertyOp22
 70
     0
102
RTVSPropertyOp23
 70
     0
102
RTVSPropertyOp24
 70
     0
102
RTVSPropertyOp25
 70
     0
102
RTVSPropertyOp26
 70
     0
102
RTVSPropertyOp27
 70
     0
102
RTVSPropertyOp28
 70
     0
102
RTVSPropertyOp29
 70
     0
102
RTVSPropertyOp30
 70
     0
102
RTVSPropertyOp31
 70
     0
102
RTVSPropertyOp32
 70
     0
102
RTVSPropertyOp33
 70
     0
102
RTVSPropertyOp34
 70
     0
102
RTVSPropertyOp35
 70
     0
102
RTVSPropertyOp36
 70
     0
102
RTVSPropertyOp37
 70
     0
102
RTVSPropertyOp38
 70
     0
102
RTVSPropertyOp39
 70
     0
102
RTVSPropertyOp40
 70
     0
102
RTVSPropertyOp41
 70
     0
102
RTVSPropertyOp42
 70
     0
102
RTVSPropertyOp43
 70
     0
102
RTVSPropertyOp44
 70
     0
102
RTVSPropertyOp45
 70
     0
102
RTVSPropertyOp46
 70
     0
102
RTVSPropertyOp47
 70
     0
102
RTVSPropertyOp48
 70
     0
102
RTVSPropertyOp49
 70
     0
102
RTVSPropertyOp50
 70
     0
102
RTVSPropertyOp51
 70
     0
102
RTVSPropertyOp52
 70
     0
102
RTVSPropertyOp53
 70
     0
102
RTVSPropertyOp54
 70
     0
102
RTVSPropertyOp55
 70
     0
102
RTVSPropertyOp56
 70
     0
102
RTVSPropertyOp57
 70
     0
102
RTVSPost2010Prop28
280
     0
102
RTVSPost2010PropOp28
 70
     0
102
RTVSPost2010Prop29
280
     1
102
RTVSPost2010PropOp29
 70
     0
102
RTVSPost2010Prop30
280
     1
102
RTVSPost2010PropOp30
 70
     0
102
RTVSPost2010Prop31
280
     0
102
RTVSPost2010PropOp31
 70
     0
102
RTVSPost2010Prop32
280
     0
102
RTVSPost2010PropOp32
 70
     0
102
RTVSPost2010Prop33
280
     0
102
RTVSPost2010PropOp33
 70
     0
102
RTVSPost2010Prop34
280
     0
102
RTVSPost2010PropOp34
 70
     0
102
RTVSPost2010Prop35
280
     0
102
RTVSPost2010PropOp35
 70
     0
102
RTVSPost2010Prop36
280
     0
102
RTVSPost2010PropOp36
 70
     0
102
RTVSPost2010Prop37
 90
       50
102
RTVSPost2010PropOp37
 70
     0
102
RTVSPost2010Prop38
140
0.0
102
RTVSPost2010PropOp38
 70
     0
102
RTVSPost2010Prop39
140
1.0
102
RTVSPost2010PropOp39
 70
     0
102
RTVSPost2010Prop40
 90
        0
102
RTVSPost2010PropOp40
 70
     0
102
RTVSPost2010Prop41ColorIndex
 90
       18
102
RTVSPost2010Prop41ColorRGB
 90
        0
102
RTVSPost2010PropOp41
 70
     0
102
RTVSPost2010Prop42
 90
       50
102
RTVSPost2010PropOp42
 70
     0
102
RTVSPost2010Prop43
 90
        3
102
RTVSPost2010PropOp43
 70
     0
102
RTVSPost2010Prop44ColorIndex
 90
        5
102
RTVSPost2010Prop44ColorRGB
 90
      255
102
RTVSPost2010PropOp44
 70
     0
102
RTVSPost2010Prop45
280
     0
102
RTVSPost2010PropOp45
 70
     0
102
RTVSPost2010Prop46
 90
       50
102
RTVSPost2010PropOp46
 70
     0
102
RTVSPost2010Prop47
 90
       50
102
RTVSPost2010PropOp47
 70
     0
102
RTVSPost2010Prop48
 90
       50
102
RTVSPost2010PropOp48
 70
     0
102
RTVSPost2010Prop49
280
     0
102
RTVSPost2010PropOp49
 70
     0
102
RTVSPost2010Prop50
 90
       50
102
RTVSPost2010PropOp50
 70
     0
102
RTVSPost2010Prop51ColorIndex
 90
      256
102
RTVSPost2010Prop51ColorRGB
 90
-16777216
102
RTVSPost2010PropOp51
 70
     0
102
RTVSPost2010Prop52
140
1.0
102
RTVSPost2010PropOp52
 70
     0
102
RTVSPost2010Prop53
 90
        2
102
RTVSPost2010PropOp53
 70
     0
102
RTVSPost2010Prop54
  1
strokes_ogs.tif
102
RTVSPost2010PropOp54
 70
     0
102
RTVSPost2010Prop55
280
     0
102
RTVSPost2010PropOp55
 70
     0
102
RTVSPost2010Prop56
140
1.0
102
RTVSPost2010PropOp56
 70
     0
102
RTVSPost2010Prop57
140
1.0
102
RTVSPost2010PropOp57
 70
     0
  0
XRECORD
  5
629
102
{ACAD_REACTORS
330
628
102
}
330
628
100
AcDbXrecord
280
     1
102
RTVSPropertyOp0
 70
     1
102
RTVSPropertyOp1
 70
     1
102
RTVSPropertyOp2
 70
     1
102
RTVSPropertyOp3
 70
     1
102
RTVSPropertyOp4
 70
     1
102
RTVSPropertyOp5
 70
     1
102
RTVSPropertyOp6
 70
     1
102
RTVSPropertyOp7
 70
     1
102
RTVSPropertyOp8
 70
     1
102
RTVSPropertyOp9
 70
     1
102
RTVSPropertyOp10
 70
     1
102
RTVSPropertyOp11
 70
     1
102
RTVSPropertyOp12
 70
     1
102
RTVSPropertyOp13
 70
     1
102
RTVSPropertyOp14
 70
     1
102
RTVSPropertyOp15
 70
     1
102
RTVSPropertyOp16
 70
     1
102
RTVSPropertyOp17
 70
     1
102
RTVSPropertyOp18
 70
     1
102
RTVSPropertyOp19
 70
     1
102
RTVSPropertyOp20
 70
     1
102
RTVSPropertyOp21
 70
     1
102
RTVSPropertyOp22
 70
     1
102
RTVSPropertyOp23
 70
     1
102
RTVSPropertyOp24
 70
     1
102
RTVSPropertyOp25
 70
     1
102
RTVSPropertyOp26
 70
     1
102
RTVSPropertyOp27
 70
     1
102
RTVSPropertyOp28
 70
     1
102
RTVSPropertyOp29
 70
     1
102
RTVSPropertyOp30
 70
     1
102
RTVSPropertyOp31
 70
     1
102
RTVSPropertyOp32
 70
     1
102
RTVSPropertyOp33
 70
     1
102
RTVSPropertyOp34
 70
     1
102
RTVSPropertyOp35
 70
     1
102
RTVSPropertyOp36
 70
     1
102
RTVSPropertyOp37
 70
     1
102
RTVSPropertyOp38
 70
     1
102
RTVSPropertyOp39
 70
     1
102
RTVSPropertyOp40
 70
     1
102
RTVSPropertyOp41
 70
     1
102
RTVSPropertyOp42
 70
     1
102
RTVSPropertyOp43
 70
     1
102
RTVSPropertyOp44
 70
     1
102
RTVSPropertyOp45
 70
     1
102
RTVSPropertyOp46
 70
     1
102
RTVSPropertyOp47
 70
     1
102
RTVSPropertyOp48
 70
     1
102
RTVSPropertyOp49
 70
     1
102
RTVSPropertyOp50
 70
     1
102
RTVSPropertyOp51
 70
     0
102
RTVSPropertyOp52
 70
     0
102
RTVSPropertyOp53
 70
     1
102
RTVSPropertyOp54
 70
     1
102
RTVSPropertyOp55
 70
     1
102
RTVSPropertyOp56
 70
     1
102
RTVSPropertyOp57
 70
     1
102
RTVSPost2010Prop28
280
     0
102
RTVSPost2010PropOp28
 70
     1
102
RTVSPost2010Prop29
280
     1
102
RTVSPost2010PropOp29
 70
     1
102
RTVSPost2010Prop30
280
     1
102
RTVSPost2010PropOp30
 70
     1
102
RTVSPost2010Prop31
280
     0
102
RTVSPost2010PropOp31
 70
     1
102
RTVSPost2010Prop32
280
     0
102
RTVSPost2010PropOp32
 70
     1
102
RTVSPost2010Prop33
280
     0
102
RTVSPost2010PropOp33
 70
     1
102
RTVSPost2010Prop34
280
     0
102
RTVSPost2010PropOp34
 70
     1
102
RTVSPost2010Prop35
280
     0
102
RTVSPost2010PropOp35
 70
     1
102
RTVSPost2010Prop36
280
     0
102
RTVSPost2010PropOp36
 70
     1
102
RTVSPost2010Prop37
 90
       50
102
RTVSPost2010PropOp37
 70
     1
102
RTVSPost2010Prop38
140
0.0
102
RTVSPost2010PropOp38
 70
     1
102
RTVSPost2010Prop39
140
1.0
102
RTVSPost2010PropOp39
 70
     1
102
RTVSPost2010Prop40
 90
        0
102
RTVSPost2010PropOp40
 70
     1
102
RTVSPost2010Prop41ColorIndex
 90
       18
102
RTVSPost2010Prop41ColorRGB
 90
        0
102
RTVSPost2010PropOp41
 70
     1
102
RTVSPost2010Prop42
 90
       50
102
RTVSPost2010PropOp42
 70
     1
102
RTVSPost2010Prop43
 90
        3
102
RTVSPost2010PropOp43
 70
     1
102
RTVSPost2010Prop44ColorIndex
 90
        5
102
RTVSPost2010Prop44ColorRGB
 90
      255
102
RTVSPost2010PropOp44
 70
     1
102
RTVSPost2010Prop45
280
     0
102
RTVSPost2010PropOp45
 70
     1
102
RTVSPost2010Prop46
 90
       50
102
RTVSPost2010PropOp46
 70
     1
102
RTVSPost2010Prop47
 90
       50
102
RTVSPost2010PropOp47
 70
     1
102
RTVSPost2010Prop48
 90
       50
102
RTVSPost2010PropOp48
 70
     1
102
RTVSPost2010Prop49
280
     0
102
RTVSPost2010PropOp49
 70
     1
102
RTVSPost2010Prop50
 90
       50
102
RTVSPost2010PropOp50
 70
     1
102
RTVSPost2010Prop51ColorIndex
 90
      256
102
RTVSPost2010Prop51ColorRGB
 90
-16777216
102
RTVSPost2010PropOp51
 70
     0
102
RTVSPost2010Prop52
140
1.0
102
RTVSPost2010PropOp52
 70
     0
102
RTVSPost2010Prop53
 90
        2
102
RTVSPost2010PropOp53
 70
     1
102
RTVSPost2010Prop54
  1
strokes_ogs.tif
102
RTVSPost2010PropOp54
 70
     1
102
RTVSPost2010Prop55
280
     0
102
RTVSPost2010PropOp55
 70
     1
102
RTVSPost2010Prop56
140
1.0
102
RTVSPost2010PropOp56
 70
     1
102
RTVSPost2010Prop57
140
1.0
102
RTVSPost2010PropOp57
 70
     1
  0
XRECORD
  5
60D
102
{ACAD_REACTORS
330
60C
102
}
330
60C
100
AcDbXrecord
280
     1
102
RTVSPropertyOp0
 70
     1
102
RTVSPropertyOp1
 70
     1
102
RTVSPropertyOp2
 70
     1
102
RTVSPropertyOp3
 70
     1
102
RTVSPropertyOp4
 70
     1
102
RTVSPropertyOp5
 70
     1
102
RTVSPropertyOp6
 70
     1
102
RTVSPropertyOp7
 70
     1
102
RTVSPropertyOp8
 70
     1
102
RTVSPropertyOp9
 70
     1
102
RTVSPropertyOp10
 70
     1
102
RTVSPropertyOp11
 70
     1
102
RTVSPropertyOp12
 70
     1
102
RTVSPropertyOp13
 70
     1
102
RTVSPropertyOp14
 70
     1
102
RTVSPropertyOp15
 70
     1
102
RTVSPropertyOp16
 70
     1
102
RTVSPropertyOp17
 70
     1
102
RTVSPropertyOp18
 70
     1
102
RTVSPropertyOp19
 70
     1
102
RTVSPropertyOp20
 70
     1
102
RTVSPropertyOp21
 70
     1
102
RTVSPropertyOp22
 70
     1
102
RTVSPropertyOp23
 70
     1
102
RTVSPropertyOp24
 70
     1
102
RTVSPropertyOp25
 70
     1
102
RTVSPropertyOp26
 70
     1
102
RTVSPropertyOp27
 70
     1
102
RTVSPropertyOp28
 70
     1
102
RTVSPropertyOp29
 70
     1
102
RTVSPropertyOp30
 70
     1
102
RTVSPropertyOp31
 70
     1
102
RTVSPropertyOp32
 70
     1
102
RTVSPropertyOp33
 70
     1
102
RTVSPropertyOp34
 70
     1
102
RTVSPropertyOp35
 70
     1
102
RTVSPropertyOp36
 70
     1
102
RTVSPropertyOp37
 70
     1
102
RTVSPropertyOp38
 70
     1
102
RTVSPropertyOp39
 70
     1
102
RTVSPropertyOp40
 70
     1
102
RTVSPropertyOp41
 70
     1
102
RTVSPropertyOp42
 70
     1
102
RTVSPropertyOp43
 70
     1
102
RTVSPropertyOp44
 70
     1
102
RTVSPropertyOp45
 70
     1
102
RTVSPropertyOp46
 70
     1
102
RTVSPropertyOp47
 70
     1
102
RTVSPropertyOp48
 70
     1
102
RTVSPropertyOp49
 70
     1
102
RTVSPropertyOp50
 70
     1
102
RTVSPropertyOp51
 70
     0
102
RTVSPropertyOp52
 70
     0
102
RTVSPropertyOp53
 70
     1
102
RTVSPropertyOp54
 70
     1
102
RTVSPropertyOp55
 70
     1
102
RTVSPropertyOp56
 70
     1
102
RTVSPropertyOp57
 70
     1
102
RTVSPost2010Prop28
280
     0
102
RTVSPost2010PropOp28
 70
     1
102
RTVSPost2010Prop29
280
     1
102
RTVSPost2010PropOp29
 70
     1
102
RTVSPost2010Prop30
280
     1
102
RTVSPost2010PropOp30
 70
     1
102
RTVSPost2010Prop31
280
     0
102
RTVSPost2010PropOp31
 70
     1
102
RTVSPost2010Prop32
280
     0
102
RTVSPost2010PropOp32
 70
     1
102
RTVSPost2010Prop33
280
     0
102
RTVSPost2010PropOp33
 70
     1
102
RTVSPost2010Prop34
280
     0
102
RTVSPost2010PropOp34
 70
     1
102
RTVSPost2010Prop35
280
     0
102
RTVSPost2010PropOp35
 70
     1
102
RTVSPost2010Prop36
280
     0
102
RTVSPost2010PropOp36
 70
     1
102
RTVSPost2010Prop37
 90
       50
102
RTVSPost2010PropOp37
 70
     1
102
RTVSPost2010Prop38
140
0.0
102
RTVSPost2010PropOp38
 70
     1
102
RTVSPost2010Prop39
140
1.0
102
RTVSPost2010PropOp39
 70
     1
102
RTVSPost2010Prop40
 90
        0
102
RTVSPost2010PropOp40
 70
     1
102
RTVSPost2010Prop41ColorIndex
 90
       18
102
RTVSPost2010Prop41ColorRGB
 90
        0
102
RTVSPost2010PropOp41
 70
     1
102
RTVSPost2010Prop42
 90
       50
102
RTVSPost2010PropOp42
 70
     1
102
RTVSPost2010Prop43
 90
        3
102
RTVSPost2010PropOp43
 70
     1
102
RTVSPost2010Prop44ColorIndex
 90
        5
102
RTVSPost2010Prop44ColorRGB
 90
      255
102
RTVSPost2010PropOp44
 70
     1
102
RTVSPost2010Prop45
280
     0
102
RTVSPost2010PropOp45
 70
     1
102
RTVSPost2010Prop46
 90
       50
102
RTVSPost2010PropOp46
 70
     1
102
RTVSPost2010Prop47
 90
       50
102
RTVSPost2010PropOp47
 70
     1
102
RTVSPost2010Prop48
 90
       50
102
RTVSPost2010PropOp48
 70
     1
102
RTVSPost2010Prop49
280
     0
102
RTVSPost2010PropOp49
 70
     1
102
RTVSPost2010Prop50
 90
       50
102
RTVSPost2010PropOp50
 70
     1
102
RTVSPost2010Prop51ColorIndex
 90
      256
102
RTVSPost2010Prop51ColorRGB
 90
-16777216
102
RTVSPost2010PropOp51
 70
     0
102
RTVSPost2010Prop52
140
1.0
102
RTVSPost2010PropOp52
 70
     0
102
RTVSPost2010Prop53
 90
        2
102
RTVSPost2010PropOp53
 70
     1
102
RTVSPost2010Prop54
  1
strokes_ogs.tif
102
RTVSPost2010PropOp54
 70
     1
102
RTVSPost2010Prop55
280
     0
102
RTVSPost2010PropOp55
 70
     1
102
RTVSPost2010Prop56
140
1.0
102
RTVSPost2010PropOp56
 70
     1
102
RTVSPost2010Prop57
140
1.0
102
RTVSPost2010PropOp57
 70
     1
  0
XRECORD
  5
60F
102
{ACAD_REACTORS
330
60E
102
}
330
60E
100
AcDbXrecord
280
     1
102
RTVSPropertyOp0
 70
     1
102
RTVSPropertyOp1
 70
     1
102
RTVSPropertyOp2
 70
     1
102
RTVSPropertyOp3
 70
     1
102
RTVSPropertyOp4
 70
     1
102
RTVSPropertyOp5
 70
     1
102
RTVSPropertyOp6
 70
     1
102
RTVSPropertyOp7
 70
     1
102
RTVSPropertyOp8
 70
     1
102
RTVSPropertyOp9
 70
     1
102
RTVSPropertyOp10
 70
     1
102
RTVSPropertyOp11
 70
     1
102
RTVSPropertyOp12
 70
     1
102
RTVSPropertyOp13
 70
     1
102
RTVSPropertyOp14
 70
     1
102
RTVSPropertyOp15
 70
     1
102
RTVSPropertyOp16
 70
     1
102
RTVSPropertyOp17
 70
     1
102
RTVSPropertyOp18
 70
     1
102
RTVSPropertyOp19
 70
     1
102
RTVSPropertyOp20
 70
     1
102
RTVSPropertyOp21
 70
     1
102
RTVSPropertyOp22
 70
     1
102
RTVSPropertyOp23
 70
     1
102
RTVSPropertyOp24
 70
     1
102
RTVSPropertyOp25
 70
     1
102
RTVSPropertyOp26
 70
     1
102
RTVSPropertyOp27
 70
     1
102
RTVSPropertyOp28
 70
     1
102
RTVSPropertyOp29
 70
     1
102
RTVSPropertyOp30
 70
     1
102
RTVSPropertyOp31
 70
     1
102
RTVSPropertyOp32
 70
     1
102
RTVSPropertyOp33
 70
     1
102
RTVSPropertyOp34
 70
     1
102
RTVSPropertyOp35
 70
     1
102
RTVSPropertyOp36
 70
     1
102
RTVSPropertyOp37
 70
     1
102
RTVSPropertyOp38
 70
     1
102
RTVSPropertyOp39
 70
     1
102
RTVSPropertyOp40
 70
     1
102
RTVSPropertyOp41
 70
     1
102
RTVSPropertyOp42
 70
     1
102
RTVSPropertyOp43
 70
     1
102
RTVSPropertyOp44
 70
     1
102
RTVSPropertyOp45
 70
     1
102
RTVSPropertyOp46
 70
     1
102
RTVSPropertyOp47
 70
     1
102
RTVSPropertyOp48
 70
     1
102
RTVSPropertyOp49
 70
     1
102
RTVSPropertyOp50
 70
     1
102
RTVSPropertyOp51
 70
     0
102
RTVSPropertyOp52
 70
     0
102
RTVSPropertyOp53
 70
     1
102
RTVSPropertyOp54
 70
     1
102
RTVSPropertyOp55
 70
     1
102
RTVSPropertyOp56
 70
     1
102
RTVSPropertyOp57
 70
     1
102
RTVSPost2010Prop28
280
     0
102
RTVSPost2010PropOp28
 70
     1
102
RTVSPost2010Prop29
280
     1
102
RTVSPost2010PropOp29
 70
     1
102
RTVSPost2010Prop30
280
     1
102
RTVSPost2010PropOp30
 70
     1
102
RTVSPost2010Prop31
280
     0
102
RTVSPost2010PropOp31
 70
     1
102
RTVSPost2010Prop32
280
     0
102
RTVSPost2010PropOp32
 70
     1
102
RTVSPost2010Prop33
280
     0
102
RTVSPost2010PropOp33
 70
     1
102
RTVSPost2010Prop34
280
     0
102
RTVSPost2010PropOp34
 70
     1
102
RTVSPost2010Prop35
280
     0
102
RTVSPost2010PropOp35
 70
     1
102
RTVSPost2010Prop36
280
     0
102
RTVSPost2010PropOp36
 70
     1
102
RTVSPost2010Prop37
 90
       50
102
RTVSPost2010PropOp37
 70
     1
102
RTVSPost2010Prop38
140
0.0
102
RTVSPost2010PropOp38
 70
     1
102
RTVSPost2010Prop39
140
1.0
102
RTVSPost2010PropOp39
 70
     1
102
RTVSPost2010Prop40
 90
        0
102
RTVSPost2010PropOp40
 70
     1
102
RTVSPost2010Prop41ColorIndex
 90
       18
102
RTVSPost2010Prop41ColorRGB
 90
        0
102
RTVSPost2010PropOp41
 70
     1
102
RTVSPost2010Prop42
 90
       50
102
RTVSPost2010PropOp42
 70
     1
102
RTVSPost2010Prop43
 90
        3
102
RTVSPost2010PropOp43
 70
     1
102
RTVSPost2010Prop44ColorIndex
 90
        5
102
RTVSPost2010Prop44ColorRGB
 90
      255
102
RTVSPost2010PropOp44
 70
     1
102
RTVSPost2010Prop45
280
     0
102
RTVSPost2010PropOp45
 70
     1
102
RTVSPost2010Prop46
 90
       50
102
RTVSPost2010PropOp46
 70
     1
102
RTVSPost2010Prop47
 90
       50
102
RTVSPost2010PropOp47
 70
     1
102
RTVSPost2010Prop48
 90
       50
102
RTVSPost2010PropOp48
 70
     1
102
RTVSPost2010Prop49
280
     0
102
RTVSPost2010PropOp49
 70
     1
102
RTVSPost2010Prop50
 90
       50
102
RTVSPost2010PropOp50
 70
     1
102
RTVSPost2010Prop51ColorIndex
 90
      256
102
RTVSPost2010Prop51ColorRGB
 90
-16777216
102
RTVSPost2010PropOp51
 70
     0
102
RTVSPost2010Prop52
140
1.0
102
RTVSPost2010PropOp52
 70
     0
102
RTVSPost2010Prop53
 90
        2
102
RTVSPost2010PropOp53
 70
     1
102
RTVSPost2010Prop54
  1
strokes_ogs.tif
102
RTVSPost2010PropOp54
 70
     1
102
RTVSPost2010Prop55
280
     0
102
RTVSPost2010PropOp55
 70
     1
102
RTVSPost2010Prop56
140
1.0
102
RTVSPost2010PropOp56
 70
     1
102
RTVSPost2010Prop57
140
1.0
102
RTVSPost2010PropOp57
 70
     1
  0
XRECORD
  5
611
102
{ACAD_REACTORS
330
610
102
}
330
610
100
AcDbXrecord
280
     1
102
RTVSPropertyOp0
 70
     1
102
RTVSPropertyOp1
 70
     1
102
RTVSPropertyOp2
 70
     1
102
RTVSPropertyOp3
 70
     1
102
RTVSPropertyOp4
 70
     1
102
RTVSPropertyOp5
 70
     1
102
RTVSPropertyOp6
 70
     1
102
RTVSPropertyOp7
 70
     1
102
RTVSPropertyOp8
 70
     1
102
RTVSPropertyOp9
 70
     1
102
RTVSPropertyOp10
 70
     1
102
RTVSPropertyOp11
 70
     1
102
RTVSPropertyOp12
 70
     1
102
RTVSPropertyOp13
 70
     1
102
RTVSPropertyOp14
 70
     1
102
RTVSPropertyOp15
 70
     1
102
RTVSPropertyOp16
 70
     1
102
RTVSPropertyOp17
 70
     1
102
RTVSPropertyOp18
 70
     1
102
RTVSPropertyOp19
 70
     1
102
RTVSPropertyOp20
 70
     1
102
RTVSPropertyOp21
 70
     1
102
RTVSPropertyOp22
 70
     1
102
RTVSPropertyOp23
 70
     1
102
RTVSPropertyOp24
 70
     1
102
RTVSPropertyOp25
 70
     1
102
RTVSPropertyOp26
 70
     1
102
RTVSPropertyOp27
 70
     1
102
RTVSPropertyOp28
 70
     1
102
RTVSPropertyOp29
 70
     1
102
RTVSPropertyOp30
 70
     1
102
RTVSPropertyOp31
 70
     1
102
RTVSPropertyOp32
 70
     1
102
RTVSPropertyOp33
 70
     1
102
RTVSPropertyOp34
 70
     1
102
RTVSPropertyOp35
 70
     1
102
RTVSPropertyOp36
 70
     1
102
RTVSPropertyOp37
 70
     1
102
RTVSPropertyOp38
 70
     1
102
RTVSPropertyOp39
 70
     1
102
RTVSPropertyOp40
 70
     1
102
RTVSPropertyOp41
 70
     1
102
RTVSPropertyOp42
 70
     1
102
RTVSPropertyOp43
 70
     1
102
RTVSPropertyOp44
 70
     1
102
RTVSPropertyOp45
 70
     1
102
RTVSPropertyOp46
 70
     1
102
RTVSPropertyOp47
 70
     1
102
RTVSPropertyOp48
 70
     1
102
RTVSPropertyOp49
 70
     1
102
RTVSPropertyOp50
 70
     1
102
RTVSPropertyOp51
 70
     0
102
RTVSPropertyOp52
 70
     0
102
RTVSPropertyOp53
 70
     1
102
RTVSPropertyOp54
 70
     1
102
RTVSPropertyOp55
 70
     1
102
RTVSPropertyOp56
 70
     1
102
RTVSPropertyOp57
 70
     1
102
RTVSPost2010Prop28
280
     0
102
RTVSPost2010PropOp28
 70
     1
102
RTVSPost2010Prop29
280
     1
102
RTVSPost2010PropOp29
 70
     1
102
RTVSPost2010Prop30
280
     1
102
RTVSPost2010PropOp30
 70
     1
102
RTVSPost2010Prop31
280
     0
102
RTVSPost2010PropOp31
 70
     1
102
RTVSPost2010Prop32
280
     0
102
RTVSPost2010PropOp32
 70
     1
102
RTVSPost2010Prop33
280
     0
102
RTVSPost2010PropOp33
 70
     1
102
RTVSPost2010Prop34
280
     0
102
RTVSPost2010PropOp34
 70
     1
102
RTVSPost2010Prop35
280
     0
102
RTVSPost2010PropOp35
 70
     1
102
RTVSPost2010Prop36
280
     0
102
RTVSPost2010PropOp36
 70
     1
102
RTVSPost2010Prop37
 90
       50
102
RTVSPost2010PropOp37
 70
     1
102
RTVSPost2010Prop38
140
0.0
102
RTVSPost2010PropOp38
 70
     1
102
RTVSPost2010Prop39
140
1.0
102
RTVSPost2010PropOp39
 70
     1
102
RTVSPost2010Prop40
 90
        0
102
RTVSPost2010PropOp40
 70
     1
102
RTVSPost2010Prop41ColorIndex
 90
       18
102
RTVSPost2010Prop41ColorRGB
 90
        0
102
RTVSPost2010PropOp41
 70
     1
102
RTVSPost2010Prop42
 90
       50
102
RTVSPost2010PropOp42
 70
     1
102
RTVSPost2010Prop43
 90
        3
102
RTVSPost2010PropOp43
 70
     1
102
RTVSPost2010Prop44ColorIndex
 90
        5
102
RTVSPost2010Prop44ColorRGB
 90
      255
102
RTVSPost2010PropOp44
 70
     1
102
RTVSPost2010Prop45
280
     0
102
RTVSPost2010PropOp45
 70
     1
102
RTVSPost2010Prop46
 90
       50
102
RTVSPost2010PropOp46
 70
     1
102
RTVSPost2010Prop47
 90
       50
102
RTVSPost2010PropOp47
 70
     1
102
RTVSPost2010Prop48
 90
       50
102
RTVSPost2010PropOp48
 70
     1
102
RTVSPost2010Prop49
280
     0
102
RTVSPost2010PropOp49
 70
     1
102
RTVSPost2010Prop50
 90
       50
102
RTVSPost2010PropOp50
 70
     1
102
RTVSPost2010Prop51ColorIndex
 90
      256
102
RTVSPost2010Prop51ColorRGB
 90
-16777216
102
RTVSPost2010PropOp51
 70
     0
102
RTVSPost2010Prop52
140
1.0
102
RTVSPost2010PropOp52
 70
     0
102
RTVSPost2010Prop53
 90
        2
102
RTVSPost2010PropOp53
 70
     1
102
RTVSPost2010Prop54
  1
strokes_ogs.tif
102
RTVSPost2010PropOp54
 70
     1
102
RTVSPost2010Prop55
280
     0
102
RTVSPost2010PropOp55
 70
     1
102
RTVSPost2010Prop56
140
1.0
102
RTVSPost2010PropOp56
 70
     1
102
RTVSPost2010Prop57
140
1.0
102
RTVSPost2010PropOp57
 70
     1
  0
XRECORD
  5
613
102
{ACAD_REACTORS
330
612
102
}
330
612
100
AcDbXrecord
280
     1
102
RTVSPropertyOp0
 70
     1
102
RTVSPropertyOp1
 70
     1
102
RTVSPropertyOp2
 70
     1
102
RTVSPropertyOp3
 70
     1
102
RTVSPropertyOp4
 70
     1
102
RTVSPropertyOp5
 70
     1
102
RTVSPropertyOp6
 70
     1
102
RTVSPropertyOp7
 70
     1
102
RTVSPropertyOp8
 70
     1
102
RTVSPropertyOp9
 70
     1
102
RTVSPropertyOp10
 70
     1
102
RTVSPropertyOp11
 70
     1
102
RTVSPropertyOp12
 70
     1
102
RTVSPropertyOp13
 70
     1
102
RTVSPropertyOp14
 70
     1
102
RTVSPropertyOp15
 70
     1
102
RTVSPropertyOp16
 70
     1
102
RTVSPropertyOp17
 70
     1
102
RTVSPropertyOp18
 70
     1
102
RTVSPropertyOp19
 70
     1
102
RTVSPropertyOp20
 70
     1
102
RTVSPropertyOp21
 70
     1
102
RTVSPropertyOp22
 70
     1
102
RTVSPropertyOp23
 70
     1
102
RTVSPropertyOp24
 70
     1
102
RTVSPropertyOp25
 70
     1
102
RTVSPropertyOp26
 70
     1
102
RTVSPropertyOp27
 70
     1
102
RTVSPropertyOp28
 70
     1
102
RTVSPropertyOp29
 70
     1
102
RTVSPropertyOp30
 70
     1
102
RTVSPropertyOp31
 70
     1
102
RTVSPropertyOp32
 70
     1
102
RTVSPropertyOp33
 70
     1
102
RTVSPropertyOp34
 70
     1
102
RTVSPropertyOp35
 70
     1
102
RTVSPropertyOp36
 70
     1
102
RTVSPropertyOp37
 70
     1
102
RTVSPropertyOp38
 70
     1
102
RTVSPropertyOp39
 70
     1
102
RTVSPropertyOp40
 70
     1
102
RTVSPropertyOp41
 70
     1
102
RTVSPropertyOp42
 70
     1
102
RTVSPropertyOp43
 70
     1
102
RTVSPropertyOp44
 70
     1
102
RTVSPropertyOp45
 70
     1
102
RTVSPropertyOp46
 70
     1
102
RTVSPropertyOp47
 70
     1
102
RTVSPropertyOp48
 70
     1
102
RTVSPropertyOp49
 70
     1
102
RTVSPropertyOp50
 70
     1
102
RTVSPropertyOp51
 70
     0
102
RTVSPropertyOp52
 70
     0
102
RTVSPropertyOp53
 70
     1
102
RTVSPropertyOp54
 70
     1
102
RTVSPropertyOp55
 70
     1
102
RTVSPropertyOp56
 70
     1
102
RTVSPropertyOp57
 70
     1
102
RTVSPost2010Prop28
280
     0
102
RTVSPost2010PropOp28
 70
     1
102
RTVSPost2010Prop29
280
     1
102
RTVSPost2010PropOp29
 70
     1
102
RTVSPost2010Prop30
280
     1
102
RTVSPost2010PropOp30
 70
     1
102
RTVSPost2010Prop31
280
     0
102
RTVSPost2010PropOp31
 70
     1
102
RTVSPost2010Prop32
280
     0
102
RTVSPost2010PropOp32
 70
     1
102
RTVSPost2010Prop33
280
     0
102
RTVSPost2010PropOp33
 70
     1
102
RTVSPost2010Prop34
280
     0
102
RTVSPost2010PropOp34
 70
     1
102
RTVSPost2010Prop35
280
     0
102
RTVSPost2010PropOp35
 70
     1
102
RTVSPost2010Prop36
280
     0
102
RTVSPost2010PropOp36
 70
     1
102
RTVSPost2010Prop37
 90
       50
102
RTVSPost2010PropOp37
 70
     1
102
RTVSPost2010Prop38
140
0.0
102
RTVSPost2010PropOp38
 70
     1
102
RTVSPost2010Prop39
140
1.0
102
RTVSPost2010PropOp39
 70
     1
102
RTVSPost2010Prop40
 90
        0
102
RTVSPost2010PropOp40
 70
     1
102
RTVSPost2010Prop41ColorIndex
 90
       18
102
RTVSPost2010Prop41ColorRGB
 90
        0
102
RTVSPost2010PropOp41
 70
     1
102
RTVSPost2010Prop42
 90
       50
102
RTVSPost2010PropOp42
 70
     1
102
RTVSPost2010Prop43
 90
        3
102
RTVSPost2010PropOp43
 70
     1
102
RTVSPost2010Prop44ColorIndex
 90
        5
102
RTVSPost2010Prop44ColorRGB
 90
      255
102
RTVSPost2010PropOp44
 70
     1
102
RTVSPost2010Prop45
280
     0
102
RTVSPost2010PropOp45
 70
     1
102
RTVSPost2010Prop46
 90
       50
102
RTVSPost2010PropOp46
 70
     1
102
RTVSPost2010Prop47
 90
       50
102
RTVSPost2010PropOp47
 70
     1
102
RTVSPost2010Prop48
 90
       50
102
RTVSPost2010PropOp48
 70
     1
102
RTVSPost2010Prop49
280
     0
102
RTVSPost2010PropOp49
 70
     1
102
RTVSPost2010Prop50
 90
       50
102
RTVSPost2010PropOp50
 70
     1
102
RTVSPost2010Prop51ColorIndex
 90
      256
102
RTVSPost2010Prop51ColorRGB
 90
-16777216
102
RTVSPost2010PropOp51
 70
     0
102
RTVSPost2010Prop52
140
1.0
102
RTVSPost2010PropOp52
 70
     0
102
RTVSPost2010Prop53
 90
        2
102
RTVSPost2010PropOp53
 70
     1
102
RTVSPost2010Prop54
  1
strokes_ogs.tif
102
RTVSPost2010PropOp54
 70
     1
102
RTVSPost2010Prop55
280
     0
102
RTVSPost2010PropOp55
 70
     1
102
RTVSPost2010Prop56
140
1.0
102
RTVSPost2010PropOp56
 70
     1
102
RTVSPost2010Prop57
140
1.0
102
RTVSPost2010PropOp57
 70
     1
  0
XRECORD
  5
619
102
{ACAD_REACTORS
330
618
102
}
330
618
100
AcDbXrecord
280
     1
102
RTVSPropertyOp0
 70
     1
102
RTVSPropertyOp1
 70
     1
102
RTVSPropertyOp2
 70
     1
102
RTVSPropertyOp3
 70
     1
102
RTVSPropertyOp4
 70
     1
102
RTVSPropertyOp5
 70
     1
102
RTVSPropertyOp6
 70
     1
102
RTVSPropertyOp7
 70
     1
102
RTVSPropertyOp8
 70
     1
102
RTVSPropertyOp9
 70
     1
102
RTVSPropertyOp10
 70
     1
102
RTVSPropertyOp11
 70
     1
102
RTVSPropertyOp12
 70
     1
102
RTVSPropertyOp13
 70
     1
102
RTVSPropertyOp14
 70
     1
102
RTVSPropertyOp15
 70
     1
102
RTVSPropertyOp16
 70
     1
102
RTVSPropertyOp17
 70
     1
102
RTVSPropertyOp18
 70
     1
102
RTVSPropertyOp19
 70
     1
102
RTVSPropertyOp20
 70
     1
102
RTVSPropertyOp21
 70
     1
102
RTVSPropertyOp22
 70
     1
102
RTVSPropertyOp23
 70
     1
102
RTVSPropertyOp24
 70
     1
102
RTVSPropertyOp25
 70
     1
102
RTVSPropertyOp26
 70
     1
102
RTVSPropertyOp27
 70
     1
102
RTVSPropertyOp28
 70
     1
102
RTVSPropertyOp29
 70
     1
102
RTVSPropertyOp30
 70
     1
102
RTVSPropertyOp31
 70
     1
102
RTVSPropertyOp32
 70
     1
102
RTVSPropertyOp33
 70
     1
102
RTVSPropertyOp34
 70
     1
102
RTVSPropertyOp35
 70
     1
102
RTVSPropertyOp36
 70
     1
102
RTVSPropertyOp37
 70
     1
102
RTVSPropertyOp38
 70
     1
102
RTVSPropertyOp39
 70
     1
102
RTVSPropertyOp40
 70
     1
102
RTVSPropertyOp41
 70
     1
102
RTVSPropertyOp42
 70
     1
102
RTVSPropertyOp43
 70
     1
102
RTVSPropertyOp44
 70
     1
102
RTVSPropertyOp45
 70
     1
102
RTVSPropertyOp46
 70
     1
102
RTVSPropertyOp47
 70
     1
102
RTVSPropertyOp48
 70
     1
102
RTVSPropertyOp49
 70
     1
102
RTVSPropertyOp50
 70
     1
102
RTVSPropertyOp51
 70
     0
102
RTVSPropertyOp52
 70
     0
102
RTVSPropertyOp53
 70
     1
102
RTVSPropertyOp54
 70
     1
102
RTVSPropertyOp55
 70
     1
102
RTVSPropertyOp56
 70
     1
102
RTVSPropertyOp57
 70
     1
102
RTVSPost2010Prop28
280
     0
102
RTVSPost2010PropOp28
 70
     1
102
RTVSPost2010Prop29
280
     1
102
RTVSPost2010PropOp29
 70
     1
102
RTVSPost2010Prop30
280
     1
102
RTVSPost2010PropOp30
 70
     1
102
RTVSPost2010Prop31
280
     0
102
RTVSPost2010PropOp31
 70
     1
102
RTVSPost2010Prop32
280
     0
102
RTVSPost2010PropOp32
 70
     1
102
RTVSPost2010Prop33
280
     0
102
RTVSPost2010PropOp33
 70
     1
102
RTVSPost2010Prop34
280
     0
102
RTVSPost2010PropOp34
 70
     1
102
RTVSPost2010Prop35
280
     0
102
RTVSPost2010PropOp35
 70
     1
102
RTVSPost2010Prop36
280
     0
102
RTVSPost2010PropOp36
 70
     1
102
RTVSPost2010Prop37
 90
       50
102
RTVSPost2010PropOp37
 70
     1
102
RTVSPost2010Prop38
140
0.0
102
RTVSPost2010PropOp38
 70
     1
102
RTVSPost2010Prop39
140
1.0
102
RTVSPost2010PropOp39
 70
     1
102
RTVSPost2010Prop40
 90
        0
102
RTVSPost2010PropOp40
 70
     1
102
RTVSPost2010Prop41ColorIndex
 90
       18
102
RTVSPost2010Prop41ColorRGB
 90
        0
102
RTVSPost2010PropOp41
 70
     1
102
RTVSPost2010Prop42
 90
       50
102
RTVSPost2010PropOp42
 70
     1
102
RTVSPost2010Prop43
 90
        3
102
RTVSPost2010PropOp43
 70
     1
102
RTVSPost2010Prop44ColorIndex
 90
        5
102
RTVSPost2010Prop44ColorRGB
 90
      255
102
RTVSPost2010PropOp44
 70
     1
102
RTVSPost2010Prop45
280
     0
102
RTVSPost2010PropOp45
 70
     1
102
RTVSPost2010Prop46
 90
       50
102
RTVSPost2010PropOp46
 70
     1
102
RTVSPost2010Prop47
 90
       50
102
RTVSPost2010PropOp47
 70
     1
102
RTVSPost2010Prop48
 90
       50
102
RTVSPost2010PropOp48
 70
     1
102
RTVSPost2010Prop49
280
     0
102
RTVSPost2010PropOp49
 70
     1
102
RTVSPost2010Prop50
 90
       50
102
RTVSPost2010PropOp50
 70
     1
102
RTVSPost2010Prop51ColorIndex
 90
      256
102
RTVSPost2010Prop51ColorRGB
 90
-16777216
102
RTVSPost2010PropOp51
 70
     0
102
RTVSPost2010Prop52
140
1.0
102
RTVSPost2010PropOp52
 70
     0
102
RTVSPost2010Prop53
 90
        2
102
RTVSPost2010PropOp53
 70
     1
102
RTVSPost2010Prop54
  1
strokes_ogs.tif
102
RTVSPost2010PropOp54
 70
     1
102
RTVSPost2010Prop55
280
     0
102
RTVSPost2010PropOp55
 70
     1
102
RTVSPost2010Prop56
140
1.0
102
RTVSPost2010PropOp56
 70
     1
102
RTVSPost2010Prop57
140
1.0
102
RTVSPost2010PropOp57
 70
     1
  0
XRECORD
  5
62D
102
{ACAD_REACTORS
330
62C
102
}
330
62C
100
AcDbXrecord
280
     1
102
RTVSPropertyOp0
 70
     0
102
RTVSPropertyOp1
 70
     0
102
RTVSPropertyOp2
 70
     0
102
RTVSPropertyOp3
 70
     0
102
RTVSPropertyOp4
 70
     0
102
RTVSPropertyOp5
 70
     0
102
RTVSPropertyOp6
 70
     0
102
RTVSPropertyOp7
 70
     0
102
RTVSPropertyOp8
 70
     0
102
RTVSPropertyOp9
 70
     0
102
RTVSPropertyOp10
 70
     0
102
RTVSPropertyOp11
 70
     0
102
RTVSPropertyOp12
 70
     0
102
RTVSPropertyOp13
 70
     0
102
RTVSPropertyOp14
 70
     2
102
RTVSPropertyOp15
 70
     0
102
RTVSPropertyOp16
 70
     0
102
RTVSPropertyOp17
 70
     0
102
RTVSPropertyOp18
 70
     0
102
RTVSPropertyOp19
 70
     0
102
RTVSPropertyOp20
 70
     0
102
RTVSPropertyOp21
 70
     0
102
RTVSPropertyOp22
 70
     0
102
RTVSPropertyOp23
 70
     0
102
RTVSPropertyOp24
 70
     0
102
RTVSPropertyOp25
 70
     0
102
RTVSPropertyOp26
 70
     0
102
RTVSPropertyOp27
 70
     0
102
RTVSPropertyOp28
 70
     0
102
RTVSPropertyOp29
 70
     0
102
RTVSPropertyOp30
 70
     0
102
RTVSPropertyOp31
 70
     0
102
RTVSPropertyOp32
 70
     0
102
RTVSPropertyOp33
 70
     0
102
RTVSPropertyOp34
 70
     0
102
RTVSPropertyOp35
 70
     0
102
RTVSPropertyOp36
 70
     0
102
RTVSPropertyOp37
 70
     0
102
RTVSPropertyOp38
 70
     0
102
RTVSPropertyOp39
 70
     0
102
RTVSPropertyOp40
 70
     0
102
RTVSPropertyOp41
 70
     0
102
RTVSPropertyOp42
 70
     0
102
RTVSPropertyOp43
 70
     0
102
RTVSPropertyOp44
 70
     0
102
RTVSPropertyOp45
 70
     0
102
RTVSPropertyOp46
 70
     0
102
RTVSPropertyOp47
 70
     0
102
RTVSPropertyOp48
 70
     0
102
RTVSPropertyOp49
 70
     0
102
RTVSPropertyOp50
 70
     0
102
RTVSPropertyOp51
 70
     0
102
RTVSPropertyOp52
 70
     0
102
RTVSPropertyOp53
 70
     0
102
RTVSPropertyOp54
 70
     0
102
RTVSPropertyOp55
 70
     0
102
RTVSPropertyOp56
 70
     0
102
RTVSPropertyOp57
 70
     0
102
RTVSPost2010Prop28
280
     0
102
RTVSPost2010PropOp28
 70
     0
102
RTVSPost2010Prop29
280
     1
102
RTVSPost2010PropOp29
 70
     0
102
RTVSPost2010Prop30
280
     1
102
RTVSPost2010PropOp30
 70
     0
102
RTVSPost2010Prop31
280
     0
102
RTVSPost2010PropOp31
 70
     0
102
RTVSPost2010Prop32
280
     0
102
RTVSPost2010PropOp32
 70
     0
102
RTVSPost2010Prop33
280
     0
102
RTVSPost2010PropOp33
 70
     0
102
RTVSPost2010Prop34
280
     0
102
RTVSPost2010PropOp34
 70
     0
102
RTVSPost2010Prop35
280
     0
102
RTVSPost2010PropOp35
 70
     0
102
RTVSPost2010Prop36
280
     0
102
RTVSPost2010PropOp36
 70
     0
102
RTVSPost2010Prop37
 90
       50
102
RTVSPost2010PropOp37
 70
     0
102
RTVSPost2010Prop38
140
0.0
102
RTVSPost2010PropOp38
 70
     0
102
RTVSPost2010Prop39
140
1.0
102
RTVSPost2010PropOp39
 70
     0
102
RTVSPost2010Prop40
 90
        0
102
RTVSPost2010PropOp40
 70
     0
102
RTVSPost2010Prop41ColorIndex
 90
       18
102
RTVSPost2010Prop41ColorRGB
 90
        0
102
RTVSPost2010PropOp41
 70
     0
102
RTVSPost2010Prop42
 90
       50
102
RTVSPost2010PropOp42
 70
     0
102
RTVSPost2010Prop43
 90
        3
102
RTVSPost2010PropOp43
 70
     0
102
RTVSPost2010Prop44ColorIndex
 90
        5
102
RTVSPost2010Prop44ColorRGB
 90
      255
102
RTVSPost2010PropOp44
 70
     0
102
RTVSPost2010Prop45
280
     0
102
RTVSPost2010PropOp45
 70
     0
102
RTVSPost2010Prop46
 90
       50
102
RTVSPost2010PropOp46
 70
     0
102
RTVSPost2010Prop47
 90
       50
102
RTVSPost2010PropOp47
 70
     0
102
RTVSPost2010Prop48
 90
       50
102
RTVSPost2010PropOp48
 70
     0
102
RTVSPost2010Prop49
280
     0
102
RTVSPost2010PropOp49
 70
     0
102
RTVSPost2010Prop50
 90
       50
102
RTVSPost2010PropOp50
 70
     0
102
RTVSPost2010Prop51ColorIndex
 90
      256
102
RTVSPost2010Prop51ColorRGB
 90
-16777216
102
RTVSPost2010PropOp51
 70
     0
102
RTVSPost2010Prop52
140
1.0
102
RTVSPost2010PropOp52
 70
     0
102
RTVSPost2010Prop53
 90
        2
102
RTVSPost2010PropOp53
 70
     0
102
RTVSPost2010Prop54
  1
strokes_ogs.tif
102
RTVSPost2010PropOp54
 70
     0
102
RTVSPost2010Prop55
280
     0
102
RTVSPost2010PropOp55
 70
     0
102
RTVSPost2010Prop56
140
1.0
102
RTVSPost2010PropOp56
 70
     0
102
RTVSPost2010Prop57
140
1.0
102
RTVSPost2010PropOp57
 70
     0
  0
XRECORD
  5
627
102
{ACAD_REACTORS
330
626
102
}
330
626
100
AcDbXrecord
280
     1
102
RTVSPropertyOp0
 70
     1
102
RTVSPropertyOp1
 70
     1
102
RTVSPropertyOp2
 70
     1
102
RTVSPropertyOp3
 70
     1
102
RTVSPropertyOp4
 70
     1
102
RTVSPropertyOp5
 70
     1
102
RTVSPropertyOp6
 70
     1
102
RTVSPropertyOp7
 70
     1
102
RTVSPropertyOp8
 70
     1
102
RTVSPropertyOp9
 70
     1
102
RTVSPropertyOp10
 70
     1
102
RTVSPropertyOp11
 70
     1
102
RTVSPropertyOp12
 70
     1
102
RTVSPropertyOp13
 70
     1
102
RTVSPropertyOp14
 70
     1
102
RTVSPropertyOp15
 70
     1
102
RTVSPropertyOp16
 70
     1
102
RTVSPropertyOp17
 70
     1
102
RTVSPropertyOp18
 70
     1
102
RTVSPropertyOp19
 70
     1
102
RTVSPropertyOp20
 70
     1
102
RTVSPropertyOp21
 70
     1
102
RTVSPropertyOp22
 70
     1
102
RTVSPropertyOp23
 70
     1
102
RTVSPropertyOp24
 70
     1
102
RTVSPropertyOp25
 70
     1
102
RTVSPropertyOp26
 70
     1
102
RTVSPropertyOp27
 70
     1
102
RTVSPropertyOp28
 70
     1
102
RTVSPropertyOp29
 70
     1
102
RTVSPropertyOp30
 70
     1
102
RTVSPropertyOp31
 70
     1
102
RTVSPropertyOp32
 70
     1
102
RTVSPropertyOp33
 70
     1
102
RTVSPropertyOp34
 70
     1
102
RTVSPropertyOp35
 70
     1
102
RTVSPropertyOp36
 70
     1
102
RTVSPropertyOp37
 70
     1
102
RTVSPropertyOp38
 70
     1
102
RTVSPropertyOp39
 70
     1
102
RTVSPropertyOp40
 70
     1
102
RTVSPropertyOp41
 70
     1
102
RTVSPropertyOp42
 70
     1
102
RTVSPropertyOp43
 70
     1
102
RTVSPropertyOp44
 70
     1
102
RTVSPropertyOp45
 70
     1
102
RTVSPropertyOp46
 70
     1
102
RTVSPropertyOp47
 70
     1
102
RTVSPropertyOp48
 70
     1
102
RTVSPropertyOp49
 70
     1
102
RTVSPropertyOp50
 70
     1
102
RTVSPropertyOp51
 70
     0
102
RTVSPropertyOp52
 70
     0
102
RTVSPropertyOp53
 70
     1
102
RTVSPropertyOp54
 70
     1
102
RTVSPropertyOp55
 70
     1
102
RTVSPropertyOp56
 70
     1
102
RTVSPropertyOp57
 70
     1
102
RTVSPost2010Prop28
280
     0
102
RTVSPost2010PropOp28
 70
     1
102
RTVSPost2010Prop29
280
     1
102
RTVSPost2010PropOp29
 70
     1
102
RTVSPost2010Prop30
280
     1
102
RTVSPost2010PropOp30
 70
     1
102
RTVSPost2010Prop31
280
     0
102
RTVSPost2010PropOp31
 70
     1
102
RTVSPost2010Prop32
280
     0
102
RTVSPost2010PropOp32
 70
     1
102
RTVSPost2010Prop33
280
     0
102
RTVSPost2010PropOp33
 70
     1
102
RTVSPost2010Prop34
280
     0
102
RTVSPost2010PropOp34
 70
     1
102
RTVSPost2010Prop35
280
     0
102
RTVSPost2010PropOp35
 70
     1
102
RTVSPost2010Prop36
280
     0
102
RTVSPost2010PropOp36
 70
     1
102
RTVSPost2010Prop37
 90
       50
102
RTVSPost2010PropOp37
 70
     1
102
RTVSPost2010Prop38
140
0.0
102
RTVSPost2010PropOp38
 70
     1
102
RTVSPost2010Prop39
140
1.0
102
RTVSPost2010PropOp39
 70
     1
102
RTVSPost2010Prop40
 90
        0
102
RTVSPost2010PropOp40
 70
     1
102
RTVSPost2010Prop41ColorIndex
 90
       18
102
RTVSPost2010Prop41ColorRGB
 90
        0
102
RTVSPost2010PropOp41
 70
     1
102
RTVSPost2010Prop42
 90
       50
102
RTVSPost2010PropOp42
 70
     1
102
RTVSPost2010Prop43
 90
        3
102
RTVSPost2010PropOp43
 70
     1
102
RTVSPost2010Prop44ColorIndex
 90
        5
102
RTVSPost2010Prop44ColorRGB
 90
      255
102
RTVSPost2010PropOp44
 70
     1
102
RTVSPost2010Prop45
280
     0
102
RTVSPost2010PropOp45
 70
     1
102
RTVSPost2010Prop46
 90
       50
102
RTVSPost2010PropOp46
 70
     1
102
RTVSPost2010Prop47
 90
       50
102
RTVSPost2010PropOp47
 70
     1
102
RTVSPost2010Prop48
 90
       50
102
RTVSPost2010PropOp48
 70
     1
102
RTVSPost2010Prop49
280
     0
102
RTVSPost2010PropOp49
 70
     1
102
RTVSPost2010Prop50
 90
       50
102
RTVSPost2010PropOp50
 70
     1
102
RTVSPost2010Prop51ColorIndex
 90
      256
102
RTVSPost2010Prop51ColorRGB
 90
-16777216
102
RTVSPost2010PropOp51
 70
     0
102
RTVSPost2010Prop52
140
1.0
102
RTVSPost2010PropOp52
 70
     0
102
RTVSPost2010Prop53
 90
        2
102
RTVSPost2010PropOp53
 70
     1
102
RTVSPost2010Prop54
  1
strokes_ogs.tif
102
RTVSPost2010PropOp54
 70
     1
102
RTVSPost2010Prop55
280
     0
102
RTVSPost2010PropOp55
 70
     1
102
RTVSPost2010Prop56
140
1.0
102
RTVSPost2010PropOp56
 70
     1
102
RTVSPost2010Prop57
140
1.0
102
RTVSPost2010PropOp57
 70
     1
  0
XRECORD
  5
62F
102
{ACAD_REACTORS
330
62E
102
}
330
62E
100
AcDbXrecord
280
     1
102
RTVSPropertyOp0
 70
     0
102
RTVSPropertyOp1
 70
     0
102
RTVSPropertyOp2
 70
     0
102
RTVSPropertyOp3
 70
     0
102
RTVSPropertyOp4
 70
     0
102
RTVSPropertyOp5
 70
     0
102
RTVSPropertyOp6
 70
     0
102
RTVSPropertyOp7
 70
     0
102
RTVSPropertyOp8
 70
     0
102
RTVSPropertyOp9
 70
     0
102
RTVSPropertyOp10
 70
     0
102
RTVSPropertyOp11
 70
     0
102
RTVSPropertyOp12
 70
     0
102
RTVSPropertyOp13
 70
     0
102
RTVSPropertyOp14
 70
     2
102
RTVSPropertyOp15
 70
     0
102
RTVSPropertyOp16
 70
     0
102
RTVSPropertyOp17
 70
     0
102
RTVSPropertyOp18
 70
     0
102
RTVSPropertyOp19
 70
     0
102
RTVSPropertyOp20
 70
     0
102
RTVSPropertyOp21
 70
     0
102
RTVSPropertyOp22
 70
     0
102
RTVSPropertyOp23
 70
     0
102
RTVSPropertyOp24
 70
     0
102
RTVSPropertyOp25
 70
     0
102
RTVSPropertyOp26
 70
     0
102
RTVSPropertyOp27
 70
     0
102
RTVSPropertyOp28
 70
     0
102
RTVSPropertyOp29
 70
     0
102
RTVSPropertyOp30
 70
     0
102
RTVSPropertyOp31
 70
     0
102
RTVSPropertyOp32
 70
     0
102
RTVSPropertyOp33
 70
     0
102
RTVSPropertyOp34
 70
     0
102
RTVSPropertyOp35
 70
     0
102
RTVSPropertyOp36
 70
     0
102
RTVSPropertyOp37
 70
     0
102
RTVSPropertyOp38
 70
     0
102
RTVSPropertyOp39
 70
     0
102
RTVSPropertyOp40
 70
     0
102
RTVSPropertyOp41
 70
     0
102
RTVSPropertyOp42
 70
     0
102
RTVSPropertyOp43
 70
     0
102
RTVSPropertyOp44
 70
     0
102
RTVSPropertyOp45
 70
     0
102
RTVSPropertyOp46
 70
     0
102
RTVSPropertyOp47
 70
     0
102
RTVSPropertyOp48
 70
     0
102
RTVSPropertyOp49
 70
     0
102
RTVSPropertyOp50
 70
     0
102
RTVSPropertyOp51
 70
     0
102
RTVSPropertyOp52
 70
     0
102
RTVSPropertyOp53
 70
     0
102
RTVSPropertyOp54
 70
     0
102
RTVSPropertyOp55
 70
     0
102
RTVSPropertyOp56
 70
     0
102
RTVSPropertyOp57
 70
     0
102
RTVSPost2010Prop28
280
     0
102
RTVSPost2010PropOp28
 70
     0
102
RTVSPost2010Prop29
280
     1
102
RTVSPost2010PropOp29
 70
     0
102
RTVSPost2010Prop30
280
     1
102
RTVSPost2010PropOp30
 70
     0
102
RTVSPost2010Prop31
280
     0
102
RTVSPost2010PropOp31
 70
     0
102
RTVSPost2010Prop32
280
     0
102
RTVSPost2010PropOp32
 70
     0
102
RTVSPost2010Prop33
280
     0
102
RTVSPost2010PropOp33
 70
     0
102
RTVSPost2010Prop34
280
     0
102
RTVSPost2010PropOp34
 70
     0
102
RTVSPost2010Prop35
280
     0
102
RTVSPost2010PropOp35
 70
     0
102
RTVSPost2010Prop36
280
     0
102
RTVSPost2010PropOp36
 70
     0
102
RTVSPost2010Prop37
 90
       50
102
RTVSPost2010PropOp37
 70
     0
102
RTVSPost2010Prop38
140
0.0
102
RTVSPost2010PropOp38
 70
     0
102
RTVSPost2010Prop39
140
1.0
102
RTVSPost2010PropOp39
 70
     0
102
RTVSPost2010Prop40
 90
        0
102
RTVSPost2010PropOp40
 70
     0
102
RTVSPost2010Prop41ColorIndex
 90
       18
102
RTVSPost2010Prop41ColorRGB
 90
        0
102
RTVSPost2010PropOp41
 70
     0
102
RTVSPost2010Prop42
 90
       50
102
RTVSPost2010PropOp42
 70
     0
102
RTVSPost2010Prop43
 90
        3
102
RTVSPost2010PropOp43
 70
     0
102
RTVSPost2010Prop44ColorIndex
 90
        5
102
RTVSPost2010Prop44ColorRGB
 90
      255
102
RTVSPost2010PropOp44
 70
     0
102
RTVSPost2010Prop45
280
     0
102
RTVSPost2010PropOp45
 70
     0
102
RTVSPost2010Prop46
 90
       50
102
RTVSPost2010PropOp46
 70
     0
102
RTVSPost2010Prop47
 90
       50
102
RTVSPost2010PropOp47
 70
     0
102
RTVSPost2010Prop48
 90
       50
102
RTVSPost2010PropOp48
 70
     0
102
RTVSPost2010Prop49
280
     0
102
RTVSPost2010PropOp49
 70
     0
102
RTVSPost2010Prop50
 90
       50
102
RTVSPost2010PropOp50
 70
     0
102
RTVSPost2010Prop51ColorIndex
 90
      256
102
RTVSPost2010Prop51ColorRGB
 90
-16777216
102
RTVSPost2010PropOp51
 70
     0
102
RTVSPost2010Prop52
140
1.0
102
RTVSPost2010PropOp52
 70
     0
102
RTVSPost2010Prop53
 90
        2
102
RTVSPost2010PropOp53
 70
     0
102
RTVSPost2010Prop54
  1
strokes_ogs.tif
102
RTVSPost2010PropOp54
 70
     0
102
RTVSPost2010Prop55
280
     0
102
RTVSPost2010PropOp55
 70
     0
102
RTVSPost2010Prop56
140
1.0
102
RTVSPost2010PropOp56
 70
     0
102
RTVSPost2010Prop57
140
1.0
102
RTVSPost2010PropOp57
 70
     0
  0
XRECORD
  5
61D
102
{ACAD_REACTORS
330
61C
102
}
330
61C
100
AcDbXrecord
280
     1
102
RTVSPropertyOp0
 70
     1
102
RTVSPropertyOp1
 70
     1
102
RTVSPropertyOp2
 70
     1
102
RTVSPropertyOp3
 70
     1
102
RTVSPropertyOp4
 70
     1
102
RTVSPropertyOp5
 70
     1
102
RTVSPropertyOp6
 70
     1
102
RTVSPropertyOp7
 70
     1
102
RTVSPropertyOp8
 70
     1
102
RTVSPropertyOp9
 70
     1
102
RTVSPropertyOp10
 70
     1
102
RTVSPropertyOp11
 70
     1
102
RTVSPropertyOp12
 70
     1
102
RTVSPropertyOp13
 70
     1
102
RTVSPropertyOp14
 70
     1
102
RTVSPropertyOp15
 70
     1
102
RTVSPropertyOp16
 70
     1
102
RTVSPropertyOp17
 70
     1
102
RTVSPropertyOp18
 70
     1
102
RTVSPropertyOp19
 70
     1
102
RTVSPropertyOp20
 70
     1
102
RTVSPropertyOp21
 70
     1
102
RTVSPropertyOp22
 70
     1
102
RTVSPropertyOp23
 70
     1
102
RTVSPropertyOp24
 70
     1
102
RTVSPropertyOp25
 70
     1
102
RTVSPropertyOp26
 70
     1
102
RTVSPropertyOp27
 70
     1
102
RTVSPropertyOp28
 70
     1
102
RTVSPropertyOp29
 70
     1
102
RTVSPropertyOp30
 70
     1
102
RTVSPropertyOp31
 70
     1
102
RTVSPropertyOp32
 70
     1
102
RTVSPropertyOp33
 70
     1
102
RTVSPropertyOp34
 70
     1
102
RTVSPropertyOp35
 70
     1
102
RTVSPropertyOp36
 70
     1
102
RTVSPropertyOp37
 70
     1
102
RTVSPropertyOp38
 70
     1
102
RTVSPropertyOp39
 70
     1
102
RTVSPropertyOp40
 70
     1
102
RTVSPropertyOp41
 70
     1
102
RTVSPropertyOp42
 70
     1
102
RTVSPropertyOp43
 70
     1
102
RTVSPropertyOp44
 70
     1
102
RTVSPropertyOp45
 70
     1
102
RTVSPropertyOp46
 70
     1
102
RTVSPropertyOp47
 70
     1
102
RTVSPropertyOp48
 70
     1
102
RTVSPropertyOp49
 70
     1
102
RTVSPropertyOp50
 70
     1
102
RTVSPropertyOp51
 70
     0
102
RTVSPropertyOp52
 70
     0
102
RTVSPropertyOp53
 70
     1
102
RTVSPropertyOp54
 70
     1
102
RTVSPropertyOp55
 70
     1
102
RTVSPropertyOp56
 70
     1
102
RTVSPropertyOp57
 70
     1
102
RTVSPost2010Prop28
280
     0
102
RTVSPost2010PropOp28
 70
     1
102
RTVSPost2010Prop29
280
     1
102
RTVSPost2010PropOp29
 70
     1
102
RTVSPost2010Prop30
280
     1
102
RTVSPost2010PropOp30
 70
     1
102
RTVSPost2010Prop31
280
     0
102
RTVSPost2010PropOp31
 70
     1
102
RTVSPost2010Prop32
280
     0
102
RTVSPost2010PropOp32
 70
     1
102
RTVSPost2010Prop33
280
     0
102
RTVSPost2010PropOp33
 70
     1
102
RTVSPost2010Prop34
280
     0
102
RTVSPost2010PropOp34
 70
     1
102
RTVSPost2010Prop35
280
     0
102
RTVSPost2010PropOp35
 70
     1
102
RTVSPost2010Prop36
280
     0
102
RTVSPost2010PropOp36
 70
     1
102
RTVSPost2010Prop37
 90
       50
102
RTVSPost2010PropOp37
 70
     1
102
RTVSPost2010Prop38
140
0.0
102
RTVSPost2010PropOp38
 70
     1
102
RTVSPost2010Prop39
140
1.0
102
RTVSPost2010PropOp39
 70
     1
102
RTVSPost2010Prop40
 90
        0
102
RTVSPost2010PropOp40
 70
     1
102
RTVSPost2010Prop41ColorIndex
 90
       18
102
RTVSPost2010Prop41ColorRGB
 90
        0
102
RTVSPost2010PropOp41
 70
     1
102
RTVSPost2010Prop42
 90
       50
102
RTVSPost2010PropOp42
 70
     1
102
RTVSPost2010Prop43
 90
        3
102
RTVSPost2010PropOp43
 70
     1
102
RTVSPost2010Prop44ColorIndex
 90
        5
102
RTVSPost2010Prop44ColorRGB
 90
      255
102
RTVSPost2010PropOp44
 70
     1
102
RTVSPost2010Prop45
280
     0
102
RTVSPost2010PropOp45
 70
     1
102
RTVSPost2010Prop46
 90
       50
102
RTVSPost2010PropOp46
 70
     1
102
RTVSPost2010Prop47
 90
       50
102
RTVSPost2010PropOp47
 70
     1
102
RTVSPost2010Prop48
 90
       50
102
RTVSPost2010PropOp48
 70
     1
102
RTVSPost2010Prop49
280
     0
102
RTVSPost2010PropOp49
 70
     1
102
RTVSPost2010Prop50
 90
       50
102
RTVSPost2010PropOp50
 70
     1
102
RTVSPost2010Prop51ColorIndex
 90
      256
102
RTVSPost2010Prop51ColorRGB
 90
-16777216
102
RTVSPost2010PropOp51
 70
     0
102
RTVSPost2010Prop52
140
1.0
102
RTVSPost2010PropOp52
 70
     0
102
RTVSPost2010Prop53
 90
        2
102
RTVSPost2010PropOp53
 70
     1
102
RTVSPost2010Prop54
  1
strokes_ogs.tif
102
RTVSPost2010PropOp54
 70
     1
102
RTVSPost2010Prop55
280
     0
102
RTVSPost2010PropOp55
 70
     1
102
RTVSPost2010Prop56
140
1.0
102
RTVSPost2010PropOp56
 70
     1
102
RTVSPost2010Prop57
140
1.0
102
RTVSPost2010PropOp57
 70
     1
  0
XRECORD
  5
63B
102
{ACAD_REACTORS
330
63A
102
}
330
63A
100
AcDbXrecord
280
     1
102
RTVSPropertyOp0
 70
     1
102
RTVSPropertyOp1
 70
     1
102
RTVSPropertyOp2
 70
     1
102
RTVSPropertyOp3
 70
     1
102
RTVSPropertyOp4
 70
     1
102
RTVSPropertyOp5
 70
     1
102
RTVSPropertyOp6
 70
     1
102
RTVSPropertyOp7
 70
     1
102
RTVSPropertyOp8
 70
     1
102
RTVSPropertyOp9
 70
     1
102
RTVSPropertyOp10
 70
     1
102
RTVSPropertyOp11
 70
     1
102
RTVSPropertyOp12
 70
     1
102
RTVSPropertyOp13
 70
     1
102
RTVSPropertyOp14
 70
     1
102
RTVSPropertyOp15
 70
     1
102
RTVSPropertyOp16
 70
     1
102
RTVSPropertyOp17
 70
     1
102
RTVSPropertyOp18
 70
     1
102
RTVSPropertyOp19
 70
     1
102
RTVSPropertyOp20
 70
     1
102
RTVSPropertyOp21
 70
     1
102
RTVSPropertyOp22
 70
     1
102
RTVSPropertyOp23
 70
     1
102
RTVSPropertyOp24
 70
     1
102
RTVSPropertyOp25
 70
     1
102
RTVSPropertyOp26
 70
     1
102
RTVSPropertyOp27
 70
     1
102
RTVSPropertyOp28
 70
     1
102
RTVSPropertyOp29
 70
     1
102
RTVSPropertyOp30
 70
     1
102
RTVSPropertyOp31
 70
     1
102
RTVSPropertyOp32
 70
     1
102
RTVSPropertyOp33
 70
     1
102
RTVSPropertyOp34
 70
     1
102
RTVSPropertyOp35
 70
     1
102
RTVSPropertyOp36
 70
     1
102
RTVSPropertyOp37
 70
     1
102
RTVSPropertyOp38
 70
     1
102
RTVSPropertyOp39
 70
     1
102
RTVSPropertyOp40
 70
     1
102
RTVSPropertyOp41
 70
     1
102
RTVSPropertyOp42
 70
     1
102
RTVSPropertyOp43
 70
     1
102
RTVSPropertyOp44
 70
     1
102
RTVSPropertyOp45
 70
     1
102
RTVSPropertyOp46
 70
     1
102
RTVSPropertyOp47
 70
     1
102
RTVSPropertyOp48
 70
     1
102
RTVSPropertyOp49
 70
     1
102
RTVSPropertyOp50
 70
     1
102
RTVSPropertyOp51
 70
     0
102
RTVSPropertyOp52
 70
     0
102
RTVSPropertyOp53
 70
     1
102
RTVSPropertyOp54
 70
     1
102
RTVSPropertyOp55
 70
     1
102
RTVSPropertyOp56
 70
     1
102
RTVSPropertyOp57
 70
     1
102
RTVSPost2010Prop28
280
     0
102
RTVSPost2010PropOp28
 70
     1
102
RTVSPost2010Prop29
280
     1
102
RTVSPost2010PropOp29
 70
     1
102
RTVSPost2010Prop30
280
     1
102
RTVSPost2010PropOp30
 70
     1
102
RTVSPost2010Prop31
280
     0
102
RTVSPost2010PropOp31
 70
     1
102
RTVSPost2010Prop32
280
     0
102
RTVSPost2010PropOp32
 70
     1
102
RTVSPost2010Prop33
280
     0
102
RTVSPost2010PropOp33
 70
     1
102
RTVSPost2010Prop34
280
     0
102
RTVSPost2010PropOp34
 70
     1
102
RTVSPost2010Prop35
280
     0
102
RTVSPost2010PropOp35
 70
     1
102
RTVSPost2010Prop36
280
     0
102
RTVSPost2010PropOp36
 70
     1
102
RTVSPost2010Prop37
 90
       50
102
RTVSPost2010PropOp37
 70
     1
102
RTVSPost2010Prop38
140
0.0
102
RTVSPost2010PropOp38
 70
     1
102
RTVSPost2010Prop39
140
1.0
102
RTVSPost2010PropOp39
 70
     1
102
RTVSPost2010Prop40
 90
        0
102
RTVSPost2010PropOp40
 70
     1
102
RTVSPost2010Prop41ColorIndex
 90
       18
102
RTVSPost2010Prop41ColorRGB
 90
        0
102
RTVSPost2010PropOp41
 70
     1
102
RTVSPost2010Prop42
 90
       50
102
RTVSPost2010PropOp42
 70
     1
102
RTVSPost2010Prop43
 90
        3
102
RTVSPost2010PropOp43
 70
     1
102
RTVSPost2010Prop44ColorIndex
 90
        5
102
RTVSPost2010Prop44ColorRGB
 90
      255
102
RTVSPost2010PropOp44
 70
     1
102
RTVSPost2010Prop45
280
     0
102
RTVSPost2010PropOp45
 70
     1
102
RTVSPost2010Prop46
 90
       50
102
RTVSPost2010PropOp46
 70
     1
102
RTVSPost2010Prop47
 90
       50
102
RTVSPost2010PropOp47
 70
     1
102
RTVSPost2010Prop48
 90
       50
102
RTVSPost2010PropOp48
 70
     1
102
RTVSPost2010Prop49
280
     0
102
RTVSPost2010PropOp49
 70
     1
102
RTVSPost2010Prop50
 90
       50
102
RTVSPost2010PropOp50
 70
     1
102
RTVSPost2010Prop51ColorIndex
 90
      256
102
RTVSPost2010Prop51ColorRGB
 90
-16777216
102
RTVSPost2010PropOp51
 70
     0
102
RTVSPost2010Prop52
140
1.0
102
RTVSPost2010PropOp52
 70
     0
102
RTVSPost2010Prop53
 90
        2
102
RTVSPost2010PropOp53
 70
     1
102
RTVSPost2010Prop54
  1
strokes_ogs.tif
102
RTVSPost2010PropOp54
 70
     1
102
RTVSPost2010Prop55
280
     0
102
RTVSPost2010PropOp55
 70
     1
102
RTVSPost2010Prop56
140
1.0
102
RTVSPost2010PropOp56
 70
     1
102
RTVSPost2010Prop57
140
1.0
102
RTVSPost2010PropOp57
 70
     1
  0
XRECORD
  5
639
102
{ACAD_REACTORS
330
638
102
}
330
638
100
AcDbXrecord
280
     1
102
RTVSPropertyOp0
 70
     1
102
RTVSPropertyOp1
 70
     1
102
RTVSPropertyOp2
 70
     1
102
RTVSPropertyOp3
 70
     1
102
RTVSPropertyOp4
 70
     1
102
RTVSPropertyOp5
 70
     1
102
RTVSPropertyOp6
 70
     1
102
RTVSPropertyOp7
 70
     1
102
RTVSPropertyOp8
 70
     1
102
RTVSPropertyOp9
 70
     1
102
RTVSPropertyOp10
 70
     1
102
RTVSPropertyOp11
 70
     1
102
RTVSPropertyOp12
 70
     1
102
RTVSPropertyOp13
 70
     1
102
RTVSPropertyOp14
 70
     1
102
RTVSPropertyOp15
 70
     1
102
RTVSPropertyOp16
 70
     1
102
RTVSPropertyOp17
 70
     1
102
RTVSPropertyOp18
 70
     1
102
RTVSPropertyOp19
 70
     1
102
RTVSPropertyOp20
 70
     1
102
RTVSPropertyOp21
 70
     1
102
RTVSPropertyOp22
 70
     1
102
RTVSPropertyOp23
 70
     1
102
RTVSPropertyOp24
 70
     1
102
RTVSPropertyOp25
 70
     1
102
RTVSPropertyOp26
 70
     1
102
RTVSPropertyOp27
 70
     1
102
RTVSPropertyOp28
 70
     1
102
RTVSPropertyOp29
 70
     1
102
RTVSPropertyOp30
 70
     1
102
RTVSPropertyOp31
 70
     1
102
RTVSPropertyOp32
 70
     1
102
RTVSPropertyOp33
 70
     1
102
RTVSPropertyOp34
 70
     1
102
RTVSPropertyOp35
 70
     1
102
RTVSPropertyOp36
 70
     1
102
RTVSPropertyOp37
 70
     1
102
RTVSPropertyOp38
 70
     1
102
RTVSPropertyOp39
 70
     1
102
RTVSPropertyOp40
 70
     1
102
RTVSPropertyOp41
 70
     1
102
RTVSPropertyOp42
 70
     1
102
RTVSPropertyOp43
 70
     1
102
RTVSPropertyOp44
 70
     1
102
RTVSPropertyOp45
 70
     1
102
RTVSPropertyOp46
 70
     1
102
RTVSPropertyOp47
 70
     1
102
RTVSPropertyOp48
 70
     1
102
RTVSPropertyOp49
 70
     1
102
RTVSPropertyOp50
 70
     1
102
RTVSPropertyOp51
 70
     0
102
RTVSPropertyOp52
 70
     0
102
RTVSPropertyOp53
 70
     1
102
RTVSPropertyOp54
 70
     1
102
RTVSPropertyOp55
 70
     1
102
RTVSPropertyOp56
 70
     1
102
RTVSPropertyOp57
 70
     1
102
RTVSPost2010Prop28
280
     0
102
RTVSPost2010PropOp28
 70
     1
102
RTVSPost2010Prop29
280
     1
102
RTVSPost2010PropOp29
 70
     1
102
RTVSPost2010Prop30
280
     1
102
RTVSPost2010PropOp30
 70
     1
102
RTVSPost2010Prop31
280
     0
102
RTVSPost2010PropOp31
 70
     1
102
RTVSPost2010Prop32
280
     0
102
RTVSPost2010PropOp32
 70
     1
102
RTVSPost2010Prop33
280
     0
102
RTVSPost2010PropOp33
 70
     1
102
RTVSPost2010Prop34
280
     0
102
RTVSPost2010PropOp34
 70
     1
102
RTVSPost2010Prop35
280
     0
102
RTVSPost2010PropOp35
 70
     1
102
RTVSPost2010Prop36
280
     0
102
RTVSPost2010PropOp36
 70
     1
102
RTVSPost2010Prop37
 90
       50
102
RTVSPost2010PropOp37
 70
     1
102
RTVSPost2010Prop38
140
0.0
102
RTVSPost2010PropOp38
 70
     1
102
RTVSPost2010Prop39
140
1.0
102
RTVSPost2010PropOp39
 70
     1
102
RTVSPost2010Prop40
 90
        0
102
RTVSPost2010PropOp40
 70
     1
102
RTVSPost2010Prop41ColorIndex
 90
       18
102
RTVSPost2010Prop41ColorRGB
 90
        0
102
RTVSPost2010PropOp41
 70
     1
102
RTVSPost2010Prop42
 90
       50
102
RTVSPost2010PropOp42
 70
     1
102
RTVSPost2010Prop43
 90
        3
102
RTVSPost2010PropOp43
 70
     1
102
RTVSPost2010Prop44ColorIndex
 90
        5
102
RTVSPost2010Prop44ColorRGB
 90
      255
102
RTVSPost2010PropOp44
 70
     1
102
RTVSPost2010Prop45
280
     0
102
RTVSPost2010PropOp45
 70
     1
102
RTVSPost2010Prop46
 90
       50
102
RTVSPost2010PropOp46
 70
     1
102
RTVSPost2010Prop47
 90
       50
102
RTVSPost2010PropOp47
 70
     1
102
RTVSPost2010Prop48
 90
       50
102
RTVSPost2010PropOp48
 70
     1
102
RTVSPost2010Prop49
280
     0
102
RTVSPost2010PropOp49
 70
     1
102
RTVSPost2010Prop50
 90
       50
102
RTVSPost2010PropOp50
 70
     1
102
RTVSPost2010Prop51ColorIndex
 90
      256
102
RTVSPost2010Prop51ColorRGB
 90
-16777216
102
RTVSPost2010PropOp51
 70
     0
102
RTVSPost2010Prop52
140
1.0
102
RTVSPost2010PropOp52
 70
     0
102
RTVSPost2010Prop53
 90
        2
102
RTVSPost2010PropOp53
 70
     1
102
RTVSPost2010Prop54
  1
strokes_ogs.tif
102
RTVSPost2010PropOp54
 70
     1
102
RTVSPost2010Prop55
280
     0
102
RTVSPost2010PropOp55
 70
     1
102
RTVSPost2010Prop56
140
1.0
102
RTVSPost2010PropOp56
 70
     1
102
RTVSPost2010Prop57
140
1.0
102
RTVSPost2010PropOp57
 70
     1
  0
XRECORD
  5
633
102
{ACAD_REACTORS
330
632
102
}
330
632
100
AcDbXrecord
280
     1
102
RTVSPropertyOp0
 70
     1
102
RTVSPropertyOp1
 70
     1
102
RTVSPropertyOp2
 70
     1
102
RTVSPropertyOp3
 70
     1
102
RTVSPropertyOp4
 70
     1
102
RTVSPropertyOp5
 70
     1
102
RTVSPropertyOp6
 70
     1
102
RTVSPropertyOp7
 70
     1
102
RTVSPropertyOp8
 70
     1
102
RTVSPropertyOp9
 70
     1
102
RTVSPropertyOp10
 70
     1
102
RTVSPropertyOp11
 70
     1
102
RTVSPropertyOp12
 70
     1
102
RTVSPropertyOp13
 70
     1
102
RTVSPropertyOp14
 70
     1
102
RTVSPropertyOp15
 70
     1
102
RTVSPropertyOp16
 70
     1
102
RTVSPropertyOp17
 70
     1
102
RTVSPropertyOp18
 70
     1
102
RTVSPropertyOp19
 70
     1
102
RTVSPropertyOp20
 70
     1
102
RTVSPropertyOp21
 70
     1
102
RTVSPropertyOp22
 70
     1
102
RTVSPropertyOp23
 70
     1
102
RTVSPropertyOp24
 70
     1
102
RTVSPropertyOp25
 70
     1
102
RTVSPropertyOp26
 70
     1
102
RTVSPropertyOp27
 70
     1
102
RTVSPropertyOp28
 70
     1
102
RTVSPropertyOp29
 70
     1
102
RTVSPropertyOp30
 70
     1
102
RTVSPropertyOp31
 70
     1
102
RTVSPropertyOp32
 70
     1
102
RTVSPropertyOp33
 70
     1
102
RTVSPropertyOp34
 70
     1
102
RTVSPropertyOp35
 70
     1
102
RTVSPropertyOp36
 70
     1
102
RTVSPropertyOp37
 70
     1
102
RTVSPropertyOp38
 70
     1
102
RTVSPropertyOp39
 70
     1
102
RTVSPropertyOp40
 70
     1
102
RTVSPropertyOp41
 70
     1
102
RTVSPropertyOp42
 70
     1
102
RTVSPropertyOp43
 70
     1
102
RTVSPropertyOp44
 70
     1
102
RTVSPropertyOp45
 70
     1
102
RTVSPropertyOp46
 70
     1
102
RTVSPropertyOp47
 70
     1
102
RTVSPropertyOp48
 70
     1
102
RTVSPropertyOp49
 70
     1
102
RTVSPropertyOp50
 70
     1
102
RTVSPropertyOp51
 70
     0
102
RTVSPropertyOp52
 70
     0
102
RTVSPropertyOp53
 70
     1
102
RTVSPropertyOp54
 70
     1
102
RTVSPropertyOp55
 70
     1
102
RTVSPropertyOp56
 70
     1
102
RTVSPropertyOp57
 70
     1
102
RTVSPost2010Prop28
280
     0
102
RTVSPost2010PropOp28
 70
     1
102
RTVSPost2010Prop29
280
     1
102
RTVSPost2010PropOp29
 70
     1
102
RTVSPost2010Prop30
280
     1
102
RTVSPost2010PropOp30
 70
     1
102
RTVSPost2010Prop31
280
     0
102
RTVSPost2010PropOp31
 70
     1
102
RTVSPost2010Prop32
280
     0
102
RTVSPost2010PropOp32
 70
     1
102
RTVSPost2010Prop33
280
     0
102
RTVSPost2010PropOp33
 70
     1
102
RTVSPost2010Prop34
280
     0
102
RTVSPost2010PropOp34
 70
     1
102
RTVSPost2010Prop35
280
     0
102
RTVSPost2010PropOp35
 70
     1
102
RTVSPost2010Prop36
280
     0
102
RTVSPost2010PropOp36
 70
     1
102
RTVSPost2010Prop37
 90
       50
102
RTVSPost2010PropOp37
 70
     1
102
RTVSPost2010Prop38
140
0.0
102
RTVSPost2010PropOp38
 70
     1
102
RTVSPost2010Prop39
140
1.0
102
RTVSPost2010PropOp39
 70
     1
102
RTVSPost2010Prop40
 90
        0
102
RTVSPost2010PropOp40
 70
     1
102
RTVSPost2010Prop41ColorIndex
 90
       18
102
RTVSPost2010Prop41ColorRGB
 90
        0
102
RTVSPost2010PropOp41
 70
     1
102
RTVSPost2010Prop42
 90
       50
102
RTVSPost2010PropOp42
 70
     1
102
RTVSPost2010Prop43
 90
        3
102
RTVSPost2010PropOp43
 70
     1
102
RTVSPost2010Prop44ColorIndex
 90
        5
102
RTVSPost2010Prop44ColorRGB
 90
      255
102
RTVSPost2010PropOp44
 70
     1
102
RTVSPost2010Prop45
280
     0
102
RTVSPost2010PropOp45
 70
     1
102
RTVSPost2010Prop46
 90
       50
102
RTVSPost2010PropOp46
 70
     1
102
RTVSPost2010Prop47
 90
       50
102
RTVSPost2010PropOp47
 70
     1
102
RTVSPost2010Prop48
 90
       50
102
RTVSPost2010PropOp48
 70
     1
102
RTVSPost2010Prop49
280
     0
102
RTVSPost2010PropOp49
 70
     1
102
RTVSPost2010Prop50
 90
       50
102
RTVSPost2010PropOp50
 70
     1
102
RTVSPost2010Prop51ColorIndex
 90
      256
102
RTVSPost2010Prop51ColorRGB
 90
-16777216
102
RTVSPost2010PropOp51
 70
     0
102
RTVSPost2010Prop52
140
1.0
102
RTVSPost2010PropOp52
 70
     0
102
RTVSPost2010Prop53
 90
        2
102
RTVSPost2010PropOp53
 70
     1
102
RTVSPost2010Prop54
  1
strokes_ogs.tif
102
RTVSPost2010PropOp54
 70
     1
102
RTVSPost2010Prop55
280
     0
102
RTVSPost2010PropOp55
 70
     1
102
RTVSPost2010Prop56
140
1.0
102
RTVSPost2010PropOp56
 70
     1
102
RTVSPost2010Prop57
140
1.0
102
RTVSPost2010PropOp57
 70
     1
  0
XRECORD
  5
635
102
{ACAD_REACTORS
330
634
102
}
330
634
100
AcDbXrecord
280
     1
102
RTVSPropertyOp0
 70
     1
102
RTVSPropertyOp1
 70
     1
102
RTVSPropertyOp2
 70
     1
102
RTVSPropertyOp3
 70
     1
102
RTVSPropertyOp4
 70
     1
102
RTVSPropertyOp5
 70
     1
102
RTVSPropertyOp6
 70
     1
102
RTVSPropertyOp7
 70
     1
102
RTVSPropertyOp8
 70
     1
102
RTVSPropertyOp9
 70
     1
102
RTVSPropertyOp10
 70
     1
102
RTVSPropertyOp11
 70
     1
102
RTVSPropertyOp12
 70
     1
102
RTVSPropertyOp13
 70
     1
102
RTVSPropertyOp14
 70
     1
102
RTVSPropertyOp15
 70
     1
102
RTVSPropertyOp16
 70
     1
102
RTVSPropertyOp17
 70
     1
102
RTVSPropertyOp18
 70
     1
102
RTVSPropertyOp19
 70
     1
102
RTVSPropertyOp20
 70
     1
102
RTVSPropertyOp21
 70
     1
102
RTVSPropertyOp22
 70
     1
102
RTVSPropertyOp23
 70
     1
102
RTVSPropertyOp24
 70
     1
102
RTVSPropertyOp25
 70
     1
102
RTVSPropertyOp26
 70
     1
102
RTVSPropertyOp27
 70
     1
102
RTVSPropertyOp28
 70
     1
102
RTVSPropertyOp29
 70
     1
102
RTVSPropertyOp30
 70
     1
102
RTVSPropertyOp31
 70
     1
102
RTVSPropertyOp32
 70
     1
102
RTVSPropertyOp33
 70
     1
102
RTVSPropertyOp34
 70
     1
102
RTVSPropertyOp35
 70
     1
102
RTVSPropertyOp36
 70
     1
102
RTVSPropertyOp37
 70
     1
102
RTVSPropertyOp38
 70
     1
102
RTVSPropertyOp39
 70
     1
102
RTVSPropertyOp40
 70
     1
102
RTVSPropertyOp41
 70
     1
102
RTVSPropertyOp42
 70
     1
102
RTVSPropertyOp43
 70
     1
102
RTVSPropertyOp44
 70
     1
102
RTVSPropertyOp45
 70
     1
102
RTVSPropertyOp46
 70
     1
102
RTVSPropertyOp47
 70
     1
102
RTVSPropertyOp48
 70
     1
102
RTVSPropertyOp49
 70
     1
102
RTVSPropertyOp50
 70
     1
102
RTVSPropertyOp51
 70
     0
102
RTVSPropertyOp52
 70
     0
102
RTVSPropertyOp53
 70
     1
102
RTVSPropertyOp54
 70
     1
102
RTVSPropertyOp55
 70
     1
102
RTVSPropertyOp56
 70
     1
102
RTVSPropertyOp57
 70
     1
102
RTVSPost2010Prop28
280
     0
102
RTVSPost2010PropOp28
 70
     1
102
RTVSPost2010Prop29
280
     1
102
RTVSPost2010PropOp29
 70
     1
102
RTVSPost2010Prop30
280
     1
102
RTVSPost2010PropOp30
 70
     1
102
RTVSPost2010Prop31
280
     0
102
RTVSPost2010PropOp31
 70
     1
102
RTVSPost2010Prop32
280
     0
102
RTVSPost2010PropOp32
 70
     1
102
RTVSPost2010Prop33
280
     0
102
RTVSPost2010PropOp33
 70
     1
102
RTVSPost2010Prop34
280
     0
102
RTVSPost2010PropOp34
 70
     1
102
RTVSPost2010Prop35
280
     0
102
RTVSPost2010PropOp35
 70
     1
102
RTVSPost2010Prop36
280
     0
102
RTVSPost2010PropOp36
 70
     1
102
RTVSPost2010Prop37
 90
       50
102
RTVSPost2010PropOp37
 70
     1
102
RTVSPost2010Prop38
140
0.0
102
RTVSPost2010PropOp38
 70
     1
102
RTVSPost2010Prop39
140
1.0
102
RTVSPost2010PropOp39
 70
     1
102
RTVSPost2010Prop40
 90
        0
102
RTVSPost2010PropOp40
 70
     1
102
RTVSPost2010Prop41ColorIndex
 90
       18
102
RTVSPost2010Prop41ColorRGB
 90
        0
102
RTVSPost2010PropOp41
 70
     1
102
RTVSPost2010Prop42
 90
       50
102
RTVSPost2010PropOp42
 70
     1
102
RTVSPost2010Prop43
 90
        3
102
RTVSPost2010PropOp43
 70
     1
102
RTVSPost2010Prop44ColorIndex
 90
        5
102
RTVSPost2010Prop44ColorRGB
 90
      255
102
RTVSPost2010PropOp44
 70
     1
102
RTVSPost2010Prop45
280
     0
102
RTVSPost2010PropOp45
 70
     1
102
RTVSPost2010Prop46
 90
       50
102
RTVSPost2010PropOp46
 70
     1
102
RTVSPost2010Prop47
 90
       50
102
RTVSPost2010PropOp47
 70
     1
102
RTVSPost2010Prop48
 90
       50
102
RTVSPost2010PropOp48
 70
     1
102
RTVSPost2010Prop49
280
     0
102
RTVSPost2010PropOp49
 70
     1
102
RTVSPost2010Prop50
 90
       50
102
RTVSPost2010PropOp50
 70
     1
102
RTVSPost2010Prop51ColorIndex
 90
      256
102
RTVSPost2010Prop51ColorRGB
 90
-16777216
102
RTVSPost2010PropOp51
 70
     0
102
RTVSPost2010Prop52
140
1.0
102
RTVSPost2010PropOp52
 70
     0
102
RTVSPost2010Prop53
 90
        2
102
RTVSPost2010PropOp53
 70
     1
102
RTVSPost2010Prop54
  1
strokes_ogs.tif
102
RTVSPost2010PropOp54
 70
     1
102
RTVSPost2010Prop55
280
     0
102
RTVSPost2010PropOp55
 70
     1
102
RTVSPost2010Prop56
140
1.0
102
RTVSPost2010PropOp56
 70
     1
102
RTVSPost2010Prop57
140
1.0
102
RTVSPost2010PropOp57
 70
     1
  0
XRECORD
  5
625
102
{ACAD_REACTORS
330
624
102
}
330
624
100
AcDbXrecord
280
     1
102
RTVSPropertyOp0
 70
     1
102
RTVSPropertyOp1
 70
     1
102
RTVSPropertyOp2
 70
     1
102
RTVSPropertyOp3
 70
     1
102
RTVSPropertyOp4
 70
     1
102
RTVSPropertyOp5
 70
     1
102
RTVSPropertyOp6
 70
     1
102
RTVSPropertyOp7
 70
     1
102
RTVSPropertyOp8
 70
     1
102
RTVSPropertyOp9
 70
     1
102
RTVSPropertyOp10
 70
     1
102
RTVSPropertyOp11
 70
     1
102
RTVSPropertyOp12
 70
     1
102
RTVSPropertyOp13
 70
     1
102
RTVSPropertyOp14
 70
     1
102
RTVSPropertyOp15
 70
     1
102
RTVSPropertyOp16
 70
     1
102
RTVSPropertyOp17
 70
     1
102
RTVSPropertyOp18
 70
     1
102
RTVSPropertyOp19
 70
     1
102
RTVSPropertyOp20
 70
     1
102
RTVSPropertyOp21
 70
     1
102
RTVSPropertyOp22
 70
     1
102
RTVSPropertyOp23
 70
     1
102
RTVSPropertyOp24
 70
     1
102
RTVSPropertyOp25
 70
     1
102
RTVSPropertyOp26
 70
     1
102
RTVSPropertyOp27
 70
     1
102
RTVSPropertyOp28
 70
     1
102
RTVSPropertyOp29
 70
     1
102
RTVSPropertyOp30
 70
     1
102
RTVSPropertyOp31
 70
     1
102
RTVSPropertyOp32
 70
     1
102
RTVSPropertyOp33
 70
     1
102
RTVSPropertyOp34
 70
     1
102
RTVSPropertyOp35
 70
     1
102
RTVSPropertyOp36
 70
     1
102
RTVSPropertyOp37
 70
     1
102
RTVSPropertyOp38
 70
     1
102
RTVSPropertyOp39
 70
     1
102
RTVSPropertyOp40
 70
     1
102
RTVSPropertyOp41
 70
     1
102
RTVSPropertyOp42
 70
     1
102
RTVSPropertyOp43
 70
     1
102
RTVSPropertyOp44
 70
     1
102
RTVSPropertyOp45
 70
     1
102
RTVSPropertyOp46
 70
     1
102
RTVSPropertyOp47
 70
     1
102
RTVSPropertyOp48
 70
     1
102
RTVSPropertyOp49
 70
     1
102
RTVSPropertyOp50
 70
     1
102
RTVSPropertyOp51
 70
     0
102
RTVSPropertyOp52
 70
     0
102
RTVSPropertyOp53
 70
     1
102
RTVSPropertyOp54
 70
     1
102
RTVSPropertyOp55
 70
     1
102
RTVSPropertyOp56
 70
     1
102
RTVSPropertyOp57
 70
     1
102
RTVSPost2010Prop28
280
     0
102
RTVSPost2010PropOp28
 70
     1
102
RTVSPost2010Prop29
280
     1
102
RTVSPost2010PropOp29
 70
     1
102
RTVSPost2010Prop30
280
     1
102
RTVSPost2010PropOp30
 70
     1
102
RTVSPost2010Prop31
280
     0
102
RTVSPost2010PropOp31
 70
     1
102
RTVSPost2010Prop32
280
     0
102
RTVSPost2010PropOp32
 70
     1
102
RTVSPost2010Prop33
280
     0
102
RTVSPost2010PropOp33
 70
     1
102
RTVSPost2010Prop34
280
     0
102
RTVSPost2010PropOp34
 70
     1
102
RTVSPost2010Prop35
280
     0
102
RTVSPost2010PropOp35
 70
     1
102
RTVSPost2010Prop36
280
     0
102
RTVSPost2010PropOp36
 70
     1
102
RTVSPost2010Prop37
 90
       50
102
RTVSPost2010PropOp37
 70
     1
102
RTVSPost2010Prop38
140
0.0
102
RTVSPost2010PropOp38
 70
     1
102
RTVSPost2010Prop39
140
1.0
102
RTVSPost2010PropOp39
 70
     1
102
RTVSPost2010Prop40
 90
        0
102
RTVSPost2010PropOp40
 70
     1
102
RTVSPost2010Prop41ColorIndex
 90
       18
102
RTVSPost2010Prop41ColorRGB
 90
        0
102
RTVSPost2010PropOp41
 70
     1
102
RTVSPost2010Prop42
 90
       50
102
RTVSPost2010PropOp42
 70
     1
102
RTVSPost2010Prop43
 90
        3
102
RTVSPost2010PropOp43
 70
     1
102
RTVSPost2010Prop44ColorIndex
 90
        5
102
RTVSPost2010Prop44ColorRGB
 90
      255
102
RTVSPost2010PropOp44
 70
     1
102
RTVSPost2010Prop45
280
     0
102
RTVSPost2010PropOp45
 70
     1
102
RTVSPost2010Prop46
 90
       50
102
RTVSPost2010PropOp46
 70
     1
102
RTVSPost2010Prop47
 90
       50
102
RTVSPost2010PropOp47
 70
     1
102
RTVSPost2010Prop48
 90
       50
102
RTVSPost2010PropOp48
 70
     1
102
RTVSPost2010Prop49
280
     0
102
RTVSPost2010PropOp49
 70
     1
102
RTVSPost2010Prop50
 90
       50
102
RTVSPost2010PropOp50
 70
     1
102
RTVSPost2010Prop51ColorIndex
 90
      256
102
RTVSPost2010Prop51ColorRGB
 90
-16777216
102
RTVSPost2010PropOp51
 70
     0
102
RTVSPost2010Prop52
140
1.0
102
RTVSPost2010PropOp52
 70
     0
102
RTVSPost2010Prop53
 90
        2
102
RTVSPost2010PropOp53
 70
     1
102
RTVSPost2010Prop54
  1
strokes_ogs.tif
102
RTVSPost2010PropOp54
 70
     1
102
RTVSPost2010Prop55
280
     0
102
RTVSPost2010PropOp55
 70
     1
102
RTVSPost2010Prop56
140
1.0
102
RTVSPost2010PropOp56
 70
     1
102
RTVSPost2010Prop57
140
1.0
102
RTVSPost2010PropOp57
 70
     1
  0
XRECORD
  5
617
102
{ACAD_REACTORS
330
616
102
}
330
616
100
AcDbXrecord
280
     1
102
RTVSPropertyOp0
 70
     1
102
RTVSPropertyOp1
 70
     1
102
RTVSPropertyOp2
 70
     1
102
RTVSPropertyOp3
 70
     1
102
RTVSPropertyOp4
 70
     1
102
RTVSPropertyOp5
 70
     1
102
RTVSPropertyOp6
 70
     1
102
RTVSPropertyOp7
 70
     1
102
RTVSPropertyOp8
 70
     1
102
RTVSPropertyOp9
 70
     1
102
RTVSPropertyOp10
 70
     1
102
RTVSPropertyOp11
 70
     1
102
RTVSPropertyOp12
 70
     1
102
RTVSPropertyOp13
 70
     1
102
RTVSPropertyOp14
 70
     1
102
RTVSPropertyOp15
 70
     1
102
RTVSPropertyOp16
 70
     1
102
RTVSPropertyOp17
 70
     1
102
RTVSPropertyOp18
 70
     1
102
RTVSPropertyOp19
 70
     1
102
RTVSPropertyOp20
 70
     1
102
RTVSPropertyOp21
 70
     1
102
RTVSPropertyOp22
 70
     1
102
RTVSPropertyOp23
 70
     1
102
RTVSPropertyOp24
 70
     1
102
RTVSPropertyOp25
 70
     1
102
RTVSPropertyOp26
 70
     1
102
RTVSPropertyOp27
 70
     1
102
RTVSPropertyOp28
 70
     1
102
RTVSPropertyOp29
 70
     1
102
RTVSPropertyOp30
 70
     1
102
RTVSPropertyOp31
 70
     1
102
RTVSPropertyOp32
 70
     1
102
RTVSPropertyOp33
 70
     1
102
RTVSPropertyOp34
 70
     1
102
RTVSPropertyOp35
 70
     1
102
RTVSPropertyOp36
 70
     1
102
RTVSPropertyOp37
 70
     1
102
RTVSPropertyOp38
 70
     1
102
RTVSPropertyOp39
 70
     1
102
RTVSPropertyOp40
 70
     1
102
RTVSPropertyOp41
 70
     1
102
RTVSPropertyOp42
 70
     1
102
RTVSPropertyOp43
 70
     1
102
RTVSPropertyOp44
 70
     1
102
RTVSPropertyOp45
 70
     1
102
RTVSPropertyOp46
 70
     1
102
RTVSPropertyOp47
 70
     1
102
RTVSPropertyOp48
 70
     1
102
RTVSPropertyOp49
 70
     1
102
RTVSPropertyOp50
 70
     1
102
RTVSPropertyOp51
 70
     0
102
RTVSPropertyOp52
 70
     0
102
RTVSPropertyOp53
 70
     1
102
RTVSPropertyOp54
 70
     1
102
RTVSPropertyOp55
 70
     1
102
RTVSPropertyOp56
 70
     1
102
RTVSPropertyOp57
 70
     1
102
RTVSPost2010Prop28
280
     0
102
RTVSPost2010PropOp28
 70
     1
102
RTVSPost2010Prop29
280
     1
102
RTVSPost2010PropOp29
 70
     1
102
RTVSPost2010Prop30
280
     1
102
RTVSPost2010PropOp30
 70
     1
102
RTVSPost2010Prop31
280
     0
102
RTVSPost2010PropOp31
 70
     1
102
RTVSPost2010Prop32
280
     0
102
RTVSPost2010PropOp32
 70
     1
102
RTVSPost2010Prop33
280
     0
102
RTVSPost2010PropOp33
 70
     1
102
RTVSPost2010Prop34
280
     0
102
RTVSPost2010PropOp34
 70
     1
102
RTVSPost2010Prop35
280
     0
102
RTVSPost2010PropOp35
 70
     1
102
RTVSPost2010Prop36
280
     0
102
RTVSPost2010PropOp36
 70
     1
102
RTVSPost2010Prop37
 90
       50
102
RTVSPost2010PropOp37
 70
     1
102
RTVSPost2010Prop38
140
0.0
102
RTVSPost2010PropOp38
 70
     1
102
RTVSPost2010Prop39
140
1.0
102
RTVSPost2010PropOp39
 70
     1
102
RTVSPost2010Prop40
 90
        0
102
RTVSPost2010PropOp40
 70
     1
102
RTVSPost2010Prop41ColorIndex
 90
       18
102
RTVSPost2010Prop41ColorRGB
 90
        0
102
RTVSPost2010PropOp41
 70
     1
102
RTVSPost2010Prop42
 90
       50
102
RTVSPost2010PropOp42
 70
     1
102
RTVSPost2010Prop43
 90
        3
102
RTVSPost2010PropOp43
 70
     1
102
RTVSPost2010Prop44ColorIndex
 90
        5
102
RTVSPost2010Prop44ColorRGB
 90
      255
102
RTVSPost2010PropOp44
 70
     1
102
RTVSPost2010Prop45
280
     0
102
RTVSPost2010PropOp45
 70
     1
102
RTVSPost2010Prop46
 90
       50
102
RTVSPost2010PropOp46
 70
     1
102
RTVSPost2010Prop47
 90
       50
102
RTVSPost2010PropOp47
 70
     1
102
RTVSPost2010Prop48
 90
       50
102
RTVSPost2010PropOp48
 70
     1
102
RTVSPost2010Prop49
280
     0
102
RTVSPost2010PropOp49
 70
     1
102
RTVSPost2010Prop50
 90
       50
102
RTVSPost2010PropOp50
 70
     1
102
RTVSPost2010Prop51ColorIndex
 90
      256
102
RTVSPost2010Prop51ColorRGB
 90
-16777216
102
RTVSPost2010PropOp51
 70
     0
102
RTVSPost2010Prop52
140
1.0
102
RTVSPost2010PropOp52
 70
     0
102
RTVSPost2010Prop53
 90
        2
102
RTVSPost2010PropOp53
 70
     1
102
RTVSPost2010Prop54
  1
strokes_ogs.tif
102
RTVSPost2010PropOp54
 70
     1
102
RTVSPost2010Prop55
280
     0
102
RTVSPost2010PropOp55
 70
     1
102
RTVSPost2010Prop56
140
1.0
102
RTVSPost2010PropOp56
 70
     1
102
RTVSPost2010Prop57
140
1.0
102
RTVSPost2010PropOp57
 70
     1
  0
XRECORD
  5
637
102
{ACAD_REACTORS
330
636
102
}
330
636
100
AcDbXrecord
280
     1
102
RTVSPropertyOp0
 70
     1
102
RTVSPropertyOp1
 70
     1
102
RTVSPropertyOp2
 70
     1
102
RTVSPropertyOp3
 70
     1
102
RTVSPropertyOp4
 70
     1
102
RTVSPropertyOp5
 70
     1
102
RTVSPropertyOp6
 70
     1
102
RTVSPropertyOp7
 70
     1
102
RTVSPropertyOp8
 70
     1
102
RTVSPropertyOp9
 70
     1
102
RTVSPropertyOp10
 70
     1
102
RTVSPropertyOp11
 70
     1
102
RTVSPropertyOp12
 70
     1
102
RTVSPropertyOp13
 70
     1
102
RTVSPropertyOp14
 70
     1
102
RTVSPropertyOp15
 70
     1
102
RTVSPropertyOp16
 70
     1
102
RTVSPropertyOp17
 70
     1
102
RTVSPropertyOp18
 70
     1
102
RTVSPropertyOp19
 70
     1
102
RTVSPropertyOp20
 70
     1
102
RTVSPropertyOp21
 70
     1
102
RTVSPropertyOp22
 70
     1
102
RTVSPropertyOp23
 70
     1
102
RTVSPropertyOp24
 70
     1
102
RTVSPropertyOp25
 70
     1
102
RTVSPropertyOp26
 70
     1
102
RTVSPropertyOp27
 70
     1
102
RTVSPropertyOp28
 70
     1
102
RTVSPropertyOp29
 70
     1
102
RTVSPropertyOp30
 70
     1
102
RTVSPropertyOp31
 70
     1
102
RTVSPropertyOp32
 70
     1
102
RTVSPropertyOp33
 70
     1
102
RTVSPropertyOp34
 70
     1
102
RTVSPropertyOp35
 70
     1
102
RTVSPropertyOp36
 70
     1
102
RTVSPropertyOp37
 70
     1
102
RTVSPropertyOp38
 70
     1
102
RTVSPropertyOp39
 70
     1
102
RTVSPropertyOp40
 70
     1
102
RTVSPropertyOp41
 70
     1
102
RTVSPropertyOp42
 70
     1
102
RTVSPropertyOp43
 70
     1
102
RTVSPropertyOp44
 70
     1
102
RTVSPropertyOp45
 70
     1
102
RTVSPropertyOp46
 70
     1
102
RTVSPropertyOp47
 70
     1
102
RTVSPropertyOp48
 70
     1
102
RTVSPropertyOp49
 70
     1
102
RTVSPropertyOp50
 70
     1
102
RTVSPropertyOp51
 70
     0
102
RTVSPropertyOp52
 70
     0
102
RTVSPropertyOp53
 70
     1
102
RTVSPropertyOp54
 70
     1
102
RTVSPropertyOp55
 70
     1
102
RTVSPropertyOp56
 70
     1
102
RTVSPropertyOp57
 70
     1
102
RTVSPost2010Prop28
280
     0
102
RTVSPost2010PropOp28
 70
     1
102
RTVSPost2010Prop29
280
     1
102
RTVSPost2010PropOp29
 70
     1
102
RTVSPost2010Prop30
280
     1
102
RTVSPost2010PropOp30
 70
     1
102
RTVSPost2010Prop31
280
     0
102
RTVSPost2010PropOp31
 70
     1
102
RTVSPost2010Prop32
280
     0
102
RTVSPost2010PropOp32
 70
     1
102
RTVSPost2010Prop33
280
     0
102
RTVSPost2010PropOp33
 70
     1
102
RTVSPost2010Prop34
280
     0
102
RTVSPost2010PropOp34
 70
     1
102
RTVSPost2010Prop35
280
     0
102
RTVSPost2010PropOp35
 70
     1
102
RTVSPost2010Prop36
280
     0
102
RTVSPost2010PropOp36
 70
     1
102
RTVSPost2010Prop37
 90
       50
102
RTVSPost2010PropOp37
 70
     1
102
RTVSPost2010Prop38
140
0.0
102
RTVSPost2010PropOp38
 70
     1
102
RTVSPost2010Prop39
140
1.0
102
RTVSPost2010PropOp39
 70
     1
102
RTVSPost2010Prop40
 90
        0
102
RTVSPost2010PropOp40
 70
     1
102
RTVSPost2010Prop41ColorIndex
 90
       18
102
RTVSPost2010Prop41ColorRGB
 90
        0
102
RTVSPost2010PropOp41
 70
     1
102
RTVSPost2010Prop42
 90
       50
102
RTVSPost2010PropOp42
 70
     1
102
RTVSPost2010Prop43
 90
        3
102
RTVSPost2010PropOp43
 70
     1
102
RTVSPost2010Prop44ColorIndex
 90
        5
102
RTVSPost2010Prop44ColorRGB
 90
      255
102
RTVSPost2010PropOp44
 70
     1
102
RTVSPost2010Prop45
280
     0
102
RTVSPost2010PropOp45
 70
     1
102
RTVSPost2010Prop46
 90
       50
102
RTVSPost2010PropOp46
 70
     1
102
RTVSPost2010Prop47
 90
       50
102
RTVSPost2010PropOp47
 70
     1
102
RTVSPost2010Prop48
 90
       50
102
RTVSPost2010PropOp48
 70
     1
102
RTVSPost2010Prop49
280
     0
102
RTVSPost2010PropOp49
 70
     1
102
RTVSPost2010Prop50
 90
       50
102
RTVSPost2010PropOp50
 70
     1
102
RTVSPost2010Prop51ColorIndex
 90
      256
102
RTVSPost2010Prop51ColorRGB
 90
-16777216
102
RTVSPost2010PropOp51
 70
     0
102
RTVSPost2010Prop52
140
1.0
102
RTVSPost2010PropOp52
 70
     0
102
RTVSPost2010Prop53
 90
        2
102
RTVSPost2010PropOp53
 70
     1
102
RTVSPost2010Prop54
  1
strokes_ogs.tif
102
RTVSPost2010PropOp54
 70
     1
102
RTVSPost2010Prop55
280
     0
102
RTVSPost2010PropOp55
 70
     1
102
RTVSPost2010Prop56
140
1.0
102
RTVSPost2010PropOp56
 70
     1
102
RTVSPost2010Prop57
140
1.0
102
RTVSPost2010PropOp57
 70
     1
  0
ENDSEC
  0
EOF
