  0
SECTION
  2
HEADER
  9
$ACADVER
  1
AC1009
  9
$DWGCODEPAGE
  3
ansi_1252
  9
$INSBASE
 10
0.0
 20
0.0
 30
0.0
  9
$EXTMIN
 10
38.21312221731159
 20
27.77232787328813
 30
0.0
  9
$EXTMAX
 10
1565.621382663691
 20
899.7689092100661
 30
0.0
  9
$LIMMIN
 10
0.0
 20
0.0
  9
$LIMMAX
 10
12.0
 20
9.0
  9
$ORTHOMODE
 70
     0
  9
$REGENMODE
 70
     1
  9
$FILLMODE
 70
     1
  9
$QTEXTMODE
 70
     0
  9
$MIRRTEXT
 70
     1
  9
$DRAGMODE
 70
     2
  9
$LTSCALE
 40
1.0
  9
$OSMODE
 70
    37
  9
$ATTMODE
 70
     1
  9
$TEXTSIZE
 40
0.2
  9
$TRACEWID
 40
0.05
  9
$TEXTSTYLE
  7
STANDARD
  9
$CLAYER
  8
LAYER_03
  9
$CELTYPE
  6
BYLAYER
  9
$CECOLOR
 62
   256
  9
$DIMSCALE
 40
1.0
  9
$DIMASZ
 40
0.18
  9
$DIMEXO
 40
0.0625
  9
$DIMDLI
 40
0.38
  9
$DIMRND
 40
0.0
  9
$DIMDLE
 40
0.0
  9
$DIMEXE
 40
0.18
  9
$DIMTP
 40
0.0
  9
$DIMTM
 40
0.0
  9
$DIMTXT
 40
0.18
  9
$DIMCEN
 40
0.09
  9
$DIMTSZ
 40
0.0
  9
$DIMTOL
 70
     0
  9
$DIMLIM
 70
     0
  9
$DIMTIH
 70
     1
  9
$DIMTOH
 70
     1
  9
$DIMSE1
 70
     0
  9
$DIMSE2
 70
     0
  9
$DIMTAD
 70
     0
  9
$DIMZIN
 70
     0
  9
$DIMBLK
  1

  9
$DIMASO
 70
     1
  9
$DIMSHO
 70
     1
  9
$DIMPOST
  1

  9
$DIMAPOST
  1

  9
$DIMALT
 70
     0
  9
$DIMALTD
 70
     2
  9
$DIMALTF
 40
25.4
  9
$DIMLFAC
 40
1.0
  9
$DIMTOFL
 70
     0
  9
$DIMTVP
 40
0.0
  9
$DIMTIX
 70
     0
  9
$DIMSOXD
 70
     0
  9
$DIMSAH
 70
     0
  9
$DIMBLK1
  1

  9
$DIMBLK2
  1

  9
$DIMSTYLE
  2
STANDARD
  9
$DIMCLRD
 70
     0
  9
$DIMCLRE
 70
     0
  9
$DIMCLRT
 70
     0
  9
$DIMTFAC
 40
1.0
  9
$DIMGAP
 40
0.09
  9
$LUNITS
 70
     2
  9
$LUPREC
 70
     3
  9
$SKETCHINC
 40
0.1
  9
$FILLETRAD
 40
0.5
  9
$AUNITS
 70
     0
  9
$AUPREC
 70
     0
  9
$MENU
  1
.
  9
$ELEVATION
 40
0.0
  9
$PELEVATION
 40
0.0
  9
$THICKNESS
 40
0.0
  9
$LIMCHECK
 70
     0
  9
$CHAMFERA
 40
0.0
  9
$CHAMFERB
 40
0.0
  9
$SKPOLY
 70
     0
  9
$TDCREATE
 40
2457492.480842963
  9
$TDUPDATE
 40
2457492.480868553
  9
$TDINDWG
 40
0.0000000116
  9
$TDUSRTIMER
 40
0.0000000116
  9
$USRTIMER
 70
     1
  9
$ANGBASE
 50
0.0
  9
$ANGDIR
 70
     0
  9
$PDMODE
 70
     0
  9
$PDSIZE
 40
0.0
  9
$PLINEWID
 40
0.0
  9
$COORDS
 70
     1
  9
$SPLFRAME
 70
     0
  9
$SPLINETYPE
 70
     6
  9
$SPLINESEGS
 70
     8
  9
$ATTDIA
 70
     0
  9
$ATTREQ
 70
     1
  9
$HANDLING
 70
     1
  9
$HANDSEED
  5
ADC
  9
$SURFTAB1
 70
     6
  9
$SURFTAB2
 70
     6
  9
$SURFTYPE
 70
     6
  9
$SURFU
 70
     6
  9
$SURFV
 70
     6
  9
$UCSNAME
  2

  9
$UCSORG
 10
0.0
 20
0.0
 30
0.0
  9
$UCSXDIR
 10
1.0
 20
0.0
 30
0.0
  9
$UCSYDIR
 10
0.0
 20
1.0
 30
0.0
  9
$PUCSNAME
  2

  9
$PUCSORG
 10
0.0
 20
0.0
 30
0.0
  9
$PUCSXDIR
 10
1.0
 20
0.0
 30
0.0
  9
$PUCSYDIR
 10
0.0
 20
1.0
 30
0.0
  9
$USERI1
 70
     0
  9
$USERI2
 70
     0
  9
$USERI3
 70
     0
  9
$USERI4
 70
     0
  9
$USERI5
 70
     0
  9
$USERR1
 40
0.0
  9
$USERR2
 40
0.0
  9
$USERR3
 40
0.0
  9
$USERR4
 40
0.0
  9
$USERR5
 40
0.0
  9
$WORLDVIEW
 70
     1
  9
$SHADEDGE
 70
     3
  9
$SHADEDIF
 70
    70
  9
$TILEMODE
 70
     1
  9
$MAXACTVP
 70
    64
  9
$PLIMCHECK
 70
     0
  9
$PEXTMIN
 10
1.000000000000000E+20
 20
1.000000000000000E+20
 30
1.000000000000000E+20
  9
$PEXTMAX
 10
-1.000000000000000E+20
 20
-1.000000000000000E+20
 30
-1.000000000000000E+20
  9
$PLIMMIN
 10
0.0
 20
0.0
  9
$PLIMMAX
 10
12.0
 20
9.0
  9
$UNITMODE
 70
     0
  9
$VISRETAIN
 70
     1
  9
$PLINEGEN
 70
     0
  9
$PSLTSCALE
 70
     1
  0
ENDSEC
  0
SECTION
  2
TABLES
  0
TABLE
  2
VPORT
 70
     1
  0
VPORT
  2
*ACTIVE
 70
     0
 10
0.0
 20
0.0
 11
1.0
 21
1.0
 12
801.9172524405012
 22
472.5211388045468
 13
0.0
 23
0.0
 14
0.5
 24
0.5
 15
0.5
 25
0.5
 16
0.0
 26
0.0
 36
1.0
 17
0.0
 27
0.0
 37
0.0
 40
907.2875742997676
 41
1.717158340736361
 42
50.0
 43
0.0
 44
0.0
 50
0.0
 51
0.0
 71
     0
 72
   100
 73
     1
 74
     3
 75
     0
 76
     0
 77
     0
 78
     0
  0
ENDTAB
  0
TABLE
  2
LTYPE
 70
     1
  0
LTYPE
  2
CONTINUOUS
 70
     0
  3
Solid line
 72
    65
 73
     0
 40
0.0
  0
ENDTAB
  0
TABLE
  2
LAYER
 70
     5
  0
LAYER
  2
0
 70
     0
 62
     7
  6
CONTINUOUS
  0
LAYER
  2
LAYER_03
 70
     0
 62
    70
  6
CONTINUOUS
  0
LAYER
  2
DEFAULT
 70
     0
 62
     4
  6
CONTINUOUS
  0
LAYER
  2
LAYER_01
 70
     0
 62
     7
  6
CONTINUOUS
  0
LAYER
  2
BASE
 70
     0
 62
     7
  6
CONTINUOUS
  0
ENDTAB
  0
TABLE
  2
STYLE
 70
     1
  0
STYLE
  2
STANDARD
 70
     0
 40
0.0
 41
1.0
 50
0.0
 71
     0
 42
0.2
  3
txt
  4

  0
ENDTAB
  0
TABLE
  2
VIEW
 70
     0
  0
ENDTAB
  0
TABLE
  2
UCS
 70
     0
  0
ENDTAB
  0
TABLE
  2
APPID
 70
     1
  0
APPID
  2
ACAD
 70
     0
  0
ENDTAB
  0
TABLE
  2
DIMSTYLE
 70
     1
  0
DIMSTYLE
  2
STANDARD
 70
     0
  3

  4

  5

  6

  7

 40
1.0
 41
0.18
 42
0.0625
 43
0.38
 44
0.18
 45
0.0
 46
0.0
 47
0.0
 48
0.0
140
0.18
141
0.09
142
0.0
143
25.4
144
1.0
145
0.0
146
1.0
147
0.09
 71
     0
 72
     0
 73
     1
 74
     1
 75
     0
 76
     0
 77
     0
 78
     0
170
     0
171
     2
172
     0
173
     0
174
     0
175
     0
176
     0
177
     0
178
     0
  0
ENDTAB
  0
ENDSEC
  0
SECTION
  2
BLOCKS
  0
BLOCK
  8
0
  2
$MODEL_SPACE
 70
     0
 10
0.0
 20
0.0
 30
0.0
  3
$MODEL_SPACE
  1

  0
ENDBLK
  5
21
  8
0
  0
BLOCK
 67
     1
  8
0
  2
$PAPER_SPACE
 70
     0
 10
0.0
 20
0.0
 30
0.0
  3
$PAPER_SPACE
  1

  0
ENDBLK
  5
1D
 67
     1
  8
0
  0
BLOCK
  8
0
  2
*X1
 70
     1
 10
0.0
 20
0.0
 30
0.0
  3
*X1
  1

  0
TEXT
  5
AC9
  8
LAYER_03
  6
CONTINUOUS
 10
1229.207034387228
 20
879.3472224630781
 30
0.0
 40
30.0
  1
base
  0
TEXT
  5
ACA
  8
LAYER_03
  6
CONTINUOUS
 10
1230.167034387228
 20
831.1544513787408
 30
0.0
 40
30.0
  1
3mm thickness
  0
ENDBLK
  5
AD5
  8
0
  0
BLOCK
  8
0
  2
*X2
 70
     1
 10
0.0
 20
0.0
 30
0.0
  3
*X2
  1

  0
TEXT
  5
ACC
  8
LAYER_03
  6
CONTINUOUS
 10
776.1575176290314
 20
452.7388129650467
 30
0.0
 40
30.0
  1
syringe
  0
TEXT
  5
ACD
  8
LAYER_03
  6
CONTINUOUS
 10
776.9075176290314
 20
404.5460418807093
 30
0.0
 40
30.0
  1
4mm thickness
  0
ENDBLK
  5
AD7
  8
0
  0
BLOCK
  8
0
  2
*X3
 70
     1
 10
0.0
 20
0.0
 30
0.0
  3
*X3
  1

  0
TEXT
  5
ACF
  8
LAYER_03
  6
CONTINUOUS
 10
774.6875176290314
 20
879.3472224630781
 30
0.0
 40
30.0
  1
neddle
  0
TEXT
  5
AD0
  8
LAYER_03
  6
CONTINUOUS
 10
775.6775176290314
 20
831.1544513787408
 30
0.0
 40
30.0
  1
3mm thickness
  0
ENDBLK
  5
AD9
  8
0
  0
BLOCK
  8
0
  2
*X4
 70
     1
 10
0.0
 20
0.0
 30
0.0
  3
*X4
  1

  0
TEXT
  5
AD2
  8
LAYER_03
  6
CONTINUOUS
 10
44.0514412391335
 20
879.3472224630781
 30
0.0
 40
30.0
  1
pluribot v_1.0
  0
TEXT
  5
AD3
  8
LAYER_03
  6
CONTINUOUS
 10
46.2714412391335
 20
831.1544513787408
 30
0.0
 40
30.0
  1
4mm thickness
  0
ENDBLK
  5
ADB
  8
0
  0
ENDSEC
  0
SECTION
  2
ENTITIES
  0
INSERT
  5
6F
  8
LAYER_03
  2
*X1
 10
0.0
 20
0.0
 30
0.0
  0
INSERT
  5
70
  8
LAYER_03
  2
*X2
 10
0.0
 20
0.0
 30
0.0
  0
INSERT
  5
71
  8
LAYER_03
  2
*X3
 10
0.0
 20
0.0
 30
0.0
  0
INSERT
  5
72
  8
LAYER_03
  2
*X4
 10
0.0
 20
0.0
 30
0.0
  0
CIRCLE
  5
74
  8
DEFAULT
 10
453.9026407404431
 20
271.3765618969132
 30
0.0
 40
6.15
  0
CIRCLE
  5
75
  8
DEFAULT
 10
453.9026407404431
 20
199.5007843653536
 30
0.0
 40
11.1
  0
CIRCLE
  5
76
  8
DEFAULT
 10
469.4026407404431
 20
215.0007843653538
 30
0.0
 40
1.6
  0
CIRCLE
  5
77
  8
DEFAULT
 10
469.4026407404431
 20
184.0007843653538
 30
0.0
 40
1.6
  0
CIRCLE
  5
78
  8
DEFAULT
 10
438.4026407404431
 20
184.0007843653534
 30
0.0
 40
1.6
  0
CIRCLE
  5
79
  8
DEFAULT
 10
438.4026407404431
 20
215.0007843653534
 30
0.0
 40
1.6
  0
CIRCLE
  5
7A
  8
DEFAULT
 10
455.2127267288879
 20
573.0570730187414
 30
0.0
 40
11.1
  0
CIRCLE
  5
7B
  8
DEFAULT
 10
470.7127267288879
 20
588.5570730187414
 30
0.0
 40
1.6
  0
CIRCLE
  5
7C
  8
DEFAULT
 10
470.7127267288879
 20
557.5570730187414
 30
0.0
 40
1.6
  0
CIRCLE
  5
7D
  8
DEFAULT
 10
439.7127267288879
 20
557.5570730187414
 30
0.0
 40
1.6
  0
CIRCLE
  5
7E
  8
DEFAULT
 10
439.7127267288874
 20
588.5570730187414
 30
0.0
 40
1.6
  0
CIRCLE
  5
7F
  8
DEFAULT
 10
455.2127267288879
 20
646.091479198813
 30
0.0
 40
6.15
  0
CIRCLE
  5
80
  8
DEFAULT
 10
525.9131222173087
 20
475.4591439740679
 30
0.0
 40
3.925
  0
CIRCLE
  5
81
  8
DEFAULT
 10
525.9131222173105
 20
753.609143974068
 30
0.0
 40
3.925
  0
CIRCLE
  5
82
  8
DEFAULT
 10
416.8131222173115
 20
439.7952200516042
 30
0.0
 40
3.925
  0
CIRCLE
  5
83
  8
DEFAULT
 10
416.8131222173092
 20
717.9452200516039
 30
0.0
 40
3.925
  0
CIRCLE
  5
84
  8
DEFAULT
 10
545.9131222173114
 20
385.7452200516004
 30
0.0
 40
3.925
  0
CIRCLE
  5
85
  8
DEFAULT
 10
519.156872217311
 20
409.7702200516005
 30
0.0
 40
1.45000000000001
  0
CIRCLE
  5
86
  8
DEFAULT
 10
545.9131222173114
 20
107.5952200516003
 30
0.0
 40
3.925
  0
CIRCLE
  5
87
  8
DEFAULT
 10
475.5120126159736
 20
409.7702200516
 30
0.0
 40
1.45000000000001
  0
CIRCLE
  5
88
  8
DEFAULT
 10
475.5120126159736
 20
83.57022005160155
 30
0.0
 40
1.45000000000001
  0
CIRCLE
  5
89
  8
DEFAULT
 10
519.156872217311
 20
83.57022005160132
 30
0.0
 40
1.45000000000001
  0
CIRCLE
  5
8A
  8
DEFAULT
 10
396.8131222173106
 20
352.3979473281592
 30
0.0
 40
3.925
  0
CIRCLE
  5
8B
  8
DEFAULT
 10
423.569372217311
 20
376.4229473281588
 30
0.0
 40
1.45000000000001
  0
CIRCLE
  5
8C
  8
DEFAULT
 10
396.8131222173106
 20
74.24794732815866
 30
0.0
 40
3.925
  0
CIRCLE
  5
8D
  8
DEFAULT
 10
467.2142318186479
 20
376.4229473281588
 30
0.0
 40
1.45000000000001
  0
CIRCLE
  5
8E
  8
DEFAULT
 10
467.2142318186479
 20
50.22294732815993
 30
0.0
 40
1.45000000000001
  0
CIRCLE
  5
8F
  8
DEFAULT
 10
423.569372217311
 20
50.22294732815993
 30
0.0
 40
1.45000000000001
  0
POLYLINE
  5
91
  8
LAYER_01
 66
     1
 10
0.0
 20
0.0
 30
0.0
 70
     1
  0
VERTEX
  5
92
  8
LAYER_01
 10
158.6841636271101
 20
699.2724724256323
 30
0.0
  0
VERTEX
  5
93
  8
LAYER_01
 10
158.6841636271101
 20
708.8724724256322
 30
0.0
  0
VERTEX
  5
94
  8
LAYER_01
 10
154.6841636271101
 20
709.072472425632
 30
0.0
  0
VERTEX
  5
95
  8
LAYER_01
 10
154.6841636271101
 20
714.0608018704875
 30
0.0
  0
VERTEX
  5
96
  8
LAYER_01
 10
101.0841636271098
 20
714.060801870487
 30
0.0
  0
VERTEX
  5
97
  8
LAYER_01
 10
101.0841636271098
 20
709.072472425632
 30
0.0
  0
VERTEX
  5
98
  8
LAYER_01
 10
97.08416362710977
 20
708.8724724256322
 30
0.0
  0
VERTEX
  5
99
  8
LAYER_01
 10
97.08416362710977
 20
699.2724724256323
 30
0.0
  0
VERTEX
  5
9A
  8
LAYER_01
 10
101.0841636271098
 20
699.072472425632
 30
0.0
  0
VERTEX
  5
9B
  8
LAYER_01
 10
101.0841636271102
 20
696.7417865064399
 30
0.0
  0
VERTEX
  5
9C
  8
LAYER_01
 10
154.6841636271101
 20
696.7417865064399
 30
0.0
  0
VERTEX
  5
9D
  8
LAYER_01
 10
154.6841636271101
 20
699.072472425632
 30
0.0
  0
SEQEND
  5
9E
  8
LAYER_01
  0
POLYLINE
  5
9F
  8
LAYER_01
 66
     1
 10
0.0
 20
0.0
 30
0.0
 70
     1
  0
VERTEX
  5
A0
  8
LAYER_01
 10
158.6841636271101
 20
675.7323765085744
 30
0.0
  0
VERTEX
  5
A1
  8
LAYER_01
 10
158.6841636271101
 20
685.3323765085738
 30
0.0
  0
VERTEX
  5
A2
  8
LAYER_01
 10
154.6841636271101
 20
685.5323765085741
 30
0.0
  0
VERTEX
  5
A3
  8
LAYER_01
 10
154.6841636271101
 20
690.5207059534296
 30
0.0
  0
VERTEX
  5
A4
  8
LAYER_01
 10
101.0841636271098
 20
690.5207059534291
 30
0.0
  0
VERTEX
  5
A5
  8
LAYER_01
 10
101.0841636271098
 20
685.5323765085741
 30
0.0
  0
VERTEX
  5
A6
  8
LAYER_01
 10
97.08416362710977
 20
685.3323765085743
 30
0.0
  0
VERTEX
  5
A7
  8
LAYER_01
 10
97.08416362710977
 20
675.7323765085744
 30
0.0
  0
VERTEX
  5
A8
  8
LAYER_01
 10
101.0841636271098
 20
675.5323765085741
 30
0.0
  0
VERTEX
  5
A9
  8
LAYER_01
 10
101.0841636271102
 20
673.201690589382
 30
0.0
  0
VERTEX
  5
AA
  8
LAYER_01
 10
154.6841636271101
 20
673.201690589382
 30
0.0
  0
VERTEX
  5
AB
  8
LAYER_01
 10
154.6841636271101
 20
675.5323765085741
 30
0.0
  0
SEQEND
  5
AC
  8
LAYER_01
  0
POLYLINE
  5
AD
  8
LAYER_01
 66
     1
 10
0.0
 20
0.0
 30
0.0
 70
     1
  0
VERTEX
  5
AE
  8
LAYER_01
 10
158.6841636271101
 20
630.0354811532284
 30
0.0
  0
VERTEX
  5
AF
  8
LAYER_01
 10
158.6841636271101
 20
639.6354811532283
 30
0.0
  0
VERTEX
  5
B0
  8
LAYER_01
 10
154.6841636271101
 20
639.8354811532286
 30
0.0
  0
VERTEX
  5
B1
  8
LAYER_01
 10
154.6841636271101
 20
644.823810598084
 30
0.0
  0
VERTEX
  5
B2
  8
LAYER_01
 10
101.0841636271098
 20
644.8238105980831
 30
0.0
  0
VERTEX
  5
B3
  8
LAYER_01
 10
101.0841636271098
 20
639.8354811532286
 30
0.0
  0
VERTEX
  5
B4
  8
LAYER_01
 10
97.08416362710977
 20
639.6354811532283
 30
0.0
  0
VERTEX
  5
B5
  8
LAYER_01
 10
97.08416362710977
 20
630.0354811532284
 30
0.0
  0
VERTEX
  5
B6
  8
LAYER_01
 10
101.0841636271098
 20
629.8354811532286
 30
0.0
  0
VERTEX
  5
B7
  8
LAYER_01
 10
101.0841636271102
 20
627.504795234036
 30
0.0
  0
VERTEX
  5
B8
  8
LAYER_01
 10
154.6841636271101
 20
627.504795234036
 30
0.0
  0
VERTEX
  5
B9
  8
LAYER_01
 10
154.6841636271101
 20
629.8354811532286
 30
0.0
  0
SEQEND
  5
BA
  8
LAYER_01
  0
POLYLINE
  5
BB
  8
LAYER_01
 66
     1
 10
0.0
 20
0.0
 30
0.0
 70
     1
  0
VERTEX
  5
BC
  8
LAYER_01
 10
158.6841636271101
 20
653.5755770702863
 30
0.0
  0
VERTEX
  5
BD
  8
LAYER_01
 10
158.6841636271101
 20
663.1755770702862
 30
0.0
  0
VERTEX
  5
BE
  8
LAYER_01
 10
154.6841636271101
 20
663.3755770702865
 30
0.0
  0
VERTEX
  5
BF
  8
LAYER_01
 10
154.6841636271101
 20
668.3639065151419
 30
0.0
  0
VERTEX
  5
C0
  8
LAYER_01
 10
101.0841636271098
 20
668.3639065151415
 30
0.0
  0
VERTEX
  5
C1
  8
LAYER_01
 10
101.0841636271098
 20
663.3755770702865
 30
0.0
  0
VERTEX
  5
C2
  8
LAYER_01
 10
97.08416362710977
 20
663.1755770702862
 30
0.0
  0
VERTEX
  5
C3
  8
LAYER_01
 10
97.08416362710977
 20
653.5755770702867
 30
0.0
  0
VERTEX
  5
C4
  8
LAYER_01
 10
101.0841636271098
 20
653.3755770702865
 30
0.0
  0
VERTEX
  5
C5
  8
LAYER_01
 10
101.0841636271102
 20
651.0448911510944
 30
0.0
  0
VERTEX
  5
C6
  8
LAYER_01
 10
154.6841636271101
 20
651.0448911510944
 30
0.0
  0
VERTEX
  5
C7
  8
LAYER_01
 10
154.6841636271101
 20
653.3755770702865
 30
0.0
  0
SEQEND
  5
C8
  8
LAYER_01
  0
POLYLINE
  5
C9
  8
DEFAULT
 66
     1
 10
0.0
 20
0.0
 30
0.0
 70
     1
  0
VERTEX
  5
CA
  8
DEFAULT
 10
497.9526407404428
 20
302.1765618969138
 30
0.0
  0
VERTEX
  5
CB
  8
DEFAULT
 10
507.5526407404427
 20
302.1765618969138
 30
0.0
  0
VERTEX
  5
CC
  8
DEFAULT
 10
507.5526407404432
 20
298.3765618969141
 30
0.0
  0
VERTEX
  5
CD
  8
DEFAULT
 10
497.9526407404428
 20
298.3765618969141
 30
0.0
  0
SEQEND
  5
CE
  8
DEFAULT
  0
POLYLINE
  5
CF
  8
DEFAULT
 66
     1
 10
0.0
 20
0.0
 30
0.0
 70
     1
  0
VERTEX
  5
D0
  8
DEFAULT
 10
460.9526407404428
 20
302.1765618969134
 30
0.0
  0
VERTEX
  5
D1
  8
DEFAULT
 10
470.5526407404427
 20
302.1765618969134
 30
0.0
  0
VERTEX
  5
D2
  8
DEFAULT
 10
470.5526407404432
 20
298.3765618969136
 30
0.0
  0
VERTEX
  5
D3
  8
DEFAULT
 10
460.9526407404428
 20
298.3765618969132
 30
0.0
  0
SEQEND
  5
D4
  8
DEFAULT
  0
POLYLINE
  5
D5
  8
DEFAULT
 66
     1
 10
0.0
 20
0.0
 30
0.0
 70
     1
  0
VERTEX
  5
D6
  8
DEFAULT
 10
433.9526407404428
 20
302.1765618969134
 30
0.0
  0
VERTEX
  5
D7
  8
DEFAULT
 10
443.5526407404427
 20
302.1765618969134
 30
0.0
  0
VERTEX
  5
D8
  8
DEFAULT
 10
443.5526407404432
 20
298.3765618969132
 30
0.0
  0
VERTEX
  5
D9
  8
DEFAULT
 10
433.9526407404428
 20
298.3765618969132
 30
0.0
  0
SEQEND
  5
DA
  8
DEFAULT
  0
POLYLINE
  5
DB
  8
DEFAULT
 66
     1
 10
0.0
 20
0.0
 30
0.0
 70
     1
  0
VERTEX
  5
DC
  8
DEFAULT
 10
497.9526407404437
 20
240.5765618969139
 30
0.0
  0
VERTEX
  5
DD
  8
DEFAULT
 10
507.5526407404432
 20
240.5765618969139
 30
0.0
  0
VERTEX
  5
DE
  8
DEFAULT
 10
507.5526407404432
 20
244.3765618969141
 30
0.0
  0
VERTEX
  5
DF
  8
DEFAULT
 10
497.9526407404437
 20
244.3765618969141
 30
0.0
  0
SEQEND
  5
E0
  8
DEFAULT
  0
POLYLINE
  5
E1
  8
DEFAULT
 66
     1
 10
0.0
 20
0.0
 30
0.0
 70
     1
  0
VERTEX
  5
E2
  8
DEFAULT
 10
433.9526407404437
 20
240.576561896913
 30
0.0
  0
VERTEX
  5
E3
  8
DEFAULT
 10
443.5526407404432
 20
240.5765618969135
 30
0.0
  0
VERTEX
  5
E4
  8
DEFAULT
 10
443.5526407404432
 20
244.3765618969132
 30
0.0
  0
VERTEX
  5
E5
  8
DEFAULT
 10
433.9526407404437
 20
244.3765618969132
 30
0.0
  0
SEQEND
  5
E6
  8
DEFAULT
  0
POLYLINE
  5
E7
  8
DEFAULT
 66
     1
 10
0.0
 20
0.0
 30
0.0
 70
     1
  0
VERTEX
  5
E8
  8
DEFAULT
 10
460.9526407404437
 20
240.5765618969135
 30
0.0
  0
VERTEX
  5
E9
  8
DEFAULT
 10
470.5526407404432
 20
240.5765618969135
 30
0.0
  0
VERTEX
  5
EA
  8
DEFAULT
 10
470.5526407404432
 20
244.3765618969136
 30
0.0
  0
VERTEX
  5
EB
  8
DEFAULT
 10
460.9526407404437
 20
244.3765618969132
 30
0.0
  0
SEQEND
  5
EC
  8
DEFAULT
  0
POLYLINE
  5
ED
  8
DEFAULT
 66
     1
 10
0.0
 20
0.0
 30
0.0
 70
     1
  0
VERTEX
  5
EE
  8
DEFAULT
 10
460.9526407404437
 20
168.7007843653536
 30
0.0
  0
VERTEX
  5
EF
  8
DEFAULT
 10
470.5526407404432
 20
168.7007843653536
 30
0.0
  0
VERTEX
  5
F0
  8
DEFAULT
 10
470.5526407404432
 20
172.5007843653538
 30
0.0
  0
VERTEX
  5
F1
  8
DEFAULT
 10
460.9526407404437
 20
172.5007843653536
 30
0.0
  0
SEQEND
  5
F2
  8
DEFAULT
  0
POLYLINE
  5
F3
  8
DEFAULT
 66
     1
 10
0.0
 20
0.0
 30
0.0
 70
     1
  0
VERTEX
  5
F4
  8
DEFAULT
 10
433.9526407404437
 20
168.7007843653534
 30
0.0
  0
VERTEX
  5
F5
  8
DEFAULT
 10
443.5526407404432
 20
168.7007843653536
 30
0.0
  0
VERTEX
  5
F6
  8
DEFAULT
 10
443.5526407404432
 20
172.5007843653534
 30
0.0
  0
VERTEX
  5
F7
  8
DEFAULT
 10
433.9526407404437
 20
172.5007843653534
 30
0.0
  0
SEQEND
  5
F8
  8
DEFAULT
  0
POLYLINE
  5
F9
  8
DEFAULT
 66
     1
 10
0.0
 20
0.0
 30
0.0
 70
     1
  0
VERTEX
  5
FA
  8
DEFAULT
 10
497.9526407404437
 20
168.7007843653541
 30
0.0
  0
VERTEX
  5
FB
  8
DEFAULT
 10
507.5526407404432
 20
168.7007843653541
 30
0.0
  0
VERTEX
  5
FC
  8
DEFAULT
 10
507.5526407404432
 20
172.5007843653543
 30
0.0
  0
VERTEX
  5
FD
  8
DEFAULT
 10
497.9526407404437
 20
172.500784365354
 30
0.0
  0
SEQEND
  5
FE
  8
DEFAULT
  0
POLYLINE
  5
FF
  8
DEFAULT
 66
     1
 10
0.0
 20
0.0
 30
0.0
 70
     1
  0
VERTEX
  5
100
  8
DEFAULT
 10
433.9526407404428
 20
230.3007843653535
 30
0.0
  0
VERTEX
  5
101
  8
DEFAULT
 10
443.5526407404427
 20
230.3007843653535
 30
0.0
  0
VERTEX
  5
102
  8
DEFAULT
 10
443.5526407404432
 20
226.5007843653534
 30
0.0
  0
VERTEX
  5
103
  8
DEFAULT
 10
433.9526407404428
 20
226.5007843653534
 30
0.0
  0
SEQEND
  5
104
  8
DEFAULT
  0
POLYLINE
  5
105
  8
DEFAULT
 66
     1
 10
0.0
 20
0.0
 30
0.0
 70
     1
  0
VERTEX
  5
106
  8
DEFAULT
 10
460.9526407404428
 20
230.3007843653535
 30
0.0
  0
VERTEX
  5
107
  8
DEFAULT
 10
470.5526407404427
 20
230.3007843653535
 30
0.0
  0
VERTEX
  5
108
  8
DEFAULT
 10
470.5526407404432
 20
226.5007843653538
 30
0.0
  0
VERTEX
  5
109
  8
DEFAULT
 10
460.9526407404428
 20
226.5007843653534
 30
0.0
  0
SEQEND
  5
10A
  8
DEFAULT
  0
POLYLINE
  5
10B
  8
DEFAULT
 66
     1
 10
0.0
 20
0.0
 30
0.0
 70
     1
  0
VERTEX
  5
10C
  8
DEFAULT
 10
497.9526407404428
 20
230.300784365354
 30
0.0
  0
VERTEX
  5
10D
  8
DEFAULT
 10
507.5526407404427
 20
230.300784365354
 30
0.0
  0
VERTEX
  5
10E
  8
DEFAULT
 10
507.5526407404432
 20
226.5007843653543
 30
0.0
  0
VERTEX
  5
10F
  8
DEFAULT
 10
497.9526407404428
 20
226.5007843653543
 30
0.0
  0
SEQEND
  5
110
  8
DEFAULT
  0
POLYLINE
  5
111
  8
DEFAULT
 66
     1
 10
0.0
 20
0.0
 30
0.0
 70
     1
  0
VERTEX
  5
112
  8
DEFAULT
 10
490.0526407404432
 20
262.3765618969136
 30
0.0
  0
VERTEX
  5
113
  8
DEFAULT
 10
488.9526407404433
 20
262.3765618969136
 30
0.0
  0
VERTEX
  5
114
  8
DEFAULT
 10
488.9526407404433
 20
265.3765618969136
 30
0.0
  0
VERTEX
  5
115
  8
DEFAULT
 10
490.0526407404432
 20
265.3765618969136
 30
0.0
  0
SEQEND
  5
116
  8
DEFAULT
  0
POLYLINE
  5
117
  8
DEFAULT
 66
     1
 10
0.0
 20
0.0
 30
0.0
 70
     1
  0
VERTEX
  5
118
  8
DEFAULT
 10
490.0526407404432
 20
280.3765618969136
 30
0.0
  0
VERTEX
  5
119
  8
DEFAULT
 10
488.9526407404433
 20
280.3765618969136
 30
0.0
  0
VERTEX
  5
11A
  8
DEFAULT
 10
488.9526407404433
 20
277.3765618969136
 30
0.0
  0
VERTEX
  5
11B
  8
DEFAULT
 10
490.0526407404432
 20
277.3765618969136
 30
0.0
  0
SEQEND
  5
11C
  8
DEFAULT
  0
POLYLINE
  5
11D
  8
DEFAULT
 66
     1
 10
0.0
 20
0.0
 30
0.0
 70
     1
  0
VERTEX
  5
11E
  8
DEFAULT
 10
505.0526407404432
 20
280.3765618969141
 30
0.0
  0
VERTEX
  5
11F
  8
DEFAULT
 10
506.1526407404431
 20
280.3765618969141
 30
0.0
  0
VERTEX
  5
120
  8
DEFAULT
 10
506.1526407404431
 20
277.3765618969141
 30
0.0
  0
VERTEX
  5
121
  8
DEFAULT
 10
505.0526407404432
 20
277.3765618969141
 30
0.0
  0
SEQEND
  5
122
  8
DEFAULT
  0
POLYLINE
  5
123
  8
DEFAULT
 66
     1
 10
0.0
 20
0.0
 30
0.0
 70
     1
  0
VERTEX
  5
124
  8
DEFAULT
 10
505.0526407404432
 20
262.3765618969141
 30
0.0
  0
VERTEX
  5
125
  8
DEFAULT
 10
506.1526407404431
 20
262.3765618969141
 30
0.0
  0
VERTEX
  5
126
  8
DEFAULT
 10
506.1526407404431
 20
265.3765618969141
 30
0.0
  0
VERTEX
  5
127
  8
DEFAULT
 10
505.0526407404432
 20
265.3765618969141
 30
0.0
  0
SEQEND
  5
128
  8
DEFAULT
  0
POLYLINE
  5
129
  8
DEFAULT
 66
     1
 10
0.0
 20
0.0
 30
0.0
 70
     1
  0
VERTEX
  5
12A
  8
DEFAULT
 10
492.0526407404432
 20
259.3765618969136
 30
0.0
  0
VERTEX
  5
12B
  8
DEFAULT
 10
503.0526407404432
 20
259.3765618969141
 30
0.0
  0
VERTEX
  5
12C
  8
DEFAULT
 10
503.0526407404432
 20
283.3765618969141
 30
0.0
  0
VERTEX
  5
12D
  8
DEFAULT
 10
492.0526407404432
 20
283.3765618969136
 30
0.0
  0
SEQEND
  5
12E
  8
DEFAULT
  0
POLYLINE
  5
12F
  8
DEFAULT
 66
     1
 10
0.0
 20
0.0
 30
0.0
 70
     1
  0
VERTEX
  5
130
  8
DEFAULT
 10
492.0526407404432
 20
187.5007843653538
 30
0.0
  0
VERTEX
  5
131
  8
DEFAULT
 10
503.0526407404432
 20
187.500784365354
 30
0.0
  0
VERTEX
  5
132
  8
DEFAULT
 10
503.0526407404432
 20
211.5007843653543
 30
0.0
  0
VERTEX
  5
133
  8
DEFAULT
 10
492.0526407404432
 20
211.5007843653538
 30
0.0
  0
SEQEND
  5
134
  8
DEFAULT
  0
POLYLINE
  5
135
  8
DEFAULT
 66
     1
 10
0.0
 20
0.0
 30
0.0
 70
     1
  0
VERTEX
  5
136
  8
DEFAULT
 10
505.0526407404432
 20
190.500784365354
 30
0.0
  0
VERTEX
  5
137
  8
DEFAULT
 10
506.1526407404431
 20
190.500784365354
 30
0.0
  0
VERTEX
  5
138
  8
DEFAULT
 10
506.1526407404431
 20
193.500784365354
 30
0.0
  0
VERTEX
  5
139
  8
DEFAULT
 10
505.0526407404432
 20
193.500784365354
 30
0.0
  0
SEQEND
  5
13A
  8
DEFAULT
  0
POLYLINE
  5
13B
  8
DEFAULT
 66
     1
 10
0.0
 20
0.0
 30
0.0
 70
     1
  0
VERTEX
  5
13C
  8
DEFAULT
 10
505.0526407404432
 20
208.5007843653543
 30
0.0
  0
VERTEX
  5
13D
  8
DEFAULT
 10
506.1526407404431
 20
208.5007843653543
 30
0.0
  0
VERTEX
  5
13E
  8
DEFAULT
 10
506.1526407404431
 20
205.5007843653543
 30
0.0
  0
VERTEX
  5
13F
  8
DEFAULT
 10
505.0526407404432
 20
205.5007843653543
 30
0.0
  0
SEQEND
  5
140
  8
DEFAULT
  0
POLYLINE
  5
141
  8
DEFAULT
 66
     1
 10
0.0
 20
0.0
 30
0.0
 70
     1
  0
VERTEX
  5
142
  8
DEFAULT
 10
490.0526407404432
 20
208.5007843653538
 30
0.0
  0
VERTEX
  5
143
  8
DEFAULT
 10
488.9526407404433
 20
208.5007843653538
 30
0.0
  0
VERTEX
  5
144
  8
DEFAULT
 10
488.9526407404433
 20
205.5007843653538
 30
0.0
  0
VERTEX
  5
145
  8
DEFAULT
 10
490.0526407404432
 20
205.5007843653538
 30
0.0
  0
SEQEND
  5
146
  8
DEFAULT
  0
POLYLINE
  5
147
  8
DEFAULT
 66
     1
 10
0.0
 20
0.0
 30
0.0
 70
     1
  0
VERTEX
  5
148
  8
DEFAULT
 10
490.0526407404432
 20
190.5007843653538
 30
0.0
  0
VERTEX
  5
149
  8
DEFAULT
 10
488.9526407404433
 20
190.5007843653538
 30
0.0
  0
VERTEX
  5
14A
  8
DEFAULT
 10
488.9526407404433
 20
193.5007843653538
 30
0.0
  0
VERTEX
  5
14B
  8
DEFAULT
 10
490.0526407404432
 20
193.5007843653538
 30
0.0
  0
SEQEND
  5
14C
  8
DEFAULT
  0
POLYLINE
  5
14D
  8
DEFAULT
 66
     1
 10
0.0
 20
0.0
 30
0.0
 70
     1
  0
VERTEX
  5
14E
  8
DEFAULT
 10
493.362726728888
 20
561.0570730187414
 30
0.0
  0
VERTEX
  5
14F
  8
DEFAULT
 10
504.362726728888
 20
561.0570730187419
 30
0.0
  0
VERTEX
  5
150
  8
DEFAULT
 10
504.362726728888
 20
585.0570730187419
 30
0.0
  0
VERTEX
  5
151
  8
DEFAULT
 10
493.362726728888
 20
585.0570730187414
 30
0.0
  0
SEQEND
  5
152
  8
DEFAULT
  0
POLYLINE
  5
153
  8
DEFAULT
 66
     1
 10
0.0
 20
0.0
 30
0.0
 70
     1
  0
VERTEX
  5
154
  8
DEFAULT
 10
506.362726728888
 20
564.0570730187419
 30
0.0
  0
VERTEX
  5
155
  8
DEFAULT
 10
507.4627267288879
 20
564.0570730187419
 30
0.0
  0
VERTEX
  5
156
  8
DEFAULT
 10
507.4627267288879
 20
567.0570730187419
 30
0.0
  0
VERTEX
  5
157
  8
DEFAULT
 10
506.362726728888
 20
567.0570730187419
 30
0.0
  0
SEQEND
  5
158
  8
DEFAULT
  0
POLYLINE
  5
159
  8
DEFAULT
 66
     1
 10
0.0
 20
0.0
 30
0.0
 70
     1
  0
VERTEX
  5
15A
  8
DEFAULT
 10
506.362726728888
 20
582.0570730187419
 30
0.0
  0
VERTEX
  5
15B
  8
DEFAULT
 10
507.4627267288879
 20
582.0570730187419
 30
0.0
  0
VERTEX
  5
15C
  8
DEFAULT
 10
507.4627267288879
 20
579.0570730187419
 30
0.0
  0
VERTEX
  5
15D
  8
DEFAULT
 10
506.362726728888
 20
579.0570730187419
 30
0.0
  0
SEQEND
  5
15E
  8
DEFAULT
  0
POLYLINE
  5
15F
  8
DEFAULT
 66
     1
 10
0.0
 20
0.0
 30
0.0
 70
     1
  0
VERTEX
  5
160
  8
DEFAULT
 10
491.362726728888
 20
582.0570730187414
 30
0.0
  0
VERTEX
  5
161
  8
DEFAULT
 10
490.2627267288881
 20
582.0570730187414
 30
0.0
  0
VERTEX
  5
162
  8
DEFAULT
 10
490.2627267288881
 20
579.0570730187414
 30
0.0
  0
VERTEX
  5
163
  8
DEFAULT
 10
491.362726728888
 20
579.0570730187414
 30
0.0
  0
SEQEND
  5
164
  8
DEFAULT
  0
POLYLINE
  5
165
  8
DEFAULT
 66
     1
 10
0.0
 20
0.0
 30
0.0
 70
     1
  0
VERTEX
  5
166
  8
DEFAULT
 10
491.362726728888
 20
564.0570730187414
 30
0.0
  0
VERTEX
  5
167
  8
DEFAULT
 10
490.2627267288881
 20
564.0570730187414
 30
0.0
  0
VERTEX
  5
168
  8
DEFAULT
 10
490.2627267288881
 20
567.0570730187414
 30
0.0
  0
VERTEX
  5
169
  8
DEFAULT
 10
491.362726728888
 20
567.0570730187414
 30
0.0
  0
SEQEND
  5
16A
  8
DEFAULT
  0
POLYLINE
  5
16B
  8
LAYER_01
 66
     1
 10
0.0
 20
0.0
 30
0.0
 70
     1
  0
VERTEX
  5
16C
  8
LAYER_01
 10
434.0627267288878
 20
540.0570730187414
 30
0.0
  0
VERTEX
  5
16D
  8
LAYER_01
 10
510.0627267288883
 20
540.0570730187419
 30
0.0
 42
0.4142135623726557
  0
VERTEX
  5
16E
  8
LAYER_01
 10
512.0627267288884
 20
542.0570730187418
 30
0.0
  0
VERTEX
  5
16F
  8
LAYER_01
 10
512.0627267288874
 20
604.0570730187421
 30
0.0
 42
0.4142135623731939
  0
VERTEX
  5
170
  8
LAYER_01
 10
510.0627267288875
 20
606.0570730187421
 30
0.0
  0
VERTEX
  5
171
  8
LAYER_01
 10
434.0627267288874
 20
606.0570730187412
 30
0.0
 42
0.4142135623730622
  0
VERTEX
  5
172
  8
LAYER_01
 10
432.0627267288872
 20
604.0570730187412
 30
0.0
  0
VERTEX
  5
173
  8
LAYER_01
 10
432.0627267288878
 20
542.057073018741
 30
0.0
 42
0.4142135623730804
  0
SEQEND
  5
174
  8
LAYER_01
  0
POLYLINE
  5
175
  8
DEFAULT
 66
     1
 10
0.0
 20
0.0
 30
0.0
 70
     1
  0
VERTEX
  5
176
  8
DEFAULT
 10
462.2627267288881
 20
542.2570730187413
 30
0.0
  0
VERTEX
  5
177
  8
DEFAULT
 10
471.862726728888
 20
542.2570730187413
 30
0.0
  0
VERTEX
  5
178
  8
DEFAULT
 10
471.862726728888
 20
546.0570730187414
 30
0.0
  0
VERTEX
  5
179
  8
DEFAULT
 10
462.2627267288881
 20
546.0570730187414
 30
0.0
  0
SEQEND
  5
17A
  8
DEFAULT
  0
POLYLINE
  5
17B
  8
DEFAULT
 66
     1
 10
0.0
 20
0.0
 30
0.0
 70
     1
  0
VERTEX
  5
17C
  8
DEFAULT
 10
435.2627267288881
 20
542.2570730187413
 30
0.0
  0
VERTEX
  5
17D
  8
DEFAULT
 10
444.862726728888
 20
542.2570730187413
 30
0.0
  0
VERTEX
  5
17E
  8
DEFAULT
 10
444.862726728888
 20
546.0570730187414
 30
0.0
  0
VERTEX
  5
17F
  8
DEFAULT
 10
435.2627267288881
 20
546.0570730187414
 30
0.0
  0
SEQEND
  5
180
  8
DEFAULT
  0
POLYLINE
  5
181
  8
DEFAULT
 66
     1
 10
0.0
 20
0.0
 30
0.0
 70
     1
  0
VERTEX
  5
182
  8
DEFAULT
 10
499.2627267288881
 20
542.2570730187422
 30
0.0
  0
VERTEX
  5
183
  8
DEFAULT
 10
508.862726728888
 20
542.2570730187422
 30
0.0
  0
VERTEX
  5
184
  8
DEFAULT
 10
508.862726728888
 20
546.0570730187424
 30
0.0
  0
VERTEX
  5
185
  8
DEFAULT
 10
499.2627267288881
 20
546.0570730187419
 30
0.0
  0
SEQEND
  5
186
  8
DEFAULT
  0
POLYLINE
  5
187
  8
DEFAULT
 66
     1
 10
0.0
 20
0.0
 30
0.0
 70
     1
  0
VERTEX
  5
188
  8
DEFAULT
 10
435.2627267288876
 20
603.8570730187412
 30
0.0
  0
VERTEX
  5
189
  8
DEFAULT
 10
444.8627267288875
 20
603.8570730187416
 30
0.0
  0
VERTEX
  5
18A
  8
DEFAULT
 10
444.8627267288875
 20
600.0570730187414
 30
0.0
  0
VERTEX
  5
18B
  8
DEFAULT
 10
435.2627267288876
 20
600.0570730187414
 30
0.0
  0
SEQEND
  5
18C
  8
DEFAULT
  0
POLYLINE
  5
18D
  8
DEFAULT
 66
     1
 10
0.0
 20
0.0
 30
0.0
 70
     1
  0
VERTEX
  5
18E
  8
DEFAULT
 10
462.2627267288876
 20
603.8570730187416
 30
0.0
  0
VERTEX
  5
18F
  8
DEFAULT
 10
471.8627267288875
 20
603.8570730187416
 30
0.0
  0
VERTEX
  5
190
  8
DEFAULT
 10
471.8627267288875
 20
600.0570730187414
 30
0.0
  0
VERTEX
  5
191
  8
DEFAULT
 10
462.2627267288876
 20
600.0570730187414
 30
0.0
  0
SEQEND
  5
192
  8
DEFAULT
  0
POLYLINE
  5
193
  8
DEFAULT
 66
     1
 10
0.0
 20
0.0
 30
0.0
 70
     1
  0
VERTEX
  5
194
  8
DEFAULT
 10
499.2627267288876
 20
603.8570730187416
 30
0.0
  0
VERTEX
  5
195
  8
DEFAULT
 10
508.8627267288875
 20
603.8570730187416
 30
0.0
  0
VERTEX
  5
196
  8
DEFAULT
 10
508.8627267288875
 20
600.0570730187424
 30
0.0
  0
VERTEX
  5
197
  8
DEFAULT
 10
499.2627267288876
 20
600.0570730187419
 30
0.0
  0
SEQEND
  5
198
  8
DEFAULT
  0
POLYLINE
  5
199
  8
LAYER_01
 66
     1
 10
0.0
 20
0.0
 30
0.0
 70
     1
  0
VERTEX
  5
19A
  8
LAYER_01
 10
434.0627267288883
 20
613.0914791988127
 30
0.0
  0
VERTEX
  5
19B
  8
LAYER_01
 10
510.0627267288883
 20
613.0914791988134
 30
0.0
 42
0.4142135623726557
  0
VERTEX
  5
19C
  8
LAYER_01
 10
512.0627267288884
 20
615.0914791988133
 30
0.0
  0
VERTEX
  5
19D
  8
LAYER_01
 10
512.0627267288874
 20
677.0914791988137
 30
0.0
 42
0.4142135623731685
  0
VERTEX
  5
19E
  8
LAYER_01
 10
510.0627267288873
 20
679.0914791988134
 30
0.0
  0
VERTEX
  5
19F
  8
LAYER_01
 10
434.0627267288874
 20
679.0914791988123
 30
0.0
 42
0.4142135623729972
  0
VERTEX
  5
1A0
  8
LAYER_01
 10
432.0627267288875
 20
677.0914791988123
 30
0.0
  0
VERTEX
  5
1A1
  8
LAYER_01
 10
432.0627267288878
 20
615.091479198813
 30
0.0
 42
0.4142135623730148
  0
SEQEND
  5
1A2
  8
LAYER_01
  0
POLYLINE
  5
1A3
  8
DEFAULT
 66
     1
 10
0.0
 20
0.0
 30
0.0
 70
     1
  0
VERTEX
  5
1A4
  8
DEFAULT
 10
499.2627267288881
 20
615.2914791988132
 30
0.0
  0
VERTEX
  5
1A5
  8
DEFAULT
 10
508.862726728888
 20
615.2914791988132
 30
0.0
  0
VERTEX
  5
1A6
  8
DEFAULT
 10
508.862726728888
 20
619.0914791988134
 30
0.0
  0
VERTEX
  5
1A7
  8
DEFAULT
 10
499.2627267288881
 20
619.0914791988134
 30
0.0
  0
SEQEND
  5
1A8
  8
DEFAULT
  0
POLYLINE
  5
1A9
  8
DEFAULT
 66
     1
 10
0.0
 20
0.0
 30
0.0
 70
     1
  0
VERTEX
  5
1AA
  8
DEFAULT
 10
435.2627267288881
 20
615.2914791988128
 30
0.0
  0
VERTEX
  5
1AB
  8
DEFAULT
 10
444.862726728888
 20
615.2914791988128
 30
0.0
  0
VERTEX
  5
1AC
  8
DEFAULT
 10
444.862726728888
 20
619.0914791988125
 30
0.0
  0
VERTEX
  5
1AD
  8
DEFAULT
 10
435.2627267288881
 20
619.0914791988125
 30
0.0
  0
SEQEND
  5
1AE
  8
DEFAULT
  0
POLYLINE
  5
1AF
  8
DEFAULT
 66
     1
 10
0.0
 20
0.0
 30
0.0
 70
     1
  0
VERTEX
  5
1B0
  8
DEFAULT
 10
462.2627267288881
 20
615.2914791988128
 30
0.0
  0
VERTEX
  5
1B1
  8
DEFAULT
 10
471.862726728888
 20
615.2914791988128
 30
0.0
  0
VERTEX
  5
1B2
  8
DEFAULT
 10
471.862726728888
 20
619.091479198813
 30
0.0
  0
VERTEX
  5
1B3
  8
DEFAULT
 10
462.2627267288881
 20
619.091479198813
 30
0.0
  0
SEQEND
  5
1B4
  8
DEFAULT
  0
POLYLINE
  5
1B5
  8
DEFAULT
 66
     1
 10
0.0
 20
0.0
 30
0.0
 70
     1
  0
VERTEX
  5
1B6
  8
DEFAULT
 10
435.2627267288876
 20
676.8914791988127
 30
0.0
  0
VERTEX
  5
1B7
  8
DEFAULT
 10
444.8627267288875
 20
676.8914791988127
 30
0.0
  0
VERTEX
  5
1B8
  8
DEFAULT
 10
444.8627267288875
 20
673.0914791988125
 30
0.0
  0
VERTEX
  5
1B9
  8
DEFAULT
 10
435.2627267288876
 20
673.0914791988125
 30
0.0
  0
SEQEND
  5
1BA
  8
DEFAULT
  0
POLYLINE
  5
1BB
  8
DEFAULT
 66
     1
 10
0.0
 20
0.0
 30
0.0
 70
     1
  0
VERTEX
  5
1BC
  8
DEFAULT
 10
462.2627267288876
 20
676.8914791988127
 30
0.0
  0
VERTEX
  5
1BD
  8
DEFAULT
 10
471.8627267288875
 20
676.8914791988127
 30
0.0
  0
VERTEX
  5
1BE
  8
DEFAULT
 10
471.8627267288875
 20
673.091479198813
 30
0.0
  0
VERTEX
  5
1BF
  8
DEFAULT
 10
462.2627267288876
 20
673.091479198813
 30
0.0
  0
SEQEND
  5
1C0
  8
DEFAULT
  0
POLYLINE
  5
1C1
  8
DEFAULT
 66
     1
 10
0.0
 20
0.0
 30
0.0
 70
     1
  0
VERTEX
  5
1C2
  8
DEFAULT
 10
499.2627267288876
 20
676.8914791988132
 30
0.0
  0
VERTEX
  5
1C3
  8
DEFAULT
 10
508.8627267288875
 20
676.8914791988132
 30
0.0
  0
VERTEX
  5
1C4
  8
DEFAULT
 10
508.8627267288875
 20
673.0914791988134
 30
0.0
  0
VERTEX
  5
1C5
  8
DEFAULT
 10
499.2627267288876
 20
673.0914791988134
 30
0.0
  0
SEQEND
  5
1C6
  8
DEFAULT
  0
POLYLINE
  5
1C7
  8
DEFAULT
 66
     1
 10
0.0
 20
0.0
 30
0.0
 70
     1
  0
VERTEX
  5
1C8
  8
DEFAULT
 10
491.362726728888
 20
637.091479198813
 30
0.0
  0
VERTEX
  5
1C9
  8
DEFAULT
 10
490.2627267288881
 20
637.091479198813
 30
0.0
  0
VERTEX
  5
1CA
  8
DEFAULT
 10
490.2627267288881
 20
640.091479198813
 30
0.0
  0
VERTEX
  5
1CB
  8
DEFAULT
 10
491.362726728888
 20
640.091479198813
 30
0.0
  0
SEQEND
  5
1CC
  8
DEFAULT
  0
POLYLINE
  5
1CD
  8
DEFAULT
 66
     1
 10
0.0
 20
0.0
 30
0.0
 70
     1
  0
VERTEX
  5
1CE
  8
DEFAULT
 10
491.362726728888
 20
655.091479198813
 30
0.0
  0
VERTEX
  5
1CF
  8
DEFAULT
 10
490.2627267288881
 20
655.091479198813
 30
0.0
  0
VERTEX
  5
1D0
  8
DEFAULT
 10
490.2627267288881
 20
652.091479198813
 30
0.0
  0
VERTEX
  5
1D1
  8
DEFAULT
 10
491.362726728888
 20
652.091479198813
 30
0.0
  0
SEQEND
  5
1D2
  8
DEFAULT
  0
POLYLINE
  5
1D3
  8
DEFAULT
 66
     1
 10
0.0
 20
0.0
 30
0.0
 70
     1
  0
VERTEX
  5
1D4
  8
DEFAULT
 10
506.362726728888
 20
655.0914791988134
 30
0.0
  0
VERTEX
  5
1D5
  8
DEFAULT
 10
507.4627267288879
 20
655.0914791988134
 30
0.0
  0
VERTEX
  5
1D6
  8
DEFAULT
 10
507.4627267288879
 20
652.0914791988134
 30
0.0
  0
VERTEX
  5
1D7
  8
DEFAULT
 10
506.362726728888
 20
652.0914791988134
 30
0.0
  0
SEQEND
  5
1D8
  8
DEFAULT
  0
POLYLINE
  5
1D9
  8
DEFAULT
 66
     1
 10
0.0
 20
0.0
 30
0.0
 70
     1
  0
VERTEX
  5
1DA
  8
DEFAULT
 10
506.362726728888
 20
637.0914791988134
 30
0.0
  0
VERTEX
  5
1DB
  8
DEFAULT
 10
507.4627267288879
 20
637.0914791988134
 30
0.0
  0
VERTEX
  5
1DC
  8
DEFAULT
 10
507.4627267288879
 20
640.0914791988134
 30
0.0
  0
VERTEX
  5
1DD
  8
DEFAULT
 10
506.362726728888
 20
640.0914791988134
 30
0.0
  0
SEQEND
  5
1DE
  8
DEFAULT
  0
POLYLINE
  5
1DF
  8
DEFAULT
 66
     1
 10
0.0
 20
0.0
 30
0.0
 70
     1
  0
VERTEX
  5
1E0
  8
DEFAULT
 10
493.362726728888
 20
634.091479198813
 30
0.0
  0
VERTEX
  5
1E1
  8
DEFAULT
 10
504.362726728888
 20
634.0914791988134
 30
0.0
  0
VERTEX
  5
1E2
  8
DEFAULT
 10
504.362726728888
 20
658.0914791988134
 30
0.0
  0
VERTEX
  5
1E3
  8
DEFAULT
 10
493.362726728888
 20
658.091479198813
 30
0.0
  0
SEQEND
  5
1E4
  8
DEFAULT
  0
POLYLINE
  5
1E5
  8
DEFAULT
 66
     1
 10
0.0
 20
0.0
 30
0.0
 70
     1
  0
VERTEX
  5
1E6
  8
DEFAULT
 10
138.4270343035014
 20
503.6566602274074
 30
0.0
  0
VERTEX
  5
1E7
  8
DEFAULT
 10
141.0554545178775
 20
500.9123192907427
 30
0.0
  0
VERTEX
  5
1E8
  8
DEFAULT
 10
134.1223826778814
 20
494.2720998017912
 30
0.0
  0
VERTEX
  5
1E9
  8
DEFAULT
 10
131.4939624635053
 20
497.0164407384559
 30
0.0
  0
SEQEND
  5
1EA
  8
DEFAULT
  0
POLYLINE
  5
1EB
  8
DEFAULT
 66
     1
 10
0.0
 20
0.0
 30
0.0
 70
     1
  0
VERTEX
  5
1EC
  8
DEFAULT
 10
314.8510560471041
 20
672.6285466490726
 30
0.0
  0
VERTEX
  5
1ED
  8
DEFAULT
 10
317.4794762614802
 20
669.8842057124075
 30
0.0
  0
VERTEX
  5
1EE
  8
DEFAULT
 10
324.4125481014767
 20
676.5244252013595
 30
0.0
  0
VERTEX
  5
1EF
  8
DEFAULT
 10
321.7841278871001
 20
679.2687661380246
 30
0.0
  0
SEQEND
  5
1F0
  8
DEFAULT
  0
POLYLINE
  5
1F1
  8
LAYER_01
 66
     1
 10
0.0
 20
0.0
 30
0.0
 70
     1
  0
VERTEX
  5
1F2
  8
LAYER_01
 10
123.2444294188956
 20
516.3857432912447
 30
0.0
 42
0.3412390696573805
  0
VERTEX
  5
1F3
  8
LAYER_01
 10
129.3229987862919
 20
517.033284805055
 30
0.0
  0
VERTEX
  5
1F4
  8
LAYER_01
 10
301.8795473911291
 20
682.3010598166991
 30
0.0
 42
0.341239069657377
  0
VERTEX
  5
1F5
  8
LAYER_01
 10
302.7886622315876
 20
688.3460433380343
 30
0.0
  0
VERTEX
  5
1F6
  8
LAYER_01
 10
272.2877458490046
 20
731.1510680212209
 30
0.0
 42
-0.3412390696573241
  0
VERTEX
  5
1F7
  8
LAYER_01
 10
272.6513917851882
 20
733.5690614297547
 30
0.0
  0
VERTEX
  5
1F8
  8
LAYER_01
 10
280.202052792406
 20
740.8007831732612
 30
0.0
  0
VERTEX
  5
1F9
  8
LAYER_01
 10
282.2771213827036
 20
738.634198223263
 30
0.0
  0
VERTEX
  5
1FA
  8
LAYER_01
 10
285.4486782187228
 20
741.3948552530132
 30
0.0
  0
VERTEX
  5
1FB
  8
LAYER_01
 10
292.0888977076743
 20
734.4617834130172
 30
0.0
  0
VERTEX
  5
1FC
  8
LAYER_01
 10
289.1940166836948
 20
731.4122483899337
 30
0.0
  0
VERTEX
  5
1FD
  8
LAYER_01
 10
300.9527386953805
 20
719.1349336732737
 30
0.0
  0
VERTEX
  5
1FE
  8
LAYER_01
 10
304.1242955313992
 20
721.895590703024
 30
0.0
  0
VERTEX
  5
1FF
  8
LAYER_01
 10
310.7645150203507
 20
714.9625188630275
 30
0.0
  0
VERTEX
  5
200
  8
LAYER_01
 10
307.8696339963717
 20
711.9129838399444
 30
0.0
  0
VERTEX
  5
201
  8
LAYER_01
 10
323.5018173766111
 20
695.59137721662
 30
0.0
  0
VERTEX
  5
202
  8
LAYER_01
 10
319.7464034632807
 20
691.9945916601046
 30
0.0
 42
0.9999999999999424
  0
VERTEX
  5
203
  8
LAYER_01
 10
325.5565955161133
 20
685.9281538001079
 30
0.0
  0
VERTEX
  5
204
  8
LAYER_01
 10
332.3452283594429
 20
692.4300353830404
 30
0.0
  0
VERTEX
  5
205
  8
LAYER_01
 10
336.3570276340179
 20
688.241304479709
 30
0.0
  0
VERTEX
  5
206
  8
LAYER_01
 10
333.4621466100389
 20
685.1917694566259
 30
0.0
  0
VERTEX
  5
207
  8
LAYER_01
 10
335.5372152003365
 20
683.0251845066273
 30
0.0
  0
VERTEX
  5
208
  8
LAYER_01
 10
127.1478527596173
 20
483.438170596526
 30
0.0
  0
VERTEX
  5
209
  8
LAYER_01
 10
125.0727841693197
 20
485.6047555465252
 30
0.0
  0
VERTEX
  5
20A
  8
LAYER_01
 10
121.9012273333019
 20
482.8440985167753
 30
0.0
  0
VERTEX
  5
20B
  8
LAYER_01
 10
117.8894280587269
 20
487.0328294201067
 30
0.0
  0
VERTEX
  5
20C
  8
LAYER_01
 10
124.6780609020565
 20
493.5347110030381
 30
0.0
 42
0.9999999999999999
  0
VERTEX
  5
20D
  8
LAYER_01
 10
118.8678688492241
 20
499.6011488630346
 30
0.0
  0
VERTEX
  5
20E
  8
LAYER_01
 10
115.1124549358924
 20
496.0043633065192
 30
0.0
  0
VERTEX
  5
20F
  8
LAYER_01
 10
99.48027155565251
 20
512.3259699298437
 30
0.0
  0
VERTEX
  5
210
  8
LAYER_01
 10
96.30871471963474
 20
509.5653129000938
 30
0.0
  0
VERTEX
  5
211
  8
LAYER_01
 10
89.66849523068322
 20
516.4983847400899
 30
0.0
  0
VERTEX
  5
212
  8
LAYER_01
 10
92.5633762546613
 20
519.547919763173
 30
0.0
  0
VERTEX
  5
213
  8
LAYER_01
 10
80.80465424297608
 20
531.825234479833
 30
0.0
  0
VERTEX
  5
214
  8
LAYER_01
 10
77.63309740695831
 20
529.0645774500831
 30
0.0
  0
VERTEX
  5
215
  8
LAYER_01
 10
70.9928779180068
 20
535.9976492900792
 30
0.0
  0
VERTEX
  5
216
  8
LAYER_01
 10
73.88775894198488
 20
539.0471843131622
 30
0.0
  0
VERTEX
  5
217
  8
LAYER_01
 10
71.8126903516877
 20
541.2137692631609
 30
0.0
  0
VERTEX
  5
218
  8
LAYER_01
 10
79.36335135890567
 20
548.4454910066679
 30
0.0
 42
-0.3412390696573689
  0
VERTEX
  5
219
  8
LAYER_01
 10
81.79477910586415
 20
548.7045076121923
 30
0.0
  0
SEQEND
  5
21A
  8
LAYER_01
  0
POLYLINE
  5
21B
  8
DEFAULT
 66
     1
 10
0.0
 20
0.0
 30
0.0
 70
     1
  0
VERTEX
  5
21C
  8
DEFAULT
 10
73.18553982749836
 20
104.1467252016952
 30
0.0
  0
VERTEX
  5
21D
  8
DEFAULT
 10
73.18553982749836
 20
107.946725201695
 30
0.0
  0
VERTEX
  5
21E
  8
DEFAULT
 10
63.585539827498
 20
107.946725201695
 30
0.0
  0
VERTEX
  5
21F
  8
DEFAULT
 10
63.585539827498
 20
104.1467252016952
 30
0.0
  0
SEQEND
  5
220
  8
DEFAULT
  0
POLYLINE
  5
221
  8
DEFAULT
 66
     1
 10
0.0
 20
0.0
 30
0.0
 70
     1
  0
VERTEX
  5
222
  8
DEFAULT
 10
317.4741679891122
 20
104.1467252016952
 30
0.0
  0
VERTEX
  5
223
  8
DEFAULT
 10
317.4741679891122
 20
107.946725201695
 30
0.0
  0
VERTEX
  5
224
  8
DEFAULT
 10
327.0741679891125
 20
107.946725201695
 30
0.0
  0
VERTEX
  5
225
  8
DEFAULT
 10
327.0741679891125
 20
104.1467252016952
 30
0.0
  0
SEQEND
  5
226
  8
DEFAULT
  0
POLYLINE
  5
227
  8
LAYER_01
 66
     1
 10
0.0
 20
0.0
 30
0.0
 70
     1
  0
VERTEX
  5
228
  8
LAYER_01
 10
71.02531222892787
 20
84.45219643225022
 30
0.0
 42
-0.3412390696573806
  0
VERTEX
  5
229
  8
LAYER_01
 10
75.86312221730985
 20
88.18902798888593
 30
0.0
  0
VERTEX
  5
22A
  8
LAYER_01
 10
314.7965855993007
 20
88.18902798888593
 30
0.0
 42
-0.3412390696573785
  0
VERTEX
  5
22B
  8
LAYER_01
 10
319.6343955876827
 20
84.45219643225028
 30
0.0
  0
VERTEX
  5
22C
  8
LAYER_01
 10
327.214574198118
 20
32.44145782434889
 30
0.0
 42
0.3412390696573557
  0
VERTEX
  5
22D
  8
LAYER_01
 10
329.1496981934706
 20
30.94672520169493
 30
0.0
  0
VERTEX
  5
22E
  8
LAYER_01
 10
339.6048539083044
 20
30.94672520169496
 30
0.0
  0
VERTEX
  5
22F
  8
LAYER_01
 10
339.6048539083058
 20
33.94672520169496
 30
0.0
  0
VERTEX
  5
230
  8
LAYER_01
 10
343.8048539083065
 20
34.14672520169523
 30
0.0
  0
VERTEX
  5
231
  8
LAYER_01
 10
343.8048539083065
 20
43.74672520169514
 30
0.0
  0
VERTEX
  5
232
  8
LAYER_01
 10
339.6048539083058
 20
43.94672520169496
 30
0.0
  0
VERTEX
  5
233
  8
LAYER_01
 10
339.6048539083058
 20
60.94672520169496
 30
0.0
  0
VERTEX
  5
234
  8
LAYER_01
 10
343.8048539083065
 20
61.14672520169523
 30
0.0
  0
VERTEX
  5
235
  8
LAYER_01
 10
343.8048539083065
 20
70.74672520169514
 30
0.0
  0
VERTEX
  5
236
  8
LAYER_01
 10
339.6048539083058
 20
70.94672520169496
 30
0.0
  0
VERTEX
  5
237
  8
LAYER_01
 10
339.6048539083058
 20
93.54672520169487
 30
0.0
  0
VERTEX
  5
238
  8
LAYER_01
 10
334.404853908306
 20
93.54672520169515
 30
0.0
 42
-0.9999999999999934
  0
VERTEX
  5
239
  8
LAYER_01
 10
334.404853908306
 20
101.9467252016951
 30
0.0
  0
VERTEX
  5
23A
  8
LAYER_01
 10
343.8048539083065
 20
101.946725201695
 30
0.0
  0
VERTEX
  5
23B
  8
LAYER_01
 10
343.8048539083065
 20
107.7467252016951
 30
0.0
  0
VERTEX
  5
23C
  8
LAYER_01
 10
339.6048539083058
 20
107.946725201695
 30
0.0
  0
VERTEX
  5
23D
  8
LAYER_01
 10
339.6048539083058
 20
110.946725201695
 30
0.0
  0
VERTEX
  5
23E
  8
LAYER_01
 10
51.05485390830563
 20
110.946725201695
 30
0.0
  0
VERTEX
  5
23F
  8
LAYER_01
 10
51.05485390830563
 20
107.946725201695
 30
0.0
  0
VERTEX
  5
240
  8
LAYER_01
 10
46.85485390830581
 20
107.7467252016951
 30
0.0
  0
VERTEX
  5
241
  8
LAYER_01
 10
46.85485390830581
 20
101.946725201695
 30
0.0
  0
VERTEX
  5
242
  8
LAYER_01
 10
56.25485390830545
 20
101.9467252016951
 30
0.0
 42
-0.9999999999999999
  0
VERTEX
  5
243
  8
LAYER_01
 10
56.25485390830545
 20
93.54672520169515
 30
0.0
  0
VERTEX
  5
244
  8
LAYER_01
 10
51.05485390830563
 20
93.54672520169487
 30
0.0
  0
VERTEX
  5
245
  8
LAYER_01
 10
51.05485390830563
 20
70.94672520169496
 30
0.0
  0
VERTEX
  5
246
  8
LAYER_01
 10
46.85485390830581
 20
70.74672520169514
 30
0.0
  0
VERTEX
  5
247
  8
LAYER_01
 10
46.85485390830581
 20
61.14672520169523
 30
0.0
  0
VERTEX
  5
248
  8
LAYER_01
 10
51.05485390830563
 20
60.94672520169496
 30
0.0
  0
VERTEX
  5
249
  8
LAYER_01
 10
51.05485390830563
 20
43.94672520169496
 30
0.0
  0
VERTEX
  5
24A
  8
LAYER_01
 10
46.85485390830581
 20
43.74672520169514
 30
0.0
  0
VERTEX
  5
24B
  8
LAYER_01
 10
46.85485390830581
 20
34.14672520169523
 30
0.0
  0
VERTEX
  5
24C
  8
LAYER_01
 10
51.05485390830563
 20
33.94672520169496
 30
0.0
  0
VERTEX
  5
24D
  8
LAYER_01
 10
51.05485390830563
 20
30.94672520169496
 30
0.0
  0
VERTEX
  5
24E
  8
LAYER_01
 10
61.51000962313992
 20
30.94672520169496
 30
0.0
 42
0.3412390696573396
  0
VERTEX
  5
24F
  8
LAYER_01
 10
63.44513361849267
 20
32.44145782434893
 30
0.0
  0
SEQEND
  5
250
  8
LAYER_01
  0
POLYLINE
  5
251
  8
DEFAULT
 66
     1
 10
0.0
 20
0.0
 30
0.0
 70
     1
  0
VERTEX
  5
252
  8
DEFAULT
 10
567.3131222173106
 20
619.3341439740666
 30
0.0
  0
VERTEX
  5
253
  8
DEFAULT
 10
567.3131222173106
 20
609.7341439740667
 30
0.0
  0
VERTEX
  5
254
  8
DEFAULT
 10
571.1131222173099
 20
609.7341439740667
 30
0.0
  0
VERTEX
  5
255
  8
DEFAULT
 10
571.1131222173099
 20
619.3341439740666
 30
0.0
  0
SEQEND
  5
256
  8
DEFAULT
  0
POLYLINE
  5
257
  8
DEFAULT
 66
     1
 10
0.0
 20
0.0
 30
0.0
 70
     1
  0
VERTEX
  5
258
  8
DEFAULT
 10
567.3131222173092
 20
457.7848590297758
 30
0.0
  0
VERTEX
  5
259
  8
DEFAULT
 10
567.3131222173092
 20
467.3848590297757
 30
0.0
  0
VERTEX
  5
25A
  8
DEFAULT
 10
571.113122217309
 20
467.3848590297757
 30
0.0
  0
VERTEX
  5
25B
  8
DEFAULT
 10
571.113122217309
 20
457.7848590297758
 30
0.0
  0
SEQEND
  5
25C
  8
DEFAULT
  0
POLYLINE
  5
25D
  8
DEFAULT
 66
     1
 10
0.0
 20
0.0
 30
0.0
 70
     1
  0
VERTEX
  5
25E
  8
DEFAULT
 10
420.3131222173115
 20
771.2834289183606
 30
0.0
  0
VERTEX
  5
25F
  8
DEFAULT
 10
420.3131222173115
 20
761.6834289183607
 30
0.0
  0
VERTEX
  5
260
  8
DEFAULT
 10
424.1131222173112
 20
761.6834289183607
 30
0.0
  0
VERTEX
  5
261
  8
DEFAULT
 10
424.1131222173112
 20
771.2834289183606
 30
0.0
  0
SEQEND
  5
262
  8
DEFAULT
  0
POLYLINE
  5
263
  8
DEFAULT
 66
     1
 10
0.0
 20
0.0
 30
0.0
 70
     1
  0
VERTEX
  5
264
  8
DEFAULT
 10
567.3131222173115
 20
771.2834289183597
 30
0.0
  0
VERTEX
  5
265
  8
DEFAULT
 10
567.3131222173115
 20
761.6834289183598
 30
0.0
  0
VERTEX
  5
266
  8
DEFAULT
 10
571.1131222173112
 20
761.6834289183598
 30
0.0
  0
VERTEX
  5
267
  8
DEFAULT
 10
571.1131222173112
 20
771.2834289183597
 30
0.0
  0
SEQEND
  5
268
  8
DEFAULT
  0
POLYLINE
  5
269
  8
DEFAULT
 66
     1
 10
0.0
 20
0.0
 30
0.0
 70
     1
  0
VERTEX
  5
26A
  8
DEFAULT
 10
420.3131222173088
 20
457.7848590297771
 30
0.0
  0
VERTEX
  5
26B
  8
DEFAULT
 10
420.3131222173092
 20
467.384859029777
 30
0.0
  0
VERTEX
  5
26C
  8
DEFAULT
 10
424.113122217309
 20
467.384859029777
 30
0.0
  0
VERTEX
  5
26D
  8
DEFAULT
 10
424.1131222173085
 20
457.7848590297771
 30
0.0
  0
SEQEND
  5
26E
  8
DEFAULT
  0
POLYLINE
  5
26F
  8
LAYER_01
 66
     1
 10
0.0
 20
0.0
 30
0.0
 70
     1
  0
VERTEX
  5
270
  8
LAYER_01
 10
507.2756222173111
 20
449.3341439740656
 30
0.0
  0
VERTEX
  5
271
  8
LAYER_01
 10
497.6756222173108
 20
449.3341439740656
 30
0.0
  0
VERTEX
  5
272
  8
LAYER_01
 10
497.475622217311
 20
453.3341439740656
 30
0.0
  0
VERTEX
  5
273
  8
LAYER_01
 10
476.9620126159734
 20
453.3341439740647
 30
0.0
  0
VERTEX
  5
274
  8
LAYER_01
 10
476.9620126159734
 20
455.3341439740652
 30
0.0
  0
VERTEX
  5
275
  8
LAYER_01
 10
478.1120126159731
 20
455.3341439740652
 30
0.0
  0
VERTEX
  5
276
  8
LAYER_01
 10
478.1120126159731
 20
457.534143974065
 30
0.0
  0
VERTEX
  5
277
  8
LAYER_01
 10
476.9620126159734
 20
457.534143974065
 30
0.0
  0
VERTEX
  5
278
  8
LAYER_01
 10
476.9620126159734
 20
459.5341439740654
 30
0.0
  0
VERTEX
  5
279
  8
LAYER_01
 10
474.0620126159733
 20
459.534143974065
 30
0.0
  0
VERTEX
  5
27A
  8
LAYER_01
 10
474.0620126159733
 20
457.534143974065
 30
0.0
  0
VERTEX
  5
27B
  8
LAYER_01
 10
472.9120126159733
 20
457.534143974065
 30
0.0
  0
VERTEX
  5
27C
  8
LAYER_01
 10
472.9120126159733
 20
455.3341439740652
 30
0.0
  0
VERTEX
  5
27D
  8
LAYER_01
 10
474.0620126159733
 20
455.3341439740652
 30
0.0
  0
VERTEX
  5
27E
  8
LAYER_01
 10
474.0620126159733
 20
453.3341439740647
 30
0.0
  0
VERTEX
  5
27F
  8
LAYER_01
 10
453.5484030146358
 20
453.3341439740647
 30
0.0
  0
VERTEX
  5
280
  8
LAYER_01
 10
453.3484030146365
 20
449.3341439740647
 30
0.0
  0
VERTEX
  5
281
  8
LAYER_01
 10
443.7484030146366
 20
449.3341439740647
 30
0.0
  0
VERTEX
  5
282
  8
LAYER_01
 10
443.5484030146358
 20
453.3341439740647
 30
0.0
  0
VERTEX
  5
283
  8
LAYER_01
 10
410.313122217307
 20
453.3341439740674
 30
0.0
 42
-0.414213562373095
  0
VERTEX
  5
284
  8
LAYER_01
 10
409.313122217307
 20
454.3341439740674
 30
0.0
  0
VERTEX
  5
285
  8
LAYER_01
 10
409.3131222173078
 20
464.617593793888
 30
0.0
 42
-0.3309487347016439
  0
VERTEX
  5
286
  8
LAYER_01
 10
412.8719390842264
 20
469.4053898606522
 30
0.0
  0
VERTEX
  5
287
  8
LAYER_01
 10
529.2578572092707
 20
485.0699422088724
 30
0.0
 42
0.3653217824261927
  0
VERTEX
  5
288
  8
LAYER_01
 10
533.4131222173083
 20
489.9980678965305
 30
0.0
  0
VERTEX
  5
289
  8
LAYER_01
 10
533.4131222173106
 20
739.0702200516052
 30
0.0
 42
0.3653217824263065
  0
VERTEX
  5
28A
  8
LAYER_01
 10
529.2578572092729
 20
743.9983457392632
 30
0.0
  0
VERTEX
  5
28B
  8
LAYER_01
 10
412.8719390842289
 20
759.6628980874839
 30
0.0
 42
-0.3309487347016325
  0
VERTEX
  5
28C
  8
LAYER_01
 10
409.3131222173103
 20
764.4506941542484
 30
0.0
  0
VERTEX
  5
28D
  8
LAYER_01
 10
409.3131222173097
 20
774.7341439740692
 30
0.0
 42
-0.4142135623730125
  0
VERTEX
  5
28E
  8
LAYER_01
 10
410.3131222173095
 20
775.7341439740692
 30
0.0
  0
VERTEX
  5
28F
  8
LAYER_01
 10
443.5484030146358
 20
775.734143974069
 30
0.0
  0
VERTEX
  5
290
  8
LAYER_01
 10
443.7484030146366
 20
779.734143974069
 30
0.0
  0
VERTEX
  5
291
  8
LAYER_01
 10
453.3484030146365
 20
779.7341439740685
 30
0.0
  0
VERTEX
  5
292
  8
LAYER_01
 10
453.5484030146358
 20
775.7341439740685
 30
0.0
  0
VERTEX
  5
293
  8
LAYER_01
 10
474.0620126159733
 20
775.7341439740685
 30
0.0
  0
VERTEX
  5
294
  8
LAYER_01
 10
474.0620126159733
 20
773.7341439740685
 30
0.0
  0
VERTEX
  5
295
  8
LAYER_01
 10
472.9120126159733
 20
773.7341439740685
 30
0.0
  0
VERTEX
  5
296
  8
LAYER_01
 10
472.9120126159733
 20
771.5341439740687
 30
0.0
  0
VERTEX
  5
297
  8
LAYER_01
 10
474.0620126159733
 20
771.5341439740687
 30
0.0
  0
VERTEX
  5
298
  8
LAYER_01
 10
474.0620126159733
 20
769.5341439740687
 30
0.0
  0
VERTEX
  5
299
  8
LAYER_01
 10
476.9620126159734
 20
769.5341439740682
 30
0.0
  0
VERTEX
  5
29A
  8
LAYER_01
 10
476.9620126159734
 20
771.5341439740682
 30
0.0
  0
VERTEX
  5
29B
  8
LAYER_01
 10
478.1120126159731
 20
771.5341439740682
 30
0.0
  0
VERTEX
  5
29C
  8
LAYER_01
 10
478.1120126159731
 20
773.734143974068
 30
0.0
  0
VERTEX
  5
29D
  8
LAYER_01
 10
476.9620126159734
 20
773.734143974068
 30
0.0
  0
VERTEX
  5
29E
  8
LAYER_01
 10
476.9620126159734
 20
775.734143974068
 30
0.0
  0
VERTEX
  5
29F
  8
LAYER_01
 10
497.475622217311
 20
775.734143974068
 30
0.0
  0
VERTEX
  5
2A0
  8
LAYER_01
 10
497.6756222173108
 20
779.734143974068
 30
0.0
  0
VERTEX
  5
2A1
  8
LAYER_01
 10
507.2756222173111
 20
779.734143974068
 30
0.0
  0
VERTEX
  5
2A2
  8
LAYER_01
 10
507.475622217311
 20
775.734143974068
 30
0.0
  0
VERTEX
  5
2A3
  8
LAYER_01
 10
517.7068722173108
 20
775.734143974068
 30
0.0
  0
VERTEX
  5
2A4
  8
LAYER_01
 10
517.7068722173108
 20
773.734143974068
 30
0.0
  0
VERTEX
  5
2A5
  8
LAYER_01
 10
516.5568722173111
 20
773.734143974068
 30
0.0
  0
VERTEX
  5
2A6
  8
LAYER_01
 10
516.5568722173111
 20
771.5341439740682
 30
0.0
  0
VERTEX
  5
2A7
  8
LAYER_01
 10
517.7068722173108
 20
771.5341439740682
 30
0.0
  0
VERTEX
  5
2A8
  8
LAYER_01
 10
517.7068722173108
 20
769.5341439740682
 30
0.0
  0
VERTEX
  5
2A9
  8
LAYER_01
 10
520.6068722173109
 20
769.5341439740678
 30
0.0
  0
VERTEX
  5
2AA
  8
LAYER_01
 10
520.6068722173109
 20
771.5341439740682
 30
0.0
  0
VERTEX
  5
2AB
  8
LAYER_01
 10
521.756872217311
 20
771.5341439740682
 30
0.0
  0
VERTEX
  5
2AC
  8
LAYER_01
 10
521.756872217311
 20
773.734143974068
 30
0.0
  0
VERTEX
  5
2AD
  8
LAYER_01
 10
520.6068722173109
 20
773.734143974068
 30
0.0
  0
VERTEX
  5
2AE
  8
LAYER_01
 10
520.6068722173109
 20
775.734143974068
 30
0.0
  0
VERTEX
  5
2AF
  8
LAYER_01
 10
530.8381222173111
 20
775.734143974068
 30
0.0
  0
VERTEX
  5
2B0
  8
LAYER_01
 10
531.038122217311
 20
779.734143974068
 30
0.0
  0
VERTEX
  5
2B1
  8
LAYER_01
 10
540.6381222173109
 20
779.734143974068
 30
0.0
  0
VERTEX
  5
2B2
  8
LAYER_01
 10
540.8381222173111
 20
775.734143974068
 30
0.0
  0
VERTEX
  5
2B3
  8
LAYER_01
 10
569.1131222173126
 20
775.7341439740676
 30
0.0
 42
-0.4142135623730039
  0
VERTEX
  5
2B4
  8
LAYER_01
 10
574.1131222173112
 20
770.7341439740676
 30
0.0
  0
VERTEX
  5
2B5
  8
LAYER_01
 10
574.1131222173085
 20
458.3341439740661
 30
0.0
 42
-0.4142135623732083
  0
VERTEX
  5
2B6
  8
LAYER_01
 10
569.1131222173069
 20
453.3341439740661
 30
0.0
  0
VERTEX
  5
2B7
  8
LAYER_01
 10
540.8381222173111
 20
453.3341439740656
 30
0.0
  0
VERTEX
  5
2B8
  8
LAYER_01
 10
540.6381222173109
 20
449.3341439740656
 30
0.0
  0
VERTEX
  5
2B9
  8
LAYER_01
 10
531.038122217311
 20
449.3341439740656
 30
0.0
  0
VERTEX
  5
2BA
  8
LAYER_01
 10
530.8381222173111
 20
453.3341439740656
 30
0.0
  0
VERTEX
  5
2BB
  8
LAYER_01
 10
520.6068722173109
 20
453.3341439740656
 30
0.0
  0
VERTEX
  5
2BC
  8
LAYER_01
 10
520.6068722173109
 20
455.3341439740656
 30
0.0
  0
VERTEX
  5
2BD
  8
LAYER_01
 10
521.756872217311
 20
455.3341439740656
 30
0.0
  0
VERTEX
  5
2BE
  8
LAYER_01
 10
521.756872217311
 20
457.5341439740654
 30
0.0
  0
VERTEX
  5
2BF
  8
LAYER_01
 10
520.6068722173109
 20
457.5341439740654
 30
0.0
  0
VERTEX
  5
2C0
  8
LAYER_01
 10
520.6068722173109
 20
459.5341439740659
 30
0.0
  0
VERTEX
  5
2C1
  8
LAYER_01
 10
517.7068722173108
 20
459.5341439740654
 30
0.0
  0
VERTEX
  5
2C2
  8
LAYER_01
 10
517.7068722173108
 20
457.5341439740654
 30
0.0
  0
VERTEX
  5
2C3
  8
LAYER_01
 10
516.5568722173111
 20
457.5341439740654
 30
0.0
  0
VERTEX
  5
2C4
  8
LAYER_01
 10
516.5568722173111
 20
455.3341439740656
 30
0.0
  0
VERTEX
  5
2C5
  8
LAYER_01
 10
517.7068722173108
 20
455.3341439740656
 30
0.0
  0
VERTEX
  5
2C6
  8
LAYER_01
 10
517.7068722173108
 20
453.3341439740656
 30
0.0
  0
VERTEX
  5
2C7
  8
LAYER_01
 10
507.475622217311
 20
453.3341439740656
 30
0.0
  0
SEQEND
  5
2C8
  8
LAYER_01
  0
POLYLINE
  5
2C9
  8
DEFAULT
 66
     1
 10
0.0
 20
0.0
 30
0.0
 70
     1
  0
VERTEX
  5
2CA
  8
DEFAULT
 10
375.4131222173096
 20
583.6702200516029
 30
0.0
  0
VERTEX
  5
2CB
  8
DEFAULT
 10
375.4131222173096
 20
574.070220051603
 30
0.0
  0
VERTEX
  5
2CC
  8
DEFAULT
 10
371.6131222173099
 20
574.070220051603
 30
0.0
  0
VERTEX
  5
2CD
  8
DEFAULT
 10
371.6131222173099
 20
583.6702200516029
 30
0.0
  0
SEQEND
  5
2CE
  8
DEFAULT
  0
POLYLINE
  5
2CF
  8
DEFAULT
 66
     1
 10
0.0
 20
0.0
 30
0.0
 70
     1
  0
VERTEX
  5
2D0
  8
DEFAULT
 10
375.413122217311
 20
422.1209351073116
 30
0.0
  0
VERTEX
  5
2D1
  8
DEFAULT
 10
375.4131222173105
 20
431.720935107312
 30
0.0
  0
VERTEX
  5
2D2
  8
DEFAULT
 10
371.6131222173108
 20
431.720935107312
 30
0.0
  0
VERTEX
  5
2D3
  8
DEFAULT
 10
371.6131222173112
 20
422.1209351073116
 30
0.0
  0
SEQEND
  5
2D4
  8
DEFAULT
  0
POLYLINE
  5
2D5
  8
DEFAULT
 66
     1
 10
0.0
 20
0.0
 30
0.0
 70
     1
  0
VERTEX
  5
2D6
  8
DEFAULT
 10
522.4131222173087
 20
735.6195049958969
 30
0.0
  0
VERTEX
  5
2D7
  8
DEFAULT
 10
522.4131222173087
 20
726.019504995897
 30
0.0
  0
VERTEX
  5
2D8
  8
DEFAULT
 10
518.613122217309
 20
726.019504995897
 30
0.0
  0
VERTEX
  5
2D9
  8
DEFAULT
 10
518.613122217309
 20
735.6195049958969
 30
0.0
  0
SEQEND
  5
2DA
  8
DEFAULT
  0
POLYLINE
  5
2DB
  8
DEFAULT
 66
     1
 10
0.0
 20
0.0
 30
0.0
 70
     1
  0
VERTEX
  5
2DC
  8
DEFAULT
 10
375.4131222173082
 20
735.619504995896
 30
0.0
  0
VERTEX
  5
2DD
  8
DEFAULT
 10
375.4131222173082
 20
726.0195049958961
 30
0.0
  0
VERTEX
  5
2DE
  8
DEFAULT
 10
371.6131222173085
 20
726.0195049958961
 30
0.0
  0
VERTEX
  5
2DF
  8
DEFAULT
 10
371.6131222173085
 20
735.619504995896
 30
0.0
  0
SEQEND
  5
2E0
  8
DEFAULT
  0
POLYLINE
  5
2E1
  8
DEFAULT
 66
     1
 10
0.0
 20
0.0
 30
0.0
 70
     1
  0
VERTEX
  5
2E2
  8
DEFAULT
 10
522.413122217311
 20
422.1209351073134
 30
0.0
  0
VERTEX
  5
2E3
  8
DEFAULT
 10
522.413122217311
 20
431.7209351073129
 30
0.0
  0
VERTEX
  5
2E4
  8
DEFAULT
 10
518.6131222173112
 20
431.7209351073129
 30
0.0
  0
VERTEX
  5
2E5
  8
DEFAULT
 10
518.6131222173112
 20
422.1209351073134
 30
0.0
  0
SEQEND
  5
2E6
  8
DEFAULT
  0
POLYLINE
  5
2E7
  8
LAYER_01
 66
     1
 10
0.0
 20
0.0
 30
0.0
 70
     1
  0
VERTEX
  5
2E8
  8
LAYER_01
 10
435.4506222173086
 20
413.6702200516015
 30
0.0
  0
VERTEX
  5
2E9
  8
LAYER_01
 10
445.050622217309
 20
413.6702200516015
 30
0.0
  0
VERTEX
  5
2EA
  8
LAYER_01
 10
445.2506222173092
 20
417.6702200516015
 30
0.0
  0
VERTEX
  5
2EB
  8
LAYER_01
 10
465.7642318186463
 20
417.6702200516015
 30
0.0
  0
VERTEX
  5
2EC
  8
LAYER_01
 10
465.7642318186463
 20
419.6702200516015
 30
0.0
  0
VERTEX
  5
2ED
  8
LAYER_01
 10
464.6142318186467
 20
419.6702200516015
 30
0.0
  0
VERTEX
  5
2EE
  8
LAYER_01
 10
464.6142318186467
 20
421.8702200516013
 30
0.0
  0
VERTEX
  5
2EF
  8
LAYER_01
 10
465.7642318186463
 20
421.8702200516013
 30
0.0
  0
VERTEX
  5
2F0
  8
LAYER_01
 10
465.7642318186463
 20
423.8702200516013
 30
0.0
  0
VERTEX
  5
2F1
  8
LAYER_01
 10
468.6642318186468
 20
423.8702200516013
 30
0.0
  0
VERTEX
  5
2F2
  8
LAYER_01
 10
468.6642318186468
 20
421.8702200516013
 30
0.0
  0
VERTEX
  5
2F3
  8
LAYER_01
 10
469.8142318186465
 20
421.8702200516013
 30
0.0
  0
VERTEX
  5
2F4
  8
LAYER_01
 10
469.8142318186465
 20
419.6702200516015
 30
0.0
  0
VERTEX
  5
2F5
  8
LAYER_01
 10
468.6642318186468
 20
419.6702200516015
 30
0.0
  0
VERTEX
  5
2F6
  8
LAYER_01
 10
468.6642318186468
 20
417.6702200516015
 30
0.0
  0
VERTEX
  5
2F7
  8
LAYER_01
 10
489.1778414199839
 20
417.6702200516015
 30
0.0
  0
VERTEX
  5
2F8
  8
LAYER_01
 10
489.3778414199837
 20
413.6702200516015
 30
0.0
  0
VERTEX
  5
2F9
  8
LAYER_01
 10
498.9778414199836
 20
413.670220051601
 30
0.0
  0
VERTEX
  5
2FA
  8
LAYER_01
 10
499.1778414199844
 20
417.6702200516006
 30
0.0
  0
VERTEX
  5
2FB
  8
LAYER_01
 10
532.4131222173128
 20
417.6702200516033
 30
0.0
 42
0.4142135623730853
  0
VERTEX
  5
2FC
  8
LAYER_01
 10
533.4131222173128
 20
418.6702200516033
 30
0.0
  0
VERTEX
  5
2FD
  8
LAYER_01
 10
533.4131222173124
 20
428.9536698714239
 30
0.0
 42
0.3309487347016728
  0
VERTEX
  5
2FE
  8
LAYER_01
 10
529.8543053503938
 20
433.7414659381881
 30
0.0
  0
VERTEX
  5
2FF
  8
LAYER_01
 10
413.4683872253495
 20
449.4060182864087
 30
0.0
 42
-0.3653217824261852
  0
VERTEX
  5
300
  8
LAYER_01
 10
409.3131222173119
 20
454.3341439740668
 30
0.0
  0
VERTEX
  5
301
  8
LAYER_01
 10
409.3131222173097
 20
703.4062961291415
 30
0.0
 42
-0.3653217824263106
  0
VERTEX
  5
302
  8
LAYER_01
 10
413.4683872253474
 20
708.3344218167995
 30
0.0
  0
VERTEX
  5
303
  8
LAYER_01
 10
529.8543053503918
 20
723.9989741650202
 30
0.0
 42
0.3309487347016029
  0
VERTEX
  5
304
  8
LAYER_01
 10
533.4131222173099
 20
728.7867702317847
 30
0.0
  0
VERTEX
  5
305
  8
LAYER_01
 10
533.41312221731
 20
739.070220051605
 30
0.0
 42
0.4142135623730008
  0
VERTEX
  5
306
  8
LAYER_01
 10
532.4131222173103
 20
740.070220051605
 30
0.0
  0
VERTEX
  5
307
  8
LAYER_01
 10
499.1778414199844
 20
740.0702200516048
 30
0.0
  0
VERTEX
  5
308
  8
LAYER_01
 10
498.9778414199836
 20
744.0702200516048
 30
0.0
  0
VERTEX
  5
309
  8
LAYER_01
 10
489.3778414199837
 20
744.0702200516048
 30
0.0
  0
VERTEX
  5
30A
  8
LAYER_01
 10
489.1778414199839
 20
740.0702200516048
 30
0.0
  0
VERTEX
  5
30B
  8
LAYER_01
 10
468.6642318186468
 20
740.0702200516048
 30
0.0
  0
VERTEX
  5
30C
  8
LAYER_01
 10
468.6642318186468
 20
738.0702200516048
 30
0.0
  0
VERTEX
  5
30D
  8
LAYER_01
 10
469.8142318186465
 20
738.0702200516048
 30
0.0
  0
VERTEX
  5
30E
  8
LAYER_01
 10
469.8142318186465
 20
735.870220051605
 30
0.0
  0
VERTEX
  5
30F
  8
LAYER_01
 10
468.6642318186468
 20
735.870220051605
 30
0.0
  0
VERTEX
  5
310
  8
LAYER_01
 10
468.6642318186468
 20
733.870220051605
 30
0.0
  0
VERTEX
  5
311
  8
LAYER_01
 10
465.7642318186463
 20
733.8702200516041
 30
0.0
  0
VERTEX
  5
312
  8
LAYER_01
 10
465.7642318186463
 20
735.8702200516045
 30
0.0
  0
VERTEX
  5
313
  8
LAYER_01
 10
464.6142318186467
 20
735.8702200516045
 30
0.0
  0
VERTEX
  5
314
  8
LAYER_01
 10
464.6142318186467
 20
738.0702200516043
 30
0.0
  0
VERTEX
  5
315
  8
LAYER_01
 10
465.7642318186463
 20
738.0702200516043
 30
0.0
  0
VERTEX
  5
316
  8
LAYER_01
 10
465.7642318186463
 20
740.0702200516043
 30
0.0
  0
VERTEX
  5
317
  8
LAYER_01
 10
445.2506222173092
 20
740.0702200516043
 30
0.0
  0
VERTEX
  5
318
  8
LAYER_01
 10
445.050622217309
 20
744.0702200516043
 30
0.0
  0
VERTEX
  5
319
  8
LAYER_01
 10
435.4506222173086
 20
744.0702200516043
 30
0.0
  0
VERTEX
  5
31A
  8
LAYER_01
 10
435.2506222173092
 20
740.0702200516043
 30
0.0
  0
VERTEX
  5
31B
  8
LAYER_01
 10
425.0193722173094
 20
740.0702200516043
 30
0.0
  0
VERTEX
  5
31C
  8
LAYER_01
 10
425.0193722173094
 20
738.0702200516043
 30
0.0
  0
VERTEX
  5
31D
  8
LAYER_01
 10
426.169372217309
 20
738.0702200516043
 30
0.0
  0
VERTEX
  5
31E
  8
LAYER_01
 10
426.169372217309
 20
735.8702200516045
 30
0.0
  0
VERTEX
  5
31F
  8
LAYER_01
 10
425.0193722173094
 20
735.8702200516045
 30
0.0
  0
VERTEX
  5
320
  8
LAYER_01
 10
425.0193722173094
 20
733.8702200516045
 30
0.0
  0
VERTEX
  5
321
  8
LAYER_01
 10
422.1193722173093
 20
733.8702200516041
 30
0.0
  0
VERTEX
  5
322
  8
LAYER_01
 10
422.1193722173093
 20
735.8702200516045
 30
0.0
  0
VERTEX
  5
323
  8
LAYER_01
 10
420.9693722173092
 20
735.8702200516045
 30
0.0
  0
VERTEX
  5
324
  8
LAYER_01
 10
420.9693722173092
 20
738.0702200516043
 30
0.0
  0
VERTEX
  5
325
  8
LAYER_01
 10
422.1193722173093
 20
738.0702200516043
 30
0.0
  0
VERTEX
  5
326
  8
LAYER_01
 10
422.1193722173093
 20
740.0702200516043
 30
0.0
  0
VERTEX
  5
327
  8
LAYER_01
 10
411.888122217309
 20
740.0702200516043
 30
0.0
  0
VERTEX
  5
328
  8
LAYER_01
 10
411.6881222173088
 20
744.0702200516043
 30
0.0
  0
VERTEX
  5
329
  8
LAYER_01
 10
402.0881222173089
 20
744.0702200516039
 30
0.0
  0
VERTEX
  5
32A
  8
LAYER_01
 10
401.888122217309
 20
740.0702200516039
 30
0.0
  0
VERTEX
  5
32B
  8
LAYER_01
 10
373.6131222173076
 20
740.0702200516039
 30
0.0
 42
0.4142135623730059
  0
VERTEX
  5
32C
  8
LAYER_01
 10
368.613122217309
 20
735.0702200516039
 30
0.0
  0
VERTEX
  5
32D
  8
LAYER_01
 10
368.6131222173112
 20
422.6702200516024
 30
0.0
 42
0.414213562373196
  0
VERTEX
  5
32E
  8
LAYER_01
 10
373.6131222173129
 20
417.6702200516024
 30
0.0
  0
VERTEX
  5
32F
  8
LAYER_01
 10
401.888122217309
 20
417.6702200516019
 30
0.0
  0
VERTEX
  5
330
  8
LAYER_01
 10
402.0881222173089
 20
413.6702200516019
 30
0.0
  0
VERTEX
  5
331
  8
LAYER_01
 10
411.6881222173088
 20
413.6702200516015
 30
0.0
  0
VERTEX
  5
332
  8
LAYER_01
 10
411.888122217309
 20
417.6702200516015
 30
0.0
  0
VERTEX
  5
333
  8
LAYER_01
 10
422.1193722173093
 20
417.6702200516015
 30
0.0
  0
VERTEX
  5
334
  8
LAYER_01
 10
422.1193722173093
 20
419.6702200516015
 30
0.0
  0
VERTEX
  5
335
  8
LAYER_01
 10
420.9693722173092
 20
419.6702200516015
 30
0.0
  0
VERTEX
  5
336
  8
LAYER_01
 10
420.9693722173092
 20
421.8702200516013
 30
0.0
  0
VERTEX
  5
337
  8
LAYER_01
 10
422.1193722173093
 20
421.8702200516013
 30
0.0
  0
VERTEX
  5
338
  8
LAYER_01
 10
422.1193722173093
 20
423.8702200516022
 30
0.0
  0
VERTEX
  5
339
  8
LAYER_01
 10
425.0193722173094
 20
423.8702200516013
 30
0.0
  0
VERTEX
  5
33A
  8
LAYER_01
 10
425.0193722173094
 20
421.8702200516013
 30
0.0
  0
VERTEX
  5
33B
  8
LAYER_01
 10
426.169372217309
 20
421.8702200516013
 30
0.0
  0
VERTEX
  5
33C
  8
LAYER_01
 10
426.169372217309
 20
419.6702200516015
 30
0.0
  0
VERTEX
  5
33D
  8
LAYER_01
 10
425.0193722173094
 20
419.6702200516015
 30
0.0
  0
VERTEX
  5
33E
  8
LAYER_01
 10
425.0193722173094
 20
417.6702200516015
 30
0.0
  0
VERTEX
  5
33F
  8
LAYER_01
 10
435.2506222173092
 20
417.6702200516015
 30
0.0
  0
SEQEND
  5
340
  8
LAYER_01
  0
POLYLINE
  5
341
  8
DEFAULT
 66
     1
 10
0.0
 20
0.0
 30
0.0
 70
     1
  0
VERTEX
  5
342
  8
DEFAULT
 10
567.313122217312
 20
96.07022005160019
 30
0.0
  0
VERTEX
  5
343
  8
DEFAULT
 10
571.1131222173121
 20
96.07022005160019
 30
0.0
  0
VERTEX
  5
344
  8
DEFAULT
 10
571.1131222173121
 20
86.47022005160028
 30
0.0
  0
VERTEX
  5
345
  8
DEFAULT
 10
567.313122217312
 20
86.47022005160028
 30
0.0
  0
SEQEND
  5
346
  8
DEFAULT
  0
POLYLINE
  5
347
  8
DEFAULT
 66
     1
 10
0.0
 20
0.0
 30
0.0
 70
     1
  0
VERTEX
  5
348
  8
DEFAULT
 10
420.3131222173115
 20
96.07022005160064
 30
0.0
  0
VERTEX
  5
349
  8
DEFAULT
 10
424.1131222173112
 20
96.07022005160064
 30
0.0
  0
VERTEX
  5
34A
  8
DEFAULT
 10
424.1131222173112
 20
86.47022005160028
 30
0.0
  0
VERTEX
  5
34B
  8
DEFAULT
 10
420.3131222173115
 20
86.47022005160028
 30
0.0
  0
SEQEND
  5
34C
  8
DEFAULT
  0
POLYLINE
  5
34D
  8
DEFAULT
 66
     1
 10
0.0
 20
0.0
 30
0.0
 70
     1
  0
VERTEX
  5
34E
  8
DEFAULT
 10
567.313122217312
 20
397.2702200516009
 30
0.0
  0
VERTEX
  5
34F
  8
DEFAULT
 10
571.1131222173121
 20
397.2702200516009
 30
0.0
  0
VERTEX
  5
350
  8
DEFAULT
 10
571.1131222173121
 20
406.8702200516013
 30
0.0
  0
VERTEX
  5
351
  8
DEFAULT
 10
567.313122217312
 20
406.8702200516013
 30
0.0
  0
SEQEND
  5
352
  8
DEFAULT
  0
POLYLINE
  5
353
  8
DEFAULT
 66
     1
 10
0.0
 20
0.0
 30
0.0
 70
     1
  0
VERTEX
  5
354
  8
DEFAULT
 10
540.6381222173113
 20
407.8702200516004
 30
0.0
  0
VERTEX
  5
355
  8
DEFAULT
 10
540.6381222173113
 20
411.6702200516006
 30
0.0
  0
VERTEX
  5
356
  8
DEFAULT
 10
531.0381222173114
 20
411.6702200516006
 30
0.0
  0
VERTEX
  5
357
  8
DEFAULT
 10
531.0381222173114
 20
407.8702200516004
 30
0.0
  0
SEQEND
  5
358
  8
DEFAULT
  0
POLYLINE
  5
359
  8
DEFAULT
 66
     1
 10
0.0
 20
0.0
 30
0.0
 70
     1
  0
VERTEX
  5
35A
  8
DEFAULT
 10
507.2756222173111
 20
407.8702200516004
 30
0.0
  0
VERTEX
  5
35B
  8
DEFAULT
 10
507.2756222173111
 20
411.6702200516006
 30
0.0
  0
VERTEX
  5
35C
  8
DEFAULT
 10
497.6756222173112
 20
411.6702200516006
 30
0.0
  0
VERTEX
  5
35D
  8
DEFAULT
 10
497.6756222173112
 20
407.8702200516004
 30
0.0
  0
SEQEND
  5
35E
  8
DEFAULT
  0
POLYLINE
  5
35F
  8
DEFAULT
 66
     1
 10
0.0
 20
0.0
 30
0.0
 70
     1
  0
VERTEX
  5
360
  8
DEFAULT
 10
420.3131222173115
 20
397.2702200516009
 30
0.0
  0
VERTEX
  5
361
  8
DEFAULT
 10
424.1131222173112
 20
397.2702200516009
 30
0.0
  0
VERTEX
  5
362
  8
DEFAULT
 10
424.1131222173112
 20
406.8702200516013
 30
0.0
  0
VERTEX
  5
363
  8
DEFAULT
 10
420.3131222173115
 20
406.8702200516013
 30
0.0
  0
SEQEND
  5
364
  8
DEFAULT
  0
POLYLINE
  5
365
  8
DEFAULT
 66
     1
 10
0.0
 20
0.0
 30
0.0
 70
     1
  0
VERTEX
  5
366
  8
DEFAULT
 10
453.3484030146369
 20
407.8702200516004
 30
0.0
  0
VERTEX
  5
367
  8
DEFAULT
 10
453.3484030146369
 20
411.6702200516006
 30
0.0
  0
VERTEX
  5
368
  8
DEFAULT
 10
443.7484030146366
 20
411.6702200516006
 30
0.0
  0
VERTEX
  5
369
  8
DEFAULT
 10
443.7484030146366
 20
407.8702200516004
 30
0.0
  0
SEQEND
  5
36A
  8
DEFAULT
  0
POLYLINE
  5
36B
  8
DEFAULT
 66
     1
 10
0.0
 20
0.0
 30
0.0
 70
     1
  0
VERTEX
  5
36C
  8
DEFAULT
 10
453.3484030146369
 20
85.47022005160142
 30
0.0
  0
VERTEX
  5
36D
  8
DEFAULT
 10
453.3484030146369
 20
81.67022005160123
 30
0.0
  0
VERTEX
  5
36E
  8
DEFAULT
 10
443.7484030146366
 20
81.67022005160123
 30
0.0
  0
VERTEX
  5
36F
  8
DEFAULT
 10
443.7484030146366
 20
85.47022005160142
 30
0.0
  0
SEQEND
  5
370
  8
DEFAULT
  0
POLYLINE
  5
371
  8
DEFAULT
 66
     1
 10
0.0
 20
0.0
 30
0.0
 70
     1
  0
VERTEX
  5
372
  8
DEFAULT
 10
507.2756222173111
 20
85.47022005160142
 30
0.0
  0
VERTEX
  5
373
  8
DEFAULT
 10
507.2756222173111
 20
81.67022005160123
 30
0.0
  0
VERTEX
  5
374
  8
DEFAULT
 10
497.6756222173112
 20
81.67022005160123
 30
0.0
  0
VERTEX
  5
375
  8
DEFAULT
 10
497.6756222173112
 20
85.47022005160142
 30
0.0
  0
SEQEND
  5
376
  8
DEFAULT
  0
POLYLINE
  5
377
  8
DEFAULT
 66
     1
 10
0.0
 20
0.0
 30
0.0
 70
     1
  0
VERTEX
  5
378
  8
DEFAULT
 10
540.6381222173113
 20
85.47022005160142
 30
0.0
  0
VERTEX
  5
379
  8
DEFAULT
 10
540.6381222173113
 20
81.67022005160123
 30
0.0
  0
VERTEX
  5
37A
  8
DEFAULT
 10
531.0381222173114
 20
81.67022005160123
 30
0.0
  0
VERTEX
  5
37B
  8
DEFAULT
 10
531.0381222173114
 20
85.47022005160142
 30
0.0
  0
SEQEND
  5
37C
  8
DEFAULT
  0
POLYLINE
  5
37D
  8
DEFAULT
 66
     1
 10
0.0
 20
0.0
 30
0.0
 70
     1
  0
VERTEX
  5
37E
  8
DEFAULT
 10
567.3131222173124
 20
251.4702200516007
 30
0.0
  0
VERTEX
  5
37F
  8
DEFAULT
 10
571.1131222173121
 20
251.4702200516007
 30
0.0
  0
VERTEX
  5
380
  8
DEFAULT
 10
571.1131222173121
 20
241.8702200516013
 30
0.0
  0
VERTEX
  5
381
  8
DEFAULT
 10
567.3131222173124
 20
241.8702200516013
 30
0.0
  0
SEQEND
  5
382
  8
DEFAULT
  0
POLYLINE
  5
383
  8
DEFAULT
 66
     1
 10
0.0
 20
0.0
 30
0.0
 70
     1
  0
VERTEX
  5
384
  8
DEFAULT
 10
375.41312221731
 20
62.72294732815857
 30
0.0
  0
VERTEX
  5
385
  8
DEFAULT
 10
371.6131222173099
 20
62.72294732815857
 30
0.0
  0
VERTEX
  5
386
  8
DEFAULT
 10
371.6131222173099
 20
53.12294732815866
 30
0.0
  0
VERTEX
  5
387
  8
DEFAULT
 10
375.41312221731
 20
53.12294732815866
 30
0.0
  0
SEQEND
  5
388
  8
DEFAULT
  0
POLYLINE
  5
389
  8
DEFAULT
 66
     1
 10
0.0
 20
0.0
 30
0.0
 70
     1
  0
VERTEX
  5
38A
  8
DEFAULT
 10
522.4131222173105
 20
62.72294732815902
 30
0.0
  0
VERTEX
  5
38B
  8
DEFAULT
 10
518.6131222173108
 20
62.72294732815902
 30
0.0
  0
VERTEX
  5
38C
  8
DEFAULT
 10
518.6131222173108
 20
53.12294732815866
 30
0.0
  0
VERTEX
  5
38D
  8
DEFAULT
 10
522.4131222173105
 20
53.12294732815866
 30
0.0
  0
SEQEND
  5
38E
  8
DEFAULT
  0
POLYLINE
  5
38F
  8
DEFAULT
 66
     1
 10
0.0
 20
0.0
 30
0.0
 70
     1
  0
VERTEX
  5
390
  8
DEFAULT
 10
375.41312221731
 20
363.9229473281598
 30
0.0
  0
VERTEX
  5
391
  8
DEFAULT
 10
371.6131222173099
 20
363.9229473281598
 30
0.0
  0
VERTEX
  5
392
  8
DEFAULT
 10
371.6131222173099
 20
373.5229473281592
 30
0.0
  0
VERTEX
  5
393
  8
DEFAULT
 10
375.41312221731
 20
373.5229473281592
 30
0.0
  0
SEQEND
  5
394
  8
DEFAULT
  0
POLYLINE
  5
395
  8
DEFAULT
 66
     1
 10
0.0
 20
0.0
 30
0.0
 70
     1
  0
VERTEX
  5
396
  8
DEFAULT
 10
402.0881222173107
 20
374.5229473281592
 30
0.0
  0
VERTEX
  5
397
  8
DEFAULT
 10
402.0881222173107
 20
378.3229473281594
 30
0.0
  0
VERTEX
  5
398
  8
DEFAULT
 10
411.6881222173106
 20
378.3229473281594
 30
0.0
  0
VERTEX
  5
399
  8
DEFAULT
 10
411.6881222173106
 20
374.5229473281592
 30
0.0
  0
SEQEND
  5
39A
  8
DEFAULT
  0
POLYLINE
  5
39B
  8
DEFAULT
 66
     1
 10
0.0
 20
0.0
 30
0.0
 70
     1
  0
VERTEX
  5
39C
  8
DEFAULT
 10
435.4506222173109
 20
374.5229473281592
 30
0.0
  0
VERTEX
  5
39D
  8
DEFAULT
 10
435.4506222173109
 20
378.3229473281594
 30
0.0
  0
VERTEX
  5
39E
  8
DEFAULT
 10
445.0506222173108
 20
378.3229473281594
 30
0.0
  0
VERTEX
  5
39F
  8
DEFAULT
 10
445.0506222173108
 20
374.5229473281592
 30
0.0
  0
SEQEND
  5
3A0
  8
DEFAULT
  0
POLYLINE
  5
3A1
  8
DEFAULT
 66
     1
 10
0.0
 20
0.0
 30
0.0
 70
     1
  0
VERTEX
  5
3A2
  8
DEFAULT
 10
522.4131222173105
 20
363.9229473281598
 30
0.0
  0
VERTEX
  5
3A3
  8
DEFAULT
 10
518.6131222173108
 20
363.9229473281598
 30
0.0
  0
VERTEX
  5
3A4
  8
DEFAULT
 10
518.6131222173108
 20
373.5229473281601
 30
0.0
  0
VERTEX
  5
3A5
  8
DEFAULT
 10
522.4131222173105
 20
373.5229473281601
 30
0.0
  0
SEQEND
  5
3A6
  8
DEFAULT
  0
POLYLINE
  5
3A7
  8
DEFAULT
 66
     1
 10
0.0
 20
0.0
 30
0.0
 70
     1
  0
VERTEX
  5
3A8
  8
DEFAULT
 10
489.3778414199851
 20
374.5229473281592
 30
0.0
  0
VERTEX
  5
3A9
  8
DEFAULT
 10
489.3778414199851
 20
378.3229473281594
 30
0.0
  0
VERTEX
  5
3AA
  8
DEFAULT
 10
498.9778414199855
 20
378.3229473281594
 30
0.0
  0
VERTEX
  5
3AB
  8
DEFAULT
 10
498.9778414199855
 20
374.5229473281592
 30
0.0
  0
SEQEND
  5
3AC
  8
DEFAULT
  0
POLYLINE
  5
3AD
  8
DEFAULT
 66
     1
 10
0.0
 20
0.0
 30
0.0
 70
     1
  0
VERTEX
  5
3AE
  8
DEFAULT
 10
489.3778414199851
 20
52.12294732816002
 30
0.0
  0
VERTEX
  5
3AF
  8
DEFAULT
 10
489.3778414199851
 20
48.32294732815984
 30
0.0
  0
VERTEX
  5
3B0
  8
DEFAULT
 10
498.9778414199855
 20
48.32294732815984
 30
0.0
  0
VERTEX
  5
3B1
  8
DEFAULT
 10
498.9778414199855
 20
52.12294732816002
 30
0.0
  0
SEQEND
  5
3B2
  8
DEFAULT
  0
POLYLINE
  5
3B3
  8
DEFAULT
 66
     1
 10
0.0
 20
0.0
 30
0.0
 70
     1
  0
VERTEX
  5
3B4
  8
DEFAULT
 10
435.4506222173109
 20
52.12294732816002
 30
0.0
  0
VERTEX
  5
3B5
  8
DEFAULT
 10
435.4506222173109
 20
48.32294732815984
 30
0.0
  0
VERTEX
  5
3B6
  8
DEFAULT
 10
445.0506222173108
 20
48.32294732815984
 30
0.0
  0
VERTEX
  5
3B7
  8
DEFAULT
 10
445.0506222173108
 20
52.12294732816002
 30
0.0
  0
SEQEND
  5
3B8
  8
DEFAULT
  0
POLYLINE
  5
3B9
  8
DEFAULT
 66
     1
 10
0.0
 20
0.0
 30
0.0
 70
     1
  0
VERTEX
  5
3BA
  8
DEFAULT
 10
402.0881222173107
 20
52.12294732816002
 30
0.0
  0
VERTEX
  5
3BB
  8
DEFAULT
 10
402.0881222173107
 20
48.32294732815984
 30
0.0
  0
VERTEX
  5
3BC
  8
DEFAULT
 10
411.6881222173106
 20
48.32294732815984
 30
0.0
  0
VERTEX
  5
3BD
  8
DEFAULT
 10
411.6881222173106
 20
52.12294732816002
 30
0.0
  0
SEQEND
  5
3BE
  8
DEFAULT
  0
POLYLINE
  5
3BF
  8
LAYER_01
 66
     1
 10
0.0
 20
0.0
 30
0.0
 70
     1
  0
VERTEX
  5
3C0
  8
LAYER_01
 10
412.8719390842298
 20
397.5989741650164
 30
0.0
  0
VERTEX
  5
3C1
  8
LAYER_01
 10
529.1356766815557
 20
384.2704633762588
 30
0.0
 42
-0.372348925182396
  0
VERTEX
  5
3C2
  8
LAYER_01
 10
533.4131222173121
 20
379.3229473281597
 30
0.0
 42
0.4142135623733971
  0
VERTEX
  5
3C3
  8
LAYER_01
 10
532.413122217311
 20
380.3229473281601
 30
0.0
  0
VERTEX
  5
3C4
  8
LAYER_01
 10
373.6131222173099
 20
380.3229473281594
 30
0.0
 42
0.4142135623730765
  0
VERTEX
  5
3C5
  8
LAYER_01
 10
368.6131222173099
 20
375.3229473281596
 30
0.0
  0
VERTEX
  5
3C6
  8
LAYER_01
 10
368.6131222173108
 20
51.32294732815939
 30
0.0
 42
0.4142135623730285
  0
VERTEX
  5
3C7
  8
LAYER_01
 10
373.6131222173096
 20
46.32294732815939
 30
0.0
  0
VERTEX
  5
3C8
  8
LAYER_01
 10
532.413122217311
 20
46.32294732815947
 30
0.0
 42
0.414213463616782
  0
VERTEX
  5
3C9
  8
LAYER_01
 10
533.4131222173119
 20
47.32294732815939
 30
0.0
  0
VERTEX
  5
3CA
  8
LAYER_01
 10
533.413122217311
 20
57.60639714797941
 30
0.0
 42
0.3309486557972786
  0
VERTEX
  5
3CB
  8
LAYER_01
 10
529.8543053503922
 20
62.39419321474357
 30
0.0
  0
VERTEX
  5
3CC
  8
LAYER_01
 10
413.5905677530664
 20
75.72270400350301
 30
0.0
 42
-0.3723489251823955
  0
VERTEX
  5
3CD
  8
LAYER_01
 10
409.3131222173106
 20
80.67022005160237
 30
0.0
  0
VERTEX
  5
3CE
  8
LAYER_01
 10
409.3131222173106
 20
345.9756746047183
 30
0.0
 42
-0.3723489251823922
  0
VERTEX
  5
3CF
  8
LAYER_01
 10
413.5905677530662
 20
350.9231906528177
 30
0.0
  0
VERTEX
  5
3D0
  8
LAYER_01
 10
529.8543053503922
 20
364.2517014415747
 30
0.0
 42
0.3309485768930177
  0
VERTEX
  5
3D1
  8
LAYER_01
 10
533.4131222173107
 20
369.0394975083395
 30
0.0
  0
VERTEX
  5
3D2
  8
LAYER_01
 10
533.4131222173114
 20
379.3229473281598
 30
0.0
  0
VERTEX
  5
3D3
  8
LAYER_01
 10
533.4131222173113
 20
114.017492775044
 30
0.0
 42
-0.3723489251824399
  0
VERTEX
  5
3D4
  8
LAYER_01
 10
529.1356766815554
 20
109.0699767269446
 30
0.0
  0
VERTEX
  5
3D5
  8
LAYER_01
 10
412.8719390842298
 20
95.74146593818521
 30
0.0
 42
0.3309485768929247
  0
VERTEX
  5
3D6
  8
LAYER_01
 10
409.3131222173103
 20
90.95366987142083
 30
0.0
  0
VERTEX
  5
3D7
  8
LAYER_01
 10
409.3131222173101
 20
80.670220051601
 30
0.0
 42
0.4142134636175872
  0
VERTEX
  5
3D8
  8
LAYER_01
 10
410.3131222173107
 20
79.6702200516011
 30
0.0
  0
VERTEX
  5
3D9
  8
LAYER_01
 10
569.1131222173126
 20
79.670220051601
 30
0.0
 42
0.4142135623730133
  0
VERTEX
  5
3DA
  8
LAYER_01
 10
574.1131222173112
 20
84.670220051601
 30
0.0
  0
VERTEX
  5
3DB
  8
LAYER_01
 10
574.1131222173121
 20
408.6702200516008
 30
0.0
 42
0.4142135623730836
  0
VERTEX
  5
3DC
  8
LAYER_01
 10
569.1131222173121
 20
413.6702200516006
 30
0.0
  0
VERTEX
  5
3DD
  8
LAYER_01
 10
410.313122217311
 20
413.6702200516013
 30
0.0
 42
0.414213562373463
  0
VERTEX
  5
3DE
  8
LAYER_01
 10
409.3131222173103
 20
412.6702200516011
 30
0.0
  0
VERTEX
  5
3DF
  8
LAYER_01
 10
409.3131222173106
 20
402.3867702317806
 30
0.0
 42
0.3309486557972751
  0
SEQEND
  5
3E0
  8
LAYER_01
  0
POLYLINE
  5
3E1
  8
DEFAULT
 66
     1
 10
0.0
 20
0.0
 30
0.0
 70
     1
  0
VERTEX
  5
3E2
  8
DEFAULT
 10
375.4131222173096
 20
218.1229473281596
 30
0.0
  0
VERTEX
  5
3E3
  8
DEFAULT
 10
371.6131222173099
 20
218.1229473281596
 30
0.0
  0
VERTEX
  5
3E4
  8
DEFAULT
 10
371.6131222173099
 20
208.5229473281592
 30
0.0
  0
VERTEX
  5
3E5
  8
DEFAULT
 10
375.4131222173096
 20
208.5229473281592
 30
0.0
  0
SEQEND
  5
3E6
  8
DEFAULT
  0
POLYLINE
  5
3E7
  8
LAYER_01
 66
     1
 10
0.0
 20
0.0
 30
0.0
 70
     1
  0
VERTEX
  5
3E8
  8
LAYER_01
 10
42.21312221731205
 20
423.0960101459854
 30
0.0
  0
VERTEX
  5
3E9
  8
LAYER_01
 10
42.2131222173125
 20
281.1467252016923
 30
0.0
  0
VERTEX
  5
3EA
  8
LAYER_01
 10
38.21312221731296
 20
280.946725201692
 30
0.0
  0
VERTEX
  5
3EB
  8
LAYER_01
 10
38.21312221731296
 20
271.3467252016921
 30
0.0
  0
VERTEX
  5
3EC
  8
LAYER_01
 10
42.2131222173125
 20
271.1467252016923
 30
0.0
  0
VERTEX
  5
3ED
  8
LAYER_01
 10
42.21312221731205
 20
129.1974402574012
 30
0.0
  0
VERTEX
  5
3EE
  8
LAYER_01
 10
38.21312221731159
 20
128.9974402574009
 30
0.0
  0
VERTEX
  5
3EF
  8
LAYER_01
 10
38.21312221731159
 20
119.397440257401
 30
0.0
  0
VERTEX
  5
3F0
  8
LAYER_01
 10
42.21312221731068
 20
119.1974402574044
 30
0.0
  0
VERTEX
  5
3F1
  8
LAYER_01
 10
42.21312221731068
 20
114.946725201695
 30
0.0
  0
VERTEX
  5
3F2
  8
LAYER_01
 10
43.01312221731041
 20
114.946725201695
 30
0.0
  0
VERTEX
  5
3F3
  8
LAYER_01
 10
43.21312221731114
 20
110.946725201695
 30
0.0
  0
VERTEX
  5
3F4
  8
LAYER_01
 10
52.81312221731059
 20
110.946725201695
 30
0.0
  0
VERTEX
  5
3F5
  8
LAYER_01
 10
53.01312221731132
 20
114.9467252016915
 30
0.0
  0
VERTEX
  5
3F6
  8
LAYER_01
 10
198.4131222173119
 20
114.9467252016913
 30
0.0
  0
VERTEX
  5
3F7
  8
LAYER_01
 10
198.6131222173117
 20
110.9467252016913
 30
0.0
  0
VERTEX
  5
3F8
  8
LAYER_01
 10
208.2131222173116
 20
110.9467252016913
 30
0.0
  0
VERTEX
  5
3F9
  8
LAYER_01
 10
208.4131222173119
 20
114.9467252016913
 30
0.0
  0
VERTEX
  5
3FA
  8
LAYER_01
 10
353.813122217312
 20
114.9467252016931
 30
0.0
  0
VERTEX
  5
3FB
  8
LAYER_01
 10
354.0131222173122
 20
110.946725201695
 30
0.0
  0
VERTEX
  5
3FC
  8
LAYER_01
 10
363.6131222173121
 20
110.946725201695
 30
0.0
  0
VERTEX
  5
3FD
  8
LAYER_01
 10
363.813122217312
 20
114.946725201695
 30
0.0
  0
VERTEX
  5
3FE
  8
LAYER_01
 10
364.6131222173112
 20
114.946725201695
 30
0.0
  0
VERTEX
  5
3FF
  8
LAYER_01
 10
364.6131222173112
 20
119.1974402574025
 30
0.0
  0
VERTEX
  5
400
  8
LAYER_01
 10
368.6131222173112
 20
119.397440257401
 30
0.0
  0
VERTEX
  5
401
  8
LAYER_01
 10
368.6131222173112
 20
128.9974402574009
 30
0.0
  0
VERTEX
  5
402
  8
LAYER_01
 10
364.6131222173112
 20
129.1974402574012
 30
0.0
  0
VERTEX
  5
403
  8
LAYER_01
 10
364.6131222173108
 20
271.1467252016923
 30
0.0
  0
VERTEX
  5
404
  8
LAYER_01
 10
368.6131222173099
 20
271.3467252016921
 30
0.0
  0
VERTEX
  5
405
  8
LAYER_01
 10
368.6131222173099
 20
280.946725201692
 30
0.0
  0
VERTEX
  5
406
  8
LAYER_01
 10
364.6131222173108
 20
281.1467252016923
 30
0.0
  0
VERTEX
  5
407
  8
LAYER_01
 10
364.6131222173112
 20
423.0960101459854
 30
0.0
  0
VERTEX
  5
408
  8
LAYER_01
 10
368.6131222173112
 20
423.2960101459852
 30
0.0
  0
VERTEX
  5
409
  8
LAYER_01
 10
368.6131222173112
 20
432.8960101459851
 30
0.0
  0
VERTEX
  5
40A
  8
LAYER_01
 10
364.6131222173112
 20
433.0960101459854
 30
0.0
  0
VERTEX
  5
40B
  8
LAYER_01
 10
364.6131222173112
 20
437.3467252016948
 30
0.0
  0
VERTEX
  5
40C
  8
LAYER_01
 10
363.813122217312
 20
437.3467252016948
 30
0.0
  0
VERTEX
  5
40D
  8
LAYER_01
 10
363.6131222173121
 20
441.3467252016948
 30
0.0
  0
VERTEX
  5
40E
  8
LAYER_01
 10
354.0131222173122
 20
441.3467252016948
 30
0.0
  0
VERTEX
  5
40F
  8
LAYER_01
 10
353.813122217312
 20
437.3467252016948
 30
0.0
  0
VERTEX
  5
410
  8
LAYER_01
 10
208.4131222173119
 20
437.3467252016948
 30
0.0
  0
VERTEX
  5
411
  8
LAYER_01
 10
208.2131222173116
 20
441.3467252016953
 30
0.0
  0
VERTEX
  5
412
  8
LAYER_01
 10
198.6131222173117
 20
441.3467252016953
 30
0.0
  0
VERTEX
  5
413
  8
LAYER_01
 10
198.4131222173119
 20
437.3467252016948
 30
0.0
  0
VERTEX
  5
414
  8
LAYER_01
 10
53.01312221731132
 20
437.3467252016948
 30
0.0
  0
VERTEX
  5
415
  8
LAYER_01
 10
52.81312221731059
 20
441.3467252016948
 30
0.0
  0
VERTEX
  5
416
  8
LAYER_01
 10
43.21312221731114
 20
441.3467252016948
 30
0.0
  0
VERTEX
  5
417
  8
LAYER_01
 10
43.01312221731132
 20
437.3467252016948
 30
0.0
  0
VERTEX
  5
418
  8
LAYER_01
 10
42.21312221731159
 20
437.3467252016948
 30
0.0
  0
VERTEX
  5
419
  8
LAYER_01
 10
42.21312221731159
 20
433.0960101459854
 30
0.0
  0
VERTEX
  5
41A
  8
LAYER_01
 10
38.21312221731159
 20
432.8960101459851
 30
0.0
  0
VERTEX
  5
41B
  8
LAYER_01
 10
38.21312221731159
 20
423.2960101459852
 30
0.0
  0
SEQEND
  5
41C
  8
LAYER_01
  0
POLYLINE
  5
41D
  8
LAYER_01
 66
     1
 10
0.0
 20
0.0
 30
0.0
 70
     1
  0
VERTEX
  5
41E
  8
LAYER_01
 10
42.21312221731205
 20
759.1577241845621
 30
0.0
  0
VERTEX
  5
41F
  8
LAYER_01
 10
42.2131222173125
 20
617.208439240269
 30
0.0
  0
VERTEX
  5
420
  8
LAYER_01
 10
38.21312221731296
 20
617.0084392402691
 30
0.0
  0
VERTEX
  5
421
  8
LAYER_01
 10
38.21312221731296
 20
607.4084392402692
 30
0.0
  0
VERTEX
  5
422
  8
LAYER_01
 10
42.2131222173125
 20
607.208439240269
 30
0.0
  0
VERTEX
  5
423
  8
LAYER_01
 10
42.21312221731205
 20
465.259154295978
 30
0.0
  0
VERTEX
  5
424
  8
LAYER_01
 10
38.21312221731159
 20
465.0591542959777
 30
0.0
  0
VERTEX
  5
425
  8
LAYER_01
 10
38.21312221731159
 20
455.4591542959778
 30
0.0
  0
VERTEX
  5
426
  8
LAYER_01
 10
42.21312221731068
 20
455.2591542959812
 30
0.0
  0
VERTEX
  5
427
  8
LAYER_01
 10
42.21312221731068
 20
451.0084392402718
 30
0.0
  0
VERTEX
  5
428
  8
LAYER_01
 10
43.01312221731041
 20
451.0084392402718
 30
0.0
  0
VERTEX
  5
429
  8
LAYER_01
 10
43.21312221731114
 20
447.0084392402718
 30
0.0
  0
VERTEX
  5
42A
  8
LAYER_01
 10
52.81312221731059
 20
447.0084392402718
 30
0.0
  0
VERTEX
  5
42B
  8
LAYER_01
 10
53.01312221731132
 20
451.0084392402682
 30
0.0
  0
VERTEX
  5
42C
  8
LAYER_01
 10
198.4131222173119
 20
451.0084392402682
 30
0.0
  0
VERTEX
  5
42D
  8
LAYER_01
 10
198.6131222173117
 20
447.0084392402682
 30
0.0
  0
VERTEX
  5
42E
  8
LAYER_01
 10
208.2131222173116
 20
447.0084392402682
 30
0.0
  0
VERTEX
  5
42F
  8
LAYER_01
 10
208.4131222173119
 20
451.0084392402682
 30
0.0
  0
VERTEX
  5
430
  8
LAYER_01
 10
353.813122217312
 20
451.00843924027
 30
0.0
  0
VERTEX
  5
431
  8
LAYER_01
 10
354.0131222173122
 20
447.0084392402718
 30
0.0
  0
VERTEX
  5
432
  8
LAYER_01
 10
363.6131222173121
 20
447.0084392402718
 30
0.0
  0
VERTEX
  5
433
  8
LAYER_01
 10
363.813122217312
 20
451.0084392402718
 30
0.0
  0
VERTEX
  5
434
  8
LAYER_01
 10
364.6131222173112
 20
451.0084392402718
 30
0.0
  0
VERTEX
  5
435
  8
LAYER_01
 10
364.6131222173112
 20
455.2591542959794
 30
0.0
  0
VERTEX
  5
436
  8
LAYER_01
 10
368.6131222173112
 20
455.4591542959778
 30
0.0
  0
VERTEX
  5
437
  8
LAYER_01
 10
368.6131222173112
 20
465.0591542959777
 30
0.0
  0
VERTEX
  5
438
  8
LAYER_01
 10
364.6131222173112
 20
465.259154295978
 30
0.0
  0
VERTEX
  5
439
  8
LAYER_01
 10
364.6131222173108
 20
607.208439240269
 30
0.0
  0
VERTEX
  5
43A
  8
LAYER_01
 10
368.6131222173099
 20
607.4084392402692
 30
0.0
  0
VERTEX
  5
43B
  8
LAYER_01
 10
368.6131222173099
 20
617.0084392402691
 30
0.0
  0
VERTEX
  5
43C
  8
LAYER_01
 10
364.6131222173108
 20
617.208439240269
 30
0.0
  0
VERTEX
  5
43D
  8
LAYER_01
 10
364.6131222173112
 20
759.1577241845621
 30
0.0
  0
VERTEX
  5
43E
  8
LAYER_01
 10
368.6131222173112
 20
759.3577241845619
 30
0.0
  0
VERTEX
  5
43F
  8
LAYER_01
 10
368.6131222173112
 20
768.9577241845618
 30
0.0
  0
VERTEX
  5
440
  8
LAYER_01
 10
364.6131222173112
 20
769.1577241845621
 30
0.0
  0
VERTEX
  5
441
  8
LAYER_01
 10
364.6131222173112
 20
773.4084392402715
 30
0.0
  0
VERTEX
  5
442
  8
LAYER_01
 10
363.813122217312
 20
773.4084392402715
 30
0.0
  0
VERTEX
  5
443
  8
LAYER_01
 10
363.6131222173121
 20
777.4084392402715
 30
0.0
  0
VERTEX
  5
444
  8
LAYER_01
 10
354.0131222173122
 20
777.4084392402715
 30
0.0
  0
VERTEX
  5
445
  8
LAYER_01
 10
353.813122217312
 20
773.4084392402715
 30
0.0
  0
VERTEX
  5
446
  8
LAYER_01
 10
208.4131222173119
 20
773.408439240272
 30
0.0
  0
VERTEX
  5
447
  8
LAYER_01
 10
208.2131222173116
 20
777.408439240272
 30
0.0
  0
VERTEX
  5
448
  8
LAYER_01
 10
198.6131222173117
 20
777.408439240272
 30
0.0
  0
VERTEX
  5
449
  8
LAYER_01
 10
198.4131222173119
 20
773.408439240272
 30
0.0
  0
VERTEX
  5
44A
  8
LAYER_01
 10
53.01312221731132
 20
773.4084392402715
 30
0.0
  0
VERTEX
  5
44B
  8
LAYER_01
 10
52.81312221731059
 20
777.4084392402715
 30
0.0
  0
VERTEX
  5
44C
  8
LAYER_01
 10
43.21312221731114
 20
777.4084392402715
 30
0.0
  0
VERTEX
  5
44D
  8
LAYER_01
 10
43.01312221731132
 20
773.4084392402715
 30
0.0
  0
VERTEX
  5
44E
  8
LAYER_01
 10
42.21312221731159
 20
773.4084392402715
 30
0.0
  0
VERTEX
  5
44F
  8
LAYER_01
 10
42.21312221731159
 20
769.1577241845621
 30
0.0
  0
VERTEX
  5
450
  8
LAYER_01
 10
38.21312221731159
 20
768.9577241845618
 30
0.0
  0
VERTEX
  5
451
  8
LAYER_01
 10
38.21312221731159
 20
759.3577241845619
 30
0.0
  0
SEQEND
  5
452
  8
LAYER_01
  0
POLYLINE
  5
453
  8
LAYER_01
 66
     1
 10
0.0
 20
0.0
 30
0.0
 70
     1
  0
VERTEX
  5
454
  8
LAYER_01
 10
329.6131222173112
 20
476.0084392402716
 30
0.0
 42
0.4142135623730892
  0
VERTEX
  5
455
  8
LAYER_01
 10
339.6131222173115
 20
486.0084392402716
 30
0.0
  0
VERTEX
  5
456
  8
LAYER_01
 10
339.6131222173112
 20
738.4084392402724
 30
0.0
 42
0.4142135623730688
  0
VERTEX
  5
457
  8
LAYER_01
 10
329.6131222173112
 20
748.4084392402715
 30
0.0
  0
VERTEX
  5
458
  8
LAYER_01
 10
77.21312221731114
 20
748.4084392402715
 30
0.0
 42
0.4142135623730928
  0
VERTEX
  5
459
  8
LAYER_01
 10
67.21312221731114
 20
738.4084392402715
 30
0.0
  0
VERTEX
  5
45A
  8
LAYER_01
 10
67.21312221731114
 20
486.0084392402718
 30
0.0
 42
0.4142135623730872
  0
VERTEX
  5
45B
  8
LAYER_01
 10
77.2131222173108
 20
476.0084392402718
 30
0.0
  0
SEQEND
  5
45C
  8
LAYER_01
  0
POLYLINE
  5
45D
  8
LAYER_01
 66
     1
 10
0.0
 20
0.0
 30
0.0
 70
     1
  0
VERTEX
  5
45E
  8
LAYER_01
 10
577.1131222173094
 20
758.8091439740645
 30
0.0
  0
VERTEX
  5
45F
  8
LAYER_01
 10
574.1131222173094
 20
758.8091439740649
 30
0.0
  0
VERTEX
  5
460
  8
LAYER_01
 10
574.1131222173103
 20
470.2591439740686
 30
0.0
  0
VERTEX
  5
461
  8
LAYER_01
 10
577.1131222173103
 20
470.259143974065
 30
0.0
  0
VERTEX
  5
462
  8
LAYER_01
 10
577.3131222173101
 20
466.0591439740652
 30
0.0
  0
VERTEX
  5
463
  8
LAYER_01
 10
586.9131222173105
 20
466.0591439740652
 30
0.0
  0
VERTEX
  5
464
  8
LAYER_01
 10
587.1131222173103
 20
470.259143974065
 30
0.0
  0
VERTEX
  5
465
  8
LAYER_01
 10
604.1131222173103
 20
470.259143974065
 30
0.0
  0
VERTEX
  5
466
  8
LAYER_01
 10
604.3131222173101
 20
466.0591439740652
 30
0.0
  0
VERTEX
  5
467
  8
LAYER_01
 10
613.9131222173105
 20
466.0591439740652
 30
0.0
  0
VERTEX
  5
468
  8
LAYER_01
 10
614.1131222173103
 20
470.259143974065
 30
0.0
  0
VERTEX
  5
469
  8
LAYER_01
 10
636.7131222173098
 20
470.259143974065
 30
0.0
  0
VERTEX
  5
46A
  8
LAYER_01
 10
636.7131222173107
 20
475.4591439740659
 30
0.0
 42
-0.9999999999999866
  0
VERTEX
  5
46B
  8
LAYER_01
 10
645.1131222173105
 20
475.4591439740659
 30
0.0
  0
VERTEX
  5
46C
  8
LAYER_01
 10
645.1131222173103
 20
466.0591439740656
 30
0.0
  0
VERTEX
  5
46D
  8
LAYER_01
 10
650.9131222173105
 20
466.0591439740652
 30
0.0
  0
VERTEX
  5
46E
  8
LAYER_01
 10
651.1131222173103
 20
470.259143974065
 30
0.0
  0
VERTEX
  5
46F
  8
LAYER_01
 10
654.1131222173103
 20
470.2591439740659
 30
0.0
  0
VERTEX
  5
470
  8
LAYER_01
 10
654.1131222173104
 20
480.7142996888994
 30
0.0
 42
0.3412390696573628
  0
VERTEX
  5
471
  8
LAYER_01
 10
652.6183895946564
 20
482.6494236842522
 30
0.0
  0
VERTEX
  5
472
  8
LAYER_01
 10
600.6076509867548
 20
490.2296022946874
 30
0.0
 42
-0.3412390696573584
  0
VERTEX
  5
473
  8
LAYER_01
 10
596.8708194301194
 20
495.0674122830694
 30
0.0
  0
VERTEX
  5
474
  8
LAYER_01
 10
596.8708194301184
 20
734.0008756650602
 30
0.0
 42
-0.3412390696573994
  0
VERTEX
  5
475
  8
LAYER_01
 10
600.6076509867542
 20
738.8386856534422
 30
0.0
  0
VERTEX
  5
476
  8
LAYER_01
 10
652.6183895946556
 20
746.4188642638778
 30
0.0
 42
0.3412390696572951
  0
VERTEX
  5
477
  8
LAYER_01
 10
654.1131222173094
 20
748.3539882592306
 30
0.0
  0
VERTEX
  5
478
  8
LAYER_01
 10
654.1131222173094
 20
758.8091439740645
 30
0.0
  0
VERTEX
  5
479
  8
LAYER_01
 10
651.1131222173094
 20
758.8091439740649
 30
0.0
  0
VERTEX
  5
47A
  8
LAYER_01
 10
650.9131222173096
 20
763.0091439740647
 30
0.0
  0
VERTEX
  5
47B
  8
LAYER_01
 10
645.1131222173094
 20
763.0091439740647
 30
0.0
  0
VERTEX
  5
47C
  8
LAYER_01
 10
645.1131222173094
 20
753.6091439740646
 30
0.0
 42
-1.0
  0
VERTEX
  5
47D
  8
LAYER_01
 10
636.7131222173095
 20
753.6091439740646
 30
0.0
  0
VERTEX
  5
47E
  8
LAYER_01
 10
636.7131222173098
 20
758.8091439740649
 30
0.0
  0
VERTEX
  5
47F
  8
LAYER_01
 10
614.1131222173094
 20
758.8091439740645
 30
0.0
  0
VERTEX
  5
480
  8
LAYER_01
 10
613.9131222173096
 20
763.0091439740643
 30
0.0
  0
VERTEX
  5
481
  8
LAYER_01
 10
604.3131222173101
 20
763.0091439740643
 30
0.0
  0
VERTEX
  5
482
  8
LAYER_01
 10
604.1131222173094
 20
758.8091439740645
 30
0.0
  0
VERTEX
  5
483
  8
LAYER_01
 10
587.1131222173094
 20
758.8091439740645
 30
0.0
  0
VERTEX
  5
484
  8
LAYER_01
 10
586.9131222173096
 20
763.0091439740643
 30
0.0
  0
VERTEX
  5
485
  8
LAYER_01
 10
577.3131222173101
 20
763.0091439740643
 30
0.0
  0
SEQEND
  5
486
  8
LAYER_01
  0
POLYLINE
  5
487
  8
DEFAULT
 66
     1
 10
0.0
 20
0.0
 30
0.0
 70
     1
  0
VERTEX
  5
488
  8
DEFAULT
 10
580.9131222173096
 20
746.2784580548721
 30
0.0
  0
VERTEX
  5
489
  8
DEFAULT
 10
580.9131222173096
 20
736.6784580548717
 30
0.0
  0
VERTEX
  5
48A
  8
DEFAULT
 10
577.1131222173094
 20
736.6784580548717
 30
0.0
  0
VERTEX
  5
48B
  8
DEFAULT
 10
577.1131222173094
 20
746.2784580548721
 30
0.0
  0
SEQEND
  5
48C
  8
DEFAULT
  0
POLYLINE
  5
48D
  8
DEFAULT
 66
     1
 10
0.0
 20
0.0
 30
0.0
 70
     1
  0
VERTEX
  5
48E
  8
DEFAULT
 10
580.91312221731
 20
482.7898298932579
 30
0.0
  0
VERTEX
  5
48F
  8
DEFAULT
 10
580.91312221731
 20
492.3898298932579
 30
0.0
  0
VERTEX
  5
490
  8
DEFAULT
 10
577.1131222173103
 20
492.3898298932579
 30
0.0
  0
VERTEX
  5
491
  8
DEFAULT
 10
577.1131222173103
 20
482.7898298932584
 30
0.0
  0
SEQEND
  5
492
  8
DEFAULT
  0
POLYLINE
  5
493
  8
LAYER_01
 66
     1
 10
0.0
 20
0.0
 30
0.0
 70
     1
  0
VERTEX
  5
494
  8
LAYER_01
 10
577.1131222173117
 20
390.9452200515981
 30
0.0
  0
VERTEX
  5
495
  8
LAYER_01
 10
574.1131222173108
 20
390.9452200515991
 30
0.0
  0
VERTEX
  5
496
  8
LAYER_01
 10
574.1131222173126
 20
102.3952200516025
 30
0.0
  0
VERTEX
  5
497
  8
LAYER_01
 10
577.1131222173117
 20
102.3952200515989
 30
0.0
  0
VERTEX
  5
498
  8
LAYER_01
 10
577.3131222173124
 20
98.19522005159905
 30
0.0
  0
VERTEX
  5
499
  8
LAYER_01
 10
586.9131222173119
 20
98.19522005159905
 30
0.0
  0
VERTEX
  5
49A
  8
LAYER_01
 10
587.1131222173117
 20
102.3952200515989
 30
0.0
  0
VERTEX
  5
49B
  8
LAYER_01
 10
604.1131222173117
 20
102.3952200515989
 30
0.0
  0
VERTEX
  5
49C
  8
LAYER_01
 10
604.3131222173124
 20
98.19522005159905
 30
0.0
  0
VERTEX
  5
49D
  8
LAYER_01
 10
613.9131222173119
 20
98.19522005159905
 30
0.0
  0
VERTEX
  5
49E
  8
LAYER_01
 10
614.1131222173117
 20
102.3952200515989
 30
0.0
  0
VERTEX
  5
49F
  8
LAYER_01
 10
636.713122217312
 20
102.3952200515989
 30
0.0
  0
VERTEX
  5
4A0
  8
LAYER_01
 10
636.713122217312
 20
107.5952200515996
 30
0.0
 42
-0.9999999999999915
  0
VERTEX
  5
4A1
  8
LAYER_01
 10
645.1131222173119
 20
107.5952200515996
 30
0.0
  0
VERTEX
  5
4A2
  8
LAYER_01
 10
645.1131222173117
 20
98.1952200515995
 30
0.0
  0
VERTEX
  5
4A3
  8
LAYER_01
 10
650.9131222173119
 20
98.19522005159905
 30
0.0
  0
VERTEX
  5
4A4
  8
LAYER_01
 10
651.1131222173117
 20
102.3952200515989
 30
0.0
  0
VERTEX
  5
4A5
  8
LAYER_01
 10
654.1131222173117
 20
102.3952200515998
 30
0.0
  0
VERTEX
  5
4A6
  8
LAYER_01
 10
654.1131222173117
 20
112.8503757664332
 30
0.0
 42
0.3412390696573528
  0
VERTEX
  5
4A7
  8
LAYER_01
 10
652.6183895946577
 20
114.7854997617859
 30
0.0
  0
VERTEX
  5
4A8
  8
LAYER_01
 10
600.6076509867562
 20
122.3656783722211
 30
0.0
 42
-0.3412390696573693
  0
VERTEX
  5
4A9
  8
LAYER_01
 10
596.8708194301207
 20
127.2034883606031
 30
0.0
  0
VERTEX
  5
4AA
  8
LAYER_01
 10
596.8708194301207
 20
366.1369517425939
 30
0.0
 42
-0.3412390696573905
  0
VERTEX
  5
4AB
  8
LAYER_01
 10
600.6076509867564
 20
370.9747617309759
 30
0.0
  0
VERTEX
  5
4AC
  8
LAYER_01
 10
652.6183895946579
 20
378.5549403414115
 30
0.0
 42
0.3412390696572861
  0
VERTEX
  5
4AD
  8
LAYER_01
 10
654.1131222173117
 20
380.4900643367643
 30
0.0
  0
VERTEX
  5
4AE
  8
LAYER_01
 10
654.1131222173117
 20
390.9452200515981
 30
0.0
  0
VERTEX
  5
4AF
  8
LAYER_01
 10
651.1131222173117
 20
390.9452200515986
 30
0.0
  0
VERTEX
  5
4B0
  8
LAYER_01
 10
650.9131222173119
 20
395.1452200515984
 30
0.0
  0
VERTEX
  5
4B1
  8
LAYER_01
 10
645.1131222173117
 20
395.1452200515984
 30
0.0
  0
VERTEX
  5
4B2
  8
LAYER_01
 10
645.1131222173117
 20
385.7452200515983
 30
0.0
 42
-0.9999999999999866
  0
VERTEX
  5
4B3
  8
LAYER_01
 10
636.7131222173118
 20
385.7452200515983
 30
0.0
  0
VERTEX
  5
4B4
  8
LAYER_01
 10
636.7131222173111
 20
390.9452200515986
 30
0.0
  0
VERTEX
  5
4B5
  8
LAYER_01
 10
614.1131222173117
 20
390.9452200515981
 30
0.0
  0
VERTEX
  5
4B6
  8
LAYER_01
 10
613.9131222173119
 20
395.145220051598
 30
0.0
  0
VERTEX
  5
4B7
  8
LAYER_01
 10
604.3131222173115
 20
395.145220051598
 30
0.0
  0
VERTEX
  5
4B8
  8
LAYER_01
 10
604.1131222173117
 20
390.9452200515981
 30
0.0
  0
VERTEX
  5
4B9
  8
LAYER_01
 10
587.1131222173117
 20
390.9452200515981
 30
0.0
  0
VERTEX
  5
4BA
  8
LAYER_01
 10
586.9131222173119
 20
395.145220051598
 30
0.0
  0
VERTEX
  5
4BB
  8
LAYER_01
 10
577.3131222173115
 20
395.145220051598
 30
0.0
  0
SEQEND
  5
4BC
  8
LAYER_01
  0
POLYLINE
  5
4BD
  8
DEFAULT
 66
     1
 10
0.0
 20
0.0
 30
0.0
 70
     1
  0
VERTEX
  5
4BE
  8
DEFAULT
 10
580.913122217311
 20
378.4145341324058
 30
0.0
  0
VERTEX
  5
4BF
  8
DEFAULT
 10
580.913122217311
 20
368.8145341324054
 30
0.0
  0
VERTEX
  5
4C0
  8
DEFAULT
 10
577.1131222173117
 20
368.8145341324054
 30
0.0
  0
VERTEX
  5
4C1
  8
DEFAULT
 10
577.1131222173117
 20
378.4145341324058
 30
0.0
  0
SEQEND
  5
4C2
  8
DEFAULT
  0
POLYLINE
  5
4C3
  8
DEFAULT
 66
     1
 10
0.0
 20
0.0
 30
0.0
 70
     1
  0
VERTEX
  5
4C4
  8
DEFAULT
 10
580.9131222173119
 20
114.9259059707917
 30
0.0
  0
VERTEX
  5
4C5
  8
DEFAULT
 10
580.9131222173119
 20
124.5259059707916
 30
0.0
  0
VERTEX
  5
4C6
  8
DEFAULT
 10
577.1131222173117
 20
124.5259059707916
 30
0.0
  0
VERTEX
  5
4C7
  8
DEFAULT
 10
577.1131222173117
 20
114.9259059707921
 30
0.0
  0
SEQEND
  5
4C8
  8
DEFAULT
  0
POLYLINE
  5
4C9
  8
LAYER_01
 66
     1
 10
0.0
 20
0.0
 30
0.0
 70
     1
  0
VERTEX
  5
4CA
  8
LAYER_01
 10
432.7526407404434
 20
166.5007843653535
 30
0.0
  0
VERTEX
  5
4CB
  8
LAYER_01
 10
508.7526407404434
 20
166.500784365354
 30
0.0
 42
0.4142135623727802
  0
VERTEX
  5
4CC
  8
LAYER_01
 10
510.7526407404429
 20
168.500784365354
 30
0.0
  0
VERTEX
  5
4CD
  8
LAYER_01
 10
510.752640740443
 20
230.5007843653538
 30
0.0
 42
0.4142135623732291
  0
VERTEX
  5
4CE
  8
LAYER_01
 10
508.7526407404429
 20
232.5007843653537
 30
0.0
  0
VERTEX
  5
4CF
  8
LAYER_01
 10
432.7526407404425
 20
232.5007843653532
 30
0.0
 42
0.4142135623731191
  0
VERTEX
  5
4D0
  8
LAYER_01
 10
430.7526407404427
 20
230.5007843653531
 30
0.0
  0
VERTEX
  5
4D1
  8
LAYER_01
 10
430.7526407404434
 20
168.5007843653535
 30
0.0
 42
0.4142135623729872
  0
SEQEND
  5
4D2
  8
LAYER_01
  0
POLYLINE
  5
4D3
  8
LAYER_01
 66
     1
 10
0.0
 20
0.0
 30
0.0
 70
     1
  0
VERTEX
  5
4D4
  8
LAYER_01
 10
432.7526407404434
 20
238.3765618969133
 30
0.0
  0
VERTEX
  5
4D5
  8
LAYER_01
 10
508.7526407404434
 20
238.3765618969141
 30
0.0
 42
0.4142135623729791
  0
VERTEX
  5
4D6
  8
LAYER_01
 10
510.7526407404433
 20
240.3765618969141
 30
0.0
  0
VERTEX
  5
4D7
  8
LAYER_01
 10
510.752640740443
 20
302.3765618969136
 30
0.0
 42
0.4142135623732361
  0
VERTEX
  5
4D8
  8
LAYER_01
 10
508.7526407404429
 20
304.3765618969135
 30
0.0
  0
VERTEX
  5
4D9
  8
LAYER_01
 10
432.7526407404425
 20
304.376561896913
 30
0.0
 42
0.414213562373122
  0
VERTEX
  5
4DA
  8
LAYER_01
 10
430.7526407404427
 20
302.376561896913
 30
0.0
  0
VERTEX
  5
4DB
  8
LAYER_01
 10
430.7526407404434
 20
240.3765618969133
 30
0.0
 42
0.4142135623729872
  0
SEQEND
  5
4DC
  8
LAYER_01
  0
CIRCLE
  5
4DD
  8
DEFAULT
 10
995.7100889862659
 20
211.0973278764034
 30
0.0
 40
4.65
  0
CIRCLE
  5
4DE
  8
DEFAULT
 10
995.7100889862659
 20
266.2473278751442
 30
0.0
 40
4.65
  0
CIRCLE
  5
4DF
  8
DEFAULT
 10
1052.560088986264
 20
331.6723278757738
 30
0.0
 40
11.1
  0
CIRCLE
  5
4E0
  8
DEFAULT
 10
995.710088986265
 20
304.0973278764033
 30
0.0
 40
4.65
  0
CIRCLE
  5
4E1
  8
DEFAULT
 10
995.710088986265
 20
359.2473278751442
 30
0.0
 40
4.65
  0
CIRCLE
  5
4E2
  8
DEFAULT
 10
1068.060088986265
 20
316.1723278757742
 30
0.0
 40
1.6
  0
CIRCLE
  5
4E3
  8
DEFAULT
 10
1068.060088986264
 20
347.1723278757742
 30
0.0
 40
1.6
  0
CIRCLE
  5
4E4
  8
DEFAULT
 10
1037.060088986264
 20
347.1723278757738
 30
0.0
 40
1.6
  0
CIRCLE
  5
4E5
  8
DEFAULT
 10
1037.060088986264
 20
316.1723278757738
 30
0.0
 40
1.6
  0
CIRCLE
  5
4E6
  8
DEFAULT
 10
1054.273172585189
 20
147.4723278764031
 30
0.0
 40
4.5
  0
CIRCLE
  5
4E7
  8
DEFAULT
 10
996.4220651044125
 20
119.8973278764033
 30
0.0
 40
5.0
  0
CIRCLE
  5
4E8
  8
DEFAULT
 10
996.4220651044125
 20
175.0473278751442
 30
0.0
 40
5.0
  0
CIRCLE
  5
4E9
  8
DEFAULT
 10
1029.622065104411
 20
180.1427376864237
 30
0.0
 40
1.600000000000023
  0
CIRCLE
  5
4EA
  8
DEFAULT
 10
1029.622065104411
 20
114.8019180663825
 30
0.0
 40
1.600000000000023
  0
CIRCLE
  5
4EB
  8
DEFAULT
 10
1047.431124375322
 20
65.27232787454187
 30
0.0
 40
8.199999999999818
  0
CIRCLE
  5
4EC
  8
DEFAULT
 10
1059.064585385667
 20
65.22241269528041
 30
0.0
 40
1.6
  0
CIRCLE
  5
4ED
  8
DEFAULT
 10
1041.744077309977
 20
75.22241269527905
 30
0.0
 40
1.6
  0
CIRCLE
  5
4EE
  8
DEFAULT
 10
1041.744077309978
 20
55.2224126952795
 30
0.0
 40
1.6
  0
CIRCLE
  5
4EF
  8
DEFAULT
 10
990.5811243753224
 20
92.84732787391232
 30
0.0
 40
6.35
  0
POLYLINE
  5
4F0
  8
LAYER_01
 66
     1
 10
0.0
 20
0.0
 30
0.0
 70
     1
  0
VERTEX
  5
4F1
  8
LAYER_01
 10
979.5811243753224
 20
70.27232787454369
 30
0.0
  0
VERTEX
  5
4F2
  8
LAYER_01
 10
979.5811243753233
 20
99.77232787576423
 30
0.0
 42
-0.4142135623733976
  0
VERTEX
  5
4F3
  8
LAYER_01
 10
982.5811243753228
 20
102.7723278757642
 30
0.0
  0
VERTEX
  5
4F4
  8
LAYER_01
 10
1060.932231856099
 20
102.7723278757956
 30
0.0
 42
-0.4142135623733978
  0
VERTEX
  5
4F5
  8
LAYER_01
 10
1063.9322318561
 20
99.77232787579561
 30
0.0
  0
VERTEX
  5
4F6
  8
LAYER_01
 10
1063.9322318561
 20
30.77232787328813
 30
0.0
 42
-0.414213562373443
  0
VERTEX
  5
4F7
  8
LAYER_01
 10
1060.932231856099
 20
27.77232787328813
 30
0.0
  0
VERTEX
  5
4F8
  8
LAYER_01
 10
982.5811243753228
 20
27.77232787331951
 30
0.0
 42
-0.4142135623732665
  0
VERTEX
  5
4F9
  8
LAYER_01
 10
979.5811243753228
 20
30.77232787331951
 30
0.0
  0
VERTEX
  5
4FA
  8
LAYER_01
 10
979.5811243753224
 20
60.27232787454324
 30
0.0
  0
VERTEX
  5
4FB
  8
LAYER_01
 10
1030.857231856099
 20
60.27232787454142
 30
0.0
  0
VERTEX
  5
4FC
  8
LAYER_01
 10
1030.857231856099
 20
70.27232787454187
 30
0.0
  0
SEQEND
  5
4FD
  8
LAYER_01
  0
POLYLINE
  5
4FE
  8
LAYER_01
 66
     1
 10
0.0
 20
0.0
 30
0.0
 70
     1
  0
VERTEX
  5
4FF
  8
LAYER_01
 10
1009.222065104411
 20
192.1723278757735
 30
0.0
  0
VERTEX
  5
500
  8
LAYER_01
 10
999.6220651044114
 20
192.1723278757735
 30
0.0
  0
VERTEX
  5
501
  8
LAYER_01
 10
999.4220651044116
 20
187.9723278764035
 30
0.0
  0
VERTEX
  5
502
  8
LAYER_01
 10
984.422065104412
 20
187.9723278763976
 30
0.0
  0
VERTEX
  5
503
  8
LAYER_01
 10
984.4220651044125
 20
169.0473278751442
 30
0.0
 42
0.4142135623734132
  0
VERTEX
  5
504
  8
LAYER_01
 10
986.4220651044129
 20
167.0473278751442
 30
0.0
  0
VERTEX
  5
505
  8
LAYER_01
 10
1029.198172585189
 20
167.0473278764029
 30
0.0
 42
-0.9999999999999999
  0
VERTEX
  5
506
  8
LAYER_01
 10
1029.198172585189
 20
127.8973278764033
 30
0.0
  0
VERTEX
  5
507
  8
LAYER_01
 10
986.4220651044129
 20
127.8973278764033
 30
0.0
 42
0.4142135623727695
  0
VERTEX
  5
508
  8
LAYER_01
 10
984.4220651044134
 20
125.8973278764033
 30
0.0
  0
VERTEX
  5
509
  8
LAYER_01
 10
984.422065104412
 20
106.9723278757792
 30
0.0
  0
VERTEX
  5
50A
  8
LAYER_01
 10
999.4220651044116
 20
106.9723278757728
 30
0.0
  0
VERTEX
  5
50B
  8
LAYER_01
 10
999.6220651044114
 20
102.772327875773
 30
0.0
  0
VERTEX
  5
50C
  8
LAYER_01
 10
1009.222065104411
 20
102.772327875773
 30
0.0
  0
VERTEX
  5
50D
  8
LAYER_01
 10
1009.422065104412
 20
106.9723278757728
 30
0.0
  0
VERTEX
  5
50E
  8
LAYER_01
 10
1036.422065104412
 20
106.9723278757728
 30
0.0
  0
VERTEX
  5
50F
  8
LAYER_01
 10
1036.622065104411
 20
102.772327875773
 30
0.0
  0
VERTEX
  5
510
  8
LAYER_01
 10
1046.222065104411
 20
102.772327875773
 30
0.0
  0
VERTEX
  5
511
  8
LAYER_01
 10
1046.422065104412
 20
106.9723278757728
 30
0.0
  0
VERTEX
  5
512
  8
LAYER_01
 10
1063.422065104412
 20
106.9723278757728
 30
0.0
  0
VERTEX
  5
513
  8
LAYER_01
 10
1063.622065104411
 20
102.772327875773
 30
0.0
  0
VERTEX
  5
514
  8
LAYER_01
 10
1073.222065104411
 20
102.772327875773
 30
0.0
  0
VERTEX
  5
515
  8
LAYER_01
 10
1073.422065104412
 20
106.9723278757728
 30
0.0
  0
VERTEX
  5
516
  8
LAYER_01
 10
1074.622065104412
 20
106.9723278757728
 30
0.0
  0
VERTEX
  5
517
  8
LAYER_01
 10
1074.622065104412
 20
126.9723278751434
 30
0.0
  0
VERTEX
  5
518
  8
LAYER_01
 10
1078.822065104411
 20
127.1723278751437
 30
0.0
  0
VERTEX
  5
519
  8
LAYER_01
 10
1078.822065104411
 20
136.7723278751436
 30
0.0
  0
VERTEX
  5
51A
  8
LAYER_01
 10
1074.622065104412
 20
136.9723278751434
 30
0.0
  0
VERTEX
  5
51B
  8
LAYER_01
 10
1074.622065104411
 20
157.9723278751434
 30
0.0
  0
VERTEX
  5
51C
  8
LAYER_01
 10
1078.822065104411
 20
158.1723278751433
 30
0.0
  0
VERTEX
  5
51D
  8
LAYER_01
 10
1078.822065104411
 20
167.7723278751432
 30
0.0
  0
VERTEX
  5
51E
  8
LAYER_01
 10
1074.622065104411
 20
167.9723278751434
 30
0.0
  0
VERTEX
  5
51F
  8
LAYER_01
 10
1074.622065104411
 20
187.9723278757737
 30
0.0
  0
VERTEX
  5
520
  8
LAYER_01
 10
1073.422065104412
 20
187.9723278757737
 30
0.0
  0
VERTEX
  5
521
  8
LAYER_01
 10
1073.222065104411
 20
192.1723278757735
 30
0.0
  0
VERTEX
  5
522
  8
LAYER_01
 10
1063.622065104411
 20
192.1723278757735
 30
0.0
  0
VERTEX
  5
523
  8
LAYER_01
 10
1063.422065104412
 20
187.9723278757737
 30
0.0
  0
VERTEX
  5
524
  8
LAYER_01
 10
1046.422065104412
 20
187.9723278757737
 30
0.0
  0
VERTEX
  5
525
  8
LAYER_01
 10
1046.222065104411
 20
192.1723278757735
 30
0.0
  0
VERTEX
  5
526
  8
LAYER_01
 10
1036.622065104411
 20
192.1723278757735
 30
0.0
  0
VERTEX
  5
527
  8
LAYER_01
 10
1036.422065104412
 20
187.9723278757737
 30
0.0
  0
VERTEX
  5
528
  8
LAYER_01
 10
1009.422065104412
 20
187.9723278757737
 30
0.0
  0
SEQEND
  5
529
  8
LAYER_01
  0
POLYLINE
  5
52A
  8
LAYER_01
 66
     1
 10
0.0
 20
0.0
 30
0.0
 70
     1
  0
VERTEX
  5
52B
  8
LAYER_01
 10
1080.710088986264
 20
376.1723278757738
 30
0.0
 42
0.4142135623725623
  0
VERTEX
  5
52C
  8
LAYER_01
 10
1078.710088986264
 20
378.1723278757738
 30
0.0
  0
VERTEX
  5
52D
  8
LAYER_01
 10
985.7100889862631
 20
378.1723278757729
 30
0.0
 42
0.414213562373095
  0
VERTEX
  5
52E
  8
LAYER_01
 10
983.7100889862631
 20
376.1723278757729
 30
0.0
  0
VERTEX
  5
52F
  8
LAYER_01
 10
983.7100889862645
 20
287.1723278757729
 30
0.0
 42
0.4142135623733615
  0
VERTEX
  5
530
  8
LAYER_01
 10
985.7100889862645
 20
285.1723278757729
 30
0.0
  0
VERTEX
  5
531
  8
LAYER_01
 10
1078.710088986265
 20
285.1723278757738
 30
0.0
 42
0.4142135623732752
  0
VERTEX
  5
532
  8
LAYER_01
 10
1080.710088986265
 20
287.1723278757733
 30
0.0
  0
SEQEND
  5
533
  8
LAYER_01
  0
POLYLINE
  5
534
  8
DEFAULT
 66
     1
 10
0.0
 20
0.0
 30
0.0
 70
     1
  0
VERTEX
  5
535
  8
DEFAULT
 10
1077.710088986265
 20
342.3723278751433
 30
0.0
  0
VERTEX
  5
536
  8
DEFAULT
 10
1077.710088986264
 20
351.9723278751432
 30
0.0
  0
VERTEX
  5
537
  8
DEFAULT
 10
1073.910088986264
 20
351.9723278751432
 30
0.0
  0
VERTEX
  5
538
  8
DEFAULT
 10
1073.910088986264
 20
342.3723278751433
 30
0.0
  0
SEQEND
  5
539
  8
DEFAULT
  0
POLYLINE
  5
53A
  8
DEFAULT
 66
     1
 10
0.0
 20
0.0
 30
0.0
 70
     1
  0
VERTEX
  5
53B
  8
DEFAULT
 10
1077.710088986265
 20
311.3723278751433
 30
0.0
  0
VERTEX
  5
53C
  8
DEFAULT
 10
1077.710088986264
 20
320.9723278751432
 30
0.0
  0
VERTEX
  5
53D
  8
DEFAULT
 10
1073.910088986264
 20
320.9723278751432
 30
0.0
  0
VERTEX
  5
53E
  8
DEFAULT
 10
1073.910088986264
 20
311.3723278751433
 30
0.0
  0
SEQEND
  5
53F
  8
DEFAULT
  0
POLYLINE
  5
540
  8
DEFAULT
 66
     1
 10
0.0
 20
0.0
 30
0.0
 70
     1
  0
VERTEX
  5
541
  8
DEFAULT
 10
1045.510088986264
 20
375.9723278757735
 30
0.0
  0
VERTEX
  5
542
  8
DEFAULT
 10
1035.910088986264
 20
375.9723278757735
 30
0.0
  0
VERTEX
  5
543
  8
DEFAULT
 10
1035.910088986264
 20
372.1723278757733
 30
0.0
  0
VERTEX
  5
544
  8
DEFAULT
 10
1045.510088986264
 20
372.1723278757733
 30
0.0
  0
SEQEND
  5
545
  8
DEFAULT
  0
POLYLINE
  5
546
  8
DEFAULT
 66
     1
 10
0.0
 20
0.0
 30
0.0
 70
     1
  0
VERTEX
  5
547
  8
DEFAULT
 10
1072.510088986264
 20
375.9723278757739
 30
0.0
  0
VERTEX
  5
548
  8
DEFAULT
 10
1062.910088986264
 20
375.9723278757735
 30
0.0
  0
VERTEX
  5
549
  8
DEFAULT
 10
1062.910088986264
 20
372.1723278757738
 30
0.0
  0
VERTEX
  5
54A
  8
DEFAULT
 10
1072.510088986264
 20
372.1723278757738
 30
0.0
  0
SEQEND
  5
54B
  8
DEFAULT
  0
POLYLINE
  5
54C
  8
DEFAULT
 66
     1
 10
0.0
 20
0.0
 30
0.0
 70
     1
  0
VERTEX
  5
54D
  8
DEFAULT
 10
1008.510088986264
 20
375.9723278757726
 30
0.0
  0
VERTEX
  5
54E
  8
DEFAULT
 10
998.9100889862639
 20
375.9723278757726
 30
0.0
  0
VERTEX
  5
54F
  8
DEFAULT
 10
998.9100889862639
 20
372.1723278757724
 30
0.0
  0
VERTEX
  5
550
  8
DEFAULT
 10
1008.510088986264
 20
372.1723278757729
 30
0.0
  0
SEQEND
  5
551
  8
DEFAULT
  0
POLYLINE
  5
552
  8
DEFAULT
 66
     1
 10
0.0
 20
0.0
 30
0.0
 70
     1
  0
VERTEX
  5
553
  8
DEFAULT
 10
1072.510088986265
 20
287.372327875774
 30
0.0
  0
VERTEX
  5
554
  8
DEFAULT
 10
1062.910088986265
 20
287.3723278757736
 30
0.0
  0
VERTEX
  5
555
  8
DEFAULT
 10
1062.910088986265
 20
291.1723278757738
 30
0.0
  0
VERTEX
  5
556
  8
DEFAULT
 10
1072.510088986265
 20
291.1723278757738
 30
0.0
  0
SEQEND
  5
557
  8
DEFAULT
  0
POLYLINE
  5
558
  8
DEFAULT
 66
     1
 10
0.0
 20
0.0
 30
0.0
 70
     1
  0
VERTEX
  5
559
  8
DEFAULT
 10
1045.510088986265
 20
287.3723278757736
 30
0.0
  0
VERTEX
  5
55A
  8
DEFAULT
 10
1035.910088986265
 20
287.3723278757736
 30
0.0
  0
VERTEX
  5
55B
  8
DEFAULT
 10
1035.910088986265
 20
291.1723278757733
 30
0.0
  0
VERTEX
  5
55C
  8
DEFAULT
 10
1045.510088986265
 20
291.1723278757733
 30
0.0
  0
SEQEND
  5
55D
  8
DEFAULT
  0
POLYLINE
  5
55E
  8
DEFAULT
 66
     1
 10
0.0
 20
0.0
 30
0.0
 70
     1
  0
VERTEX
  5
55F
  8
DEFAULT
 10
1008.510088986265
 20
287.3723278757727
 30
0.0
  0
VERTEX
  5
560
  8
DEFAULT
 10
998.9100889862648
 20
287.3723278757727
 30
0.0
  0
VERTEX
  5
561
  8
DEFAULT
 10
998.9100889862648
 20
291.1723278757724
 30
0.0
  0
VERTEX
  5
562
  8
DEFAULT
 10
1008.510088986265
 20
291.1723278757729
 30
0.0
  0
SEQEND
  5
563
  8
DEFAULT
  0
POLYLINE
  5
564
  8
LAYER_01
 66
     1
 10
0.0
 20
0.0
 30
0.0
 70
     1
  0
VERTEX
  5
565
  8
LAYER_01
 10
1028.710088986667
 20
231.6723278757738
 30
0.0
  0
VERTEX
  5
566
  8
LAYER_01
 10
983.7100889862645
 20
231.6723278757729
 30
0.0
  0
VERTEX
  5
567
  8
LAYER_01
 10
983.7100889862654
 20
194.172327875773
 30
0.0
 42
0.4142135623733686
  0
VERTEX
  5
568
  8
LAYER_01
 10
985.7100889862654
 20
192.172327875773
 30
0.0
  0
VERTEX
  5
569
  8
LAYER_01
 10
1078.710088986266
 20
192.1723278757739
 30
0.0
 42
0.4142135623732605
  0
VERTEX
  5
56A
  8
LAYER_01
 10
1080.710088986266
 20
194.1723278757734
 30
0.0
  0
VERTEX
  5
56B
  8
LAYER_01
 10
1080.710088986265
 20
283.1723278757738
 30
0.0
 42
0.4142135623725623
  0
VERTEX
  5
56C
  8
LAYER_01
 10
1078.710088986265
 20
285.1723278757738
 30
0.0
  0
VERTEX
  5
56D
  8
LAYER_01
 10
985.710088986264
 20
285.1723278757729
 30
0.0
 42
0.414213562373095
  0
VERTEX
  5
56E
  8
LAYER_01
 10
983.710088986264
 20
283.1723278757729
 30
0.0
  0
VERTEX
  5
56F
  8
LAYER_01
 10
983.7100889862645
 20
245.6723278757729
 30
0.0
  0
VERTEX
  5
570
  8
LAYER_01
 10
1028.710088986265
 20
245.6723278757738
 30
0.0
 42
-0.9999999999713508
  0
SEQEND
  5
571
  8
LAYER_01
  0
POLYLINE
  5
572
  8
DEFAULT
 66
     1
 10
0.0
 20
0.0
 30
0.0
 70
     1
  0
VERTEX
  5
573
  8
DEFAULT
 10
1008.510088986266
 20
194.3723278757728
 30
0.0
  0
VERTEX
  5
574
  8
DEFAULT
 10
998.9100889862657
 20
194.3723278757728
 30
0.0
  0
VERTEX
  5
575
  8
DEFAULT
 10
998.9100889862657
 20
198.1723278757725
 30
0.0
  0
VERTEX
  5
576
  8
DEFAULT
 10
1008.510088986266
 20
198.172327875773
 30
0.0
  0
SEQEND
  5
577
  8
DEFAULT
  0
POLYLINE
  5
578
  8
DEFAULT
 66
     1
 10
0.0
 20
0.0
 30
0.0
 70
     1
  0
VERTEX
  5
579
  8
DEFAULT
 10
1045.510088986266
 20
194.3723278757737
 30
0.0
  0
VERTEX
  5
57A
  8
DEFAULT
 10
1035.910088986266
 20
194.3723278757737
 30
0.0
  0
VERTEX
  5
57B
  8
DEFAULT
 10
1035.910088986266
 20
198.1723278757734
 30
0.0
  0
VERTEX
  5
57C
  8
DEFAULT
 10
1045.510088986266
 20
198.1723278757734
 30
0.0
  0
SEQEND
  5
57D
  8
DEFAULT
  0
POLYLINE
  5
57E
  8
DEFAULT
 66
     1
 10
0.0
 20
0.0
 30
0.0
 70
     1
  0
VERTEX
  5
57F
  8
DEFAULT
 10
1072.510088986266
 20
194.3723278757741
 30
0.0
  0
VERTEX
  5
580
  8
DEFAULT
 10
1062.910088986266
 20
194.3723278757737
 30
0.0
  0
VERTEX
  5
581
  8
DEFAULT
 10
1062.910088986266
 20
198.1723278757739
 30
0.0
  0
VERTEX
  5
582
  8
DEFAULT
 10
1072.510088986266
 20
198.1723278757739
 30
0.0
  0
SEQEND
  5
583
  8
DEFAULT
  0
POLYLINE
  5
584
  8
DEFAULT
 66
     1
 10
0.0
 20
0.0
 30
0.0
 70
     1
  0
VERTEX
  5
585
  8
DEFAULT
 10
1008.510088986265
 20
282.9723278757726
 30
0.0
  0
VERTEX
  5
586
  8
DEFAULT
 10
998.9100889862648
 20
282.9723278757726
 30
0.0
  0
VERTEX
  5
587
  8
DEFAULT
 10
998.9100889862648
 20
279.1723278757724
 30
0.0
  0
VERTEX
  5
588
  8
DEFAULT
 10
1008.510088986265
 20
279.1723278757729
 30
0.0
  0
SEQEND
  5
589
  8
DEFAULT
  0
POLYLINE
  5
58A
  8
DEFAULT
 66
     1
 10
0.0
 20
0.0
 30
0.0
 70
     1
  0
VERTEX
  5
58B
  8
DEFAULT
 10
1072.510088986265
 20
282.9723278757739
 30
0.0
  0
VERTEX
  5
58C
  8
DEFAULT
 10
1062.910088986265
 20
282.9723278757735
 30
0.0
  0
VERTEX
  5
58D
  8
DEFAULT
 10
1062.910088986265
 20
279.1723278757738
 30
0.0
  0
VERTEX
  5
58E
  8
DEFAULT
 10
1072.510088986265
 20
279.1723278757738
 30
0.0
  0
SEQEND
  5
58F
  8
DEFAULT
  0
POLYLINE
  5
590
  8
DEFAULT
 66
     1
 10
0.0
 20
0.0
 30
0.0
 70
     1
  0
VERTEX
  5
591
  8
DEFAULT
 10
1045.510088986265
 20
282.9723278757735
 30
0.0
  0
VERTEX
  5
592
  8
DEFAULT
 10
1035.910088986265
 20
282.9723278757735
 30
0.0
  0
VERTEX
  5
593
  8
DEFAULT
 10
1035.910088986265
 20
279.1723278757733
 30
0.0
  0
VERTEX
  5
594
  8
DEFAULT
 10
1045.510088986265
 20
279.1723278757733
 30
0.0
  0
SEQEND
  5
595
  8
DEFAULT
  0
POLYLINE
  5
596
  8
DEFAULT
 66
     1
 10
0.0
 20
0.0
 30
0.0
 70
     1
  0
VERTEX
  5
597
  8
DEFAULT
 10
1077.710088986265
 20
218.3723278751434
 30
0.0
  0
VERTEX
  5
598
  8
DEFAULT
 10
1077.710088986265
 20
227.9723278751432
 30
0.0
  0
VERTEX
  5
599
  8
DEFAULT
 10
1073.910088986265
 20
227.9723278751432
 30
0.0
  0
VERTEX
  5
59A
  8
DEFAULT
 10
1073.910088986265
 20
218.3723278751434
 30
0.0
  0
SEQEND
  5
59B
  8
DEFAULT
  0
POLYLINE
  5
59C
  8
DEFAULT
 66
     1
 10
0.0
 20
0.0
 30
0.0
 70
     1
  0
VERTEX
  5
59D
  8
DEFAULT
 10
1077.710088986265
 20
249.3723278751433
 30
0.0
  0
VERTEX
  5
59E
  8
DEFAULT
 10
1077.710088986265
 20
258.9723278751432
 30
0.0
  0
VERTEX
  5
59F
  8
DEFAULT
 10
1073.910088986265
 20
258.9723278751432
 30
0.0
  0
VERTEX
  5
5A0
  8
DEFAULT
 10
1073.910088986265
 20
249.3723278751433
 30
0.0
  0
SEQEND
  5
5A1
  8
DEFAULT
  0
POLYLINE
  5
5A2
  8
DEFAULT
 66
     1
 10
0.0
 20
0.0
 30
0.0
 70
     1
  0
VERTEX
  5
5A3
  8
DEFAULT
 10
813.723969954222
 20
229.2229473281577
 30
0.0
  0
VERTEX
  5
5A4
  8
DEFAULT
 10
804.123969954222
 20
229.2229473281581
 30
0.0
  0
VERTEX
  5
5A5
  8
DEFAULT
 10
804.123969954222
 20
233.0229473281578
 30
0.0
  0
VERTEX
  5
5A6
  8
DEFAULT
 10
813.723969954222
 20
233.0229473281578
 30
0.0
  0
SEQEND
  5
5A7
  8
DEFAULT
  0
POLYLINE
  5
5A8
  8
DEFAULT
 66
     1
 10
0.0
 20
0.0
 30
0.0
 70
     1
  0
VERTEX
  5
5A9
  8
DEFAULT
 10
786.723969954222
 20
229.2229473281581
 30
0.0
  0
VERTEX
  5
5AA
  8
DEFAULT
 10
777.123969954222
 20
229.2229473281581
 30
0.0
  0
VERTEX
  5
5AB
  8
DEFAULT
 10
777.123969954222
 20
233.0229473281583
 30
0.0
  0
VERTEX
  5
5AC
  8
DEFAULT
 10
786.723969954222
 20
233.0229473281583
 30
0.0
  0
SEQEND
  5
5AD
  8
DEFAULT
  0
POLYLINE
  5
5AE
  8
DEFAULT
 66
     1
 10
0.0
 20
0.0
 30
0.0
 70
     1
  0
VERTEX
  5
5AF
  8
DEFAULT
 10
749.723969954222
 20
229.222947328159
 30
0.0
  0
VERTEX
  5
5B0
  8
DEFAULT
 10
740.123969954222
 20
229.222947328159
 30
0.0
  0
VERTEX
  5
5B1
  8
DEFAULT
 10
740.123969954222
 20
233.0229473281592
 30
0.0
  0
VERTEX
  5
5B2
  8
DEFAULT
 10
749.723969954222
 20
233.0229473281588
 30
0.0
  0
SEQEND
  5
5B3
  8
DEFAULT
  0
POLYLINE
  5
5B4
  8
LAYER_01
 66
     1
 10
0.0
 20
0.0
 30
0.0
 70
     1
  0
VERTEX
  5
5B5
  8
LAYER_01
 10
877.9239699542218
 20
46.32294732816121
 30
0.0
  0
VERTEX
  5
5B6
  8
LAYER_01
 10
897.9239699542227
 20
46.32294732816121
 30
0.0
  0
VERTEX
  5
5B7
  8
LAYER_01
 10
897.9239699542218
 20
356.3229473281576
 30
0.0
  0
VERTEX
  5
5B8
  8
LAYER_01
 10
877.9239699542218
 20
356.3229473281576
 30
0.0
  0
VERTEX
  5
5B9
  8
LAYER_01
 10
877.7239699542215
 20
360.5229473281569
 30
0.0
  0
VERTEX
  5
5BA
  8
LAYER_01
 10
868.1239699542216
 20
360.5229473281569
 30
0.0
  0
VERTEX
  5
5BB
  8
LAYER_01
 10
867.9239699542218
 20
356.3229473281576
 30
0.0
  0
VERTEX
  5
5BC
  8
LAYER_01
 10
846.9239699542218
 20
356.3229473281571
 30
0.0
  0
VERTEX
  5
5BD
  8
LAYER_01
 10
846.723969954222
 20
360.5229473281569
 30
0.0
  0
VERTEX
  5
5BE
  8
LAYER_01
 10
837.123969954222
 20
360.5229473281569
 30
0.0
  0
VERTEX
  5
5BF
  8
LAYER_01
 10
836.9239699542218
 20
356.3229473281571
 30
0.0
  0
VERTEX
  5
5C0
  8
LAYER_01
 10
816.9239699542218
 20
356.3229473281571
 30
0.0
  0
VERTEX
  5
5C1
  8
LAYER_01
 10
816.9239699542231
 20
46.3229473281603
 30
0.0
  0
VERTEX
  5
5C2
  8
LAYER_01
 10
836.9239699542218
 20
46.32294732816166
 30
0.0
  0
VERTEX
  5
5C3
  8
LAYER_01
 10
837.123969954222
 20
42.12294732816184
 30
0.0
  0
VERTEX
  5
5C4
  8
LAYER_01
 10
846.723969954222
 20
42.12294732816184
 30
0.0
  0
VERTEX
  5
5C5
  8
LAYER_01
 10
846.9239699542218
 20
46.32294732816166
 30
0.0
  0
VERTEX
  5
5C6
  8
LAYER_01
 10
867.9239699542218
 20
46.32294732816121
 30
0.0
  0
VERTEX
  5
5C7
  8
LAYER_01
 10
868.1239699542216
 20
42.12294732816184
 30
0.0
  0
VERTEX
  5
5C8
  8
LAYER_01
 10
877.7239699542215
 20
42.12294732816184
 30
0.0
  0
SEQEND
  5
5C9
  8
LAYER_01
  0
POLYLINE
  5
5CA
  8
DEFAULT
 66
     1
 10
0.0
 20
0.0
 30
0.0
 70
     1
  0
VERTEX
  5
5CB
  8
DEFAULT
 10
837.1239699542225
 20
229.2229473281563
 30
0.0
  0
VERTEX
  5
5CC
  8
DEFAULT
 10
846.7239699542224
 20
229.2229473281567
 30
0.0
  0
VERTEX
  5
5CD
  8
DEFAULT
 10
846.7239699542224
 20
233.0229473281565
 30
0.0
  0
VERTEX
  5
5CE
  8
DEFAULT
 10
837.1239699542225
 20
233.0229473281565
 30
0.0
  0
SEQEND
  5
5CF
  8
DEFAULT
  0
POLYLINE
  5
5D0
  8
DEFAULT
 66
     1
 10
0.0
 20
0.0
 30
0.0
 70
     1
  0
VERTEX
  5
5D1
  8
DEFAULT
 10
868.1239699542225
 20
229.2229473281563
 30
0.0
  0
VERTEX
  5
5D2
  8
DEFAULT
 10
877.7239699542224
 20
229.2229473281567
 30
0.0
  0
VERTEX
  5
5D3
  8
DEFAULT
 10
877.7239699542224
 20
233.0229473281565
 30
0.0
  0
VERTEX
  5
5D4
  8
DEFAULT
 10
868.1239699542225
 20
233.0229473281565
 30
0.0
  0
SEQEND
  5
5D5
  8
DEFAULT
  0
POLYLINE
  5
5D6
  8
LAYER_01
 66
     1
 10
0.0
 20
0.0
 30
0.0
 70
     1
  0
VERTEX
  5
5D7
  8
LAYER_01
 10
960.5833569931233
 20
253.8948995341675
 30
0.0
 42
-0.37243291300694
  0
VERTEX
  5
5D8
  8
LAYER_01
 10
952.0255464578038
 20
263.7903575603518
 30
0.0
  0
VERTEX
  5
5D9
  8
LAYER_01
 10
952.0255464578034
 20
331.7277902983828
 30
0.0
 42
-0.3724329130067883
  0
VERTEX
  5
5DA
  8
LAYER_01
 10
960.5833569931234
 20
341.623248324567
 30
0.0
  0
VERTEX
  5
5DB
  8
LAYER_01
 10
976.429237331568
 20
343.9326676179659
 30
0.0
 42
0.3412390696572861
  0
VERTEX
  5
5DC
  8
LAYER_01
 10
977.9239699542218
 20
345.8677916133187
 30
0.0
  0
VERTEX
  5
5DD
  8
LAYER_01
 10
977.9239699542218
 20
356.3229473281526
 30
0.0
  0
VERTEX
  5
5DE
  8
LAYER_01
 10
974.9239699542222
 20
356.3229473281571
 30
0.0
  0
VERTEX
  5
5DF
  8
LAYER_01
 10
974.7239699542224
 20
360.5229473281569
 30
0.0
  0
VERTEX
  5
5E0
  8
LAYER_01
 10
965.1239699542225
 20
360.5229473281569
 30
0.0
  0
VERTEX
  5
5E1
  8
LAYER_01
 10
964.9239699542222
 20
356.3229473281571
 30
0.0
  0
VERTEX
  5
5E2
  8
LAYER_01
 10
937.9239699542222
 20
356.3229473281571
 30
0.0
  0
VERTEX
  5
5E3
  8
LAYER_01
 10
937.7239699542224
 20
360.5229473281569
 30
0.0
  0
VERTEX
  5
5E4
  8
LAYER_01
 10
928.1239699542225
 20
360.5229473281569
 30
0.0
  0
VERTEX
  5
5E5
  8
LAYER_01
 10
927.9239699542222
 20
356.3229473281571
 30
0.0
  0
VERTEX
  5
5E6
  8
LAYER_01
 10
910.9239699542222
 20
356.3229473281571
 30
0.0
  0
VERTEX
  5
5E7
  8
LAYER_01
 10
910.7239699542224
 20
360.5229473281569
 30
0.0
  0
VERTEX
  5
5E8
  8
LAYER_01
 10
901.1239699542225
 20
360.5229473281569
 30
0.0
  0
VERTEX
  5
5E9
  8
LAYER_01
 10
900.9239699542222
 20
356.3229473281571
 30
0.0
  0
VERTEX
  5
5EA
  8
LAYER_01
 10
897.9239699542218
 20
356.3229473281576
 30
0.0
  0
VERTEX
  5
5EB
  8
LAYER_01
 10
897.9239699542227
 20
46.32294732815893
 30
0.0
  0
VERTEX
  5
5EC
  8
LAYER_01
 10
900.9239699542222
 20
46.32294732815711
 30
0.0
  0
VERTEX
  5
5ED
  8
LAYER_01
 10
901.1239699542225
 20
42.1229473281573
 30
0.0
  0
VERTEX
  5
5EE
  8
LAYER_01
 10
910.7239699542224
 20
42.1229473281573
 30
0.0
  0
VERTEX
  5
5EF
  8
LAYER_01
 10
910.9239699542222
 20
46.32294732815711
 30
0.0
  0
VERTEX
  5
5F0
  8
LAYER_01
 10
927.9239699542222
 20
46.32294732815711
 30
0.0
  0
VERTEX
  5
5F1
  8
LAYER_01
 10
928.1239699542225
 20
42.1229473281573
 30
0.0
  0
VERTEX
  5
5F2
  8
LAYER_01
 10
937.7239699542224
 20
42.1229473281573
 30
0.0
  0
VERTEX
  5
5F3
  8
LAYER_01
 10
937.9239699542222
 20
46.32294732815711
 30
0.0
  0
VERTEX
  5
5F4
  8
LAYER_01
 10
964.9239699542222
 20
46.32294732815711
 30
0.0
  0
VERTEX
  5
5F5
  8
LAYER_01
 10
965.1239699542225
 20
42.1229473281573
 30
0.0
  0
VERTEX
  5
5F6
  8
LAYER_01
 10
974.7239699542224
 20
42.1229473281573
 30
0.0
  0
VERTEX
  5
5F7
  8
LAYER_01
 10
974.9239699542222
 20
46.32294732815711
 30
0.0
  0
VERTEX
  5
5F8
  8
LAYER_01
 10
977.9239699542222
 20
46.32294732815802
 30
0.0
  0
VERTEX
  5
5F9
  8
LAYER_01
 10
977.9239699542223
 20
56.7781030429914
 30
0.0
 42
0.3412390696573913
  0
VERTEX
  5
5FA
  8
LAYER_01
 10
976.4292373315683
 20
58.71322703834415
 30
0.0
  0
VERTEX
  5
5FB
  8
LAYER_01
 10
960.5833569931237
 20
61.02264633174271
 30
0.0
 42
-0.3724329130068311
  0
VERTEX
  5
5FC
  8
LAYER_01
 10
952.025546457804
 20
70.91810435792735
 30
0.0
  0
VERTEX
  5
5FD
  8
LAYER_01
 10
952.0255464578036
 20
198.4555370959637
 30
0.0
 42
-0.3724329130067851
  0
VERTEX
  5
5FE
  8
LAYER_01
 10
960.5833569931234
 20
208.350995122148
 30
0.0
  0
VERTEX
  5
5FF
  8
LAYER_01
 10
976.429237331568
 20
210.6604144155468
 30
0.0
 42
0.3412390696572988
  0
VERTEX
  5
600
  8
LAYER_01
 10
977.9239699542218
 20
212.5955384108997
 30
0.0
  0
VERTEX
  5
601
  8
LAYER_01
 10
977.9239699542218
 20
249.6503562454158
 30
0.0
 42
0.3412390696573686
  0
VERTEX
  5
602
  8
LAYER_01
 10
976.4292373315678
 20
251.5854802407686
 30
0.0
  0
SEQEND
  5
603
  8
LAYER_01
  0
POLYLINE
  5
604
  8
DEFAULT
 66
     1
 10
0.0
 20
0.0
 30
0.0
 70
     1
  0
VERTEX
  5
605
  8
DEFAULT
 10
965.1239699542239
 20
229.2229473281577
 30
0.0
  0
VERTEX
  5
606
  8
DEFAULT
 10
974.7239699542238
 20
229.2229473281577
 30
0.0
  0
VERTEX
  5
607
  8
DEFAULT
 10
974.7239699542238
 20
233.0229473281578
 30
0.0
  0
VERTEX
  5
608
  8
DEFAULT
 10
965.1239699542239
 20
233.0229473281574
 30
0.0
  0
SEQEND
  5
609
  8
DEFAULT
  0
POLYLINE
  5
60A
  8
DEFAULT
 66
     1
 10
0.0
 20
0.0
 30
0.0
 70
     1
  0
VERTEX
  5
60B
  8
DEFAULT
 10
901.1239699542239
 20
229.2229473281563
 30
0.0
  0
VERTEX
  5
60C
  8
DEFAULT
 10
910.7239699542238
 20
229.2229473281567
 30
0.0
  0
VERTEX
  5
60D
  8
DEFAULT
 10
910.7239699542238
 20
233.0229473281565
 30
0.0
  0
VERTEX
  5
60E
  8
DEFAULT
 10
901.1239699542239
 20
233.0229473281565
 30
0.0
  0
SEQEND
  5
60F
  8
DEFAULT
  0
POLYLINE
  5
610
  8
DEFAULT
 66
     1
 10
0.0
 20
0.0
 30
0.0
 70
     1
  0
VERTEX
  5
611
  8
DEFAULT
 10
928.1239699542239
 20
229.2229473281567
 30
0.0
  0
VERTEX
  5
612
  8
DEFAULT
 10
937.7239699542238
 20
229.2229473281567
 30
0.0
  0
VERTEX
  5
613
  8
DEFAULT
 10
937.7239699542238
 20
233.0229473281569
 30
0.0
  0
VERTEX
  5
614
  8
DEFAULT
 10
928.1239699542239
 20
233.0229473281569
 30
0.0
  0
SEQEND
  5
615
  8
DEFAULT
  0
POLYLINE
  5
616
  8
LAYER_01
 66
     1
 10
0.0
 20
0.0
 30
0.0
 70
     1
  0
VERTEX
  5
617
  8
LAYER_01
 10
754.2645829153225
 20
253.8948995341688
 30
0.0
 42
0.37243291300694
  0
VERTEX
  5
618
  8
LAYER_01
 10
762.822393450642
 20
263.7903575603531
 30
0.0
  0
VERTEX
  5
619
  8
LAYER_01
 10
762.8223934506423
 20
331.7277902983841
 30
0.0
 42
0.3724329130067868
  0
VERTEX
  5
61A
  8
LAYER_01
 10
754.2645829153224
 20
341.6232483245684
 30
0.0
  0
VERTEX
  5
61B
  8
LAYER_01
 10
738.4187025768779
 20
343.9326676179672
 30
0.0
 42
-0.3412390696572861
  0
VERTEX
  5
61C
  8
LAYER_01
 10
736.923969954224
 20
345.8677916133201
 30
0.0
  0
VERTEX
  5
61D
  8
LAYER_01
 10
736.923969954224
 20
356.3229473281539
 30
0.0
  0
VERTEX
  5
61E
  8
LAYER_01
 10
739.9239699542236
 20
356.3229473281585
 30
0.0
  0
VERTEX
  5
61F
  8
LAYER_01
 10
740.1239699542234
 20
360.5229473281583
 30
0.0
  0
VERTEX
  5
620
  8
LAYER_01
 10
749.7239699542233
 20
360.5229473281583
 30
0.0
  0
VERTEX
  5
621
  8
LAYER_01
 10
749.9239699542236
 20
356.3229473281585
 30
0.0
  0
VERTEX
  5
622
  8
LAYER_01
 10
776.9239699542236
 20
356.3229473281585
 30
0.0
  0
VERTEX
  5
623
  8
LAYER_01
 10
777.1239699542234
 20
360.5229473281583
 30
0.0
  0
VERTEX
  5
624
  8
LAYER_01
 10
786.7239699542233
 20
360.5229473281583
 30
0.0
  0
VERTEX
  5
625
  8
LAYER_01
 10
786.9239699542236
 20
356.3229473281585
 30
0.0
  0
VERTEX
  5
626
  8
LAYER_01
 10
803.9239699542236
 20
356.3229473281585
 30
0.0
  0
VERTEX
  5
627
  8
LAYER_01
 10
804.1239699542234
 20
360.5229473281583
 30
0.0
  0
VERTEX
  5
628
  8
LAYER_01
 10
813.7239699542233
 20
360.5229473281583
 30
0.0
  0
VERTEX
  5
629
  8
LAYER_01
 10
813.9239699542236
 20
356.3229473281585
 30
0.0
  0
VERTEX
  5
62A
  8
LAYER_01
 10
816.923969954224
 20
356.3229473281589
 30
0.0
  0
VERTEX
  5
62B
  8
LAYER_01
 10
816.9239699542231
 20
46.3229473281603
 30
0.0
  0
VERTEX
  5
62C
  8
LAYER_01
 10
813.9239699542236
 20
46.32294732815848
 30
0.0
  0
VERTEX
  5
62D
  8
LAYER_01
 10
813.7239699542233
 20
42.12294732815866
 30
0.0
  0
VERTEX
  5
62E
  8
LAYER_01
 10
804.1239699542234
 20
42.12294732815866
 30
0.0
  0
VERTEX
  5
62F
  8
LAYER_01
 10
803.9239699542236
 20
46.32294732815848
 30
0.0
  0
VERTEX
  5
630
  8
LAYER_01
 10
786.9239699542236
 20
46.32294732815848
 30
0.0
  0
VERTEX
  5
631
  8
LAYER_01
 10
786.7239699542233
 20
42.12294732815866
 30
0.0
  0
VERTEX
  5
632
  8
LAYER_01
 10
777.1239699542234
 20
42.12294732815866
 30
0.0
  0
VERTEX
  5
633
  8
LAYER_01
 10
776.9239699542236
 20
46.32294732815848
 30
0.0
  0
VERTEX
  5
634
  8
LAYER_01
 10
749.9239699542236
 20
46.32294732815848
 30
0.0
  0
VERTEX
  5
635
  8
LAYER_01
 10
749.7239699542233
 20
42.12294732815866
 30
0.0
  0
VERTEX
  5
636
  8
LAYER_01
 10
740.1239699542234
 20
42.12294732815866
 30
0.0
  0
VERTEX
  5
637
  8
LAYER_01
 10
739.9239699542236
 20
46.32294732815848
 30
0.0
  0
VERTEX
  5
638
  8
LAYER_01
 10
736.9239699542236
 20
46.32294732815939
 30
0.0
  0
VERTEX
  5
639
  8
LAYER_01
 10
736.9239699542236
 20
56.77810304299277
 30
0.0
 42
-0.3412390696573533
  0
VERTEX
  5
63A
  8
LAYER_01
 10
738.4187025768775
 20
58.71322703834552
 30
0.0
  0
VERTEX
  5
63B
  8
LAYER_01
 10
754.2645829153221
 20
61.02264633174407
 30
0.0
 42
0.3724329130068311
  0
VERTEX
  5
63C
  8
LAYER_01
 10
762.8223934506418
 20
70.91810435792871
 30
0.0
  0
VERTEX
  5
63D
  8
LAYER_01
 10
762.8223934506423
 20
198.4555370959651
 30
0.0
 42
0.3724329130067851
  0
VERTEX
  5
63E
  8
LAYER_01
 10
754.2645829153224
 20
208.3509951221494
 30
0.0
  0
VERTEX
  5
63F
  8
LAYER_01
 10
738.4187025768779
 20
210.6604144155482
 30
0.0
 42
-0.3412390696572988
  0
VERTEX
  5
640
  8
LAYER_01
 10
736.923969954224
 20
212.595538410901
 30
0.0
  0
VERTEX
  5
641
  8
LAYER_01
 10
736.923969954224
 20
249.6503562454172
 30
0.0
 42
-0.3412390696573563
  0
VERTEX
  5
642
  8
LAYER_01
 10
738.418702576878
 20
251.5854802407699
 30
0.0
  0
SEQEND
  5
643
  8
LAYER_01
  0
CIRCLE
  5
644
  8
DEFAULT
 10
990.5811243753224
 20
37.69732787517142
 30
0.0
 40
6.35
  0
POLYLINE
  5
645
  8
LAYER_01
 66
     1
 10
0.0
 20
0.0
 30
0.0
 70
     1
  0
VERTEX
  5
646
  8
LAYER_01
 10
985.089902077561
 20
716.401570859781
 30
0.0
  0
VERTEX
  5
647
  8
LAYER_01
 10
976.2899020775608
 20
716.401570859781
 30
0.0
  0
VERTEX
  5
648
  8
LAYER_01
 10
976.2899020775608
 20
707.6015708597818
 30
0.0
  0
VERTEX
  5
649
  8
LAYER_01
 10
973.2899020775608
 20
707.6015708597818
 30
0.0
  0
VERTEX
  5
64A
  8
LAYER_01
 10
973.2899020775608
 20
698.8015708597816
 30
0.0
  0
VERTEX
  5
64B
  8
LAYER_01
 10
976.2899020775608
 20
698.8015708597816
 30
0.0
  0
VERTEX
  5
64C
  8
LAYER_01
 10
976.2899020775608
 20
690.0015708597814
 30
0.0
  0
VERTEX
  5
64D
  8
LAYER_01
 10
973.2899020775608
 20
690.0015708597814
 30
0.0
  0
VERTEX
  5
64E
  8
LAYER_01
 10
973.2899020775608
 20
681.2015708597812
 30
0.0
  0
VERTEX
  5
64F
  8
LAYER_01
 10
976.2899020775608
 20
681.2015708597812
 30
0.0
  0
VERTEX
  5
650
  8
LAYER_01
 10
976.2899020775608
 20
672.401570859781
 30
0.0
  0
VERTEX
  5
651
  8
LAYER_01
 10
985.089902077561
 20
672.401570859781
 30
0.0
  0
VERTEX
  5
652
  8
LAYER_01
 10
985.089902077561
 20
669.401570859781
 30
0.0
  0
VERTEX
  5
653
  8
LAYER_01
 10
993.8899020775611
 20
669.401570859781
 30
0.0
  0
VERTEX
  5
654
  8
LAYER_01
 10
993.8899020775611
 20
672.401570859781
 30
0.0
  0
VERTEX
  5
655
  8
LAYER_01
 10
1002.689902077561
 20
672.401570859781
 30
0.0
  0
VERTEX
  5
656
  8
LAYER_01
 10
1002.689902077561
 20
669.401570859781
 30
0.0
  0
VERTEX
  5
657
  8
LAYER_01
 10
1011.489902077561
 20
669.401570859781
 30
0.0
  0
VERTEX
  5
658
  8
LAYER_01
 10
1011.489902077561
 20
672.401570859781
 30
0.0
  0
VERTEX
  5
659
  8
LAYER_01
 10
1020.289902077561
 20
672.401570859781
 30
0.0
  0
VERTEX
  5
65A
  8
LAYER_01
 10
1020.289902077561
 20
681.2015708597812
 30
0.0
  0
VERTEX
  5
65B
  8
LAYER_01
 10
1023.289902077561
 20
681.2015708597812
 30
0.0
  0
VERTEX
  5
65C
  8
LAYER_01
 10
1023.289902077561
 20
690.0015708597814
 30
0.0
  0
VERTEX
  5
65D
  8
LAYER_01
 10
1020.289902077561
 20
690.0015708597814
 30
0.0
  0
VERTEX
  5
65E
  8
LAYER_01
 10
1020.289902077561
 20
698.8015708597816
 30
0.0
  0
VERTEX
  5
65F
  8
LAYER_01
 10
1023.289902077561
 20
698.8015708597816
 30
0.0
  0
VERTEX
  5
660
  8
LAYER_01
 10
1023.289902077561
 20
707.6015708597818
 30
0.0
  0
VERTEX
  5
661
  8
LAYER_01
 10
1020.289902077561
 20
707.6015708597818
 30
0.0
  0
VERTEX
  5
662
  8
LAYER_01
 10
1020.289902077561
 20
716.401570859781
 30
0.0
  0
VERTEX
  5
663
  8
LAYER_01
 10
1011.489902077561
 20
716.401570859781
 30
0.0
  0
VERTEX
  5
664
  8
LAYER_01
 10
1011.489902077561
 20
719.401570859781
 30
0.0
  0
VERTEX
  5
665
  8
LAYER_01
 10
1002.689902077561
 20
719.401570859781
 30
0.0
  0
VERTEX
  5
666
  8
LAYER_01
 10
1002.689902077561
 20
716.401570859781
 30
0.0
  0
VERTEX
  5
667
  8
LAYER_01
 10
993.8899020775611
 20
716.401570859781
 30
0.0
  0
VERTEX
  5
668
  8
LAYER_01
 10
993.8899020775611
 20
719.401570859781
 30
0.0
  0
VERTEX
  5
669
  8
LAYER_01
 10
985.089902077561
 20
719.401570859781
 30
0.0
  0
SEQEND
  5
66A
  8
LAYER_01
  0
POLYLINE
  5
66B
  8
LAYER_01
 66
     1
 10
0.0
 20
0.0
 30
0.0
 70
     1
  0
VERTEX
  5
66C
  8
LAYER_01
 10
1011.489902077561
 20
663.5155228095057
 30
0.0
  0
VERTEX
  5
66D
  8
LAYER_01
 10
1020.289902077561
 20
663.5155228095057
 30
0.0
  0
VERTEX
  5
66E
  8
LAYER_01
 10
1020.289902077561
 20
654.3155228095059
 30
0.0
  0
VERTEX
  5
66F
  8
LAYER_01
 10
1023.289902077561
 20
654.3155228095059
 30
0.0
  0
VERTEX
  5
670
  8
LAYER_01
 10
1023.289902077561
 20
645.115522809506
 30
0.0
  0
VERTEX
  5
671
  8
LAYER_01
 10
1020.289902077561
 20
645.115522809506
 30
0.0
  0
VERTEX
  5
672
  8
LAYER_01
 10
1020.289902077561
 20
635.9155228095053
 30
0.0
  0
VERTEX
  5
673
  8
LAYER_01
 10
1023.289902077561
 20
635.9155228095053
 30
0.0
  0
VERTEX
  5
674
  8
LAYER_01
 10
1023.289902077561
 20
626.7155228095055
 30
0.0
  0
VERTEX
  5
675
  8
LAYER_01
 10
1020.289902077561
 20
626.7155228095055
 30
0.0
  0
VERTEX
  5
676
  8
LAYER_01
 10
1020.289902077561
 20
617.5155228095057
 30
0.0
  0
VERTEX
  5
677
  8
LAYER_01
 10
976.2899020775608
 20
617.5155228095057
 30
0.0
  0
VERTEX
  5
678
  8
LAYER_01
 10
976.2899020775608
 20
626.7155228095055
 30
0.0
  0
VERTEX
  5
679
  8
LAYER_01
 10
973.2899020775608
 20
626.7155228095055
 30
0.0
  0
VERTEX
  5
67A
  8
LAYER_01
 10
973.2899020775608
 20
635.9155228095053
 30
0.0
  0
VERTEX
  5
67B
  8
LAYER_01
 10
976.2899020775608
 20
635.9155228095053
 30
0.0
  0
VERTEX
  5
67C
  8
LAYER_01
 10
976.2899020775608
 20
645.115522809506
 30
0.0
  0
VERTEX
  5
67D
  8
LAYER_01
 10
973.2899020775608
 20
645.115522809506
 30
0.0
  0
VERTEX
  5
67E
  8
LAYER_01
 10
973.2899020775608
 20
654.3155228095059
 30
0.0
  0
VERTEX
  5
67F
  8
LAYER_01
 10
976.2899020775608
 20
654.3155228095059
 30
0.0
  0
VERTEX
  5
680
  8
LAYER_01
 10
976.2899020775608
 20
663.5155228095057
 30
0.0
  0
VERTEX
  5
681
  8
LAYER_01
 10
985.089902077561
 20
663.5155228095057
 30
0.0
  0
VERTEX
  5
682
  8
LAYER_01
 10
985.089902077561
 20
660.5155228095057
 30
0.0
  0
VERTEX
  5
683
  8
LAYER_01
 10
993.8899020775611
 20
660.5155228095057
 30
0.0
  0
VERTEX
  5
684
  8
LAYER_01
 10
993.8899020775611
 20
663.5155228095057
 30
0.0
  0
VERTEX
  5
685
  8
LAYER_01
 10
1002.689902077561
 20
663.5155228095057
 30
0.0
  0
VERTEX
  5
686
  8
LAYER_01
 10
1002.689902077561
 20
660.5155228095057
 30
0.0
  0
VERTEX
  5
687
  8
LAYER_01
 10
1011.489902077561
 20
660.5155228095057
 30
0.0
  0
SEQEND
  5
688
  8
LAYER_01
  0
POLYLINE
  5
689
  8
LAYER_01
 66
     1
 10
0.0
 20
0.0
 30
0.0
 70
     1
  0
VERTEX
  5
68A
  8
LAYER_01
 10
923.2424179435206
 20
651.6607211010298
 30
0.0
  0
VERTEX
  5
68B
  8
LAYER_01
 10
923.2424179435206
 20
660.8607211010296
 30
0.0
  0
VERTEX
  5
68C
  8
LAYER_01
 10
967.2424179435206
 20
660.8607211010296
 30
0.0
  0
VERTEX
  5
68D
  8
LAYER_01
 10
967.2424179435206
 20
651.6607211010298
 30
0.0
  0
VERTEX
  5
68E
  8
LAYER_01
 10
970.2424179435206
 20
651.6607211010298
 30
0.0
  0
VERTEX
  5
68F
  8
LAYER_01
 10
970.2424179435206
 20
642.4607211010291
 30
0.0
  0
VERTEX
  5
690
  8
LAYER_01
 10
967.2424179435206
 20
642.4607211010291
 30
0.0
  0
VERTEX
  5
691
  8
LAYER_01
 10
967.2424179435206
 20
633.2607211010293
 30
0.0
  0
VERTEX
  5
692
  8
LAYER_01
 10
970.2424179435206
 20
633.2607211010293
 30
0.0
  0
VERTEX
  5
693
  8
LAYER_01
 10
970.2424179435206
 20
624.0607211010295
 30
0.0
  0
VERTEX
  5
694
  8
LAYER_01
 10
967.2424179435206
 20
624.0607211010295
 30
0.0
  0
VERTEX
  5
695
  8
LAYER_01
 10
967.2424179435206
 20
614.8607211010296
 30
0.0
  0
VERTEX
  5
696
  8
LAYER_01
 10
958.4424179435209
 20
614.8607211010296
 30
0.0
  0
VERTEX
  5
697
  8
LAYER_01
 10
958.4424179435209
 20
617.8607211010296
 30
0.0
  0
VERTEX
  5
698
  8
LAYER_01
 10
949.6424179435207
 20
617.8607211010296
 30
0.0
  0
VERTEX
  5
699
  8
LAYER_01
 10
949.6424179435207
 20
614.8607211010296
 30
0.0
  0
VERTEX
  5
69A
  8
LAYER_01
 10
940.842417943521
 20
614.8607211010296
 30
0.0
  0
VERTEX
  5
69B
  8
LAYER_01
 10
940.842417943521
 20
617.8607211010296
 30
0.0
  0
VERTEX
  5
69C
  8
LAYER_01
 10
932.0424179435208
 20
617.8607211010296
 30
0.0
  0
VERTEX
  5
69D
  8
LAYER_01
 10
932.0424179435208
 20
614.8607211010296
 30
0.0
  0
VERTEX
  5
69E
  8
LAYER_01
 10
923.2424179435206
 20
614.8607211010296
 30
0.0
  0
VERTEX
  5
69F
  8
LAYER_01
 10
923.2424179435206
 20
624.0607211010295
 30
0.0
  0
VERTEX
  5
6A0
  8
LAYER_01
 10
920.2424179435206
 20
624.0607211010295
 30
0.0
  0
VERTEX
  5
6A1
  8
LAYER_01
 10
920.2424179435206
 20
633.2607211010293
 30
0.0
  0
VERTEX
  5
6A2
  8
LAYER_01
 10
923.2424179435206
 20
633.2607211010293
 30
0.0
  0
VERTEX
  5
6A3
  8
LAYER_01
 10
923.2424179435206
 20
642.4607211010291
 30
0.0
  0
VERTEX
  5
6A4
  8
LAYER_01
 10
920.2424179435206
 20
642.4607211010291
 30
0.0
  0
VERTEX
  5
6A5
  8
LAYER_01
 10
920.2424179435206
 20
651.6607211010298
 30
0.0
  0
SEQEND
  5
6A6
  8
LAYER_01
  0
POLYLINE
  5
6A7
  8
LAYER_01
 66
     1
 10
0.0
 20
0.0
 30
0.0
 70
     1
  0
VERTEX
  5
6A8
  8
LAYER_01
 10
967.2778862431128
 20
669.9898613932166
 30
0.0
  0
VERTEX
  5
6A9
  8
LAYER_01
 10
967.2778862431128
 20
680.2898613932159
 30
0.0
  0
VERTEX
  5
6AA
  8
LAYER_01
 10
970.2778862431128
 20
680.2898613932159
 30
0.0
  0
VERTEX
  5
6AB
  8
LAYER_01
 10
970.2778862431128
 20
689.0898613932161
 30
0.0
  0
VERTEX
  5
6AC
  8
LAYER_01
 10
967.2778862431128
 20
689.0898613932161
 30
0.0
  0
VERTEX
  5
6AD
  8
LAYER_01
 10
967.2778862431128
 20
697.8898613932163
 30
0.0
  0
VERTEX
  5
6AE
  8
LAYER_01
 10
970.2778862431128
 20
697.8898613932163
 30
0.0
  0
VERTEX
  5
6AF
  8
LAYER_01
 10
970.2778862431128
 20
706.6898613932165
 30
0.0
  0
VERTEX
  5
6B0
  8
LAYER_01
 10
967.2778862431128
 20
706.6898613932165
 30
0.0
  0
VERTEX
  5
6B1
  8
LAYER_01
 10
967.2778862431128
 20
716.9898613932166
 30
0.0
 42
0.414213562373048
  0
VERTEX
  5
6B2
  8
LAYER_01
 10
965.7778862431129
 20
718.4898613932166
 30
0.0
  0
VERTEX
  5
6B3
  8
LAYER_01
 10
924.7778862431128
 20
718.4898613932166
 30
0.0
 42
0.4142135623730951
  0
VERTEX
  5
6B4
  8
LAYER_01
 10
923.2778862431128
 20
716.9898613932166
 30
0.0
  0
VERTEX
  5
6B5
  8
LAYER_01
 10
923.2778862431128
 20
706.6898613932165
 30
0.0
  0
VERTEX
  5
6B6
  8
LAYER_01
 10
920.2778862431128
 20
706.6898613932165
 30
0.0
  0
VERTEX
  5
6B7
  8
LAYER_01
 10
920.2778862431128
 20
697.8898613932163
 30
0.0
  0
VERTEX
  5
6B8
  8
LAYER_01
 10
923.2778862431128
 20
697.8898613932163
 30
0.0
  0
VERTEX
  5
6B9
  8
LAYER_01
 10
923.2778862431128
 20
689.0898613932161
 30
0.0
  0
VERTEX
  5
6BA
  8
LAYER_01
 10
920.2778862431128
 20
689.0898613932161
 30
0.0
  0
VERTEX
  5
6BB
  8
LAYER_01
 10
920.2778862431128
 20
680.2898613932159
 30
0.0
  0
VERTEX
  5
6BC
  8
LAYER_01
 10
923.2778862431128
 20
680.2898613932159
 30
0.0
  0
VERTEX
  5
6BD
  8
LAYER_01
 10
923.2778862431128
 20
669.9898613932166
 30
0.0
 42
0.414213562373048
  0
VERTEX
  5
6BE
  8
LAYER_01
 10
924.7778862431126
 20
668.4898613932166
 30
0.0
  0
VERTEX
  5
6BF
  8
LAYER_01
 10
928.1529710638501
 20
668.4898613932166
 30
0.0
 42
0.4142135623730951
  0
VERTEX
  5
6C0
  8
LAYER_01
 10
929.6529710638501
 20
669.9898613932166
 30
0.0
  0
VERTEX
  5
6C1
  8
LAYER_01
 10
929.6529710638501
 20
686.9898613932166
 30
0.0
 42
-0.4142135623730951
  0
VERTEX
  5
6C2
  8
LAYER_01
 10
931.1529710638501
 20
688.4898613932166
 30
0.0
  0
VERTEX
  5
6C3
  8
LAYER_01
 10
959.4028014223754
 20
688.4898613932168
 30
0.0
 42
-0.4142135623730469
  0
VERTEX
  5
6C4
  8
LAYER_01
 10
960.9028014223754
 20
686.9898613932165
 30
0.0
  0
VERTEX
  5
6C5
  8
LAYER_01
 10
960.9028014223754
 20
669.9898613932157
 30
0.0
 42
0.4142135623731198
  0
VERTEX
  5
6C6
  8
LAYER_01
 10
962.4028014223757
 20
668.4898613932157
 30
0.0
  0
VERTEX
  5
6C7
  8
LAYER_01
 10
965.7778862431128
 20
668.4898613932166
 30
0.0
 42
0.4142135623730951
  0
SEQEND
  5
6C8
  8
LAYER_01
  0
POLYLINE
  5
6C9
  8
LAYER_01
 66
     1
 10
0.0
 20
0.0
 30
0.0
 70
     1
  0
VERTEX
  5
6CA
  8
LAYER_01
 10
909.2952912126416
 20
717.9044480944269
 30
0.0
  0
VERTEX
  5
6CB
  8
LAYER_01
 10
909.2952912126416
 20
671.9044480944269
 30
0.0
 42
-0.414213562373095
  0
VERTEX
  5
6CC
  8
LAYER_01
 10
907.2952912126416
 20
669.9044480944269
 30
0.0
  0
VERTEX
  5
6CD
  8
LAYER_01
 10
858.0952912126418
 20
669.9044480944269
 30
0.0
  0
VERTEX
  5
6CE
  8
LAYER_01
 10
858.0952912126418
 20
672.9044480944269
 30
0.0
  0
VERTEX
  5
6CF
  8
LAYER_01
 10
848.8952912126415
 20
672.9044480944269
 30
0.0
  0
VERTEX
  5
6D0
  8
LAYER_01
 10
848.8952912126415
 20
669.9044480944269
 30
0.0
  0
VERTEX
  5
6D1
  8
LAYER_01
 10
839.6952912126417
 20
669.9044480944269
 30
0.0
  0
VERTEX
  5
6D2
  8
LAYER_01
 10
839.6952912126417
 20
672.9044480944269
 30
0.0
  0
VERTEX
  5
6D3
  8
LAYER_01
 10
830.4952912126419
 20
672.9044480944269
 30
0.0
  0
VERTEX
  5
6D4
  8
LAYER_01
 10
830.4952912126419
 20
669.9044480944269
 30
0.0
  0
VERTEX
  5
6D5
  8
LAYER_01
 10
821.2952912126416
 20
669.9044480944269
 30
0.0
  0
VERTEX
  5
6D6
  8
LAYER_01
 10
821.2952912126416
 20
719.9044480944269
 30
0.0
  0
VERTEX
  5
6D7
  8
LAYER_01
 10
830.4952912126419
 20
719.9044480944269
 30
0.0
  0
VERTEX
  5
6D8
  8
LAYER_01
 10
830.4952912126419
 20
716.9044480944269
 30
0.0
  0
VERTEX
  5
6D9
  8
LAYER_01
 10
839.6952912126417
 20
716.9044480944269
 30
0.0
  0
VERTEX
  5
6DA
  8
LAYER_01
 10
839.6952912126417
 20
719.9044480944269
 30
0.0
  0
VERTEX
  5
6DB
  8
LAYER_01
 10
848.8952912126415
 20
719.9044480944269
 30
0.0
  0
VERTEX
  5
6DC
  8
LAYER_01
 10
848.8952912126415
 20
716.9044480944269
 30
0.0
  0
VERTEX
  5
6DD
  8
LAYER_01
 10
858.0952912126418
 20
716.9044480944269
 30
0.0
  0
VERTEX
  5
6DE
  8
LAYER_01
 10
858.0952912126418
 20
719.9044480944269
 30
0.0
  0
VERTEX
  5
6DF
  8
LAYER_01
 10
907.2952912126416
 20
719.9044480944269
 30
0.0
 42
-0.414213562373095
  0
SEQEND
  5
6E0
  8
LAYER_01
  0
POLYLINE
  5
6E1
  8
LAYER_01
 66
     1
 10
0.0
 20
0.0
 30
0.0
 70
     1
  0
VERTEX
  5
6E2
  8
LAYER_01
 10
885.2952912126416
 20
698.127712321166
 30
0.0
  0
VERTEX
  5
6E3
  8
LAYER_01
 10
885.2952912126416
 20
695.7277123211663
 30
0.0
  0
VERTEX
  5
6E4
  8
LAYER_01
 10
905.2952912126416
 20
695.7277123211663
 30
0.0
  0
VERTEX
  5
6E5
  8
LAYER_01
 10
905.2952912126416
 20
698.127712321166
 30
0.0
  0
SEQEND
  5
6E6
  8
LAYER_01
  0
POLYLINE
  5
6E7
  8
DEFAULT
 66
     1
 10
0.0
 20
0.0
 30
0.0
 70
     1
  0
VERTEX
  5
6E8
  8
DEFAULT
 10
882.2952912126416
 20
708.1044480944277
 30
0.0
  0
VERTEX
  5
6E9
  8
DEFAULT
 10
882.2952912126416
 20
699.3044480944275
 30
0.0
  0
VERTEX
  5
6EA
  8
DEFAULT
 10
885.2952912126416
 20
699.3044480944275
 30
0.0
  0
VERTEX
  5
6EB
  8
DEFAULT
 10
885.2952912126416
 20
708.1044480944277
 30
0.0
  0
SEQEND
  5
6EC
  8
DEFAULT
  0
POLYLINE
  5
6ED
  8
DEFAULT
 66
     1
 10
0.0
 20
0.0
 30
0.0
 70
     1
  0
VERTEX
  5
6EE
  8
DEFAULT
 10
882.2952912126416
 20
690.5044480944273
 30
0.0
  0
VERTEX
  5
6EF
  8
DEFAULT
 10
882.2952912126416
 20
681.7044480944271
 30
0.0
  0
VERTEX
  5
6F0
  8
DEFAULT
 10
885.2952912126416
 20
681.7044480944271
 30
0.0
  0
VERTEX
  5
6F1
  8
DEFAULT
 10
885.2952912126416
 20
690.5044480944273
 30
0.0
  0
SEQEND
  5
6F2
  8
DEFAULT
  0
POLYLINE
  5
6F3
  8
DEFAULT
 66
     1
 10
0.0
 20
0.0
 30
0.0
 70
     1
  0
VERTEX
  5
6F4
  8
DEFAULT
 10
864.2952912126416
 20
690.5044480944273
 30
0.0
  0
VERTEX
  5
6F5
  8
DEFAULT
 10
864.2952912126416
 20
681.7044480944271
 30
0.0
  0
VERTEX
  5
6F6
  8
DEFAULT
 10
867.2952912126416
 20
681.7044480944271
 30
0.0
  0
VERTEX
  5
6F7
  8
DEFAULT
 10
867.2952912126416
 20
690.5044480944273
 30
0.0
  0
SEQEND
  5
6F8
  8
DEFAULT
  0
POLYLINE
  5
6F9
  8
DEFAULT
 66
     1
 10
0.0
 20
0.0
 30
0.0
 70
     1
  0
VERTEX
  5
6FA
  8
DEFAULT
 10
864.2952912126416
 20
708.1044480944267
 30
0.0
  0
VERTEX
  5
6FB
  8
DEFAULT
 10
864.2952912126416
 20
699.3044480944275
 30
0.0
  0
VERTEX
  5
6FC
  8
DEFAULT
 10
867.2952912126416
 20
699.3044480944275
 30
0.0
  0
VERTEX
  5
6FD
  8
DEFAULT
 10
867.2952912126416
 20
708.1044480944267
 30
0.0
  0
SEQEND
  5
6FE
  8
DEFAULT
  0
POLYLINE
  5
6FF
  8
LAYER_01
 66
     1
 10
0.0
 20
0.0
 30
0.0
 70
     1
  0
VERTEX
  5
700
  8
LAYER_01
 10
845.2952912126416
 20
644.8015780278658
 30
0.0
  0
VERTEX
  5
701
  8
LAYER_01
 10
845.2952912126416
 20
642.4015780278662
 30
0.0
  0
VERTEX
  5
702
  8
LAYER_01
 10
825.2952912126416
 20
642.4015780278662
 30
0.0
  0
VERTEX
  5
703
  8
LAYER_01
 10
825.2952912126416
 20
644.8015780278658
 30
0.0
  0
SEQEND
  5
704
  8
LAYER_01
  0
POLYLINE
  5
705
  8
LAYER_01
 66
     1
 10
0.0
 20
0.0
 30
0.0
 70
     1
  0
VERTEX
  5
706
  8
LAYER_01
 10
821.2952912126416
 20
664.5783138011268
 30
0.0
  0
VERTEX
  5
707
  8
LAYER_01
 10
821.2952912126416
 20
618.5783138011268
 30
0.0
 42
0.414213562373095
  0
VERTEX
  5
708
  8
LAYER_01
 10
823.2952912126416
 20
616.5783138011268
 30
0.0
  0
VERTEX
  5
709
  8
LAYER_01
 10
872.4952912126419
 20
616.5783138011268
 30
0.0
  0
VERTEX
  5
70A
  8
LAYER_01
 10
872.4952912126419
 20
619.5783138011268
 30
0.0
  0
VERTEX
  5
70B
  8
LAYER_01
 10
881.6952912126417
 20
619.5783138011268
 30
0.0
  0
VERTEX
  5
70C
  8
LAYER_01
 10
881.6952912126417
 20
616.5783138011268
 30
0.0
  0
VERTEX
  5
70D
  8
LAYER_01
 10
890.8952912126415
 20
616.5783138011268
 30
0.0
  0
VERTEX
  5
70E
  8
LAYER_01
 10
890.8952912126415
 20
619.5783138011268
 30
0.0
  0
VERTEX
  5
70F
  8
LAYER_01
 10
900.0952912126418
 20
619.5783138011268
 30
0.0
  0
VERTEX
  5
710
  8
LAYER_01
 10
900.0952912126418
 20
616.5783138011268
 30
0.0
  0
VERTEX
  5
711
  8
LAYER_01
 10
909.2952912126416
 20
616.5783138011268
 30
0.0
  0
VERTEX
  5
712
  8
LAYER_01
 10
909.2952912126416
 20
666.5783138011268
 30
0.0
  0
VERTEX
  5
713
  8
LAYER_01
 10
900.0952912126418
 20
666.5783138011268
 30
0.0
  0
VERTEX
  5
714
  8
LAYER_01
 10
900.0952912126418
 20
663.5783138011268
 30
0.0
  0
VERTEX
  5
715
  8
LAYER_01
 10
890.8952912126415
 20
663.5783138011268
 30
0.0
  0
VERTEX
  5
716
  8
LAYER_01
 10
890.8952912126415
 20
666.5783138011268
 30
0.0
  0
VERTEX
  5
717
  8
LAYER_01
 10
881.6952912126417
 20
666.5783138011268
 30
0.0
  0
VERTEX
  5
718
  8
LAYER_01
 10
881.6952912126417
 20
663.5783138011268
 30
0.0
  0
VERTEX
  5
719
  8
LAYER_01
 10
872.4952912126419
 20
663.5783138011268
 30
0.0
  0
VERTEX
  5
71A
  8
LAYER_01
 10
872.4952912126419
 20
666.5783138011268
 30
0.0
  0
VERTEX
  5
71B
  8
LAYER_01
 10
823.2952912126416
 20
666.5783138011268
 30
0.0
 42
0.414213562373095
  0
SEQEND
  5
71C
  8
LAYER_01
  0
POLYLINE
  5
71D
  8
DEFAULT
 66
     1
 10
0.0
 20
0.0
 30
0.0
 70
     1
  0
VERTEX
  5
71E
  8
DEFAULT
 10
866.2952912126416
 20
654.7783138011275
 30
0.0
  0
VERTEX
  5
71F
  8
DEFAULT
 10
866.2952912126416
 20
645.9783138011273
 30
0.0
  0
VERTEX
  5
720
  8
DEFAULT
 10
866.2952912126416
 20
654.7783138011275
 30
0.0
  0
VERTEX
  5
721
  8
DEFAULT
 10
863.2952912126416
 20
654.7783138011275
 30
0.0
  0
VERTEX
  5
722
  8
DEFAULT
 10
863.2952912126416
 20
645.9783138011273
 30
0.0
  0
VERTEX
  5
723
  8
DEFAULT
 10
866.2952912126416
 20
645.9783138011273
 30
0.0
  0
VERTEX
  5
724
  8
DEFAULT
 10
863.2952912126416
 20
645.9783138011273
 30
0.0
  0
VERTEX
  5
725
  8
DEFAULT
 10
863.2952912126416
 20
654.7783138011275
 30
0.0
  0
SEQEND
  5
726
  8
DEFAULT
  0
POLYLINE
  5
727
  8
DEFAULT
 66
     1
 10
0.0
 20
0.0
 30
0.0
 70
     1
  0
VERTEX
  5
728
  8
DEFAULT
 10
866.2952912126416
 20
637.1783138011272
 30
0.0
  0
VERTEX
  5
729
  8
DEFAULT
 10
866.2952912126416
 20
628.378313801127
 30
0.0
  0
VERTEX
  5
72A
  8
DEFAULT
 10
866.2952912126416
 20
637.1783138011272
 30
0.0
  0
VERTEX
  5
72B
  8
DEFAULT
 10
863.2952912126416
 20
637.1783138011272
 30
0.0
  0
VERTEX
  5
72C
  8
DEFAULT
 10
863.2952912126416
 20
628.378313801127
 30
0.0
  0
VERTEX
  5
72D
  8
DEFAULT
 10
866.2952912126416
 20
628.378313801127
 30
0.0
  0
VERTEX
  5
72E
  8
DEFAULT
 10
863.2952912126416
 20
628.378313801127
 30
0.0
  0
VERTEX
  5
72F
  8
DEFAULT
 10
863.2952912126416
 20
637.1783138011272
 30
0.0
  0
SEQEND
  5
730
  8
DEFAULT
  0
POLYLINE
  5
731
  8
DEFAULT
 66
     1
 10
0.0
 20
0.0
 30
0.0
 70
     1
  0
VERTEX
  5
732
  8
DEFAULT
 10
848.2952912126416
 20
637.1783138011272
 30
0.0
  0
VERTEX
  5
733
  8
DEFAULT
 10
848.2952912126416
 20
628.378313801127
 30
0.0
  0
VERTEX
  5
734
  8
DEFAULT
 10
848.2952912126416
 20
637.1783138011272
 30
0.0
  0
VERTEX
  5
735
  8
DEFAULT
 10
845.2952912126416
 20
637.1783138011272
 30
0.0
  0
VERTEX
  5
736
  8
DEFAULT
 10
845.2952912126416
 20
628.378313801127
 30
0.0
  0
VERTEX
  5
737
  8
DEFAULT
 10
848.2952912126416
 20
628.378313801127
 30
0.0
  0
VERTEX
  5
738
  8
DEFAULT
 10
845.2952912126416
 20
628.378313801127
 30
0.0
  0
VERTEX
  5
739
  8
DEFAULT
 10
845.2952912126416
 20
637.1783138011272
 30
0.0
  0
SEQEND
  5
73A
  8
DEFAULT
  0
POLYLINE
  5
73B
  8
DEFAULT
 66
     1
 10
0.0
 20
0.0
 30
0.0
 70
     1
  0
VERTEX
  5
73C
  8
DEFAULT
 10
848.2952912126416
 20
654.7783138011275
 30
0.0
  0
VERTEX
  5
73D
  8
DEFAULT
 10
848.2952912126416
 20
645.9783138011273
 30
0.0
  0
VERTEX
  5
73E
  8
DEFAULT
 10
848.2952912126416
 20
654.7783138011275
 30
0.0
  0
VERTEX
  5
73F
  8
DEFAULT
 10
845.2952912126416
 20
654.7783138011275
 30
0.0
  0
VERTEX
  5
740
  8
DEFAULT
 10
845.2952912126416
 20
645.9783138011273
 30
0.0
  0
VERTEX
  5
741
  8
DEFAULT
 10
848.2952912126416
 20
645.9783138011273
 30
0.0
  0
VERTEX
  5
742
  8
DEFAULT
 10
845.2952912126416
 20
645.9783138011273
 30
0.0
  0
VERTEX
  5
743
  8
DEFAULT
 10
845.2952912126416
 20
654.7783138011275
 30
0.0
  0
SEQEND
  5
744
  8
DEFAULT
  0
POLYLINE
  5
745
  8
LAYER_01
 66
     1
 10
0.0
 20
0.0
 30
0.0
 70
     1
  0
VERTEX
  5
746
  8
LAYER_01
 10
800.535136877465
 20
661.8545675792273
 30
0.0
  0
VERTEX
  5
747
  8
LAYER_01
 10
800.5351368774645
 20
622.8545675792268
 30
0.0
 42
0.4142135623731198
  0
VERTEX
  5
748
  8
LAYER_01
 10
802.0351368774648
 20
621.3545675792268
 30
0.0
  0
VERTEX
  5
749
  8
LAYER_01
 10
817.0351368774645
 20
621.3545675792259
 30
0.0
 42
0.4142135623729374
  0
VERTEX
  5
74A
  8
LAYER_01
 10
818.5351368774645
 20
622.8545675792268
 30
0.0
  0
VERTEX
  5
74B
  8
LAYER_01
 10
818.535136877465
 20
661.8545675792268
 30
0.0
 42
0.414213562373048
  0
VERTEX
  5
74C
  8
LAYER_01
 10
817.0351368774652
 20
663.3545675792268
 30
0.0
  0
VERTEX
  5
74D
  8
LAYER_01
 10
802.035136877465
 20
663.3545675792268
 30
0.0
 42
0.4142135623730074
  0
SEQEND
  5
74E
  8
LAYER_01
  0
POLYLINE
  5
74F
  8
LAYER_01
 66
     1
 10
0.0
 20
0.0
 30
0.0
 70
     1
  0
VERTEX
  5
750
  8
LAYER_01
 10
797.1226554786385
 20
663.3545675792268
 30
0.0
  0
VERTEX
  5
751
  8
LAYER_01
 10
779.1226554786385
 20
663.3545675792268
 30
0.0
 42
0.4142135623731221
  0
VERTEX
  5
752
  8
LAYER_01
 10
777.6226554786385
 20
661.8545675792277
 30
0.0
  0
VERTEX
  5
753
  8
LAYER_01
 10
777.6226554786376
 20
622.8545675792268
 30
0.0
 42
0.4142135623730052
  0
VERTEX
  5
754
  8
LAYER_01
 10
779.1226554786381
 20
621.3545675792268
 30
0.0
  0
VERTEX
  5
755
  8
LAYER_01
 10
797.1226554786381
 20
621.3545675792268
 30
0.0
 42
0.4142135623730951
  0
VERTEX
  5
756
  8
LAYER_01
 10
798.6226554786381
 20
622.8545675792268
 30
0.0
  0
VERTEX
  5
757
  8
LAYER_01
 10
798.6226554786381
 20
661.8545675792268
 30
0.0
 42
0.4142135623733507
  0
SEQEND
  5
758
  8
LAYER_01
  0
POLYLINE
  5
759
  8
LAYER_01
 66
     1
 10
0.0
 20
0.0
 30
0.0
 70
     1
  0
VERTEX
  5
75A
  8
LAYER_01
 10
812.8530829290121
 20
674.7054643372833
 30
0.0
  0
VERTEX
  5
75B
  8
LAYER_01
 10
800.7397451277329
 20
679.6860840497295
 30
0.0
 42
0.1035238132130053
  0
VERTEX
  5
75C
  8
LAYER_01
 10
799.5313312956056
 20
679.9107061803917
 30
0.0
  0
VERTEX
  5
75D
  8
LAYER_01
 10
793.1715672452597
 20
679.767406333129
 30
0.0
 42
-0.0292966339324523
  0
VERTEX
  5
75E
  8
LAYER_01
 10
792.8205373191493
 20
679.7800657672899
 30
0.0
 42
1.847541291680623
  0
VERTEX
  5
75F
  8
LAYER_01
 10
797.5107714944013
 20
670.857310334805
 30
0.0
 42
-0.0230054586516221
  0
VERTEX
  5
760
  8
LAYER_01
 10
797.655992744182
 20
671.0919213837249
 30
0.0
  0
VERTEX
  5
761
  8
LAYER_01
 10
798.825046827917
 20
672.7997455932243
 30
0.0
 42
-0.3190750602258742
  0
VERTEX
  5
762
  8
LAYER_01
 10
802.0861128732189
 20
674.0004943161201
 30
0.0
  0
VERTEX
  5
763
  8
LAYER_01
 10
811.88358639946
 20
671.3424186225799
 30
0.0
 42
1.000000000000103
  0
SEQEND
  5
764
  8
LAYER_01
  0
CIRCLE
  5
765
  8
DEFAULT
 10
1006.389732436087
 20
682.4015708596646
 30
0.0
 40
3.5
  0
CIRCLE
  5
766
  8
DEFAULT
 10
998.3897324360869
 20
649.3155228095059
 30
0.0
 40
4.5
  0
CIRCLE
  5
767
  8
DEFAULT
 10
980.2399868982984
 20
683.0248350865197
 30
0.0
 40
1.425
  0
CIRCLE
  5
768
  8
DEFAULT
 10
1016.339817256824
 20
683.0248350865197
 30
0.0
 40
1.425
  0
CIRCLE
  5
769
  8
DEFAULT
 10
945.442078660572
 20
640.607726484822
 30
0.0
 40
1.6
  0
CIRCLE
  5
76A
  8
DEFAULT
 10
935.442078660572
 20
623.2872184091332
 30
0.0
 40
1.6
  0
CIRCLE
  5
76B
  8
DEFAULT
 10
955.442078660572
 20
623.2872184091332
 30
0.0
 40
1.6
  0
CIRCLE
  5
76C
  8
DEFAULT
 10
945.3422483020468
 20
629.0607211010295
 30
0.0
 40
8.199999999999818
  0
CIRCLE
  5
76D
  8
DEFAULT
 10
963.3278014223756
 20
682.1131256199553
 30
0.0
 40
1.425
  0
CIRCLE
  5
76E
  8
DEFAULT
 10
927.22797106385
 20
682.1131256199553
 30
0.0
 40
1.425
  0
CIRCLE
  5
76F
  8
DEFAULT
 10
833.0952912126395
 20
694.9044480943105
 30
0.0
 40
4.5
  0
CIRCLE
  5
770
  8
DEFAULT
 10
885.9482858288511
 20
641.4784834424847
 30
0.0
 40
1.6
  0
CIRCLE
  5
771
  8
DEFAULT
 10
903.26879390454
 20
651.4784834424847
 30
0.0
 40
1.6
  0
CIRCLE
  5
772
  8
DEFAULT
 10
903.26879390454
 20
631.4784834424847
 30
0.0
 40
1.6
  0
CIRCLE
  5
773
  8
DEFAULT
 10
897.4952912126437
 20
641.5783138010104
 30
0.0
 40
8.199999999999818
  0
CIRCLE
  5
774
  8
DEFAULT
 10
810.1584011043205
 20
650.4543979377524
 30
0.0
 40
3.5
  0
CIRCLE
  5
775
  8
LAYER_01
 10
809.535136877465
 20
660.4044827584896
 30
0.0
 40
0.95
  0
CIRCLE
  5
776
  8
LAYER_01
 10
809.535136877465
 20
624.304652399964
 30
0.0
 40
0.95
  0
CIRCLE
  5
777
  8
LAYER_01
 10
786.6226554786385
 20
660.4044827584896
 30
0.0
 40
0.95
  0
CIRCLE
  5
778
  8
LAYER_01
 10
786.6226554786381
 20
624.304652399964
 30
0.0
 40
0.95
  0
CIRCLE
  5
779
  8
DEFAULT
 10
787.2459197054936
 20
650.4543979377524
 30
0.0
 40
6.75
  0
CIRCLE
  5
77A
  8
DEFAULT
 10
792.2517470429357
 20
673.7869966352266
 30
0.0
 40
3.5
  0
POLYLINE
  5
77B
  8
DEFAULT
 66
     1
 10
0.0
 20
0.0
 30
0.0
 70
     1
  0
VERTEX
  5
77C
  8
DEFAULT
 10
1428.559896510138
 20
59.2393472635377
 30
0.0
  0
VERTEX
  5
77D
  8
DEFAULT
 10
1428.559896510138
 20
87.08160078466409
 30
0.0
  0
VERTEX
  5
77E
  8
DEFAULT
 10
1420.604966932674
 20
87.0816007846643
 30
0.0
 42
-0.4142135623731422
  0
VERTEX
  5
77F
  8
DEFAULT
 10
1418.616234538307
 20
89.07033317903041
 30
0.0
  0
VERTEX
  5
780
  8
DEFAULT
 10
1418.616234538307
 20
104.9801923339617
 30
0.0
 42
-0.4142135623728342
  0
VERTEX
  5
781
  8
DEFAULT
 10
1420.604966932674
 20
106.9689247283258
 30
0.0
  0
VERTEX
  5
782
  8
DEFAULT
 10
1451.43031904535
 20
106.9689247283259
 30
0.0
 42
-0.4142135623730259
  0
VERTEX
  5
783
  8
DEFAULT
 10
1453.419051439716
 20
104.9801923339606
 30
0.0
  0
VERTEX
  5
784
  8
DEFAULT
 10
1453.419051439716
 20
89.07033317903034
 30
0.0
 42
-0.4142135623730641
  0
VERTEX
  5
785
  8
DEFAULT
 10
1451.430319045349
 20
87.08160078466418
 30
0.0
  0
VERTEX
  5
786
  8
DEFAULT
 10
1443.475389467884
 20
87.08160078466409
 30
0.0
  0
VERTEX
  5
787
  8
DEFAULT
 10
1443.475389467885
 20
59.23934726353747
 30
0.0
 42
-0.4142135623730659
  0
VERTEX
  5
788
  8
DEFAULT
 10
1441.486657073518
 20
57.2506148691713
 30
0.0
  0
VERTEX
  5
789
  8
DEFAULT
 10
1430.548628904504
 20
57.25061486917144
 30
0.0
 42
-0.4142135623730998
  0
SEQEND
  5
78A
  8
DEFAULT
  0
POLYLINE
  5
78B
  8
DEFAULT
 66
     1
 10
0.0
 20
0.0
 30
0.0
 70
     1
  0
VERTEX
  5
78C
  8
DEFAULT
 10
1388.507491851501
 20
104.9801923339597
 30
0.0
  0
VERTEX
  5
78D
  8
DEFAULT
 10
1388.507491851501
 20
77.13793881283328
 30
0.0
  0
VERTEX
  5
78E
  8
DEFAULT
 10
1380.552562274036
 20
77.13793881283307
 30
0.0
 42
0.4142135623731403
  0
VERTEX
  5
78F
  8
DEFAULT
 10
1378.56382987967
 20
75.14920641846696
 30
0.0
  0
VERTEX
  5
790
  8
DEFAULT
 10
1378.56382987967
 20
59.23934726353747
 30
0.0
 42
0.4142135623731041
  0
VERTEX
  5
791
  8
DEFAULT
 10
1380.552562274036
 20
57.25061486917109
 30
0.0
  0
VERTEX
  5
792
  8
DEFAULT
 10
1411.377914386712
 20
57.25061486917076
 30
0.0
 42
0.4142135623730063
  0
VERTEX
  5
793
  8
DEFAULT
 10
1413.366646781079
 20
59.23934726353718
 30
0.0
  0
VERTEX
  5
794
  8
DEFAULT
 10
1413.366646781078
 20
75.14920641846703
 30
0.0
 42
0.4142135623731047
  0
VERTEX
  5
795
  8
DEFAULT
 10
1411.377914386712
 20
77.1379388128332
 30
0.0
  0
VERTEX
  5
796
  8
DEFAULT
 10
1403.422984809247
 20
77.13793881283328
 30
0.0
  0
VERTEX
  5
797
  8
DEFAULT
 10
1403.422984809247
 20
104.9801923339599
 30
0.0
 42
0.4142135623730628
  0
VERTEX
  5
798
  8
DEFAULT
 10
1401.434252414881
 20
106.9689247283261
 30
0.0
  0
VERTEX
  5
799
  8
DEFAULT
 10
1390.496224245867
 20
106.9689247283259
 30
0.0
 42
0.4142135623731035
  0
SEQEND
  5
79A
  8
DEFAULT
  0
POLYLINE
  5
79C
  8
BASE
 66
     1
 10
0.0
 20
0.0
 30
0.0
 70
     1
  0
VERTEX
  5
79D
  8
BASE
 10
1217.654932930811
 20
211.7082663553529
 30
0.0
  0
VERTEX
  5
79E
  8
BASE
 10
1217.654932930811
 20
223.64066072155
 30
0.0
  0
VERTEX
  5
79F
  8
BASE
 10
1229.313019380544
 20
223.64066072155
 30
0.0
  0
VERTEX
  5
7A0
  8
BASE
 10
1229.313019380544
 20
220.5581255102821
 30
0.0
  0
VERTEX
  5
7A1
  8
BASE
 10
1240.971105830276
 20
220.5581255102821
 30
0.0
  0
VERTEX
  5
7A2
  8
BASE
 10
1240.971105830276
 20
223.64066072155
 30
0.0
  0
VERTEX
  5
7A3
  8
BASE
 10
1252.629192280009
 20
223.64066072155
 30
0.0
  0
VERTEX
  5
7A4
  8
BASE
 10
1252.629192280009
 20
220.5581255102821
 30
0.0
  0
VERTEX
  5
7A5
  8
BASE
 10
1264.287278729742
 20
220.5581255102821
 30
0.0
  0
VERTEX
  5
7A6
  8
BASE
 10
1264.287278729742
 20
223.64066072155
 30
0.0
  0
VERTEX
  5
7A7
  8
BASE
 10
1275.945365179475
 20
223.64066072155
 30
0.0
  0
VERTEX
  5
7A8
  8
BASE
 10
1275.945365179475
 20
220.5581255102821
 30
0.0
  0
VERTEX
  5
7A9
  8
BASE
 10
1287.603451629208
 20
220.5581255102821
 30
0.0
  0
VERTEX
  5
7AA
  8
BASE
 10
1287.603451629208
 20
223.64066072155
 30
0.0
  0
VERTEX
  5
7AB
  8
BASE
 10
1299.261538078941
 20
223.64066072155
 30
0.0
  0
VERTEX
  5
7AC
  8
BASE
 10
1299.261538078941
 20
220.5581255102821
 30
0.0
  0
VERTEX
  5
7AD
  8
BASE
 10
1310.919624528674
 20
220.5581255102821
 30
0.0
  0
VERTEX
  5
7AE
  8
BASE
 10
1310.919624528674
 20
223.64066072155
 30
0.0
  0
VERTEX
  5
7AF
  8
BASE
 10
1322.577710978406
 20
223.64066072155
 30
0.0
  0
VERTEX
  5
7B0
  8
BASE
 10
1322.577710978406
 20
220.5581255102821
 30
0.0
  0
VERTEX
  5
7B1
  8
BASE
 10
1334.235797428139
 20
220.5581255102821
 30
0.0
  0
VERTEX
  5
7B2
  8
BASE
 10
1334.235797428139
 20
223.64066072155
 30
0.0
  0
VERTEX
  5
7B3
  8
BASE
 10
1345.893883877872
 20
223.64066072155
 30
0.0
  0
VERTEX
  5
7B4
  8
BASE
 10
1345.893883877872
 20
220.5581255102821
 30
0.0
  0
VERTEX
  5
7B5
  8
BASE
 10
1357.551970327605
 20
220.5581255102821
 30
0.0
  0
VERTEX
  5
7B6
  8
BASE
 10
1357.551970327605
 20
223.64066072155
 30
0.0
  0
VERTEX
  5
7B7
  8
BASE
 10
1369.210056777338
 20
223.64066072155
 30
0.0
  0
VERTEX
  5
7B8
  8
BASE
 10
1369.210056777338
 20
220.5581255102821
 30
0.0
  0
VERTEX
  5
7B9
  8
BASE
 10
1380.868143227071
 20
220.5581255102821
 30
0.0
  0
VERTEX
  5
7BA
  8
BASE
 10
1380.868143227071
 20
223.64066072155
 30
0.0
  0
VERTEX
  5
7BB
  8
BASE
 10
1392.526229676804
 20
223.64066072155
 30
0.0
  0
VERTEX
  5
7BC
  8
BASE
 10
1392.526229676804
 20
220.5581255102821
 30
0.0
  0
VERTEX
  5
7BD
  8
BASE
 10
1404.184316126537
 20
220.5581255102821
 30
0.0
  0
VERTEX
  5
7BE
  8
BASE
 10
1404.184316126537
 20
223.64066072155
 30
0.0
  0
VERTEX
  5
7BF
  8
BASE
 10
1415.842402576269
 20
223.64066072155
 30
0.0
  0
VERTEX
  5
7C0
  8
BASE
 10
1415.842402576269
 20
220.5581255102821
 30
0.0
  0
VERTEX
  5
7C1
  8
BASE
 10
1427.500489026002
 20
220.5581255102821
 30
0.0
  0
VERTEX
  5
7C2
  8
BASE
 10
1427.500489026002
 20
223.64066072155
 30
0.0
  0
VERTEX
  5
7C3
  8
BASE
 10
1439.158575475735
 20
223.64066072155
 30
0.0
  0
VERTEX
  5
7C4
  8
BASE
 10
1439.158575475735
 20
220.5581255102821
 30
0.0
  0
VERTEX
  5
7C5
  8
BASE
 10
1450.816661925468
 20
220.5581255102821
 30
0.0
  0
VERTEX
  5
7C6
  8
BASE
 10
1450.816661925468
 20
223.64066072155
 30
0.0
  0
VERTEX
  5
7C7
  8
BASE
 10
1462.474748375201
 20
223.64066072155
 30
0.0
  0
VERTEX
  5
7C8
  8
BASE
 10
1462.474748375201
 20
220.5581255102821
 30
0.0
  0
VERTEX
  5
7C9
  8
BASE
 10
1474.132834824934
 20
220.5581255102821
 30
0.0
  0
VERTEX
  5
7CA
  8
BASE
 10
1474.132834824934
 20
223.64066072155
 30
0.0
  0
VERTEX
  5
7CB
  8
BASE
 10
1485.790921274667
 20
223.64066072155
 30
0.0
  0
VERTEX
  5
7CC
  8
BASE
 10
1485.790921274667
 20
220.5581255102821
 30
0.0
  0
VERTEX
  5
7CD
  8
BASE
 10
1497.4490077244
 20
220.5581255102821
 30
0.0
  0
VERTEX
  5
7CE
  8
BASE
 10
1497.4490077244
 20
223.64066072155
 30
0.0
  0
VERTEX
  5
7CF
  8
BASE
 10
1509.107094174132
 20
223.64066072155
 30
0.0
  0
VERTEX
  5
7D0
  8
BASE
 10
1509.107094174132
 20
220.5581255102821
 30
0.0
  0
VERTEX
  5
7D1
  8
BASE
 10
1520.765180623865
 20
220.5581255102821
 30
0.0
  0
VERTEX
  5
7D2
  8
BASE
 10
1520.765180623865
 20
223.64066072155
 30
0.0
  0
VERTEX
  5
7D3
  8
BASE
 10
1532.423267073598
 20
223.64066072155
 30
0.0
  0
VERTEX
  5
7D4
  8
BASE
 10
1532.423267073598
 20
220.5581255102821
 30
0.0
  0
VERTEX
  5
7D5
  8
BASE
 10
1544.081353523331
 20
220.5581255102821
 30
0.0
  0
VERTEX
  5
7D6
  8
BASE
 10
1544.081353523331
 20
223.64066072155
 30
0.0
  0
VERTEX
  5
7D7
  8
BASE
 10
1555.739439973064
 20
223.64066072155
 30
0.0
  0
VERTEX
  5
7D8
  8
BASE
 10
1555.739439973064
 20
211.7082663553529
 30
0.0
  0
VERTEX
  5
7D9
  8
BASE
 10
1558.821975184332
 20
211.7082663553529
 30
0.0
  0
VERTEX
  5
7DA
  8
BASE
 10
1558.821975184332
 20
199.7758719891559
 30
0.0
  0
VERTEX
  5
7DB
  8
BASE
 10
1555.739439973064
 20
199.7758719891559
 30
0.0
  0
VERTEX
  5
7DC
  8
BASE
 10
1555.739439973064
 20
187.8434776229588
 30
0.0
  0
VERTEX
  5
7DD
  8
BASE
 10
1558.821975184332
 20
187.8434776229588
 30
0.0
  0
VERTEX
  5
7DE
  8
BASE
 10
1558.821975184332
 20
175.9110832567613
 30
0.0
  0
VERTEX
  5
7DF
  8
BASE
 10
1555.739439973064
 20
175.9110832567613
 30
0.0
  0
VERTEX
  5
7E0
  8
BASE
 10
1555.739439973064
 20
153.9355902990147
 30
0.0
 42
-0.4142135623730783
  0
VERTEX
  5
7E1
  8
BASE
 10
1550.767608987149
 20
148.9637593130991
 30
0.0
  0
VERTEX
  5
7E2
  8
BASE
 10
1530.880285043487
 20
148.963759313099
 30
0.0
 42
-0.4142135623730959
  0
VERTEX
  5
7E3
  8
BASE
 10
1525.908454057571
 20
153.9355902990146
 30
0.0
  0
VERTEX
  5
7E4
  8
BASE
 10
1525.908454057571
 20
158.9074212849317
 30
0.0
 42
0.4142135623731209
  0
VERTEX
  5
7E5
  8
BASE
 10
1520.936623071656
 20
163.8792522708472
 30
0.0
  0
VERTEX
  5
7E6
  8
BASE
 10
1252.45774983222
 20
163.8792522708455
 30
0.0
 42
0.4142135623730951
  0
VERTEX
  5
7E7
  8
BASE
 10
1247.485918846304
 20
158.9074212849301
 30
0.0
  0
VERTEX
  5
7E8
  8
BASE
 10
1247.485918846304
 20
153.9355902990147
 30
0.0
 42
-0.4142135623730783
  0
VERTEX
  5
7E9
  8
BASE
 10
1242.514087860389
 20
148.9637593130991
 30
0.0
  0
VERTEX
  5
7EA
  8
BASE
 10
1222.626763916727
 20
148.9637593130993
 30
0.0
 42
-0.4142135623730726
  0
VERTEX
  5
7EB
  8
BASE
 10
1217.654932930811
 20
153.9355902990147
 30
0.0
  0
VERTEX
  5
7EC
  8
BASE
 10
1217.654932930811
 20
175.9110832567613
 30
0.0
  0
VERTEX
  5
7ED
  8
BASE
 10
1214.572397719543
 20
175.9110832567613
 30
0.0
  0
VERTEX
  5
7EE
  8
BASE
 10
1214.572397719543
 20
187.8434776229588
 30
0.0
  0
VERTEX
  5
7EF
  8
BASE
 10
1217.654932930811
 20
187.8434776229588
 30
0.0
  0
VERTEX
  5
7F0
  8
BASE
 10
1217.654932930811
 20
199.7758719891559
 30
0.0
  0
VERTEX
  5
7F1
  8
BASE
 10
1214.572397719543
 20
199.7758719891559
 30
0.0
  0
VERTEX
  5
7F2
  8
BASE
 10
1214.572397719543
 20
211.7082663553529
 30
0.0
  0
SEQEND
  5
7F3
  8
BASE
  0
POLYLINE
  5
7F4
  8
BASE
 66
     1
 10
0.0
 20
0.0
 30
0.0
 70
     1
  0
VERTEX
  5
7F5
  8
BASE
 10
1439.052959865798
 20
319.6634619296065
 30
0.0
 42
1.000000000010937
  0
VERTEX
  5
7F6
  8
BASE
 10
1429.052959865798
 20
319.6634619294969
 30
0.0
  0
VERTEX
  5
7F7
  8
BASE
 10
1429.052959865797
 20
313.7330550877478
 30
0.0
 42
-0.4142135623719488
  0
VERTEX
  5
7F8
  8
BASE
 10
1428.5529598658
 20
313.2330550877478
 30
0.0
  0
VERTEX
  5
7F9
  8
BASE
 10
1247.424199565099
 20
313.2330550877479
 30
0.0
 42
0.4142135623730951
  0
VERTEX
  5
7FA
  8
BASE
 10
1242.452368579183
 20
308.2612241018325
 30
0.0
  0
VERTEX
  5
7FB
  8
BASE
 10
1242.452368579184
 20
303.2893931159165
 30
0.0
 42
-0.4142135623731023
  0
VERTEX
  5
7FC
  8
BASE
 10
1237.480537593268
 20
298.317562130001
 30
0.0
  0
VERTEX
  5
7FD
  8
BASE
 10
1217.593213649606
 20
298.317562130001
 30
0.0
 42
-0.41421356237308
  0
VERTEX
  5
7FE
  8
BASE
 10
1212.621382663691
 20
303.2893931159167
 30
0.0
  0
VERTEX
  5
7FF
  8
BASE
 10
1212.62138266369
 20
372.9944635384523
 30
0.0
  0
VERTEX
  5
800
  8
BASE
 10
1231.339469113424
 20
372.9944635384523
 30
0.0
  0
VERTEX
  5
801
  8
BASE
 10
1231.339469113424
 20
369.9119283271844
 30
0.0
  0
VERTEX
  5
802
  8
BASE
 10
1242.997555563156
 20
369.9119283271844
 30
0.0
  0
VERTEX
  5
803
  8
BASE
 10
1242.997555563156
 20
372.9944635384523
 30
0.0
  0
VERTEX
  5
804
  8
BASE
 10
1254.655642012889
 20
372.9944635384523
 30
0.0
  0
VERTEX
  5
805
  8
BASE
 10
1254.655642012889
 20
369.9119283271844
 30
0.0
  0
VERTEX
  5
806
  8
BASE
 10
1266.313728462622
 20
369.9119283271844
 30
0.0
  0
VERTEX
  5
807
  8
BASE
 10
1266.313728462622
 20
372.9944635384523
 30
0.0
  0
VERTEX
  5
808
  8
BASE
 10
1277.971814912355
 20
372.9944635384523
 30
0.0
  0
VERTEX
  5
809
  8
BASE
 10
1277.971814912355
 20
369.9119283271844
 30
0.0
  0
VERTEX
  5
80A
  8
BASE
 10
1289.629901362088
 20
369.9119283271844
 30
0.0
  0
VERTEX
  5
80B
  8
BASE
 10
1289.629901362088
 20
372.9944635384523
 30
0.0
  0
VERTEX
  5
80C
  8
BASE
 10
1301.287987811821
 20
372.9944635384523
 30
0.0
  0
VERTEX
  5
80D
  8
BASE
 10
1301.287987811821
 20
369.9119283271844
 30
0.0
  0
VERTEX
  5
80E
  8
BASE
 10
1312.946074261554
 20
369.9119283271844
 30
0.0
  0
VERTEX
  5
80F
  8
BASE
 10
1312.946074261554
 20
372.9944635384523
 30
0.0
  0
VERTEX
  5
810
  8
BASE
 10
1324.604160711287
 20
372.9944635384523
 30
0.0
  0
VERTEX
  5
811
  8
BASE
 10
1324.604160711287
 20
369.9119283271844
 30
0.0
  0
VERTEX
  5
812
  8
BASE
 10
1336.262247161019
 20
369.9119283271844
 30
0.0
  0
VERTEX
  5
813
  8
BASE
 10
1336.262247161019
 20
372.9944635384523
 30
0.0
  0
VERTEX
  5
814
  8
BASE
 10
1347.920333610752
 20
372.9944635384523
 30
0.0
  0
VERTEX
  5
815
  8
BASE
 10
1347.920333610752
 20
369.9119283271844
 30
0.0
  0
VERTEX
  5
816
  8
BASE
 10
1359.578420060485
 20
369.9119283271844
 30
0.0
  0
VERTEX
  5
817
  8
BASE
 10
1359.578420060485
 20
372.9944635384523
 30
0.0
  0
VERTEX
  5
818
  8
BASE
 10
1371.236506510218
 20
372.9944635384523
 30
0.0
  0
VERTEX
  5
819
  8
BASE
 10
1371.236506510218
 20
369.9119283271844
 30
0.0
  0
VERTEX
  5
81A
  8
BASE
 10
1382.894592959951
 20
369.9119283271844
 30
0.0
  0
VERTEX
  5
81B
  8
BASE
 10
1382.894592959951
 20
372.9944635384523
 30
0.0
  0
VERTEX
  5
81C
  8
BASE
 10
1394.552679409684
 20
372.9944635384523
 30
0.0
  0
VERTEX
  5
81D
  8
BASE
 10
1394.552679409684
 20
369.9119283271844
 30
0.0
  0
VERTEX
  5
81E
  8
BASE
 10
1406.210765859416
 20
369.9119283271844
 30
0.0
  0
VERTEX
  5
81F
  8
BASE
 10
1406.210765859416
 20
372.9944635384523
 30
0.0
  0
VERTEX
  5
820
  8
BASE
 10
1417.868852309149
 20
372.9944635384523
 30
0.0
  0
VERTEX
  5
821
  8
BASE
 10
1417.868852309149
 20
369.9119283271844
 30
0.0
  0
VERTEX
  5
822
  8
BASE
 10
1429.526938758882
 20
369.9119283271844
 30
0.0
  0
VERTEX
  5
823
  8
BASE
 10
1429.526938758882
 20
372.9944635384523
 30
0.0
  0
VERTEX
  5
824
  8
BASE
 10
1441.185025208615
 20
372.9944635384523
 30
0.0
  0
VERTEX
  5
825
  8
BASE
 10
1441.185025208615
 20
369.9119283271844
 30
0.0
  0
VERTEX
  5
826
  8
BASE
 10
1452.843111658348
 20
369.9119283271844
 30
0.0
  0
VERTEX
  5
827
  8
BASE
 10
1452.843111658348
 20
372.9944635384523
 30
0.0
  0
VERTEX
  5
828
  8
BASE
 10
1464.501198108081
 20
372.9944635384523
 30
0.0
  0
VERTEX
  5
829
  8
BASE
 10
1464.501198108081
 20
369.9119283271844
 30
0.0
  0
VERTEX
  5
82A
  8
BASE
 10
1476.159284557814
 20
369.9119283271844
 30
0.0
  0
VERTEX
  5
82B
  8
BASE
 10
1476.159284557814
 20
372.9944635384523
 30
0.0
  0
VERTEX
  5
82C
  8
BASE
 10
1487.817371007547
 20
372.9944635384523
 30
0.0
  0
VERTEX
  5
82D
  8
BASE
 10
1487.817371007547
 20
369.9119283271844
 30
0.0
  0
VERTEX
  5
82E
  8
BASE
 10
1499.475457457279
 20
369.9119283271844
 30
0.0
  0
VERTEX
  5
82F
  8
BASE
 10
1499.475457457279
 20
372.9944635384523
 30
0.0
  0
VERTEX
  5
830
  8
BASE
 10
1511.133543907012
 20
372.9944635384523
 30
0.0
  0
VERTEX
  5
831
  8
BASE
 10
1511.133543907012
 20
369.9119283271844
 30
0.0
  0
VERTEX
  5
832
  8
BASE
 10
1522.791630356745
 20
369.9119283271844
 30
0.0
  0
VERTEX
  5
833
  8
BASE
 10
1522.791630356745
 20
372.9944635384523
 30
0.0
  0
VERTEX
  5
834
  8
BASE
 10
1534.449716806478
 20
372.9944635384523
 30
0.0
  0
VERTEX
  5
835
  8
BASE
 10
1534.449716806478
 20
369.9119283271844
 30
0.0
  0
VERTEX
  5
836
  8
BASE
 10
1546.107803256211
 20
369.9119283271844
 30
0.0
  0
VERTEX
  5
837
  8
BASE
 10
1546.107803256211
 20
372.9944635384523
 30
0.0
  0
VERTEX
  5
838
  8
BASE
 10
1564.825889705944
 20
372.9944635384523
 30
0.0
  0
VERTEX
  5
839
  8
BASE
 10
1564.825889705944
 20
303.2893931159165
 30
0.0
 42
-0.4142135623730739
  0
VERTEX
  5
83A
  8
BASE
 10
1559.854058720028
 20
298.3175621300009
 30
0.0
  0
VERTEX
  5
83B
  8
BASE
 10
1539.966734776367
 20
298.3175621300011
 30
0.0
 42
-0.4142135623731234
  0
VERTEX
  5
83C
  8
BASE
 10
1534.994903790451
 20
303.2893931159165
 30
0.0
  0
VERTEX
  5
83D
  8
BASE
 10
1534.994903790451
 20
308.2612241018324
 30
0.0
 42
0.4142135623731181
  0
VERTEX
  5
83E
  8
BASE
 10
1530.023072804536
 20
313.233055087748
 30
0.0
  0
VERTEX
  5
83F
  8
BASE
 10
1497.159269987634
 20
313.2330550877478
 30
0.0
  0
VERTEX
  5
840
  8
BASE
 10
1497.159269987634
 20
305.2781255102828
 30
0.0
 42
-0.414213562373033
  0
VERTEX
  5
841
  8
BASE
 10
1495.170537593268
 20
303.2893931159167
 30
0.0
  0
VERTEX
  5
842
  8
BASE
 10
1449.429692522845
 20
303.2893931159166
 30
0.0
 42
-0.4142135623730912
  0
VERTEX
  5
843
  8
BASE
 10
1447.440960128479
 20
305.2781255102829
 30
0.0
  0
VERTEX
  5
844
  8
BASE
 10
1447.440960128479
 20
313.2330550877478
 30
0.0
  0
VERTEX
  5
845
  8
BASE
 10
1439.552959865796
 20
313.2330550877483
 30
0.0
 42
-0.4142135623720551
  0
VERTEX
  5
846
  8
BASE
 10
1439.052959865798
 20
313.7330550877483
 30
0.0
  0
SEQEND
  5
847
  8
BASE
  0
POLYLINE
  5
848
  8
DEFAULT
 66
     1
 10
0.0
 20
0.0
 30
0.0
 70
     1
  0
VERTEX
  5
849
  8
DEFAULT
 10
1479.75786153693
 20
309.7527733976067
 30
0.0
  0
VERTEX
  5
84A
  8
DEFAULT
 10
1464.842368579184
 20
309.7527733976067
 30
0.0
  0
VERTEX
  5
84B
  8
DEFAULT
 10
1464.842368579184
 20
306.4713649469032
 30
0.0
  0
VERTEX
  5
84C
  8
DEFAULT
 10
1479.75786153693
 20
306.4713649469032
 30
0.0
  0
SEQEND
  5
84D
  8
DEFAULT
  0
POLYLINE
  5
84E
  8
DEFAULT
 66
     1
 10
0.0
 20
0.0
 30
0.0
 70
     1
  0
VERTEX
  5
84F
  8
DEFAULT
 10
1216.598847452423
 20
361.0620691722552
 30
0.0
  0
VERTEX
  5
850
  8
DEFAULT
 10
1219.681382663691
 20
361.0620691722552
 30
0.0
  0
VERTEX
  5
851
  8
DEFAULT
 10
1219.681382663691
 20
349.1296748060577
 30
0.0
  0
VERTEX
  5
852
  8
DEFAULT
 10
1216.598847452423
 20
349.1296748060577
 30
0.0
  0
SEQEND
  5
853
  8
DEFAULT
  0
POLYLINE
  5
854
  8
DEFAULT
 66
     1
 10
0.0
 20
0.0
 30
0.0
 70
     1
  0
VERTEX
  5
855
  8
DEFAULT
 10
1216.598847452423
 20
337.1972804398607
 30
0.0
  0
VERTEX
  5
856
  8
DEFAULT
 10
1219.681382663691
 20
337.1972804398607
 30
0.0
  0
VERTEX
  5
857
  8
DEFAULT
 10
1219.681382663691
 20
325.2648860736636
 30
0.0
  0
VERTEX
  5
858
  8
DEFAULT
 10
1216.598847452423
 20
325.2648860736636
 30
0.0
  0
SEQEND
  5
859
  8
DEFAULT
  0
POLYLINE
  5
85A
  8
DEFAULT
 66
     1
 10
0.0
 20
0.0
 30
0.0
 70
     1
  0
VERTEX
  5
85B
  8
DEFAULT
 10
1560.848424917212
 20
337.1972804398607
 30
0.0
  0
VERTEX
  5
85C
  8
DEFAULT
 10
1557.765889705944
 20
337.1972804398607
 30
0.0
  0
VERTEX
  5
85D
  8
DEFAULT
 10
1557.765889705944
 20
325.2648860736636
 30
0.0
  0
VERTEX
  5
85E
  8
DEFAULT
 10
1560.848424917212
 20
325.2648860736636
 30
0.0
  0
SEQEND
  5
85F
  8
DEFAULT
  0
POLYLINE
  5
860
  8
DEFAULT
 66
     1
 10
0.0
 20
0.0
 30
0.0
 70
     1
  0
VERTEX
  5
861
  8
DEFAULT
 10
1560.848424917212
 20
361.0620691722552
 30
0.0
  0
VERTEX
  5
862
  8
DEFAULT
 10
1557.765889705944
 20
361.0620691722552
 30
0.0
  0
VERTEX
  5
863
  8
DEFAULT
 10
1557.765889705944
 20
349.1296748060577
 30
0.0
  0
VERTEX
  5
864
  8
DEFAULT
 10
1560.848424917212
 20
349.1296748060577
 30
0.0
  0
SEQEND
  5
865
  8
DEFAULT
  0
POLYLINE
  5
866
  8
BASE
 66
     1
 10
0.0
 20
0.0
 30
0.0
 70
     1
  0
VERTEX
  5
867
  8
BASE
 10
1217.593213649606
 20
372.9944635384523
 30
0.0
 42
-0.4142135623731021
  0
VERTEX
  5
868
  8
BASE
 10
1212.621382663691
 20
377.9662945243678
 30
0.0
  0
VERTEX
  5
869
  8
BASE
 10
1212.62138266369
 20
447.671364946903
 30
0.0
  0
VERTEX
  5
86A
  8
BASE
 10
1231.339469113424
 20
447.671364946903
 30
0.0
  0
VERTEX
  5
86B
  8
BASE
 10
1231.339469113424
 20
444.5888297356351
 30
0.0
  0
VERTEX
  5
86C
  8
BASE
 10
1242.997555563156
 20
444.5888297356351
 30
0.0
  0
VERTEX
  5
86D
  8
BASE
 10
1242.997555563156
 20
447.671364946903
 30
0.0
  0
VERTEX
  5
86E
  8
BASE
 10
1254.655642012889
 20
447.671364946903
 30
0.0
  0
VERTEX
  5
86F
  8
BASE
 10
1254.655642012889
 20
444.5888297356351
 30
0.0
  0
VERTEX
  5
870
  8
BASE
 10
1266.313728462622
 20
444.5888297356351
 30
0.0
  0
VERTEX
  5
871
  8
BASE
 10
1266.313728462622
 20
447.671364946903
 30
0.0
  0
VERTEX
  5
872
  8
BASE
 10
1277.971814912355
 20
447.671364946903
 30
0.0
  0
VERTEX
  5
873
  8
BASE
 10
1277.971814912355
 20
444.5888297356351
 30
0.0
  0
VERTEX
  5
874
  8
BASE
 10
1289.629901362088
 20
444.5888297356351
 30
0.0
  0
VERTEX
  5
875
  8
BASE
 10
1289.629901362088
 20
447.671364946903
 30
0.0
  0
VERTEX
  5
876
  8
BASE
 10
1301.287987811821
 20
447.671364946903
 30
0.0
  0
VERTEX
  5
877
  8
BASE
 10
1301.287987811821
 20
444.5888297356351
 30
0.0
  0
VERTEX
  5
878
  8
BASE
 10
1312.946074261554
 20
444.5888297356351
 30
0.0
  0
VERTEX
  5
879
  8
BASE
 10
1312.946074261554
 20
447.671364946903
 30
0.0
  0
VERTEX
  5
87A
  8
BASE
 10
1324.604160711287
 20
447.671364946903
 30
0.0
  0
VERTEX
  5
87B
  8
BASE
 10
1324.604160711287
 20
444.5888297356351
 30
0.0
  0
VERTEX
  5
87C
  8
BASE
 10
1336.262247161019
 20
444.5888297356351
 30
0.0
  0
VERTEX
  5
87D
  8
BASE
 10
1336.262247161019
 20
447.671364946903
 30
0.0
  0
VERTEX
  5
87E
  8
BASE
 10
1347.920333610752
 20
447.671364946903
 30
0.0
  0
VERTEX
  5
87F
  8
BASE
 10
1347.920333610752
 20
444.5888297356351
 30
0.0
  0
VERTEX
  5
880
  8
BASE
 10
1359.578420060485
 20
444.5888297356351
 30
0.0
  0
VERTEX
  5
881
  8
BASE
 10
1359.578420060485
 20
447.671364946903
 30
0.0
  0
VERTEX
  5
882
  8
BASE
 10
1371.236506510218
 20
447.671364946903
 30
0.0
  0
VERTEX
  5
883
  8
BASE
 10
1371.236506510218
 20
444.5888297356351
 30
0.0
  0
VERTEX
  5
884
  8
BASE
 10
1382.894592959951
 20
444.5888297356351
 30
0.0
  0
VERTEX
  5
885
  8
BASE
 10
1382.894592959951
 20
447.671364946903
 30
0.0
  0
VERTEX
  5
886
  8
BASE
 10
1394.552679409684
 20
447.671364946903
 30
0.0
  0
VERTEX
  5
887
  8
BASE
 10
1394.552679409684
 20
444.5888297356351
 30
0.0
  0
VERTEX
  5
888
  8
BASE
 10
1406.210765859416
 20
444.5888297356351
 30
0.0
  0
VERTEX
  5
889
  8
BASE
 10
1406.210765859416
 20
447.671364946903
 30
0.0
  0
VERTEX
  5
88A
  8
BASE
 10
1417.868852309149
 20
447.671364946903
 30
0.0
  0
VERTEX
  5
88B
  8
BASE
 10
1417.868852309149
 20
444.5888297356351
 30
0.0
  0
VERTEX
  5
88C
  8
BASE
 10
1429.526938758882
 20
444.5888297356351
 30
0.0
  0
VERTEX
  5
88D
  8
BASE
 10
1429.526938758882
 20
447.671364946903
 30
0.0
  0
VERTEX
  5
88E
  8
BASE
 10
1441.185025208615
 20
447.671364946903
 30
0.0
  0
VERTEX
  5
88F
  8
BASE
 10
1441.185025208615
 20
444.5888297356351
 30
0.0
  0
VERTEX
  5
890
  8
BASE
 10
1452.843111658348
 20
444.5888297356351
 30
0.0
  0
VERTEX
  5
891
  8
BASE
 10
1452.843111658348
 20
447.671364946903
 30
0.0
  0
VERTEX
  5
892
  8
BASE
 10
1464.501198108081
 20
447.671364946903
 30
0.0
  0
VERTEX
  5
893
  8
BASE
 10
1464.501198108081
 20
444.5888297356351
 30
0.0
  0
VERTEX
  5
894
  8
BASE
 10
1476.159284557814
 20
444.5888297356351
 30
0.0
  0
VERTEX
  5
895
  8
BASE
 10
1476.159284557814
 20
447.671364946903
 30
0.0
  0
VERTEX
  5
896
  8
BASE
 10
1487.817371007547
 20
447.671364946903
 30
0.0
  0
VERTEX
  5
897
  8
BASE
 10
1487.817371007547
 20
444.5888297356351
 30
0.0
  0
VERTEX
  5
898
  8
BASE
 10
1499.475457457279
 20
444.5888297356351
 30
0.0
  0
VERTEX
  5
899
  8
BASE
 10
1499.475457457279
 20
447.671364946903
 30
0.0
  0
VERTEX
  5
89A
  8
BASE
 10
1511.133543907012
 20
447.671364946903
 30
0.0
  0
VERTEX
  5
89B
  8
BASE
 10
1511.133543907012
 20
444.5888297356351
 30
0.0
  0
VERTEX
  5
89C
  8
BASE
 10
1522.791630356745
 20
444.5888297356351
 30
0.0
  0
VERTEX
  5
89D
  8
BASE
 10
1522.791630356745
 20
447.671364946903
 30
0.0
  0
VERTEX
  5
89E
  8
BASE
 10
1534.449716806478
 20
447.671364946903
 30
0.0
  0
VERTEX
  5
89F
  8
BASE
 10
1534.449716806478
 20
444.5888297356351
 30
0.0
  0
VERTEX
  5
8A0
  8
BASE
 10
1546.107803256211
 20
444.5888297356351
 30
0.0
  0
VERTEX
  5
8A1
  8
BASE
 10
1546.107803256211
 20
447.671364946903
 30
0.0
  0
VERTEX
  5
8A2
  8
BASE
 10
1564.825889705944
 20
447.671364946903
 30
0.0
  0
VERTEX
  5
8A3
  8
BASE
 10
1564.825889705944
 20
377.9662945243677
 30
0.0
 42
-0.4142135623730837
  0
VERTEX
  5
8A4
  8
BASE
 10
1559.854058720028
 20
372.9944635384522
 30
0.0
  0
VERTEX
  5
8A5
  8
BASE
 10
1539.966734776366
 20
372.9944635384522
 30
0.0
 42
-0.41421356237308
  0
VERTEX
  5
8A6
  8
BASE
 10
1534.994903790451
 20
377.9662945243678
 30
0.0
  0
VERTEX
  5
8A7
  8
BASE
 10
1534.994903790451
 20
382.9381255102831
 30
0.0
 42
0.4142135623730837
  0
VERTEX
  5
8A8
  8
BASE
 10
1530.023072804535
 20
387.9099564961986
 30
0.0
  0
VERTEX
  5
8A9
  8
BASE
 10
1497.159269987634
 20
387.909956496199
 30
0.0
  0
VERTEX
  5
8AA
  8
BASE
 10
1497.159269987634
 20
379.9550269187339
 30
0.0
 42
-0.4142135623730713
  0
VERTEX
  5
8AB
  8
BASE
 10
1495.170537593268
 20
377.9662945243677
 30
0.0
  0
VERTEX
  5
8AC
  8
BASE
 10
1449.429692522845
 20
377.9662945243677
 30
0.0
 42
-0.4142135623730872
  0
VERTEX
  5
8AD
  8
BASE
 10
1447.440960128479
 20
379.9550269187338
 30
0.0
  0
VERTEX
  5
8AE
  8
BASE
 10
1447.440960128479
 20
387.909956496199
 30
0.0
  0
VERTEX
  5
8AF
  8
BASE
 10
1247.424199565099
 20
387.9099564961986
 30
0.0
 42
0.4142135623730848
  0
VERTEX
  5
8B0
  8
BASE
 10
1242.452368579183
 20
382.9381255102829
 30
0.0
  0
VERTEX
  5
8B1
  8
BASE
 10
1242.452368579183
 20
377.9662945243677
 30
0.0
 42
-0.4142135623730837
  0
VERTEX
  5
8B2
  8
BASE
 10
1237.480537593268
 20
372.9944635384522
 30
0.0
  0
SEQEND
  5
8B3
  8
BASE
  0
POLYLINE
  5
8B4
  8
DEFAULT
 66
     1
 10
0.0
 20
0.0
 30
0.0
 70
     1
  0
VERTEX
  5
8B5
  8
DEFAULT
 10
1560.848424917212
 20
435.7389705807059
 30
0.0
  0
VERTEX
  5
8B6
  8
DEFAULT
 10
1557.765889705944
 20
435.7389705807059
 30
0.0
  0
VERTEX
  5
8B7
  8
DEFAULT
 10
1557.765889705944
 20
423.8065762145089
 30
0.0
  0
VERTEX
  5
8B8
  8
DEFAULT
 10
1560.848424917212
 20
423.8065762145089
 30
0.0
  0
SEQEND
  5
8B9
  8
DEFAULT
  0
POLYLINE
  5
8BA
  8
DEFAULT
 66
     1
 10
0.0
 20
0.0
 30
0.0
 70
     1
  0
VERTEX
  5
8BB
  8
DEFAULT
 10
1560.848424917212
 20
411.8741818483118
 30
0.0
  0
VERTEX
  5
8BC
  8
DEFAULT
 10
1557.765889705944
 20
411.8741818483118
 30
0.0
  0
VERTEX
  5
8BD
  8
DEFAULT
 10
1557.765889705944
 20
399.9417874821148
 30
0.0
  0
VERTEX
  5
8BE
  8
DEFAULT
 10
1560.848424917212
 20
399.9417874821148
 30
0.0
  0
SEQEND
  5
8BF
  8
DEFAULT
  0
POLYLINE
  5
8C0
  8
DEFAULT
 66
     1
 10
0.0
 20
0.0
 30
0.0
 70
     1
  0
VERTEX
  5
8C1
  8
DEFAULT
 10
1216.598847452423
 20
411.8741818483118
 30
0.0
  0
VERTEX
  5
8C2
  8
DEFAULT
 10
1219.681382663691
 20
411.8741818483118
 30
0.0
  0
VERTEX
  5
8C3
  8
DEFAULT
 10
1219.681382663691
 20
399.9417874821148
 30
0.0
  0
VERTEX
  5
8C4
  8
DEFAULT
 10
1216.598847452423
 20
399.9417874821148
 30
0.0
  0
SEQEND
  5
8C5
  8
DEFAULT
  0
POLYLINE
  5
8C6
  8
DEFAULT
 66
     1
 10
0.0
 20
0.0
 30
0.0
 70
     1
  0
VERTEX
  5
8C7
  8
DEFAULT
 10
1216.598847452423
 20
435.7389705807059
 30
0.0
  0
VERTEX
  5
8C8
  8
DEFAULT
 10
1219.681382663691
 20
435.7389705807059
 30
0.0
  0
VERTEX
  5
8C9
  8
DEFAULT
 10
1219.681382663691
 20
423.8065762145089
 30
0.0
  0
VERTEX
  5
8CA
  8
DEFAULT
 10
1216.598847452423
 20
423.8065762145089
 30
0.0
  0
SEQEND
  5
8CB
  8
DEFAULT
  0
POLYLINE
  5
8CC
  8
DEFAULT
 66
     1
 10
0.0
 20
0.0
 30
0.0
 70
     1
  0
VERTEX
  5
8CD
  8
DEFAULT
 10
1479.75786153693
 20
384.4296748060579
 30
0.0
  0
VERTEX
  5
8CE
  8
DEFAULT
 10
1464.842368579184
 20
384.4296748060579
 30
0.0
  0
VERTEX
  5
8CF
  8
DEFAULT
 10
1464.842368579184
 20
381.1482663553525
 30
0.0
  0
VERTEX
  5
8D0
  8
DEFAULT
 10
1479.75786153693
 20
381.1482663553525
 30
0.0
  0
SEQEND
  5
8D1
  8
DEFAULT
  0
POLYLINE
  5
8D2
  8
BASE
 66
     1
 10
0.0
 20
0.0
 30
0.0
 70
     1
  0
VERTEX
  5
8D3
  8
BASE
 10
1217.654932930811
 20
286.3851677638041
 30
0.0
  0
VERTEX
  5
8D4
  8
BASE
 10
1217.654932930811
 20
298.3175621300011
 30
0.0
  0
VERTEX
  5
8D5
  8
BASE
 10
1229.313019380544
 20
298.3175621300011
 30
0.0
  0
VERTEX
  5
8D6
  8
BASE
 10
1229.313019380544
 20
295.2350269187332
 30
0.0
  0
VERTEX
  5
8D7
  8
BASE
 10
1240.971105830276
 20
295.2350269187332
 30
0.0
  0
VERTEX
  5
8D8
  8
BASE
 10
1240.971105830276
 20
298.3175621300011
 30
0.0
  0
VERTEX
  5
8D9
  8
BASE
 10
1252.629192280009
 20
298.3175621300011
 30
0.0
  0
VERTEX
  5
8DA
  8
BASE
 10
1252.629192280009
 20
295.2350269187332
 30
0.0
  0
VERTEX
  5
8DB
  8
BASE
 10
1264.287278729742
 20
295.2350269187332
 30
0.0
  0
VERTEX
  5
8DC
  8
BASE
 10
1264.287278729742
 20
298.3175621300011
 30
0.0
  0
VERTEX
  5
8DD
  8
BASE
 10
1275.945365179475
 20
298.3175621300011
 30
0.0
  0
VERTEX
  5
8DE
  8
BASE
 10
1275.945365179475
 20
295.2350269187332
 30
0.0
  0
VERTEX
  5
8DF
  8
BASE
 10
1287.603451629208
 20
295.2350269187332
 30
0.0
  0
VERTEX
  5
8E0
  8
BASE
 10
1287.603451629208
 20
298.3175621300011
 30
0.0
  0
VERTEX
  5
8E1
  8
BASE
 10
1299.261538078941
 20
298.3175621300011
 30
0.0
  0
VERTEX
  5
8E2
  8
BASE
 10
1299.261538078941
 20
295.2350269187332
 30
0.0
  0
VERTEX
  5
8E3
  8
BASE
 10
1310.919624528674
 20
295.2350269187332
 30
0.0
  0
VERTEX
  5
8E4
  8
BASE
 10
1310.919624528674
 20
298.3175621300011
 30
0.0
  0
VERTEX
  5
8E5
  8
BASE
 10
1322.577710978406
 20
298.3175621300011
 30
0.0
  0
VERTEX
  5
8E6
  8
BASE
 10
1322.577710978406
 20
295.2350269187332
 30
0.0
  0
VERTEX
  5
8E7
  8
BASE
 10
1334.235797428139
 20
295.2350269187332
 30
0.0
  0
VERTEX
  5
8E8
  8
BASE
 10
1334.235797428139
 20
298.3175621300011
 30
0.0
  0
VERTEX
  5
8E9
  8
BASE
 10
1345.893883877872
 20
298.3175621300011
 30
0.0
  0
VERTEX
  5
8EA
  8
BASE
 10
1345.893883877872
 20
295.2350269187332
 30
0.0
  0
VERTEX
  5
8EB
  8
BASE
 10
1357.551970327605
 20
295.2350269187332
 30
0.0
  0
VERTEX
  5
8EC
  8
BASE
 10
1357.551970327605
 20
298.3175621300011
 30
0.0
  0
VERTEX
  5
8ED
  8
BASE
 10
1369.210056777338
 20
298.3175621300011
 30
0.0
  0
VERTEX
  5
8EE
  8
BASE
 10
1369.210056777338
 20
295.2350269187332
 30
0.0
  0
VERTEX
  5
8EF
  8
BASE
 10
1380.868143227071
 20
295.2350269187332
 30
0.0
  0
VERTEX
  5
8F0
  8
BASE
 10
1380.868143227071
 20
298.3175621300011
 30
0.0
  0
VERTEX
  5
8F1
  8
BASE
 10
1392.526229676804
 20
298.3175621300011
 30
0.0
  0
VERTEX
  5
8F2
  8
BASE
 10
1392.526229676804
 20
295.2350269187332
 30
0.0
  0
VERTEX
  5
8F3
  8
BASE
 10
1404.184316126537
 20
295.2350269187332
 30
0.0
  0
VERTEX
  5
8F4
  8
BASE
 10
1404.184316126537
 20
298.3175621300011
 30
0.0
  0
VERTEX
  5
8F5
  8
BASE
 10
1415.842402576269
 20
298.3175621300011
 30
0.0
  0
VERTEX
  5
8F6
  8
BASE
 10
1415.842402576269
 20
295.2350269187332
 30
0.0
  0
VERTEX
  5
8F7
  8
BASE
 10
1427.500489026002
 20
295.2350269187332
 30
0.0
  0
VERTEX
  5
8F8
  8
BASE
 10
1427.500489026002
 20
298.3175621300011
 30
0.0
  0
VERTEX
  5
8F9
  8
BASE
 10
1439.158575475735
 20
298.3175621300011
 30
0.0
  0
VERTEX
  5
8FA
  8
BASE
 10
1439.158575475735
 20
295.2350269187332
 30
0.0
  0
VERTEX
  5
8FB
  8
BASE
 10
1450.816661925468
 20
295.2350269187332
 30
0.0
  0
VERTEX
  5
8FC
  8
BASE
 10
1450.816661925468
 20
298.3175621300011
 30
0.0
  0
VERTEX
  5
8FD
  8
BASE
 10
1462.474748375201
 20
298.3175621300011
 30
0.0
  0
VERTEX
  5
8FE
  8
BASE
 10
1462.474748375201
 20
295.2350269187332
 30
0.0
  0
VERTEX
  5
8FF
  8
BASE
 10
1474.132834824934
 20
295.2350269187332
 30
0.0
  0
VERTEX
  5
900
  8
BASE
 10
1474.132834824934
 20
298.3175621300011
 30
0.0
  0
VERTEX
  5
901
  8
BASE
 10
1485.790921274667
 20
298.3175621300011
 30
0.0
  0
VERTEX
  5
902
  8
BASE
 10
1485.790921274667
 20
295.2350269187332
 30
0.0
  0
VERTEX
  5
903
  8
BASE
 10
1497.4490077244
 20
295.2350269187332
 30
0.0
  0
VERTEX
  5
904
  8
BASE
 10
1497.4490077244
 20
298.3175621300011
 30
0.0
  0
VERTEX
  5
905
  8
BASE
 10
1509.107094174132
 20
298.3175621300011
 30
0.0
  0
VERTEX
  5
906
  8
BASE
 10
1509.107094174132
 20
295.2350269187332
 30
0.0
  0
VERTEX
  5
907
  8
BASE
 10
1520.765180623865
 20
295.2350269187332
 30
0.0
  0
VERTEX
  5
908
  8
BASE
 10
1520.765180623865
 20
298.3175621300011
 30
0.0
  0
VERTEX
  5
909
  8
BASE
 10
1532.423267073598
 20
298.3175621300011
 30
0.0
  0
VERTEX
  5
90A
  8
BASE
 10
1532.423267073598
 20
295.2350269187332
 30
0.0
  0
VERTEX
  5
90B
  8
BASE
 10
1544.081353523331
 20
295.2350269187332
 30
0.0
  0
VERTEX
  5
90C
  8
BASE
 10
1544.081353523331
 20
298.3175621300011
 30
0.0
  0
VERTEX
  5
90D
  8
BASE
 10
1555.739439973064
 20
298.3175621300011
 30
0.0
  0
VERTEX
  5
90E
  8
BASE
 10
1555.739439973064
 20
286.3851677638041
 30
0.0
  0
VERTEX
  5
90F
  8
BASE
 10
1558.821975184332
 20
286.3851677638041
 30
0.0
  0
VERTEX
  5
910
  8
BASE
 10
1558.821975184332
 20
274.452773397607
 30
0.0
  0
VERTEX
  5
911
  8
BASE
 10
1555.739439973064
 20
274.452773397607
 30
0.0
  0
VERTEX
  5
912
  8
BASE
 10
1555.739439973064
 20
262.5203790314095
 30
0.0
  0
VERTEX
  5
913
  8
BASE
 10
1558.821975184332
 20
262.5203790314095
 30
0.0
  0
VERTEX
  5
914
  8
BASE
 10
1558.821975184332
 20
250.5879846652124
 30
0.0
  0
VERTEX
  5
915
  8
BASE
 10
1555.739439973064
 20
250.5879846652124
 30
0.0
  0
VERTEX
  5
916
  8
BASE
 10
1555.739439973064
 20
228.6124917074661
 30
0.0
 42
-0.4142135623731119
  0
VERTEX
  5
917
  8
BASE
 10
1550.767608987149
 20
223.6406607215505
 30
0.0
  0
VERTEX
  5
918
  8
BASE
 10
1530.880285043487
 20
223.6406607215502
 30
0.0
 42
-0.4142135623730959
  0
VERTEX
  5
919
  8
BASE
 10
1525.908454057571
 20
228.6124917074658
 30
0.0
  0
VERTEX
  5
91A
  8
BASE
 10
1525.908454057571
 20
233.5843226933812
 30
0.0
 42
0.4142135623731105
  0
VERTEX
  5
91B
  8
BASE
 10
1520.936623071656
 20
238.5561536792968
 30
0.0
  0
VERTEX
  5
91C
  8
BASE
 10
1252.45774983222
 20
238.5561536792967
 30
0.0
 42
0.4142135623730951
  0
VERTEX
  5
91D
  8
BASE
 10
1247.485918846304
 20
233.5843226933813
 30
0.0
  0
VERTEX
  5
91E
  8
BASE
 10
1247.485918846304
 20
228.6124917074658
 30
0.0
 42
-0.4142135623730793
  0
VERTEX
  5
91F
  8
BASE
 10
1242.514087860389
 20
223.6406607215503
 30
0.0
  0
VERTEX
  5
920
  8
BASE
 10
1222.626763916727
 20
223.6406607215504
 30
0.0
 42
-0.4142135623730726
  0
VERTEX
  5
921
  8
BASE
 10
1217.654932930811
 20
228.6124917074658
 30
0.0
  0
VERTEX
  5
922
  8
BASE
 10
1217.654932930811
 20
250.5879846652124
 30
0.0
  0
VERTEX
  5
923
  8
BASE
 10
1214.572397719543
 20
250.5879846652124
 30
0.0
  0
VERTEX
  5
924
  8
BASE
 10
1214.572397719543
 20
262.5203790314095
 30
0.0
  0
VERTEX
  5
925
  8
BASE
 10
1217.654932930811
 20
262.5203790314095
 30
0.0
  0
VERTEX
  5
926
  8
BASE
 10
1217.654932930811
 20
274.452773397607
 30
0.0
  0
VERTEX
  5
927
  8
BASE
 10
1214.572397719543
 20
274.452773397607
 30
0.0
  0
VERTEX
  5
928
  8
BASE
 10
1214.572397719543
 20
286.3851677638041
 30
0.0
  0
SEQEND
  5
929
  8
BASE
  0
POLYLINE
  5
92A
  8
DEFAULT
 66
     1
 10
0.0
 20
0.0
 30
0.0
 70
     1
  0
VERTEX
  5
92B
  8
DEFAULT
 10
1257.077799872193
 20
175.0845279370352
 30
0.0
 42
0.414213562373242
  0
VERTEX
  5
92C
  8
DEFAULT
 10
1258.072166069376
 20
174.0901617398521
 30
0.0
  0
VERTEX
  5
92D
  8
DEFAULT
 10
1280.942588604587
 20
174.0901617398522
 30
0.0
 42
0.4142135623731991
  0
VERTEX
  5
92E
  8
DEFAULT
 10
1281.936954801771
 20
175.0845279370349
 30
0.0
  0
VERTEX
  5
92F
  8
DEFAULT
 10
1281.93695480177
 20
183.0394575145002
 30
0.0
 42
0.4142135623731815
  0
VERTEX
  5
930
  8
DEFAULT
 10
1280.942588604587
 20
184.0338237116833
 30
0.0
  0
VERTEX
  5
931
  8
DEFAULT
 10
1258.072166069376
 20
184.0338237116831
 30
0.0
 42
0.4142135623731364
  0
VERTEX
  5
932
  8
DEFAULT
 10
1257.077799872193
 20
183.0394575145
 30
0.0
  0
SEQEND
  5
933
  8
DEFAULT
  0
POLYLINE
  5
934
  8
DEFAULT
 66
     1
 10
0.0
 20
0.0
 30
0.0
 70
     1
  0
VERTEX
  5
935
  8
DEFAULT
 10
1231.737215592297
 20
463.5113904787723
 30
0.0
  0
VERTEX
  5
936
  8
DEFAULT
 10
1216.996593931296
 20
463.5113904787723
 30
0.0
  0
VERTEX
  5
937
  8
DEFAULT
 10
1216.996593931296
 20
466.5939256900402
 30
0.0
  0
VERTEX
  5
938
  8
DEFAULT
 10
1231.737215592297
 20
466.5939256900402
 30
0.0
  0
SEQEND
  5
939
  8
DEFAULT
  0
POLYLINE
  5
93A
  8
DEFAULT
 66
     1
 10
0.0
 20
0.0
 30
0.0
 70
     1
  0
VERTEX
  5
93B
  8
DEFAULT
 10
1255.053388491762
 20
463.5113904787723
 30
0.0
  0
VERTEX
  5
93C
  8
DEFAULT
 10
1243.395302042029
 20
463.5113904787723
 30
0.0
  0
VERTEX
  5
93D
  8
DEFAULT
 10
1243.395302042029
 20
466.5939256900402
 30
0.0
  0
VERTEX
  5
93E
  8
DEFAULT
 10
1255.053388491762
 20
466.5939256900402
 30
0.0
  0
SEQEND
  5
93F
  8
DEFAULT
  0
POLYLINE
  5
940
  8
DEFAULT
 66
     1
 10
0.0
 20
0.0
 30
0.0
 70
     1
  0
VERTEX
  5
941
  8
DEFAULT
 10
1278.369561391228
 20
463.5113904787723
 30
0.0
  0
VERTEX
  5
942
  8
DEFAULT
 10
1266.711474941495
 20
463.5113904787723
 30
0.0
  0
VERTEX
  5
943
  8
DEFAULT
 10
1266.711474941495
 20
466.5939256900402
 30
0.0
  0
VERTEX
  5
944
  8
DEFAULT
 10
1278.369561391228
 20
466.5939256900402
 30
0.0
  0
SEQEND
  5
945
  8
DEFAULT
  0
POLYLINE
  5
946
  8
DEFAULT
 66
     1
 10
0.0
 20
0.0
 30
0.0
 70
     1
  0
VERTEX
  5
947
  8
DEFAULT
 10
1301.685734290694
 20
463.5113904787723
 30
0.0
  0
VERTEX
  5
948
  8
DEFAULT
 10
1290.027647840961
 20
463.5113904787723
 30
0.0
  0
VERTEX
  5
949
  8
DEFAULT
 10
1290.027647840961
 20
466.5939256900402
 30
0.0
  0
VERTEX
  5
94A
  8
DEFAULT
 10
1301.685734290694
 20
466.5939256900402
 30
0.0
  0
SEQEND
  5
94B
  8
DEFAULT
  0
POLYLINE
  5
94C
  8
DEFAULT
 66
     1
 10
0.0
 20
0.0
 30
0.0
 70
     1
  0
VERTEX
  5
94D
  8
DEFAULT
 10
1325.001907190159
 20
463.5113904787723
 30
0.0
  0
VERTEX
  5
94E
  8
DEFAULT
 10
1313.343820740427
 20
463.5113904787723
 30
0.0
  0
VERTEX
  5
94F
  8
DEFAULT
 10
1313.343820740427
 20
466.5939256900402
 30
0.0
  0
VERTEX
  5
950
  8
DEFAULT
 10
1325.001907190159
 20
466.5939256900402
 30
0.0
  0
SEQEND
  5
951
  8
DEFAULT
  0
POLYLINE
  5
952
  8
DEFAULT
 66
     1
 10
0.0
 20
0.0
 30
0.0
 70
     1
  0
VERTEX
  5
953
  8
DEFAULT
 10
1348.318080089625
 20
463.5113904787723
 30
0.0
  0
VERTEX
  5
954
  8
DEFAULT
 10
1336.659993639892
 20
463.5113904787723
 30
0.0
  0
VERTEX
  5
955
  8
DEFAULT
 10
1336.659993639892
 20
466.5939256900402
 30
0.0
  0
VERTEX
  5
956
  8
DEFAULT
 10
1348.318080089625
 20
466.5939256900402
 30
0.0
  0
SEQEND
  5
957
  8
DEFAULT
  0
POLYLINE
  5
958
  8
DEFAULT
 66
     1
 10
0.0
 20
0.0
 30
0.0
 70
     1
  0
VERTEX
  5
959
  8
DEFAULT
 10
1371.634252989091
 20
463.5113904787723
 30
0.0
  0
VERTEX
  5
95A
  8
DEFAULT
 10
1359.976166539358
 20
463.5113904787723
 30
0.0
  0
VERTEX
  5
95B
  8
DEFAULT
 10
1359.976166539358
 20
466.5939256900402
 30
0.0
  0
VERTEX
  5
95C
  8
DEFAULT
 10
1371.634252989091
 20
466.5939256900402
 30
0.0
  0
SEQEND
  5
95D
  8
DEFAULT
  0
POLYLINE
  5
95E
  8
DEFAULT
 66
     1
 10
0.0
 20
0.0
 30
0.0
 70
     1
  0
VERTEX
  5
95F
  8
DEFAULT
 10
1394.950425888557
 20
463.5113904787723
 30
0.0
  0
VERTEX
  5
960
  8
DEFAULT
 10
1383.292339438824
 20
463.5113904787723
 30
0.0
  0
VERTEX
  5
961
  8
DEFAULT
 10
1383.292339438824
 20
466.5939256900402
 30
0.0
  0
VERTEX
  5
962
  8
DEFAULT
 10
1394.950425888557
 20
466.5939256900402
 30
0.0
  0
SEQEND
  5
963
  8
DEFAULT
  0
POLYLINE
  5
964
  8
DEFAULT
 66
     1
 10
0.0
 20
0.0
 30
0.0
 70
     1
  0
VERTEX
  5
965
  8
DEFAULT
 10
1418.266598788023
 20
463.5113904787723
 30
0.0
  0
VERTEX
  5
966
  8
DEFAULT
 10
1406.60851233829
 20
463.5113904787723
 30
0.0
  0
VERTEX
  5
967
  8
DEFAULT
 10
1406.60851233829
 20
466.5939256900402
 30
0.0
  0
VERTEX
  5
968
  8
DEFAULT
 10
1418.266598788023
 20
466.5939256900402
 30
0.0
  0
SEQEND
  5
969
  8
DEFAULT
  0
POLYLINE
  5
96A
  8
DEFAULT
 66
     1
 10
0.0
 20
0.0
 30
0.0
 70
     1
  0
VERTEX
  5
96B
  8
DEFAULT
 10
1441.582771687488
 20
463.5113904787723
 30
0.0
  0
VERTEX
  5
96C
  8
DEFAULT
 10
1429.924685237756
 20
463.5113904787723
 30
0.0
  0
VERTEX
  5
96D
  8
DEFAULT
 10
1429.924685237756
 20
466.5939256900402
 30
0.0
  0
VERTEX
  5
96E
  8
DEFAULT
 10
1441.582771687488
 20
466.5939256900402
 30
0.0
  0
SEQEND
  5
96F
  8
DEFAULT
  0
POLYLINE
  5
970
  8
DEFAULT
 66
     1
 10
0.0
 20
0.0
 30
0.0
 70
     1
  0
VERTEX
  5
971
  8
DEFAULT
 10
1464.898944586954
 20
463.5113904787723
 30
0.0
  0
VERTEX
  5
972
  8
DEFAULT
 10
1453.240858137221
 20
463.5113904787723
 30
0.0
  0
VERTEX
  5
973
  8
DEFAULT
 10
1453.240858137221
 20
466.5939256900402
 30
0.0
  0
VERTEX
  5
974
  8
DEFAULT
 10
1464.898944586954
 20
466.5939256900402
 30
0.0
  0
SEQEND
  5
975
  8
DEFAULT
  0
POLYLINE
  5
976
  8
DEFAULT
 66
     1
 10
0.0
 20
0.0
 30
0.0
 70
     1
  0
VERTEX
  5
977
  8
DEFAULT
 10
1488.21511748642
 20
463.5113904787723
 30
0.0
  0
VERTEX
  5
978
  8
DEFAULT
 10
1476.557031036687
 20
463.5113904787723
 30
0.0
  0
VERTEX
  5
979
  8
DEFAULT
 10
1476.557031036687
 20
466.5939256900402
 30
0.0
  0
VERTEX
  5
97A
  8
DEFAULT
 10
1488.21511748642
 20
466.5939256900402
 30
0.0
  0
SEQEND
  5
97B
  8
DEFAULT
  0
POLYLINE
  5
97C
  8
DEFAULT
 66
     1
 10
0.0
 20
0.0
 30
0.0
 70
     1
  0
VERTEX
  5
97D
  8
DEFAULT
 10
1511.531290385886
 20
463.5113904787723
 30
0.0
  0
VERTEX
  5
97E
  8
DEFAULT
 10
1499.873203936153
 20
463.5113904787723
 30
0.0
  0
VERTEX
  5
97F
  8
DEFAULT
 10
1499.873203936153
 20
466.5939256900402
 30
0.0
  0
VERTEX
  5
980
  8
DEFAULT
 10
1511.531290385886
 20
466.5939256900402
 30
0.0
  0
SEQEND
  5
981
  8
DEFAULT
  0
POLYLINE
  5
982
  8
DEFAULT
 66
     1
 10
0.0
 20
0.0
 30
0.0
 70
     1
  0
VERTEX
  5
983
  8
DEFAULT
 10
1534.847463285351
 20
463.5113904787723
 30
0.0
  0
VERTEX
  5
984
  8
DEFAULT
 10
1523.189376835618
 20
463.5113904787723
 30
0.0
  0
VERTEX
  5
985
  8
DEFAULT
 10
1523.189376835618
 20
466.5939256900402
 30
0.0
  0
VERTEX
  5
986
  8
DEFAULT
 10
1534.847463285351
 20
466.5939256900402
 30
0.0
  0
SEQEND
  5
987
  8
DEFAULT
  0
POLYLINE
  5
988
  8
DEFAULT
 66
     1
 10
0.0
 20
0.0
 30
0.0
 70
     1
  0
VERTEX
  5
989
  8
DEFAULT
 10
1561.246171396085
 20
463.5113904787723
 30
0.0
  0
VERTEX
  5
98A
  8
DEFAULT
 10
1546.505549735085
 20
463.5113904787723
 30
0.0
  0
VERTEX
  5
98B
  8
DEFAULT
 10
1546.505549735085
 20
466.5939256900402
 30
0.0
  0
VERTEX
  5
98C
  8
DEFAULT
 10
1561.246171396085
 20
466.5939256900402
 30
0.0
  0
SEQEND
  5
98D
  8
DEFAULT
  0
POLYLINE
  5
98E
  8
DEFAULT
 66
     1
 10
0.0
 20
0.0
 30
0.0
 70
     1
  0
VERTEX
  5
98F
  8
DEFAULT
 10
1534.847463285351
 20
807.7609679435598
 30
0.0
  0
VERTEX
  5
990
  8
DEFAULT
 10
1523.189376835618
 20
807.7609679435598
 30
0.0
  0
VERTEX
  5
991
  8
DEFAULT
 10
1523.189376835618
 20
804.6784327322937
 30
0.0
  0
VERTEX
  5
992
  8
DEFAULT
 10
1534.847463285351
 20
804.6784327322937
 30
0.0
  0
SEQEND
  5
993
  8
DEFAULT
  0
POLYLINE
  5
994
  8
DEFAULT
 66
     1
 10
0.0
 20
0.0
 30
0.0
 70
     1
  0
VERTEX
  5
995
  8
DEFAULT
 10
1511.531290385886
 20
807.7609679435598
 30
0.0
  0
VERTEX
  5
996
  8
DEFAULT
 10
1499.873203936153
 20
807.7609679435598
 30
0.0
  0
VERTEX
  5
997
  8
DEFAULT
 10
1499.873203936153
 20
804.6784327322937
 30
0.0
  0
VERTEX
  5
998
  8
DEFAULT
 10
1511.531290385886
 20
804.6784327322937
 30
0.0
  0
SEQEND
  5
999
  8
DEFAULT
  0
POLYLINE
  5
99A
  8
DEFAULT
 66
     1
 10
0.0
 20
0.0
 30
0.0
 70
     1
  0
VERTEX
  5
99B
  8
DEFAULT
 10
1488.21511748642
 20
807.7609679435598
 30
0.0
  0
VERTEX
  5
99C
  8
DEFAULT
 10
1476.557031036687
 20
807.7609679435598
 30
0.0
  0
VERTEX
  5
99D
  8
DEFAULT
 10
1476.557031036687
 20
804.6784327322937
 30
0.0
  0
VERTEX
  5
99E
  8
DEFAULT
 10
1488.21511748642
 20
804.6784327322937
 30
0.0
  0
SEQEND
  5
99F
  8
DEFAULT
  0
POLYLINE
  5
9A0
  8
DEFAULT
 66
     1
 10
0.0
 20
0.0
 30
0.0
 70
     1
  0
VERTEX
  5
9A1
  8
DEFAULT
 10
1464.898944586954
 20
807.7609679435598
 30
0.0
  0
VERTEX
  5
9A2
  8
DEFAULT
 10
1453.240858137221
 20
807.7609679435598
 30
0.0
  0
VERTEX
  5
9A3
  8
DEFAULT
 10
1453.240858137221
 20
804.6784327322937
 30
0.0
  0
VERTEX
  5
9A4
  8
DEFAULT
 10
1464.898944586954
 20
804.6784327322937
 30
0.0
  0
SEQEND
  5
9A5
  8
DEFAULT
  0
POLYLINE
  5
9A6
  8
DEFAULT
 66
     1
 10
0.0
 20
0.0
 30
0.0
 70
     1
  0
VERTEX
  5
9A7
  8
DEFAULT
 10
1441.582771687488
 20
807.7609679435598
 30
0.0
  0
VERTEX
  5
9A8
  8
DEFAULT
 10
1429.924685237756
 20
807.7609679435598
 30
0.0
  0
VERTEX
  5
9A9
  8
DEFAULT
 10
1429.924685237756
 20
804.6784327322937
 30
0.0
  0
VERTEX
  5
9AA
  8
DEFAULT
 10
1441.582771687488
 20
804.6784327322937
 30
0.0
  0
SEQEND
  5
9AB
  8
DEFAULT
  0
POLYLINE
  5
9AC
  8
DEFAULT
 66
     1
 10
0.0
 20
0.0
 30
0.0
 70
     1
  0
VERTEX
  5
9AD
  8
DEFAULT
 10
1418.266598788023
 20
807.7609679435598
 30
0.0
  0
VERTEX
  5
9AE
  8
DEFAULT
 10
1406.60851233829
 20
807.7609679435598
 30
0.0
  0
VERTEX
  5
9AF
  8
DEFAULT
 10
1406.60851233829
 20
804.6784327322937
 30
0.0
  0
VERTEX
  5
9B0
  8
DEFAULT
 10
1418.266598788023
 20
804.6784327322937
 30
0.0
  0
SEQEND
  5
9B1
  8
DEFAULT
  0
POLYLINE
  5
9B2
  8
DEFAULT
 66
     1
 10
0.0
 20
0.0
 30
0.0
 70
     1
  0
VERTEX
  5
9B3
  8
DEFAULT
 10
1394.950425888557
 20
807.7609679435598
 30
0.0
  0
VERTEX
  5
9B4
  8
DEFAULT
 10
1383.292339438824
 20
807.7609679435598
 30
0.0
  0
VERTEX
  5
9B5
  8
DEFAULT
 10
1383.292339438824
 20
804.6784327322937
 30
0.0
  0
VERTEX
  5
9B6
  8
DEFAULT
 10
1394.950425888557
 20
804.6784327322937
 30
0.0
  0
SEQEND
  5
9B7
  8
DEFAULT
  0
POLYLINE
  5
9B8
  8
DEFAULT
 66
     1
 10
0.0
 20
0.0
 30
0.0
 70
     1
  0
VERTEX
  5
9B9
  8
DEFAULT
 10
1371.634252989091
 20
807.7609679435598
 30
0.0
  0
VERTEX
  5
9BA
  8
DEFAULT
 10
1359.976166539358
 20
807.7609679435598
 30
0.0
  0
VERTEX
  5
9BB
  8
DEFAULT
 10
1359.976166539358
 20
804.6784327322937
 30
0.0
  0
VERTEX
  5
9BC
  8
DEFAULT
 10
1371.634252989091
 20
804.6784327322937
 30
0.0
  0
SEQEND
  5
9BD
  8
DEFAULT
  0
POLYLINE
  5
9BE
  8
DEFAULT
 66
     1
 10
0.0
 20
0.0
 30
0.0
 70
     1
  0
VERTEX
  5
9BF
  8
DEFAULT
 10
1348.318080089625
 20
807.7609679435598
 30
0.0
  0
VERTEX
  5
9C0
  8
DEFAULT
 10
1336.659993639892
 20
807.7609679435598
 30
0.0
  0
VERTEX
  5
9C1
  8
DEFAULT
 10
1336.659993639892
 20
804.6784327322937
 30
0.0
  0
VERTEX
  5
9C2
  8
DEFAULT
 10
1348.318080089625
 20
804.6784327322937
 30
0.0
  0
SEQEND
  5
9C3
  8
DEFAULT
  0
POLYLINE
  5
9C4
  8
DEFAULT
 66
     1
 10
0.0
 20
0.0
 30
0.0
 70
     1
  0
VERTEX
  5
9C5
  8
DEFAULT
 10
1325.001907190159
 20
807.7609679435598
 30
0.0
  0
VERTEX
  5
9C6
  8
DEFAULT
 10
1313.343820740427
 20
807.7609679435598
 30
0.0
  0
VERTEX
  5
9C7
  8
DEFAULT
 10
1313.343820740427
 20
804.6784327322937
 30
0.0
  0
VERTEX
  5
9C8
  8
DEFAULT
 10
1325.001907190159
 20
804.6784327322937
 30
0.0
  0
SEQEND
  5
9C9
  8
DEFAULT
  0
POLYLINE
  5
9CA
  8
DEFAULT
 66
     1
 10
0.0
 20
0.0
 30
0.0
 70
     1
  0
VERTEX
  5
9CB
  8
DEFAULT
 10
1301.685734290694
 20
807.7609679435598
 30
0.0
  0
VERTEX
  5
9CC
  8
DEFAULT
 10
1290.027647840961
 20
807.7609679435598
 30
0.0
  0
VERTEX
  5
9CD
  8
DEFAULT
 10
1290.027647840961
 20
804.6784327322937
 30
0.0
  0
VERTEX
  5
9CE
  8
DEFAULT
 10
1301.685734290694
 20
804.6784327322937
 30
0.0
  0
SEQEND
  5
9CF
  8
DEFAULT
  0
POLYLINE
  5
9D0
  8
DEFAULT
 66
     1
 10
0.0
 20
0.0
 30
0.0
 70
     1
  0
VERTEX
  5
9D1
  8
DEFAULT
 10
1278.369561391228
 20
807.7609679435598
 30
0.0
  0
VERTEX
  5
9D2
  8
DEFAULT
 10
1266.711474941495
 20
807.7609679435598
 30
0.0
  0
VERTEX
  5
9D3
  8
DEFAULT
 10
1266.711474941495
 20
804.6784327322937
 30
0.0
  0
VERTEX
  5
9D4
  8
DEFAULT
 10
1278.369561391228
 20
804.6784327322937
 30
0.0
  0
SEQEND
  5
9D5
  8
DEFAULT
  0
POLYLINE
  5
9D6
  8
DEFAULT
 66
     1
 10
0.0
 20
0.0
 30
0.0
 70
     1
  0
VERTEX
  5
9D7
  8
DEFAULT
 10
1255.053388491762
 20
807.7609679435598
 30
0.0
  0
VERTEX
  5
9D8
  8
DEFAULT
 10
1243.395302042029
 20
807.7609679435598
 30
0.0
  0
VERTEX
  5
9D9
  8
DEFAULT
 10
1243.395302042029
 20
804.6784327322937
 30
0.0
  0
VERTEX
  5
9DA
  8
DEFAULT
 10
1255.053388491762
 20
804.6784327322937
 30
0.0
  0
SEQEND
  5
9DB
  8
DEFAULT
  0
POLYLINE
  5
9DC
  8
DEFAULT
 66
     1
 10
0.0
 20
0.0
 30
0.0
 70
     1
  0
VERTEX
  5
9DD
  8
DEFAULT
 10
1558.163636184817
 20
781.3622598328282
 30
0.0
  0
VERTEX
  5
9DE
  8
DEFAULT
 10
1561.246171396085
 20
781.3622598328282
 30
0.0
  0
VERTEX
  5
9DF
  8
DEFAULT
 10
1561.246171396085
 20
769.7041733830936
 30
0.0
  0
VERTEX
  5
9E0
  8
DEFAULT
 10
1558.163636184817
 20
769.7041733830936
 30
0.0
  0
SEQEND
  5
9E1
  8
DEFAULT
  0
POLYLINE
  5
9E2
  8
DEFAULT
 66
     1
 10
0.0
 20
0.0
 30
0.0
 70
     1
  0
VERTEX
  5
9E3
  8
DEFAULT
 10
1558.163636184817
 20
804.6784327322937
 30
0.0
  0
VERTEX
  5
9E4
  8
DEFAULT
 10
1561.246171396085
 20
804.6784327322937
 30
0.0
  0
VERTEX
  5
9E5
  8
DEFAULT
 10
1546.505549735085
 20
804.6784327322937
 30
0.0
  0
VERTEX
  5
9E6
  8
DEFAULT
 10
1546.505549735085
 20
807.7609679435598
 30
0.0
  0
VERTEX
  5
9E7
  8
DEFAULT
 10
1561.246171396085
 20
807.7609679435598
 30
0.0
  0
VERTEX
  5
9E8
  8
DEFAULT
 10
1561.246171396085
 20
793.0203462825609
 30
0.0
  0
VERTEX
  5
9E9
  8
DEFAULT
 10
1558.163636184817
 20
793.0203462825609
 30
0.0
  0
SEQEND
  5
9EA
  8
DEFAULT
  0
POLYLINE
  5
9EB
  8
DEFAULT
 66
     1
 10
0.0
 20
0.0
 30
0.0
 70
     1
  0
VERTEX
  5
9EC
  8
DEFAULT
 10
1558.163636184817
 20
758.0460869333626
 30
0.0
  0
VERTEX
  5
9ED
  8
DEFAULT
 10
1561.246171396085
 20
758.0460869333626
 30
0.0
  0
VERTEX
  5
9EE
  8
DEFAULT
 10
1561.246171396085
 20
746.3880004836299
 30
0.0
  0
VERTEX
  5
9EF
  8
DEFAULT
 10
1558.163636184817
 20
746.3880004836299
 30
0.0
  0
SEQEND
  5
9F0
  8
DEFAULT
  0
POLYLINE
  5
9F1
  8
DEFAULT
 66
     1
 10
0.0
 20
0.0
 30
0.0
 70
     1
  0
VERTEX
  5
9F2
  8
DEFAULT
 10
1558.163636184817
 20
734.7299140338948
 30
0.0
  0
VERTEX
  5
9F3
  8
DEFAULT
 10
1561.246171396085
 20
734.7299140338948
 30
0.0
  0
VERTEX
  5
9F4
  8
DEFAULT
 10
1561.246171396085
 20
723.0718275841621
 30
0.0
  0
VERTEX
  5
9F5
  8
DEFAULT
 10
1558.163636184817
 20
723.0718275841621
 30
0.0
  0
SEQEND
  5
9F6
  8
DEFAULT
  0
POLYLINE
  5
9F7
  8
DEFAULT
 66
     1
 10
0.0
 20
0.0
 30
0.0
 70
     1
  0
VERTEX
  5
9F8
  8
DEFAULT
 10
1558.163636184817
 20
711.4137411344293
 30
0.0
  0
VERTEX
  5
9F9
  8
DEFAULT
 10
1561.246171396085
 20
711.4137411344293
 30
0.0
  0
VERTEX
  5
9FA
  8
DEFAULT
 10
1561.246171396085
 20
699.7556546846965
 30
0.0
  0
VERTEX
  5
9FB
  8
DEFAULT
 10
1558.163636184817
 20
699.7556546846965
 30
0.0
  0
SEQEND
  5
9FC
  8
DEFAULT
  0
POLYLINE
  5
9FD
  8
DEFAULT
 66
     1
 10
0.0
 20
0.0
 30
0.0
 70
     1
  0
VERTEX
  5
9FE
  8
DEFAULT
 10
1558.163636184817
 20
688.0975682349638
 30
0.0
  0
VERTEX
  5
9FF
  8
DEFAULT
 10
1561.246171396085
 20
688.0975682349638
 30
0.0
  0
VERTEX
  5
A00
  8
DEFAULT
 10
1561.246171396085
 20
676.439481785231
 30
0.0
  0
VERTEX
  5
A01
  8
DEFAULT
 10
1558.163636184817
 20
676.439481785231
 30
0.0
  0
SEQEND
  5
A02
  8
DEFAULT
  0
POLYLINE
  5
A03
  8
DEFAULT
 66
     1
 10
0.0
 20
0.0
 30
0.0
 70
     1
  0
VERTEX
  5
A04
  8
DEFAULT
 10
1558.163636184817
 20
664.7813953354982
 30
0.0
  0
VERTEX
  5
A05
  8
DEFAULT
 10
1561.246171396085
 20
664.7813953354982
 30
0.0
  0
VERTEX
  5
A06
  8
DEFAULT
 10
1561.246171396085
 20
653.1233088857655
 30
0.0
  0
VERTEX
  5
A07
  8
DEFAULT
 10
1558.163636184817
 20
653.1233088857655
 30
0.0
  0
SEQEND
  5
A08
  8
DEFAULT
  0
POLYLINE
  5
A09
  8
DEFAULT
 66
     1
 10
0.0
 20
0.0
 30
0.0
 70
     1
  0
VERTEX
  5
A0A
  8
DEFAULT
 10
1558.163636184817
 20
641.4652224360327
 30
0.0
  0
VERTEX
  5
A0B
  8
DEFAULT
 10
1561.246171396085
 20
641.4652224360327
 30
0.0
  0
VERTEX
  5
A0C
  8
DEFAULT
 10
1561.246171396085
 20
629.8071359862995
 30
0.0
  0
VERTEX
  5
A0D
  8
DEFAULT
 10
1558.163636184817
 20
629.8071359862995
 30
0.0
  0
SEQEND
  5
A0E
  8
DEFAULT
  0
POLYLINE
  5
A0F
  8
DEFAULT
 66
     1
 10
0.0
 20
0.0
 30
0.0
 70
     1
  0
VERTEX
  5
A10
  8
DEFAULT
 10
1558.163636184817
 20
618.1490495365665
 30
0.0
  0
VERTEX
  5
A11
  8
DEFAULT
 10
1561.246171396085
 20
618.1490495365665
 30
0.0
  0
VERTEX
  5
A12
  8
DEFAULT
 10
1561.246171396085
 20
606.4909630868337
 30
0.0
  0
VERTEX
  5
A13
  8
DEFAULT
 10
1558.163636184817
 20
606.4909630868337
 30
0.0
  0
SEQEND
  5
A14
  8
DEFAULT
  0
POLYLINE
  5
A15
  8
DEFAULT
 66
     1
 10
0.0
 20
0.0
 30
0.0
 70
     1
  0
VERTEX
  5
A16
  8
DEFAULT
 10
1558.163636184817
 20
594.832876637101
 30
0.0
  0
VERTEX
  5
A17
  8
DEFAULT
 10
1561.246171396085
 20
594.832876637101
 30
0.0
  0
VERTEX
  5
A18
  8
DEFAULT
 10
1561.246171396085
 20
583.1747901873682
 30
0.0
  0
VERTEX
  5
A19
  8
DEFAULT
 10
1558.163636184817
 20
583.1747901873682
 30
0.0
  0
SEQEND
  5
A1A
  8
DEFAULT
  0
POLYLINE
  5
A1B
  8
DEFAULT
 66
     1
 10
0.0
 20
0.0
 30
0.0
 70
     1
  0
VERTEX
  5
A1C
  8
DEFAULT
 10
1558.163636184817
 20
571.5167037376355
 30
0.0
  0
VERTEX
  5
A1D
  8
DEFAULT
 10
1561.246171396085
 20
571.5167037376355
 30
0.0
  0
VERTEX
  5
A1E
  8
DEFAULT
 10
1561.246171396085
 20
559.8586172879027
 30
0.0
  0
VERTEX
  5
A1F
  8
DEFAULT
 10
1558.163636184817
 20
559.8586172879027
 30
0.0
  0
SEQEND
  5
A20
  8
DEFAULT
  0
POLYLINE
  5
A21
  8
DEFAULT
 66
     1
 10
0.0
 20
0.0
 30
0.0
 70
     1
  0
VERTEX
  5
A22
  8
DEFAULT
 10
1558.163636184817
 20
548.2005308381699
 30
0.0
  0
VERTEX
  5
A23
  8
DEFAULT
 10
1561.246171396085
 20
548.2005308381699
 30
0.0
  0
VERTEX
  5
A24
  8
DEFAULT
 10
1561.246171396085
 20
536.5424443884367
 30
0.0
  0
VERTEX
  5
A25
  8
DEFAULT
 10
1558.163636184817
 20
536.5424443884367
 30
0.0
  0
SEQEND
  5
A26
  8
DEFAULT
  0
POLYLINE
  5
A27
  8
DEFAULT
 66
     1
 10
0.0
 20
0.0
 30
0.0
 70
     1
  0
VERTEX
  5
A28
  8
DEFAULT
 10
1558.163636184817
 20
524.8843579387039
 30
0.0
  0
VERTEX
  5
A29
  8
DEFAULT
 10
1561.246171396085
 20
524.8843579387039
 30
0.0
  0
VERTEX
  5
A2A
  8
DEFAULT
 10
1561.246171396085
 20
513.2262714889712
 30
0.0
  0
VERTEX
  5
A2B
  8
DEFAULT
 10
1558.163636184817
 20
513.2262714889712
 30
0.0
  0
SEQEND
  5
A2C
  8
DEFAULT
  0
POLYLINE
  5
A2D
  8
DEFAULT
 66
     1
 10
0.0
 20
0.0
 30
0.0
 70
     1
  0
VERTEX
  5
A2E
  8
DEFAULT
 10
1558.163636184817
 20
501.5681850392385
 30
0.0
  0
VERTEX
  5
A2F
  8
DEFAULT
 10
1561.246171396085
 20
501.5681850392385
 30
0.0
  0
VERTEX
  5
A30
  8
DEFAULT
 10
1561.246171396085
 20
489.9100985895057
 30
0.0
  0
VERTEX
  5
A31
  8
DEFAULT
 10
1558.163636184817
 20
489.9100985895057
 30
0.0
  0
SEQEND
  5
A32
  8
DEFAULT
  0
POLYLINE
  5
A33
  8
DEFAULT
 66
     1
 10
0.0
 20
0.0
 30
0.0
 70
     1
  0
VERTEX
  5
A34
  8
DEFAULT
 10
1558.163636184817
 20
478.2520121397729
 30
0.0
  0
VERTEX
  5
A35
  8
DEFAULT
 10
1561.246171396085
 20
478.2520121397729
 30
0.0
  0
VERTEX
  5
A36
  8
DEFAULT
 10
1561.246171396085
 20
466.5939256900402
 30
0.0
  0
VERTEX
  5
A37
  8
DEFAULT
 10
1558.163636184817
 20
466.5939256900402
 30
0.0
  0
SEQEND
  5
A38
  8
DEFAULT
  0
POLYLINE
  5
A39
  8
DEFAULT
 66
     1
 10
0.0
 20
0.0
 30
0.0
 70
     1
  0
VERTEX
  5
A3A
  8
DEFAULT
 10
1220.079129142564
 20
478.2520121397729
 30
0.0
  0
VERTEX
  5
A3B
  8
DEFAULT
 10
1216.996593931296
 20
478.2520121397729
 30
0.0
  0
VERTEX
  5
A3C
  8
DEFAULT
 10
1216.996593931296
 20
466.5939256900402
 30
0.0
  0
VERTEX
  5
A3D
  8
DEFAULT
 10
1220.079129142564
 20
466.5939256900402
 30
0.0
  0
SEQEND
  5
A3E
  8
DEFAULT
  0
POLYLINE
  5
A3F
  8
DEFAULT
 66
     1
 10
0.0
 20
0.0
 30
0.0
 70
     1
  0
VERTEX
  5
A40
  8
DEFAULT
 10
1220.079129142564
 20
501.5681850392385
 30
0.0
  0
VERTEX
  5
A41
  8
DEFAULT
 10
1216.996593931296
 20
501.5681850392385
 30
0.0
  0
VERTEX
  5
A42
  8
DEFAULT
 10
1216.996593931296
 20
489.9100985895057
 30
0.0
  0
VERTEX
  5
A43
  8
DEFAULT
 10
1220.079129142564
 20
489.9100985895057
 30
0.0
  0
SEQEND
  5
A44
  8
DEFAULT
  0
POLYLINE
  5
A45
  8
DEFAULT
 66
     1
 10
0.0
 20
0.0
 30
0.0
 70
     1
  0
VERTEX
  5
A46
  8
DEFAULT
 10
1220.079129142564
 20
524.8843579387039
 30
0.0
  0
VERTEX
  5
A47
  8
DEFAULT
 10
1216.996593931296
 20
524.8843579387039
 30
0.0
  0
VERTEX
  5
A48
  8
DEFAULT
 10
1216.996593931296
 20
513.2262714889712
 30
0.0
  0
VERTEX
  5
A49
  8
DEFAULT
 10
1220.079129142564
 20
513.2262714889712
 30
0.0
  0
SEQEND
  5
A4A
  8
DEFAULT
  0
POLYLINE
  5
A4B
  8
DEFAULT
 66
     1
 10
0.0
 20
0.0
 30
0.0
 70
     1
  0
VERTEX
  5
A4C
  8
DEFAULT
 10
1220.079129142564
 20
548.2005308381699
 30
0.0
  0
VERTEX
  5
A4D
  8
DEFAULT
 10
1216.996593931296
 20
548.2005308381699
 30
0.0
  0
VERTEX
  5
A4E
  8
DEFAULT
 10
1216.996593931296
 20
536.5424443884367
 30
0.0
  0
VERTEX
  5
A4F
  8
DEFAULT
 10
1220.079129142564
 20
536.5424443884367
 30
0.0
  0
SEQEND
  5
A50
  8
DEFAULT
  0
POLYLINE
  5
A51
  8
DEFAULT
 66
     1
 10
0.0
 20
0.0
 30
0.0
 70
     1
  0
VERTEX
  5
A52
  8
DEFAULT
 10
1220.079129142564
 20
571.5167037376355
 30
0.0
  0
VERTEX
  5
A53
  8
DEFAULT
 10
1216.996593931296
 20
571.5167037376355
 30
0.0
  0
VERTEX
  5
A54
  8
DEFAULT
 10
1216.996593931296
 20
559.8586172879027
 30
0.0
  0
VERTEX
  5
A55
  8
DEFAULT
 10
1220.079129142564
 20
559.8586172879027
 30
0.0
  0
SEQEND
  5
A56
  8
DEFAULT
  0
POLYLINE
  5
A57
  8
DEFAULT
 66
     1
 10
0.0
 20
0.0
 30
0.0
 70
     1
  0
VERTEX
  5
A58
  8
DEFAULT
 10
1220.079129142564
 20
594.832876637101
 30
0.0
  0
VERTEX
  5
A59
  8
DEFAULT
 10
1216.996593931296
 20
594.832876637101
 30
0.0
  0
VERTEX
  5
A5A
  8
DEFAULT
 10
1216.996593931296
 20
583.1747901873682
 30
0.0
  0
VERTEX
  5
A5B
  8
DEFAULT
 10
1220.079129142564
 20
583.1747901873682
 30
0.0
  0
SEQEND
  5
A5C
  8
DEFAULT
  0
POLYLINE
  5
A5D
  8
DEFAULT
 66
     1
 10
0.0
 20
0.0
 30
0.0
 70
     1
  0
VERTEX
  5
A5E
  8
DEFAULT
 10
1220.079129142564
 20
618.1490495365665
 30
0.0
  0
VERTEX
  5
A5F
  8
DEFAULT
 10
1216.996593931296
 20
618.1490495365665
 30
0.0
  0
VERTEX
  5
A60
  8
DEFAULT
 10
1216.996593931296
 20
606.4909630868337
 30
0.0
  0
VERTEX
  5
A61
  8
DEFAULT
 10
1220.079129142564
 20
606.4909630868337
 30
0.0
  0
SEQEND
  5
A62
  8
DEFAULT
  0
POLYLINE
  5
A63
  8
DEFAULT
 66
     1
 10
0.0
 20
0.0
 30
0.0
 70
     1
  0
VERTEX
  5
A64
  8
DEFAULT
 10
1220.079129142564
 20
641.4652224360327
 30
0.0
  0
VERTEX
  5
A65
  8
DEFAULT
 10
1216.996593931296
 20
641.4652224360327
 30
0.0
  0
VERTEX
  5
A66
  8
DEFAULT
 10
1216.996593931296
 20
629.8071359862995
 30
0.0
  0
VERTEX
  5
A67
  8
DEFAULT
 10
1220.079129142564
 20
629.8071359862995
 30
0.0
  0
SEQEND
  5
A68
  8
DEFAULT
  0
POLYLINE
  5
A69
  8
DEFAULT
 66
     1
 10
0.0
 20
0.0
 30
0.0
 70
     1
  0
VERTEX
  5
A6A
  8
DEFAULT
 10
1220.079129142564
 20
664.7813953354982
 30
0.0
  0
VERTEX
  5
A6B
  8
DEFAULT
 10
1216.996593931296
 20
664.7813953354982
 30
0.0
  0
VERTEX
  5
A6C
  8
DEFAULT
 10
1216.996593931296
 20
653.1233088857655
 30
0.0
  0
VERTEX
  5
A6D
  8
DEFAULT
 10
1220.079129142564
 20
653.1233088857655
 30
0.0
  0
SEQEND
  5
A6E
  8
DEFAULT
  0
POLYLINE
  5
A6F
  8
DEFAULT
 66
     1
 10
0.0
 20
0.0
 30
0.0
 70
     1
  0
VERTEX
  5
A70
  8
DEFAULT
 10
1220.079129142564
 20
688.0975682349638
 30
0.0
  0
VERTEX
  5
A71
  8
DEFAULT
 10
1216.996593931296
 20
688.0975682349638
 30
0.0
  0
VERTEX
  5
A72
  8
DEFAULT
 10
1216.996593931296
 20
676.439481785231
 30
0.0
  0
VERTEX
  5
A73
  8
DEFAULT
 10
1220.079129142564
 20
676.439481785231
 30
0.0
  0
SEQEND
  5
A74
  8
DEFAULT
  0
POLYLINE
  5
A75
  8
DEFAULT
 66
     1
 10
0.0
 20
0.0
 30
0.0
 70
     1
  0
VERTEX
  5
A76
  8
DEFAULT
 10
1220.079129142564
 20
711.4137411344293
 30
0.0
  0
VERTEX
  5
A77
  8
DEFAULT
 10
1216.996593931296
 20
711.4137411344293
 30
0.0
  0
VERTEX
  5
A78
  8
DEFAULT
 10
1216.996593931296
 20
699.7556546846965
 30
0.0
  0
VERTEX
  5
A79
  8
DEFAULT
 10
1220.079129142564
 20
699.7556546846965
 30
0.0
  0
SEQEND
  5
A7A
  8
DEFAULT
  0
POLYLINE
  5
A7B
  8
DEFAULT
 66
     1
 10
0.0
 20
0.0
 30
0.0
 70
     1
  0
VERTEX
  5
A7C
  8
DEFAULT
 10
1220.079129142564
 20
734.7299140338948
 30
0.0
  0
VERTEX
  5
A7D
  8
DEFAULT
 10
1216.996593931296
 20
734.7299140338948
 30
0.0
  0
VERTEX
  5
A7E
  8
DEFAULT
 10
1216.996593931296
 20
723.0718275841621
 30
0.0
  0
VERTEX
  5
A7F
  8
DEFAULT
 10
1220.079129142564
 20
723.0718275841621
 30
0.0
  0
SEQEND
  5
A80
  8
DEFAULT
  0
POLYLINE
  5
A81
  8
DEFAULT
 66
     1
 10
0.0
 20
0.0
 30
0.0
 70
     1
  0
VERTEX
  5
A82
  8
DEFAULT
 10
1220.079129142564
 20
758.0460869333626
 30
0.0
  0
VERTEX
  5
A83
  8
DEFAULT
 10
1216.996593931296
 20
758.0460869333626
 30
0.0
  0
VERTEX
  5
A84
  8
DEFAULT
 10
1216.996593931296
 20
746.3880004836299
 30
0.0
  0
VERTEX
  5
A85
  8
DEFAULT
 10
1220.079129142564
 20
746.3880004836299
 30
0.0
  0
SEQEND
  5
A86
  8
DEFAULT
  0
POLYLINE
  5
A87
  8
DEFAULT
 66
     1
 10
0.0
 20
0.0
 30
0.0
 70
     1
  0
VERTEX
  5
A88
  8
DEFAULT
 10
1220.079129142564
 20
804.6784327322937
 30
0.0
  0
VERTEX
  5
A89
  8
DEFAULT
 10
1216.996593931296
 20
804.6784327322937
 30
0.0
  0
VERTEX
  5
A8A
  8
DEFAULT
 10
1216.996593931296
 20
807.7609679435598
 30
0.0
  0
VERTEX
  5
A8B
  8
DEFAULT
 10
1231.737215592297
 20
807.7609679435598
 30
0.0
  0
VERTEX
  5
A8C
  8
DEFAULT
 10
1231.737215592297
 20
804.6784327322937
 30
0.0
  0
VERTEX
  5
A8D
  8
DEFAULT
 10
1216.996593931296
 20
804.6784327322937
 30
0.0
  0
VERTEX
  5
A8E
  8
DEFAULT
 10
1216.996593931296
 20
793.0203462825609
 30
0.0
  0
VERTEX
  5
A8F
  8
DEFAULT
 10
1220.079129142564
 20
793.0203462825609
 30
0.0
  0
SEQEND
  5
A90
  8
DEFAULT
  0
POLYLINE
  5
A91
  8
DEFAULT
 66
     1
 10
0.0
 20
0.0
 30
0.0
 70
     1
  0
VERTEX
  5
A92
  8
DEFAULT
 10
1220.079129142564
 20
781.3622598328282
 30
0.0
  0
VERTEX
  5
A93
  8
DEFAULT
 10
1216.996593931296
 20
781.3622598328282
 30
0.0
  0
VERTEX
  5
A94
  8
DEFAULT
 10
1216.996593931296
 20
769.7041733830936
 30
0.0
  0
VERTEX
  5
A95
  8
DEFAULT
 10
1220.079129142564
 20
769.7041733830936
 30
0.0
  0
SEQEND
  5
A96
  8
DEFAULT
  0
POLYLINE
  5
A97
  8
BASE
 66
     1
 10
0.0
 20
0.0
 30
0.0
 70
     1
  0
VERTEX
  5
A98
  8
BASE
 10
1565.62138266369
 20
812.1361792111668
 30
0.0
  0
VERTEX
  5
A99
  8
BASE
 10
1212.62138266369
 20
812.1361792111668
 30
0.0
  0
VERTEX
  5
A9A
  8
BASE
 10
1212.62138266369
 20
459.1361792111666
 30
0.0
  0
VERTEX
  5
A9B
  8
BASE
 10
1565.62138266369
 20
459.1361792111666
 30
0.0
  0
SEQEND
  5
A9C
  8
BASE
  0
POLYLINE
  5
A9D
  8
DEFAULT
 66
     1
 10
0.0
 20
0.0
 30
0.0
 70
     1
  0
VERTEX
  5
A9E
  8
DEFAULT
 10
1279.757377336982
 20
248.7670631483034
 30
0.0
  0
VERTEX
  5
A9F
  8
DEFAULT
 10
1279.757377336982
 20
261.7670631483034
 30
0.0
  0
VERTEX
  5
AA0
  8
DEFAULT
 10
1259.257377336982
 20
261.7670631483034
 30
0.0
  0
VERTEX
  5
AA1
  8
DEFAULT
 10
1259.257377336982
 20
248.7670631483034
 30
0.0
  0
SEQEND
  5
AA2
  8
DEFAULT
  0
POLYLINE
  5
AA3
  8
BASE
 66
     1
 10
0.0
 20
0.0
 30
0.0
 70
     1
  0
VERTEX
  5
AA4
  8
BASE
 10
1212.62138266369
 20
143.2182433662441
 30
0.0
  0
VERTEX
  5
AA5
  8
BASE
 10
1212.62138266369
 20
27.77232787328813
 30
0.0
  0
VERTEX
  5
AA6
  8
BASE
 10
1565.621382663691
 20
27.77232787328813
 30
0.0
  0
VERTEX
  5
AA7
  8
BASE
 10
1565.621382663691
 20
143.2182433662441
 30
0.0
  0
SEQEND
  5
AA8
  8
BASE
  0
POLYLINE
  5
AA9
  8
DEFAULT
 66
     1
 10
0.0
 20
0.0
 30
0.0
 70
     1
  0
VERTEX
  5
AAA
  8
DEFAULT
 10
1558.01448125524
 20
60.63613069018885
 30
0.0
  0
VERTEX
  5
AAB
  8
DEFAULT
 10
1558.01448125524
 20
110.3544405493438
 30
0.0
  0
VERTEX
  5
AAC
  8
DEFAULT
 10
1561.395326325662
 20
110.3544405493438
 30
0.0
  0
VERTEX
  5
AAD
  8
DEFAULT
 10
1561.395326325662
 20
60.63613069018885
 30
0.0
  0
SEQEND
  5
AAE
  8
DEFAULT
  0
POLYLINE
  5
AAF
  8
DEFAULT
 66
     1
 10
0.0
 20
0.0
 30
0.0
 70
     1
  0
VERTEX
  5
AB0
  8
DEFAULT
 10
1220.228284072141
 20
60.63613069018885
 30
0.0
  0
VERTEX
  5
AB1
  8
DEFAULT
 10
1220.228284072141
 20
110.3544405493438
 30
0.0
  0
VERTEX
  5
AB2
  8
DEFAULT
 10
1216.847439001719
 20
110.3544405493438
 30
0.0
  0
VERTEX
  5
AB3
  8
DEFAULT
 10
1216.847439001719
 20
60.63613069018885
 30
0.0
  0
SEQEND
  5
AB4
  8
DEFAULT
  0
CIRCLE
  5
AB5
  8
DEFAULT
 10
1406.087327297008
 20
282.3082663553528
 30
0.0
 40
1.491549295774648
  0
CIRCLE
  5
AB6
  8
DEFAULT
 10
1408.113777029888
 20
356.985167763804
 30
0.0
 40
1.491549295774648
  0
CIRCLE
  5
AB7
  8
DEFAULT
 10
1408.113777029888
 20
326.1598156511278
 30
0.0
 40
1.491549295774648
  0
CIRCLE
  5
AB8
  8
DEFAULT
 10
1408.113777029888
 20
400.8367170595789
 30
0.0
 40
1.491549295774648
  0
CIRCLE
  5
AB9
  8
DEFAULT
 10
1408.113777029888
 20
431.6620691722551
 30
0.0
 40
1.491549295774648
  0
CIRCLE
  5
ABA
  8
DEFAULT
 10
1406.087327297008
 20
251.4829142426771
 30
0.0
 40
1.491549295774648
  0
CIRCLE
  5
ABB
  8
DEFAULT
 10
1406.087327297008
 20
176.8060128342259
 30
0.0
 40
1.491549295774648
  0
CIRCLE
  5
ABC
  8
DEFAULT
 10
1406.087327297008
 20
207.6313649469017
 30
0.0
 40
1.491549295774648
  0
CIRCLE
  5
ABD
  8
DEFAULT
 10
1279.157358243652
 20
46.94280212503401
 30
0.0
 40
1.988732394366197
  0
CIRCLE
  5
ABE
  8
DEFAULT
 10
1251.315104722526
 20
46.94280212503401
 30
0.0
 40
1.988732394366197
  0
CIRCLE
  5
ABF
  8
DEFAULT
 10
1512.173011037807
 20
103.2678255477293
 30
0.0
 40
1.590985915492958
  0
CIRCLE
  5
AC0
  8
DEFAULT
 10
1512.173011037807
 20
53.35064244913684
 30
0.0
 40
1.590985915492958
  0
ENDSEC
  0
EOF
