 0
SECTION
 2
ENTITIES
  0
POLYLINE
 8
Assembly
 66
     1
70
    8
 10
0.0
 20
 0.0
 30
0.0
  0
VERTEX
  8
MY3DLAYER
10
630.5632227844244
20
518.1701429887011
30
11.799999999999978
 70
     32
  0
VERTEX
  8
MY3DLAYER
10
620.9981907522986
20
526.3113698998092
30
11.799999999999978
 70
     32
  0
VERTEX
  8
MY3DLAYER
10
610.6345670283196
20
533.408180218643
30
11.799999999999978
 70
     32
  0
VERTEX
  8
MY3DLAYER
10
599.5858976427346
20
539.3828198062471
30
11.799999999999978
 70
     32
  0
VERTEX
  8
MY3DLAYER
10
587.973234129415
20
544.1698292610258
30
11.799999999999978
 70
     32
  0
VERTEX
  8
MY3DLAYER
10
575.9238072599185
20
547.7167611056467
30
11.799999999999978
 70
     32
  0
VERTEX
  8
MY3DLAYER
10
563.5696330765322
20
549.9847544125766
30
11.799999999999978
 70
     32
  0
VERTEX
  8
MY3DLAYER
10
551.0460664968863
20
550.9489605725369
30
11.799999999999978
 70
     32
  0
VERTEX
  8
MY3DLAYER
10
538.4903183371523
20
550.5988155410657
30
11.799999999999978
 70
     32
  0
VERTEX
  8
MY3DLAYER
10
526.0399520016274
20
548.9381555804006
30
11.799999999999978
 70
     32
  0
VERTEX
  8
MY3DLAYER
10
513.8313763092902
20
545.9851752285861
30
11.799999999999978
 70
     32
  0
VERTEX
  8
MY3DLAYER
10
501.99835097023487
20
541.7722279563072
30
11.799999999999978
 70
     32
  0
VERTEX
  8
MY3DLAYER
10
490.6705210862957
20
536.3454716954952
30
11.799999999999978
 70
     32
  0
VERTEX
  8
MY3DLAYER
10
479.9719967321819
20
529.7643631233655
30
11.799999999999978
 70
     32
  0
VERTEX
  8
MY3DLAYER
10
470.0199931795274
20
522.1010062426193
30
11.799999999999978
 70
     32
  0
VERTEX
  8
MY3DLAYER
10
460.92354666184553
20
513.439362394903
30
11.799999999999978
 70
     32
  0
VERTEX
  8
MY3DLAYER
10
452.78231975073794
20
503.8743303627776
30
11.799999999999978
 70
     32
  0
VERTEX
  8
MY3DLAYER
10
445.68550943190405
20
493.5107066387986
30
11.799999999999978
 70
     32
  0
VERTEX
  8
MY3DLAYER
10
439.71086984429996
20
482.4620372532136
30
11.799999999999978
 70
     32
  0
VERTEX
  8
MY3DLAYER
10
434.9238603895211
20
470.84937373989396
30
11.799999999999978
 70
     32
  0
VERTEX
  8
MY3DLAYER
10
431.37692854490035
20
458.79994687039755
30
11.799999999999978
 70
     32
  0
VERTEX
  8
MY3DLAYER
10
429.10893523797034
20
446.44577268701124
30
11.799999999999978
 70
     32
  0
VERTEX
  8
MY3DLAYER
10
428.14472907801013
20
433.92220610736535
30
11.799999999999978
 70
     32
  0
VERTEX
  8
MY3DLAYER
10
428.4948741094813
20
421.36645794763126
30
11.799999999999978
 70
     32
  0
VERTEX
  8
MY3DLAYER
10
430.15553407014636
20
408.9160916121064
30
11.799999999999978
 70
     32
  0
VERTEX
  8
MY3DLAYER
10
433.10851442196093
20
396.70751591976926
30
11.799999999999978
 70
     32
  0
VERTEX
  8
MY3DLAYER
10
437.32146169423976
20
384.8744905807139
30
11.799999999999978
 70
     32
  0
VERTEX
  8
MY3DLAYER
10
442.7482179550517
20
373.5466606967746
30
11.799999999999978
 70
     32
  0
VERTEX
  8
MY3DLAYER
10
449.32932652718165
20
362.84813634266084
30
11.799999999999978
 70
     32
  0
VERTEX
  8
MY3DLAYER
10
456.99268340792776
20
352.8961327900063
30
11.799999999999978
 70
     32
  0
VERTEX
  8
MY3DLAYER
10
465.65432725564403
20
343.7996862723244
30
11.799999999999978
 70
     32
  0
VERTEX
  8
MY3DLAYER
10
475.2193592877695
20
335.65845936121684
30
11.799999999999978
 70
     32
  0
VERTEX
  8
MY3DLAYER
10
485.5829830117486
20
328.5616490423829
30
11.799999999999978
 70
     32
  0
VERTEX
  8
MY3DLAYER
10
496.63165239733354
20
322.58700945477875
30
11.799999999999978
 70
     32
  0
VERTEX
  8
MY3DLAYER
10
508.24431591065326
20
317.8
30
11.799999999999978
 70
     32
  0
VERTEX
  8
MY3DLAYER
10
520.2937427801497
20
314.25306815537925
30
11.799999999999978
 70
     32
  0
VERTEX
  8
MY3DLAYER
10
532.647916963536
20
311.98507484844936
30
11.799999999999978
 70
     32
  0
VERTEX
  8
MY3DLAYER
10
545.1714835431819
20
311.0208686884891
30
11.799999999999978
 70
     32
  0
VERTEX
  8
MY3DLAYER
10
557.727231702916
20
311.3710137199603
30
11.799999999999978
 70
     32
  0
VERTEX
  8
MY3DLAYER
10
570.1775980384408
20
313.0316736806254
30
11.799999999999978
 70
     32
  0
VERTEX
  8
MY3DLAYER
10
582.3861737307778
20
315.98465403244
30
11.799999999999978
 70
     32
  0
VERTEX
  8
MY3DLAYER
10
594.2191990698333
20
320.1976013047188
30
11.799999999999978
 70
     32
  0
VERTEX
  8
MY3DLAYER
10
605.5470289537724
20
325.6243575655307
30
11.799999999999978
 70
     32
  0
VERTEX
  8
MY3DLAYER
10
616.2455533078862
20
332.2054661376606
30
11.799999999999978
 70
     32
  0
VERTEX
  8
MY3DLAYER
10
626.1975568605408
20
339.86882301840666
30
11.799999999999978
 70
     32
  0
VERTEX
  8
MY3DLAYER
10
635.2940033782226
20
348.530466866123
30
11.799999999999978
 70
     32
  0
VERTEX
  8
MY3DLAYER
10
643.4352302893301
20
358.0954988982484
30
11.799999999999978
 70
     32
  0
VERTEX
  8
MY3DLAYER
10
650.532040608164
20
368.4591226222274
30
11.799999999999978
 70
     32
  0
VERTEX
  8
MY3DLAYER
10
656.5066801957681
20
379.50779200781227
30
11.799999999999978
 70
     32
  0
VERTEX
  8
MY3DLAYER
10
661.2936896505469
20
391.12045552113193
30
11.799999999999978
 70
     32
  0
VERTEX
  8
MY3DLAYER
10
664.8406214951676
20
403.16988239062835
30
11.799999999999978
 70
     32
  0
VERTEX
  8
MY3DLAYER
10
667.1086148020977
20
415.52405657401465
30
11.799999999999978
 70
     32
  0
VERTEX
  8
MY3DLAYER
10
668.0728209620578
20
428.0476231536605
30
11.799999999999978
 70
     32
  0
VERTEX
  8
MY3DLAYER
10
667.7226759305868
20
440.6033713133944
30
11.799999999999978
 70
     32
  0
VERTEX
  8
MY3DLAYER
10
666.0620159699217
20
453.05373764891925
30
11.799999999999978
 70
     32
  0
VERTEX
  8
MY3DLAYER
10
663.1090356181071
20
465.26231334125634
30
11.799999999999978
 70
     32
  0
VERTEX
  8
MY3DLAYER
10
658.8960883458284
20
477.0953386803117
30
11.799999999999978
 70
     32
  0
VERTEX
  8
MY3DLAYER
10
653.4693320850165
20
488.4231685642509
30
11.799999999999978
 70
     32
  0
VERTEX
  8
MY3DLAYER
10
646.8882235128867
20
499.1216929183648
30
11.799999999999978
 70
     32
  0
VERTEX
  8
MY3DLAYER
10
639.2248666321407
20
509.0736964710193
30
11.799999999999978
 70
     32
  0
VERTEX
  8
MY3DLAYER
10
630.5632227844244
20
518.1701429887011
30
11.799999999999978
 70
     32
  0
SEQEND
  0
POLYLINE
 8
Assembly
 66
     1
70
    8
 10
0.0
 20
 0.0
 30
0.0
  0
VERTEX
  8
MY3DLAYER
10
542.308775020034
20
370.98491463051295
30
11.800000000000068
 70
     32
  0
VERTEX
  8
MY3DLAYER
10
542.308775020034
20
425.18491463051305
30
11.799999999999978
 70
     32
  0
VERTEX
  8
MY3DLAYER
10
488.108775020034
20
425.18491463051305
30
11.799999999999978
 70
     32
  0
VERTEX
  8
MY3DLAYER
10
488.108775020034
20
436.7849146305129
30
11.799999999999978
 70
     32
  0
VERTEX
  8
MY3DLAYER
10
542.308775020034
20
436.7849146305129
30
11.799999999999978
 70
     32
  0
VERTEX
  8
MY3DLAYER
10
542.308775020034
20
490.98491463051295
30
11.800000000000068
 70
     32
  0
VERTEX
  8
MY3DLAYER
10
553.908775020034
20
490.98491463051295
30
11.800000000000068
 70
     32
  0
VERTEX
  8
MY3DLAYER
10
553.908775020034
20
436.7849146305129
30
11.799999999999978
 70
     32
  0
VERTEX
  8
MY3DLAYER
10
608.1087750200339
20
436.7849146305129
30
11.799999999999978
 70
     32
  0
VERTEX
  8
MY3DLAYER
10
608.1087750200339
20
425.18491463051305
30
11.799999999999978
 70
     32
  0
VERTEX
  8
MY3DLAYER
10
553.908775020034
20
425.18491463051305
30
11.799999999999978
 70
     32
  0
VERTEX
  8
MY3DLAYER
10
553.908775020034
20
370.98491463051295
30
11.800000000000068
 70
     32
  0
VERTEX
  8
MY3DLAYER
10
542.308775020034
20
370.98491463051295
30
11.800000000000068
 70
     32
  0
SEQEND
  0
LINE
 8
Assembly
10
51.099552261646295
20
508.2330218975331
30
11.60000000048617
11
47.250766675171995
21
507.46745084499156
31
11.60000000048524
  0
LINE
 8
Assembly
10
47.250766675171995
20
507.46745084499156
30
11.60000000048524
11
43.534835057294764
21
506.20606203165886
31
11.600000000483707
  0
LINE
 8
Assembly
10
43.534835057294764
20
506.20606203165886
30
11.600000000483707
11
40.01533802824705
21
504.47043816985416
31
11.600000000481549
  0
LINE
 8
Assembly
10
55.01533802824788
20
508.48967605631805
30
11.600000000486485
11
51.099552261646295
21
508.2330218975331
31
11.60000000048617
  0
LINE
 8
Assembly
10
225.01533802824792
20
508.48967605628445
30
11.60000000048653
11
225.0153380282502
21
520.2896760562845
31
11.600000000500884
  0
LINE
 8
Assembly
10
55.01533802824788
20
508.48967605631805
30
11.600000000486485
11
105.01533802824791
21
508.4896760563082
31
11.60000000048653
  0
LINE
 8
Assembly
10
36.75249515798505
20
502.2902762650587
30
11.6000000004789
11
33.802134592649644
21
499.7028794919186
31
11.600000000475752
  0
LINE
 8
Assembly
10
105.01533802824791
20
508.4896760563082
30
11.60000000048653
11
105.01533802825023
21
520.2896760563082
31
11.600000000500884
  0
LINE
 8
Assembly
10
33.802134592649644
20
499.7028794919186
30
11.600000000475752
11
31.21473781950854
21
496.7525189265843
31
11.60000000047216
  0
LINE
 8
Assembly
10
40.01533802824705
20
504.47043816985416
30
11.600000000481549
11
36.75249515798505
21
502.2902762650587
31
11.6000000004789
  0
LINE
 8
Assembly
10
105.01533802825023
20
520.2896760563082
30
11.600000000500884
11
159.21533802825024
21
520.2896760562975
31
11.600000000500884
  0
LINE
 8
Assembly
10
305.015338028242
20
478.48967605626865
30
11.600000000450036
11
304.75868386945706
21
482.4054618228702
31
11.6000000004548
  0
LINE
 8
Assembly
10
278.9311237948494
20
508.23302189748813
30
11.600000000486215
11
275.01533802824787
21
508.48967605627456
31
11.60000000048653
  0
LINE
 8
Assembly
10
300.9961001417781
20
493.48967605626945
30
11.600000000468283
11
298.8159382369827
21
496.75251892653154
31
11.600000000472251
  0
LINE
 8
Assembly
10
286.4958409992001
20
506.20606203161094
30
11.600000000483753
11
282.77990938132325
21
507.4674508449451
31
11.600000000485284
  0
LINE
 8
Assembly
10
290.0153380282471
20
504.4704381698048
30
11.60000000048164
11
286.4958409992001
21
506.20606203161094
31
11.600000000483753
  0
LINE
 8
Assembly
10
302.7317240035829
20
489.97017902722183
30
11.600000000464002
11
300.9961001417781
21
493.48967605626945
31
11.600000000468283
  0
LINE
 8
Assembly
10
296.22854146384253
20
499.70287949186684
30
11.600000000475843
11
293.2781808985083
21
502.29027626500806
31
11.600000000478989
  0
LINE
 8
Assembly
10
293.2781808985083
20
502.29027626500806
30
11.600000000478989
11
290.0153380282471
21
504.4704381698048
31
11.60000000048164
  0
LINE
 8
Assembly
10
298.8159382369827
20
496.75251892653154
30
11.600000000472251
11
296.22854146384253
21
499.70287949186684
31
11.600000000475843
  0
LINE
 8
Assembly
10
304.75868386945706
20
482.4054618228702
30
11.6000000004548
11
303.9931128169156
21
486.2542474093445
31
11.600000000459485
  0
LINE
 8
Assembly
10
303.9931128169156
20
486.2542474093445
30
11.600000000459485
11
302.7317240035829
21
489.97017902722183
31
11.600000000464002
  0
LINE
 8
Assembly
10
282.77990938132325
20
507.4674508449451
30
11.600000000485284
11
278.9311237948494
21
508.23302189748813
31
11.600000000486215
  0
LINE
 8
Assembly
10
75.01533802823008
20
418.48967605631407
30
11.60000000037701
11
70.82178964110763
21
288.4896760563149
31
11.600000000218882
  0
LINE
 8
Assembly
10
31.21473781950854
20
496.7525189265843
30
11.60000000047216
11
29.03457591471172
21
493.48967605632316
31
11.600000000468192
  0
LINE
 8
Assembly
10
29.03457591471172
20
493.48967605632316
30
11.600000000468192
11
27.29895205290555
21
489.9701790272762
31
11.600000000463911
  0
LINE
 8
Assembly
10
27.29895205290555
20
489.9701790272762
30
11.600000000463911
11
26.03756323957146
21
486.25424740939934
31
11.600000000459394
  0
LINE
 8
Assembly
10
26.03756323957146
20
486.25424740939934
30
11.600000000459394
11
25.27199218702841
21
482.4054618229255
31
11.60000000045471
  0
LINE
 8
Assembly
10
25.27199218702841
20
482.4054618229255
30
11.60000000045471
11
25.01533802824198
21
478.48967605632396
31
11.600000000449947
  0
LINE
 8
Assembly
10
25.01533802824198
20
478.48967605632396
30
11.600000000449947
11
25.015338028168888
21
108.48967605632393
31
11.599999999999978
  0
LINE
 8
Assembly
10
25.015338028168888
20
108.48967605632393
30
11.599999999999978
11
65.0153380281689
21
108.48967605631604
31
11.599999999999978
  0
LINE
 8
Assembly
10
70.44759609271833
20
276.88967605631495
30
11.600000000204771
11
65.0153380281689
21
108.48967605631604
31
11.599999999999978
  0
LINE
 8
Assembly
10
70.44759609271833
20
276.88967605631495
30
11.600000000204771
11
47.015338028202194
21
276.8896760563196
31
11.600000000204771
  0
LINE
 8
Assembly
10
47.015338028202194
20
276.8896760563196
30
11.600000000204771
11
47.015338028204404
21
288.48967605631964
31
11.600000000218882
  0
LINE
 8
Assembly
10
47.015338028204404
20
288.48967605631964
30
11.600000000218882
11
70.82178964110763
21
288.4896760563149
31
11.600000000218882
  0
LINE
 8
Assembly
10
105.01533802823602
20
448.48967605630816
30
11.600000000413548
11
225.01533802823602
21
448.4896760562845
31
11.600000000413548
  0
LINE
 8
Assembly
10
255.0153380282301
20
418.4896760562786
30
11.600000000377054
11
259.2088864153012
21
288.48967605627774
31
11.600000000218929
  0
LINE
 8
Assembly
10
283.01533802820444
20
288.48967605627297
30
11.600000000218929
11
259.2088864153012
21
288.48967605627774
31
11.600000000218929
  0
LINE
 8
Assembly
10
283.0153380282022
20
276.889676056273
30
11.600000000204815
11
283.01533802820444
21
288.48967605627297
31
11.600000000218929
  0
LINE
 8
Assembly
10
259.5830799636861
20
276.8896760562777
30
11.600000000204815
11
283.0153380282022
21
276.889676056273
31
11.600000000204815
  0
LINE
 8
Assembly
10
259.5830799636861
20
276.8896760562777
30
11.600000000204815
11
265.0153380281689
21
108.48967605627656
31
11.599999999999978
  0
LINE
 8
Assembly
10
265.0153380281689
20
108.48967605627656
30
11.599999999999978
11
305.0153380281689
21
108.48967605626866
31
11.599999999999978
  0
LINE
 8
Assembly
10
305.015338028242
20
478.48967605626865
30
11.600000000450036
11
305.0153380281689
21
108.48967605626866
31
11.599999999999978
  0
LINE
 8
Assembly
10
225.01533802824792
20
508.48967605628445
30
11.60000000048653
11
275.01533802824787
21
508.48967605627456
31
11.60000000048653
  0
LINE
 8
Assembly
10
170.8153380282502
20
520.2896760562953
30
11.600000000500884
11
225.0153380282502
21
520.2896760562845
31
11.600000000500884
  0
LINE
 8
Assembly
10
170.81533802824313
20
484.3896760562952
30
11.600000000457214
11
170.8153380282502
21
520.2896760562953
31
11.600000000500884
  0
LINE
 8
Assembly
10
159.21533802824317
20
484.38967605629745
30
11.600000000457214
11
170.81533802824313
21
484.3896760562952
31
11.600000000457214
  0
LINE
 8
Assembly
10
159.21533802825024
20
520.2896760562975
30
11.600000000500884
11
159.21533802824317
21
484.38967605629745
31
11.600000000457214
  0
POLYLINE
 8
Assembly
 66
     1
70
    8
 10
0.0
 20
 0.0
 30
0.0
  0
VERTEX
  8
MY3DLAYER
10
556.095858171007
20
38.72622649211264
30
11.600000000000001
 70
     32
  0
VERTEX
  8
MY3DLAYER
10
561.8958581710067
20
39.030191611954265
30
11.600000000000001
 70
     32
  0
VERTEX
  8
MY3DLAYER
10
561.8958581710067
20
16.999999999999993
30
11.600000000000001
 70
     32
  0
VERTEX
  8
MY3DLAYER
10
570.7298430284781
20
17.462969528600066
30
11.600000000000001
 70
     32
  0
VERTEX
  8
MY3DLAYER
10
585.2034948854929
20
19.755370777425536
30
11.600000000000001
 70
     32
  0
VERTEX
  8
MY3DLAYER
10
599.3582373834993
20
23.548122598836805
30
11.600000000000001
 70
     32
  0
VERTEX
  8
MY3DLAYER
10
613.0389882016185
20
28.799670810194147
30
11.600000000000001
 70
     32
  0
VERTEX
  8
MY3DLAYER
10
626.0958581710065
20
35.45247835033681
30
11.600000000000001
 70
     32
  0
VERTEX
  8
MY3DLAYER
10
638.3857934919528
20
43.433655667665555
30
11.600000000000001
 70
     32
  0
VERTEX
  8
MY3DLAYER
10
649.7741430612465
20
52.65575931332294
30
11.600000000000001
 70
     32
  0
VERTEX
  8
MY3DLAYER
10
660.1361337378416
20
63.017749989917924
30
11.600000000000001
 70
     32
  0
VERTEX
  8
MY3DLAYER
10
669.3582373834992
20
74.40609955921178
30
11.600000000000001
 70
     32
  0
VERTEX
  8
MY3DLAYER
10
677.3394147008279
20
86.69603488015795
30
11.600000000000001
 70
     32
  0
VERTEX
  8
MY3DLAYER
10
683.9922222409707
20
99.75290484954587
30
11.600000000000001
 70
     32
  0
VERTEX
  8
MY3DLAYER
10
689.243770452328
20
113.43365566766519
30
11.600000000000001
 70
     32
  0
VERTEX
  8
MY3DLAYER
10
693.0365222737394
20
127.58839816567148
30
11.600000000000001
 70
     32
  0
VERTEX
  8
MY3DLAYER
10
695.3289235225649
20
142.06205002268624
30
11.600000000000001
 70
     32
  0
VERTEX
  8
MY3DLAYER
10
695.7918930511651
20
150.89603488015834
30
11.600000000000001
 70
     32
  0
VERTEX
  8
MY3DLAYER
10
673.7617014392108
20
150.89603488015834
30
11.600000000000001
 70
     32
  0
VERTEX
  8
MY3DLAYER
10
674.0656665590525
20
156.69603488015807
30
11.600000000000001
 70
     32
  0
VERTEX
  8
MY3DLAYER
10
673.7617014392108
20
162.49603488015836
30
11.600000000000001
 70
     32
  0
VERTEX
  8
MY3DLAYER
10
695.7918930511651
20
162.49603488015833
30
11.600000000000001
 70
     32
  0
VERTEX
  8
MY3DLAYER
10
695.3289235225649
20
171.33001973762984
30
11.600000000000001
 70
     32
  0
VERTEX
  8
MY3DLAYER
10
693.0365222737395
20
185.80367159464464
30
11.600000000000001
 70
     32
  0
VERTEX
  8
MY3DLAYER
10
689.2437704523282
20
199.95841409265097
30
11.600000000000001
 70
     32
  0
VERTEX
  8
MY3DLAYER
10
683.9922222409708
20
213.63916491077035
30
11.600000000000001
 70
     32
  0
VERTEX
  8
MY3DLAYER
10
677.3394147008281
20
226.69603488015835
30
11.600000000000001
 70
     32
  0
VERTEX
  8
MY3DLAYER
10
669.3582373834994
20
238.9859702011046
30
11.600000000000001
 70
     32
  0
VERTEX
  8
MY3DLAYER
10
660.1361337378419
20
250.37431977039847
30
11.600000000000001
 70
     32
  0
VERTEX
  8
MY3DLAYER
10
649.774143061247
20
260.7363104469935
30
11.600000000000001
 70
     32
  0
VERTEX
  8
MY3DLAYER
10
638.385793491953
20
269.95841409265097
30
11.600000000000001
 70
     32
  0
VERTEX
  8
MY3DLAYER
10
626.0958581710067
20
277.9395914099798
30
11.600000000000001
 70
     32
  0
VERTEX
  8
MY3DLAYER
10
613.0389882016187
20
284.5923989501225
30
11.600000000000001
 70
     32
  0
VERTEX
  8
MY3DLAYER
10
599.3582373834993
20
289.8439471614799
30
11.600000000000001
 70
     32
  0
VERTEX
  8
MY3DLAYER
10
585.2034948854931
20
293.6366989828912
30
11.600000000000001
 70
     32
  0
VERTEX
  8
MY3DLAYER
10
570.7298430284782
20
295.9291002317166
30
11.600000000000001
 70
     32
  0
VERTEX
  8
MY3DLAYER
10
561.8958581710067
20
296.39206976031664
30
11.600000000000001
 70
     32
  0
VERTEX
  8
MY3DLAYER
10
561.8958581710067
20
274.3618781483625
30
11.600000000000001
 70
     32
  0
VERTEX
  8
MY3DLAYER
10
556.0958581710067
20
274.665843268204
30
11.600000000000001
 70
     32
  0
VERTEX
  8
MY3DLAYER
10
550.2958581710067
20
274.3618781483625
30
11.600000000000001
 70
     32
  0
VERTEX
  8
MY3DLAYER
10
550.2958581710067
20
296.39206976031664
30
11.600000000000001
 70
     32
  0
VERTEX
  8
MY3DLAYER
10
541.4618733135353
20
295.92910023171663
30
11.600000000000001
 70
     32
  0
VERTEX
  8
MY3DLAYER
10
526.9882214565205
20
293.6366989828912
30
11.600000000000001
 70
     32
  0
VERTEX
  8
MY3DLAYER
10
512.8334789585141
20
289.8439471614799
30
11.600000000000001
 70
     32
  0
VERTEX
  8
MY3DLAYER
10
499.15272814039474
20
284.5923989501225
30
11.600000000000001
 70
     32
  0
VERTEX
  8
MY3DLAYER
10
486.09585817100674
20
277.9395914099798
30
11.600000000000001
 70
     32
  0
VERTEX
  8
MY3DLAYER
10
473.8059228500605
20
269.958414092651
30
11.600000000000001
 70
     32
  0
VERTEX
  8
MY3DLAYER
10
462.41757328076665
20
260.7363104469935
30
11.600000000000001
 70
     32
  0
VERTEX
  8
MY3DLAYER
10
452.0555826041715
20
250.37431977039856
30
11.600000000000001
 70
     32
  0
VERTEX
  8
MY3DLAYER
10
442.8334789585141
20
238.9859702011046
30
11.600000000000001
 70
     32
  0
VERTEX
  8
MY3DLAYER
10
434.8523016411853
20
226.69603488015835
30
11.600000000000001
 70
     32
  0
VERTEX
  8
MY3DLAYER
10
428.1994941010426
20
213.63916491077035
30
11.600000000000001
 70
     32
  0
VERTEX
  8
MY3DLAYER
10
422.9479458896852
20
199.95841409265094
30
11.600000000000001
 70
     32
  0
VERTEX
  8
MY3DLAYER
10
419.15519406827394
20
185.80367159464458
30
11.600000000000001
 70
     32
  0
VERTEX
  8
MY3DLAYER
10
416.86279281944843
20
171.33001973762975
30
11.600000000000001
 70
     32
  0
VERTEX
  8
MY3DLAYER
10
416.39982329084836
20
162.49603488015836
30
11.600000000000001
 70
     32
  0
VERTEX
  8
MY3DLAYER
10
438.4300149028026
20
162.49603488015836
30
11.600000000000001
 70
     32
  0
VERTEX
  8
MY3DLAYER
10
438.126049782961
20
156.69603488015858
30
11.600000000000001
 70
     32
  0
VERTEX
  8
MY3DLAYER
10
438.4300149028026
20
150.89603488015834
30
11.600000000000001
 70
     32
  0
VERTEX
  8
MY3DLAYER
10
416.39982329084836
20
150.89603488015834
30
11.600000000000001
 70
     32
  0
VERTEX
  8
MY3DLAYER
10
416.86279281944843
20
142.06205002268672
30
11.600000000000001
 70
     32
  0
VERTEX
  8
MY3DLAYER
10
419.15519406827394
20
127.58839816567189
30
11.600000000000001
 70
     32
  0
VERTEX
  8
MY3DLAYER
10
422.94794588968523
20
113.43365566766553
30
11.600000000000001
 70
     32
  0
VERTEX
  8
MY3DLAYER
10
428.1994941010427
20
99.75290484954614
30
11.600000000000001
 70
     32
  0
VERTEX
  8
MY3DLAYER
10
434.8523016411854
20
86.69603488015815
30
11.600000000000001
 70
     32
  0
VERTEX
  8
MY3DLAYER
10
442.83347895851426
20
74.40609955921191
30
11.600000000000001
 70
     32
  0
VERTEX
  8
MY3DLAYER
10
452.05558260417166
20
63.017749989918
30
11.600000000000001
 70
     32
  0
VERTEX
  8
MY3DLAYER
10
462.4175732807667
20
52.65575931332298
30
11.600000000000001
 70
     32
  0
VERTEX
  8
MY3DLAYER
10
473.8059228500607
20
43.433655667665576
30
11.600000000000001
 70
     32
  0
VERTEX
  8
MY3DLAYER
10
486.09585817100685
20
35.452478350336854
30
11.600000000000001
 70
     32
  0
VERTEX
  8
MY3DLAYER
10
499.15272814039474
20
28.799670810194172
30
11.600000000000001
 70
     32
  0
VERTEX
  8
MY3DLAYER
10
512.8334789585142
20
23.54812259883683
30
11.600000000000001
 70
     32
  0
VERTEX
  8
MY3DLAYER
10
526.9882214565205
20
19.75537077742556
30
11.600000000000001
 70
     32
  0
VERTEX
  8
MY3DLAYER
10
541.4618733135353
20
17.462969528600066
30
11.600000000000001
 70
     32
  0
VERTEX
  8
MY3DLAYER
10
550.2958581710067
20
16.999999999999993
30
11.600000000000001
 70
     32
  0
VERTEX
  8
MY3DLAYER
10
550.2958581710067
20
39.030191611954265
30
11.600000000000001
 70
     32
  0
VERTEX
  8
MY3DLAYER
10
556.095858171007
20
38.72622649211264
30
11.600000000000001
 70
     32
  0
SEQEND
  0
POLYLINE
 8
Assembly
 66
     1
70
    8
 10
0.0
 20
 0.0
 30
0.0
  0
VERTEX
  8
MY3DLAYER
10
632.2544095345874
20
101.36360844323595
30
11.600000000000001
 70
     32
  0
VERTEX
  8
MY3DLAYER
10
626.053391517295
20
93.70598892605908
30
11.600000000000001
 70
     32
  0
VERTEX
  8
MY3DLAYER
10
619.0859041251057
20
86.73850153386975
30
11.600000000000001
 70
     32
  0
VERTEX
  8
MY3DLAYER
10
611.4282846079287
20
80.5374835165774
30
11.600000000000001
 70
     32
  0
VERTEX
  8
MY3DLAYER
10
603.1644314476541
20
75.17087452522583
30
11.600000000000001
 70
     32
  0
VERTEX
  8
MY3DLAYER
10
594.3848851488285
20
70.69747225095963
30
11.600000000000001
 70
     32
  0
VERTEX
  8
MY3DLAYER
10
585.1858362579396
20
67.16628822521496
30
11.600000000000001
 70
     32
  0
VERTEX
  8
MY3DLAYER
10
575.6680714796613
20
64.61601083912595
30
11.600000000000001
 70
     32
  0
VERTEX
  8
MY3DLAYER
10
565.9358694366248
20
63.0745814654143
30
11.600000000000001
 70
     32
  0
VERTEX
  8
MY3DLAYER
10
556.0958581710071
20
62.55888832686315
30
11.600000000000001
 70
     32
  0
VERTEX
  8
MY3DLAYER
10
546.2558469053891
20
63.07458146541425
30
11.600000000000001
 70
     32
  0
VERTEX
  8
MY3DLAYER
10
536.523644862352
20
64.616010839126
30
11.600000000000001
 70
     32
  0
VERTEX
  8
MY3DLAYER
10
527.0058800840735
20
67.16628822521508
30
11.600000000000001
 70
     32
  0
VERTEX
  8
MY3DLAYER
10
517.8068311931848
20
70.69747225095963
30
11.600000000000001
 70
     32
  0
VERTEX
  8
MY3DLAYER
10
509.0272848943591
20
75.17087452522598
30
11.600000000000001
 70
     32
  0
VERTEX
  8
MY3DLAYER
10
500.7634317340846
20
80.53748351657748
30
11.600000000000001
 70
     32
  0
VERTEX
  8
MY3DLAYER
10
493.10581221690774
20
86.73850153386975
30
11.600000000000001
 70
     32
  0
VERTEX
  8
MY3DLAYER
10
486.1383248247181
20
93.70598892605936
30
11.600000000000001
 70
     32
  0
VERTEX
  8
MY3DLAYER
10
479.9373068074258
20
101.36360844323627
30
11.600000000000001
 70
     32
  0
VERTEX
  8
MY3DLAYER
10
474.57069781607447
20
109.6274616035105
30
11.600000000000001
 70
     32
  0
VERTEX
  8
MY3DLAYER
10
470.09729554180814
20
118.40700790233628
30
11.600000000000001
 70
     32
  0
VERTEX
  8
MY3DLAYER
10
466.56611151606353
20
127.60605679322487
30
11.600000000000001
 70
     32
  0
VERTEX
  8
MY3DLAYER
10
464.0158341299744
20
137.12382157150313
30
11.600000000000001
 70
     32
  0
VERTEX
  8
MY3DLAYER
10
462.4744047562627
20
146.85602361454022
30
11.600000000000001
 70
     32
  0
VERTEX
  8
MY3DLAYER
10
461.95871161771146
20
156.69603488015858
30
11.600000000000001
 70
     32
  0
VERTEX
  8
MY3DLAYER
10
462.47440475626263
20
166.5360461457759
30
11.600000000000001
 70
     32
  0
VERTEX
  8
MY3DLAYER
10
464.0158341299744
20
176.26824818881315
30
11.600000000000001
 70
     32
  0
VERTEX
  8
MY3DLAYER
10
466.56611151606353
20
185.78601296709198
30
11.600000000000001
 70
     32
  0
VERTEX
  8
MY3DLAYER
10
470.097295541808
20
194.98506185798024
30
11.600000000000001
 70
     32
  0
VERTEX
  8
MY3DLAYER
10
474.57069781607436
20
203.76460815680596
30
11.600000000000001
 70
     32
  0
VERTEX
  8
MY3DLAYER
10
479.93730680742584
20
212.02846131708054
30
11.600000000000001
 70
     32
  0
VERTEX
  8
MY3DLAYER
10
486.13832482471827
20
219.68608083425755
30
11.600000000000001
 70
     32
  0
VERTEX
  8
MY3DLAYER
10
493.10581221690757
20
226.65356822644677
30
11.600000000000001
 70
     32
  0
VERTEX
  8
MY3DLAYER
10
500.76343173408475
20
232.85458624373933
30
11.600000000000001
 70
     32
  0
VERTEX
  8
MY3DLAYER
10
509.0272848943592
20
238.22119523509073
30
11.600000000000001
 70
     32
  0
VERTEX
  8
MY3DLAYER
10
517.8068311931848
20
242.69459750935698
30
11.600000000000001
 70
     32
  0
VERTEX
  8
MY3DLAYER
10
527.0058800840735
20
246.22578153510162
30
11.600000000000001
 70
     32
  0
VERTEX
  8
MY3DLAYER
10
536.5236448623521
20
248.77605892119072
30
11.600000000000001
 70
     32
  0
VERTEX
  8
MY3DLAYER
10
546.2558469053891
20
250.3174882949025
30
11.600000000000001
 70
     32
  0
VERTEX
  8
MY3DLAYER
10
556.0958581710067
20
250.83318143345355
30
11.600000000000001
 70
     32
  0
VERTEX
  8
MY3DLAYER
10
565.9358694366246
20
250.3174882949024
30
11.600000000000001
 70
     32
  0
VERTEX
  8
MY3DLAYER
10
575.6680714796616
20
248.77605892119072
30
11.600000000000001
 70
     32
  0
VERTEX
  8
MY3DLAYER
10
585.1858362579397
20
246.2257815351017
30
11.600000000000001
 70
     32
  0
VERTEX
  8
MY3DLAYER
10
594.3848851488283
20
242.69459750935718
30
11.600000000000001
 70
     32
  0
VERTEX
  8
MY3DLAYER
10
603.1644314476545
20
238.22119523509065
30
11.600000000000001
 70
     32
  0
VERTEX
  8
MY3DLAYER
10
611.4282846079288
20
232.85458624373916
30
11.600000000000001
 70
     32
  0
VERTEX
  8
MY3DLAYER
10
619.0859041251058
20
226.65356822644685
30
11.600000000000001
 70
     32
  0
VERTEX
  8
MY3DLAYER
10
626.0533915172952
20
219.68608083425738
30
11.600000000000001
 70
     32
  0
VERTEX
  8
MY3DLAYER
10
632.2544095345875
20
212.02846131708054
30
11.600000000000001
 70
     32
  0
VERTEX
  8
MY3DLAYER
10
637.6210185259389
20
203.7646081568062
30
11.600000000000001
 70
     32
  0
VERTEX
  8
MY3DLAYER
10
642.0944208002054
20
194.9850618579802
30
11.600000000000001
 70
     32
  0
VERTEX
  8
MY3DLAYER
10
645.62560482595
20
185.78601296709164
30
11.600000000000001
 70
     32
  0
VERTEX
  8
MY3DLAYER
10
648.175882212039
20
176.26824818881298
30
11.600000000000001
 70
     32
  0
VERTEX
  8
MY3DLAYER
10
649.7173115857507
20
166.5360461457761
30
11.600000000000001
 70
     32
  0
VERTEX
  8
MY3DLAYER
10
650.233004724302
20
156.69603488015824
30
11.600000000000001
 70
     32
  0
VERTEX
  8
MY3DLAYER
10
649.7173115857507
20
146.85602361454005
30
11.600000000000001
 70
     32
  0
VERTEX
  8
MY3DLAYER
10
648.1758822120389
20
137.12382157150302
30
11.600000000000001
 70
     32
  0
VERTEX
  8
MY3DLAYER
10
645.6256048259497
20
127.60605679322451
30
11.600000000000001
 70
     32
  0
VERTEX
  8
MY3DLAYER
10
642.0944208002052
20
118.40700790233596
30
11.600000000000001
 70
     32
  0
VERTEX
  8
MY3DLAYER
10
637.6210185259389
20
109.6274616035104
30
11.600000000000001
 70
     32
  0
VERTEX
  8
MY3DLAYER
10
632.2544095345874
20
101.36360844323595
30
11.600000000000001
 70
     32
  0
SEQEND
  0
POLYLINE
 8
Assembly
 66
     1
70
    8
 10
0.0
 20
 0.0
 30
0.0
  0
VERTEX
  8
MY3DLAYER
10
321.9033195158978
20
93.50000000000499
30
11.599999999971244
 70
     32
  0
VERTEX
  8
MY3DLAYER
10
267.70331951589776
20
93.50000000000482
30
11.599999999971244
 70
     32
  0
VERTEX
  8
MY3DLAYER
10
267.70331951589793
20
57.60000000000481
30
11.599999999985656
 70
     32
  0
VERTEX
  8
MY3DLAYER
10
256.10331951589797
20
57.60000000000477
30
11.599999999985656
 70
     32
  0
VERTEX
  8
MY3DLAYER
10
256.1033195158978
20
93.50000000000477
30
11.599999999971244
 70
     32
  0
VERTEX
  8
MY3DLAYER
10
201.90331951589775
20
93.50000000000455
30
11.599999999971153
 70
     32
  0
VERTEX
  8
MY3DLAYER
10
197.98753374929623
20
93.7566541587902
30
11.599999999971141
 70
     32
  0
VERTEX
  8
MY3DLAYER
10
194.13874816282217
20
94.52222521133248
30
11.599999999970834
 70
     32
  0
VERTEX
  8
MY3DLAYER
10
190.42281654494502
20
95.7836140246659
30
11.599999999970327
 70
     32
  0
VERTEX
  8
MY3DLAYER
10
186.90331951589778
20
97.51923788647134
30
11.599999999969631
 70
     32
  0
VERTEX
  8
MY3DLAYER
10
183.6404766456361
20
99.69939979126744
30
11.599999999968755
 70
     32
  0
VERTEX
  8
MY3DLAYER
10
180.6901160803013
20
102.28679656440805
30
11.599999999967716
 70
     32
  0
VERTEX
  8
MY3DLAYER
10
178.1027193071607
20
105.23715712974283
30
11.599999999966531
 70
     32
  0
VERTEX
  8
MY3DLAYER
10
175.92255740236456
20
108.50000000000448
30
11.599999999965222
 70
     32
  0
VERTEX
  8
MY3DLAYER
10
174.1869335405591
20
112.01949702905173
30
11.59999999996381
 70
     32
  0
VERTEX
  8
MY3DLAYER
10
172.92554472722566
20
115.73542864692882
30
11.599999999962318
 70
     32
  0
VERTEX
  8
MY3DLAYER
10
172.15997367468333
20
119.5842142334029
30
11.599999999960772
 70
     32
  0
VERTEX
  8
MY3DLAYER
10
171.90331951589766
20
123.50000000000445
30
11.599999999959202
 70
     32
  0
VERTEX
  8
MY3DLAYER
10
167.70977112880038
20
253.50000000000443
30
11.599999999907011
 70
     32
  0
VERTEX
  8
MY3DLAYER
10
143.9033195158972
20
253.50000000000435
30
11.599999999907011
 70
     32
  0
VERTEX
  8
MY3DLAYER
10
143.90331951589718
20
265.10000000000434
30
11.599999999902355
 70
     32
  0
VERTEX
  8
MY3DLAYER
10
167.33557758041326
20
265.1000000000044
30
11.599999999902355
 70
     32
  0
VERTEX
  8
MY3DLAYER
10
161.9033195158965
20
433.5000000000044
30
11.599999999834658
 70
     32
  0
VERTEX
  8
MY3DLAYER
10
121.90331951589657
20
433.50000000000426
30
11.599999999834658
 70
     32
  0
VERTEX
  8
MY3DLAYER
10
121.90331951589798
20
63.500000000004285
30
11.599999999983288
 70
     32
  0
VERTEX
  8
MY3DLAYER
10
122.15997367468368
20
59.58421423340274
30
11.599999999984862
 70
     32
  0
VERTEX
  8
MY3DLAYER
10
122.92554472722591
20
55.73542864692867
30
11.599999999986407
 70
     32
  0
VERTEX
  8
MY3DLAYER
10
124.18693354055938
20
52.019497029051564
30
11.599999999987897
 70
     32
  0
VERTEX
  8
MY3DLAYER
10
125.92255740236487
20
48.50000000000426
30
11.599999999989311
 70
     32
  0
VERTEX
  8
MY3DLAYER
10
128.102719307161
20
45.23715712974267
30
11.599999999990619
 70
     32
  0
VERTEX
  8
MY3DLAYER
10
130.6901160803016
20
42.28679656440785
30
11.599999999991804
 70
     32
  0
VERTEX
  8
MY3DLAYER
10
133.6404766456364
20
39.69939979126724
30
11.599999999992844
 70
     32
  0
VERTEX
  8
MY3DLAYER
10
136.9033195158981
20
37.51923788647114
30
11.599999999993718
 70
     32
  0
VERTEX
  8
MY3DLAYER
10
140.4228165449454
20
35.783614024665695
30
11.599999999994324
 70
     32
  0
VERTEX
  8
MY3DLAYER
10
144.13874816282248
20
34.52222521133228
30
11.599999999994832
 70
     32
  0
VERTEX
  8
MY3DLAYER
10
147.98753374929655
20
33.75665415879004
30
11.59999999999514
 70
     32
  0
VERTEX
  8
MY3DLAYER
10
151.90331951589815
20
33.500000000004334
30
11.59999999999524
 70
     32
  0
VERTEX
  8
MY3DLAYER
10
201.90331951589803
20
33.50000000000452
30
11.59999999999524
 70
     32
  0
VERTEX
  8
MY3DLAYER
10
201.90331951589806
20
21.70000000000454
30
11.599999999999978
 70
     32
  0
VERTEX
  8
MY3DLAYER
10
321.9033195158981
20
21.70000000000499
30
11.599999999999978
 70
     32
  0
VERTEX
  8
MY3DLAYER
10
321.90331951589803
20
33.50000000000497
30
11.59999999999524
 70
     32
  0
VERTEX
  8
MY3DLAYER
10
371.9033195158981
20
33.50000000000524
30
11.599999999995331
 70
     32
  0
VERTEX
  8
MY3DLAYER
10
375.8191052824996
20
33.7566541587909
30
11.59999999999523
 70
     32
  0
VERTEX
  8
MY3DLAYER
10
379.6678908689736
20
34.52222521133318
30
11.599999999994923
 70
     32
  0
VERTEX
  8
MY3DLAYER
10
383.3838224868507
20
35.78361402466664
30
11.599999999994415
 70
     32
  0
VERTEX
  8
MY3DLAYER
10
386.9033195158981
20
37.51923788647209
30
11.599999999993718
 70
     32
  0
VERTEX
  8
MY3DLAYER
10
390.16616238615967
20
39.699399791268185
30
11.599999999992844
 70
     32
  0
VERTEX
  8
MY3DLAYER
10
393.11652295149446
20
42.28679656440884
30
11.599999999991804
 70
     32
  0
VERTEX
  8
MY3DLAYER
10
395.70391972463517
20
45.23715712974366
30
11.599999999990619
 70
     32
  0
VERTEX
  8
MY3DLAYER
10
397.8840816294312
20
48.5000000000053
30
11.599999999989311
 70
     32
  0
VERTEX
  8
MY3DLAYER
10
399.6197054912366
20
52.01949702905261
30
11.599999999987897
 70
     32
  0
VERTEX
  8
MY3DLAYER
10
400.88109430457007
20
55.735428646929705
30
11.599999999986407
 70
     32
  0
VERTEX
  8
MY3DLAYER
10
401.6466653571123
20
59.58421423340378
30
11.599999999984862
 70
     32
  0
VERTEX
  8
MY3DLAYER
10
401.903319515898
20
63.50000000000532
30
11.599999999983288
 70
     32
  0
VERTEX
  8
MY3DLAYER
10
401.9033195158966
20
433.50000000000534
30
11.599999999834658
 70
     32
  0
VERTEX
  8
MY3DLAYER
10
361.9033195158965
20
433.5000000000052
30
11.599999999834658
 70
     32
  0
VERTEX
  8
MY3DLAYER
10
356.471061451381
20
265.10000000000514
30
11.599999999902355
 70
     32
  0
VERTEX
  8
MY3DLAYER
10
379.9033195158972
20
265.1000000000052
30
11.599999999902355
 70
     32
  0
VERTEX
  8
MY3DLAYER
10
379.90331951589724
20
253.50000000000523
30
11.599999999907011
 70
     32
  0
VERTEX
  8
MY3DLAYER
10
356.09686790299395
20
253.50000000000514
30
11.599999999907011
 70
     32
  0
VERTEX
  8
MY3DLAYER
10
351.9033195158977
20
123.50000000000512
30
11.599999999959202
 70
     32
  0
VERTEX
  8
MY3DLAYER
10
351.646665357112
20
119.58421423340357
30
11.599999999960772
 70
     32
  0
VERTEX
  8
MY3DLAYER
10
350.8810943045698
20
115.7354286469295
30
11.599999999962318
 70
     32
  0
VERTEX
  8
MY3DLAYER
10
349.61970549123635
20
112.0194970290524
30
11.59999999996381
 70
     32
  0
VERTEX
  8
MY3DLAYER
10
347.88408162943097
20
108.50000000000514
30
11.599999999965222
 70
     32
  0
VERTEX
  8
MY3DLAYER
10
345.70391972463483
20
105.23715712974347
30
11.599999999966531
 70
     32
  0
VERTEX
  8
MY3DLAYER
10
343.11652295149423
20
102.28679656440865
30
11.599999999967716
 70
     32
  0
VERTEX
  8
MY3DLAYER
10
340.1661623861594
20
99.69939979126804
30
11.599999999968755
 70
     32
  0
VERTEX
  8
MY3DLAYER
10
336.9033195158978
20
97.51923788647193
30
11.599999999969631
 70
     32
  0
VERTEX
  8
MY3DLAYER
10
333.3838224868505
20
95.78361402466645
30
11.599999999970327
 70
     32
  0
VERTEX
  8
MY3DLAYER
10
329.6678908689735
20
94.52222521133298
30
11.599999999970834
 70
     32
  0
VERTEX
  8
MY3DLAYER
10
325.8191052824994
20
93.7566541587907
30
11.599999999971141
 70
     32
  0
VERTEX
  8
MY3DLAYER
10
321.9033195158978
20
93.50000000000499
30
11.599999999971244
 70
     32
  0
SEQEND
  0
LINE
 8
Assembly
10
228.93112379483753
20
448.233021897498
30
11.600000000413234
11
225.01533802823602
21
448.4896760562845
31
11.600000000413548
  0
LINE
 8
Assembly
10
232.77990938131146
20
447.46745084495495
30
11.600000000412305
11
228.93112379483753
21
448.233021897498
31
11.600000000413234
  0
LINE
 8
Assembly
10
253.9931128169037
20
426.2542474093543
30
11.6000000003865
11
252.731724003571
21
429.9701790272317
31
11.600000000391018
  0
LINE
 8
Assembly
10
243.27818089849643
20
442.29027626501795
30
11.600000000406004
11
240.01533802823528
21
444.47043816981466
31
11.600000000408656
  0
LINE
 8
Assembly
10
250.99610014176628
20
433.48967605627934
30
11.6000000003953
11
248.81593823697077
21
436.75251892654137
31
11.60000000039927
  0
LINE
 8
Assembly
10
246.22854146383074
20
439.7028794918767
30
11.600000000402858
11
243.27818089849643
21
442.29027626501795
31
11.600000000406004
  0
LINE
 8
Assembly
10
236.49584099918832
20
446.2060620316208
30
11.60000000041077
11
232.77990938131146
21
447.46745084495495
31
11.600000000412305
  0
LINE
 8
Assembly
10
254.75868386944515
20
422.40546182288017
30
11.600000000381817
11
253.9931128169037
21
426.2542474093543
31
11.6000000003865
  0
LINE
 8
Assembly
10
240.01533802823528
20
444.47043816981466
30
11.600000000408656
11
236.49584099918832
21
446.2060620316208
31
11.60000000041077
  0
LINE
 8
Assembly
10
248.81593823697077
20
436.75251892654137
30
11.60000000039927
11
246.22854146383074
21
439.7028794918767
31
11.600000000402858
  0
LINE
 8
Assembly
10
252.731724003571
20
429.9701790272317
30
11.600000000391018
11
250.99610014176628
21
433.48967605627934
31
11.6000000003953
  0
LINE
 8
Assembly
10
255.0153380282301
20
418.4896760562786
30
11.600000000377054
11
254.75868386944515
21
422.40546182288017
31
11.600000000381817
  0
LINE
 8
Assembly
10
75.01533802823008
20
418.48967605631407
30
11.60000000037701
11
75.2719921870165
21
422.4054618229155
31
11.600000000381772
  0
LINE
 8
Assembly
10
76.03756323955955
20
426.2542474093895
30
11.600000000386453
11
77.29895205289372
21
429.97017902726634
31
11.600000000390974
  0
LINE
 8
Assembly
10
75.2719921870165
20
422.4054618229155
30
11.600000000381772
11
76.03756323955955
21
426.2542474093895
31
11.600000000386453
  0
LINE
 8
Assembly
10
79.0345759146999
20
433.4896760563133
30
11.600000000395255
11
81.21473781949662
21
436.7525189265745
31
11.600000000399223
  0
LINE
 8
Assembly
10
77.29895205289372
20
429.97017902726634
30
11.600000000390974
11
79.0345759146999
21
433.4896760563133
31
11.600000000395255
  0
LINE
 8
Assembly
10
83.80213459263783
20
439.7028794919088
30
11.600000000402812
11
86.75249515797313
21
442.2902762650488
31
11.60000000040596
  0
LINE
 8
Assembly
10
81.21473781949662
20
436.7525189265745
30
11.600000000399223
11
83.80213459263783
21
439.7028794919088
31
11.600000000402812
  0
LINE
 8
Assembly
10
90.01533802823523
20
444.4704381698443
30
11.600000000408611
11
93.5348350572828
21
446.206062031649
31
11.600000000410725
  0
LINE
 8
Assembly
10
86.75249515797313
20
442.2902762650488
30
11.60000000040596
11
90.01533802823523
21
444.4704381698443
31
11.600000000408611
  0
LINE
 8
Assembly
10
93.5348350572828
20
446.206062031649
30
11.600000000410725
11
97.25076667516018
21
447.4674508449818
31
11.60000000041226
  0
LINE
 8
Assembly
10
97.25076667516018
20
447.4674508449818
30
11.60000000041226
11
101.09955226163439
21
448.2330218975232
31
11.60000000041319
  0
LINE
 8
Assembly
10
101.09955226163439
20
448.2330218975232
30
11.60000000041319
11
105.01533802823602
21
448.48967605630816
31
11.600000000413548
 0
ENDSEC
 0
EOF
