  0
SECTION
  2
HEADER
  9
$ACADVER
  1
AC1014
  9
$HANDSEED
  5
FFFF
  9
$MEASUREMENT
 70
     1
  0
ENDSEC
  0
SECTION
  2
TABLES
  0
TABLE
  2
VPORT
  5
8
330
0
100
AcDbSymbolTable
 70
     4
  0
VPORT
  5
2E
330
8
100
AcDbSymbolTableRecord
100
AcDbViewportTableRecord
  2
*ACTIVE
 70
     0
 10
0.0
 20
0.0
 11
1.0
 21
1.0
 12
210.0
 22
148.5
 13
0.0
 23
0.0
 14
10.0
 24
10.0
 15
10.0
 25
10.0
 16
0.0
 26
0.0
 36
1.0
 17
0.0
 27
0.0
 37
0.0
 40
341.0
 41
1.24
 42
50.0
 43
0.0
 44
0.0
 50
0.0
 51
0.0
 71
     0
 72
   100
 73
     1
 74
     3
 75
     0
 76
     0
 77
     0
 78
     0
  0
ENDTAB
  0
TABLE
  2
LTYPE
  5
5
330
0
100
AcDbSymbolTable
 70
     1
  0
LTYPE
  5
14
330
5
100
AcDbSymbolTableRecord
100
AcDbLinetypeTableRecord
  2
BYBLOCK
 70
     0
  3

 72
    65
 73
     0
 40
0.0
  0
LTYPE
  5
15
330
5
100
AcDbSymbolTableRecord
100
AcDbLinetypeTableRecord
  2
BYLAYER
 70
     0
  3

 72
    65
 73
     0
 40
0.0
  0
LTYPE
  5
16
330
5
100
AcDbSymbolTableRecord
100
AcDbLinetypeTableRecord
  2
CONTINUOUS
 70
     0
  3
Solid line
 72
    65
 73
     0
 40
0.0
  0
ENDTAB
  0
TABLE
  2
LAYER
  5
2
100
AcDbSymbolTable
 70
2
  0
LAYER
  5
50
100
AcDbSymbolTableRecord
100
AcDbLayerTableRecord
  2
0
 70
0
  6
CONTINUOUS
  0
LAYER
  5
51
100
AcDbSymbolTableRecord
100
AcDbLayerTableRecord
  2
Layer_1
 70
0
  6
CONTINUOUS
  0
ENDTAB
  0
TABLE
  2
STYLE
  5
3
330
0
100
AcDbSymbolTable
 70
     1
  0
STYLE
  5
11
330
3
100
AcDbSymbolTableRecord
100
AcDbTextStyleTableRecord
  2
STANDARD
 70
     0
 40
0.0
 41
1.0
 50
0.0
 71
     0
 42
2.5
  3
txt
  4

  0
ENDTAB
  0
TABLE
  2
VIEW
  5
6
330
0
100
AcDbSymbolTable
 70
     0
  0
ENDTAB
  0
TABLE
  2
UCS
  5
7
330
0
100
AcDbSymbolTable
 70
     0
  0
ENDTAB
  0
TABLE
  2
APPID
  5
9
330
0
100
AcDbSymbolTable
 70
     2
  0
APPID
  5
12
330
9
100
AcDbSymbolTableRecord
100
AcDbRegAppTableRecord
  2
ACAD
 70
     0
  0
ENDTAB
  0
TABLE
  2
DIMSTYLE
  5
A
330
0
100
AcDbSymbolTable
 70
     1
  0
DIMSTYLE
105
27
330
A
100
AcDbSymbolTableRecord
100
AcDbDimStyleTableRecord
  2
ISO-25
 70
     0
  3

  4

  5

  6

  7

 40
1.0
 41
2.5
 42
0.625
 43
3.75
 44
1.25
 45
0.0
 46
0.0
 47
0.0
 48
0.0
140
2.5
141
2.5
142
0.0
143
0.03937007874016
144
1.0
145
0.0
146
1.0
147
0.625
 71
     0
 72
     0
 73
     0
 74
     0
 75
     0
 76
     0
 77
     1
 78
     8
170
     0
171
     3
172
     1
173
     0
174
     0
175
     0
176
     0
177
     0
178
     0
270
     2
271
     2
272
     2
273
     2
274
     3
340
11
275
     0
280
     0
281
     0
282
     0
283
     0
284
     8
285
     0
286
     0
287
     3
288
     0
  0
ENDTAB
  0
TABLE
  2
BLOCK_RECORD
  5
1
330
0
100
AcDbSymbolTable
 70
     1
  0
BLOCK_RECORD
  5
1F
330
1
100
AcDbSymbolTableRecord
100
AcDbBlockTableRecord
  2
*MODEL_SPACE
  0
BLOCK_RECORD
  5
1B
330
1
100
AcDbSymbolTableRecord
100
AcDbBlockTableRecord
  2
*PAPER_SPACE
  0
ENDTAB
  0
ENDSEC
  0
SECTION
  2
BLOCKS
  0
BLOCK
  5
20
330
1F
100
AcDbEntity
  8
0
100
AcDbBlockBegin
  2
*MODEL_SPACE
 70
     0
 10
0.0
 20
0.0
 30
0.0
  3
*MODEL_SPACE
  1

  0
ENDBLK
  5
21
330
1F
100
AcDbEntity
  8
0
100
AcDbBlockEnd
  0
BLOCK
  5
1C
330
1B
100
AcDbEntity
 67
     1
  8
0
100
AcDbBlockBegin
  2
*PAPER_SPACE
  1

  0
ENDBLK
  5
1D
330
1B
100
AcDbEntity
 67
     1
  8
0
100
AcDbBlockEnd
  0
ENDSEC
  0
SECTION
  2
ENTITIES
  0
SPLINE
  5
100
100
AcDbEntity
  8
Layer_1
 62
7
100
AcDbSpline
 70
8
 71
3
 72
8
 73
4
 74
0
 40
0
 40
0
 40
0
 40
0
 40
1
 40
1
 40
1
 40
1
 10
702.446793
 20
879.867422
 30
0.0
 10
700.728116
 20
879.856980
 30
0.0
 10
699.009637
 20
879.821166
 30
0.0
 10
697.291835
 20
879.759952
 30
0.0
  0
SPLINE
  5
101
100
AcDbEntity
  8
Layer_1
 62
7
100
AcDbSpline
 70
8
 71
3
 72
8
 73
4
 74
0
 40
0
 40
0
 40
0
 40
0
 40
1
 40
1
 40
1
 40
1
 10
697.291835
 20
879.759952
 30
0.0
 10
651.272115
 20
878.121454
 30
0.0
 10
607.753194
 20
858.408570
 30
0.0
 10
576.171653
 20
824.895839
 30
0.0
  0
SPLINE
  5
102
100
AcDbEntity
  8
Layer_1
 62
7
100
AcDbSpline
 70
8
 71
3
 72
8
 73
4
 74
0
 40
0
 40
0
 40
0
 40
0
 40
1
 40
1
 40
1
 40
1
 10
576.171653
 20
824.895839
 30
0.0
 10
544.590111
 20
791.383107
 30
0.0
 10
527.491537
 20
746.772127
 30
0.0
 10
528.584132
 20
700.736236
 30
0.0
  0
SPLINE
  5
103
100
AcDbEntity
  8
Layer_1
 62
7
100
AcDbSpline
 70
8
 71
3
 72
8
 73
4
 74
0
 40
0
 40
0
 40
0
 40
0
 40
1
 40
1
 40
1
 40
1
 10
528.584132
 20
700.736236
 30
0.0
 10
529.676642
 20
654.700401
 30
0.0
 10
548.872184
 20
610.950707
 30
0.0
 10
582.007895
 20
578.973902
 30
0.0
  0
SPLINE
  5
104
100
AcDbEntity
  8
Layer_1
 62
7
100
AcDbSpline
 70
8
 71
3
 72
8
 73
4
 74
0
 40
0
 40
0
 40
0
 40
0
 40
1
 40
1
 40
1
 40
1
 10
582.007895
 20
578.973902
 30
0.0
 10
615.143635
 20
546.997083
 30
0.0
 10
659.548648
 20
529.370460
 30
0.0
 10
705.594220
 20
529.916845
 30
0.0
  0
SPLINE
  5
105
100
AcDbEntity
  8
Layer_1
 62
7
100
AcDbSpline
 70
8
 71
3
 72
8
 73
4
 74
0
 40
0
 40
0
 40
0
 40
0
 40
1
 40
1
 40
1
 40
1
 10
705.594220
 20
529.916845
 30
0.0
 10
751.639735
 20
530.463170
 30
0.0
 10
795.614021
 20
549.138083
 30
0.0
 10
827.981665
 20
581.892035
 30
0.0
  0
SPLINE
  5
106
100
AcDbEntity
  8
Layer_1
 62
7
100
AcDbSpline
 70
8
 71
3
 72
8
 73
4
 74
0
 40
0
 40
0
 40
0
 40
0
 40
1
 40
1
 40
1
 40
1
 10
827.981665
 20
581.892035
 30
0.0
 10
860.349308
 20
614.645984
 30
0.0
 10
878.501079
 20
658.838710
 30
0.0
 10
878.501079
 20
704.887443
 30
0.0
  0
SPLINE
  5
107
100
AcDbEntity
  8
Layer_1
 62
7
100
AcDbSpline
 70
8
 71
3
 72
8
 73
4
 74
0
 40
0
 40
0
 40
0
 40
0
 40
1
 40
1
 40
1
 40
1
 10
878.304314
 20
713.185990
 30
0.0
 10
876.204581
 20
757.401858
 30
0.0
 10
857.424837
 20
799.178875
 30
0.0
 10
825.749230
 20
830.099847
 30
0.0
  0
SPLINE
  5
108
100
AcDbEntity
  8
Layer_1
 62
7
100
AcDbSpline
 70
8
 71
3
 72
8
 73
4
 74
0
 40
0
 40
0
 40
0
 40
0
 40
1
 40
1
 40
1
 40
1
 10
825.749230
 20
830.099847
 30
0.0
 10
794.073652
 20
861.020848
 30
0.0
 10
751.855946
 20
878.787894
 30
0.0
 10
707.602316
 20
879.821137
 30
0.0
  0
SPLINE
  5
109
100
AcDbEntity
  8
Layer_1
 62
7
100
AcDbSpline
 70
8
 71
3
 72
8
 73
4
 74
0
 40
0
 40
0
 40
0
 40
0
 40
1
 40
1
 40
1
 40
1
 10
707.602316
 20
879.821137
 30
0.0
 10
705.883893
 20
879.861213
 30
0.0
 10
704.165470
 20
879.875804
 30
0.0
 10
702.446793
 20
879.865220
 30
0.0
  0
LWPOLYLINE
  5
10a
100
AcDbEntity
  8
Layer_1
 62
7
100
AcDbPolyline
 90
4
 70
1
 10
878.501079
 20
704.887443
 30
0.0
 10
878.501079
 20
704.887443
 30
0.0
 10
878.304314
 20
713.185990
 30
0.0
 10
878.304314
 20
713.185990
 30
0.0
  0
LWPOLYLINE
  5
10b
100
AcDbEntity
  8
Layer_1
 62
7
100
AcDbPolyline
 90
2
 70
1
 10
702.446793
 20
879.865220
 30
0.0
 10
702.446793
 20
879.867422
 30
0.0
  0
SPLINE
  5
10c
100
AcDbEntity
  8
Layer_1
 62
7
100
AcDbSpline
 70
8
 71
3
 72
8
 73
4
 74
0
 40
0
 40
0
 40
0
 40
0
 40
1
 40
1
 40
1
 40
1
 10
697.746043
 20
869.962748
 30
0.0
 10
696.630701
 20
869.923040
 30
0.0
 10
695.752962
 20
868.992130
 30
0.0
 10
695.779293
 20
867.876420
 30
0.0
  0
LWPOLYLINE
  5
10d
100
AcDbEntity
  8
Layer_1
 62
7
100
AcDbPolyline
 90
2
 70
1
 10
697.965979
 20
869.970368
 30
0.0
 10
697.746043
 20
869.962748
 30
0.0
  0
SPLINE
  5
10e
100
AcDbEntity
  8
Layer_1
 62
7
100
AcDbSpline
 70
8
 71
3
 72
8
 73
4
 74
0
 40
0
 40
0
 40
0
 40
0
 40
1
 40
1
 40
1
 40
1
 10
695.779293
 20
867.876420
 30
0.0
 10
695.805258
 20
866.836714
 30
0.0
 10
696.614586
 20
866.000405
 30
0.0
 10
697.641847
 20
865.909134
 30
0.0
  0
LWPOLYLINE
  5
10f
100
AcDbEntity
  8
Layer_1
 62
7
100
AcDbPolyline
 90
2
 70
1
 10
695.779293
 20
867.876420
 30
0.0
 10
695.779293
 20
867.876420
 30
0.0
  0
SPLINE
  5
110
100
AcDbEntity
  8
Layer_1
 62
7
100
AcDbSpline
 70
8
 71
3
 72
8
 73
4
 74
0
 40
0
 40
0
 40
0
 40
0
 40
1
 40
1
 40
1
 40
1
 10
697.641847
 20
858.897125
 30
0.0
 10
696.577474
 20
858.802468
 30
0.0
 10
695.753893
 20
857.908840
 30
0.0
 10
695.779293
 20
856.831174
 30
0.0
  0
SPLINE
  5
111
100
AcDbEntity
  8
Layer_1
 62
7
100
AcDbSpline
 70
8
 71
3
 72
8
 73
4
 74
0
 40
0
 40
0
 40
0
 40
0
 40
1
 40
1
 40
1
 40
1
 10
695.779293
 20
856.831174
 30
0.0
 10
695.805822
 20
855.715465
 30
0.0
 10
696.726544
 20
854.826550
 30
0.0
 10
697.842479
 20
854.839616
 30
0.0
  0
SPLINE
  5
112
100
AcDbEntity
  8
Layer_1
 62
7
100
AcDbSpline
 70
8
 71
3
 72
8
 73
4
 74
0
 40
0
 40
0
 40
0
 40
0
 40
1
 40
1
 40
1
 40
1
 10
697.842479
 20
854.839616
 30
0.0
 10
698.809033
 20
854.852316
 30
0.0
 10
699.620055
 20
855.547204
 30
0.0
 10
699.805927
 20
856.488867
 30
0.0
  0
LWPOLYLINE
  5
113
100
AcDbEntity
  8
Layer_1
 62
7
100
AcDbPolyline
 90
2
 70
1
 10
697.641847
 20
865.909134
 30
0.0
 10
697.641847
 20
858.897125
 30
0.0
  0
SPLINE
  5
114
100
AcDbEntity
  8
Layer_1
 62
7
100
AcDbSpline
 70
8
 71
3
 72
8
 73
4
 74
0
 40
0
 40
0
 40
0
 40
0
 40
1
 40
1
 40
1
 40
1
 10
707.078116
 20
856.488867
 30
0.0
 10
707.237600
 20
855.496799
 30
0.0
 10
708.089657
 20
854.757462
 30
0.0
 10
709.102158
 20
854.768525
 30
0.0
  0
SPLINE
  5
115
100
AcDbEntity
  8
Layer_1
 62
7
100
AcDbSpline
 70
8
 71
3
 72
8
 73
4
 74
0
 40
0
 40
0
 40
0
 40
0
 40
1
 40
1
 40
1
 40
1
 10
709.102158
 20
854.768525
 30
0.0
 10
710.218092
 20
854.781789
 30
0.0
 10
711.117337
 20
855.692012
 30
0.0
 10
711.117422
 20
856.808004
 30
0.0
  0
LWPOLYLINE
  5
116
100
AcDbEntity
  8
Layer_1
 62
7
100
AcDbPolyline
 90
2
 70
1
 10
699.805927
 20
856.488867
 30
0.0
 10
707.078116
 20
856.488867
 30
0.0
  0
SPLINE
  5
117
100
AcDbEntity
  8
Layer_1
 62
7
100
AcDbSpline
 70
8
 71
3
 72
8
 73
4
 74
0
 40
0
 40
0
 40
0
 40
0
 40
1
 40
1
 40
1
 40
1
 10
711.114600
 20
856.903338
 30
0.0
 10
711.066424
 20
857.910815
 30
0.0
 10
710.283991
 20
858.715769
 30
0.0
 10
709.288960
 20
858.821574
 30
0.0
  0
LWPOLYLINE
  5
118
100
AcDbEntity
  8
Layer_1
 62
7
100
AcDbPolyline
 90
4
 70
1
 10
711.117422
 20
856.808004
 30
0.0
 10
711.117422
 20
856.808004
 30
0.0
 10
711.114600
 20
856.903338
 30
0.0
 10
711.114600
 20
856.903338
 30
0.0
  0
SPLINE
  5
119
100
AcDbEntity
  8
Layer_1
 62
7
100
AcDbSpline
 70
8
 71
3
 72
8
 73
4
 74
0
 40
0
 40
0
 40
0
 40
0
 40
1
 40
1
 40
1
 40
1
 10
709.288960
 20
865.856189
 30
0.0
 10
710.382854
 20
865.894261
 30
0.0
 10
711.259521
 20
866.786083
 30
0.0
 10
711.259577
 20
867.886298
 30
0.0
  0
LWPOLYLINE
  5
11a
100
AcDbEntity
  8
Layer_1
 62
7
100
AcDbPolyline
 90
2
 70
1
 10
709.288960
 20
858.821574
 30
0.0
 10
709.288960
 20
865.856189
 30
0.0
  0
SPLINE
  5
11b
100
AcDbEntity
  8
Layer_1
 62
7
100
AcDbSpline
 70
8
 71
3
 72
8
 73
4
 74
0
 40
0
 40
0
 40
0
 40
0
 40
1
 40
1
 40
1
 40
1
 10
711.256755
 20
867.981661
 30
0.0
 10
711.203923
 20
869.096636
 30
0.0
 10
710.262232
 20
869.963369
 30
0.0
 10
709.146692
 20
869.923576
 30
0.0
  0
SPLINE
  5
11c
100
AcDbEntity
  8
Layer_1
 62
7
100
AcDbSpline
 70
8
 71
3
 72
8
 73
4
 74
0
 40
0
 40
0
 40
0
 40
0
 40
1
 40
1
 40
1
 40
1
 10
709.146692
 20
869.923576
 30
0.0
 10
708.143251
 20
869.887451
 30
0.0
 10
707.330818
 20
869.121416
 30
0.0
 10
707.208080
 20
868.132678
 30
0.0
  0
LWPOLYLINE
  5
11d
100
AcDbEntity
  8
Layer_1
 62
7
100
AcDbPolyline
 90
4
 70
1
 10
711.259577
 20
867.886298
 30
0.0
 10
711.259577
 20
867.886298
 30
0.0
 10
711.256755
 20
867.981661
 30
0.0
 10
711.256755
 20
867.981661
 30
0.0
  0
SPLINE
  5
11e
100
AcDbEntity
  8
Layer_1
 62
7
100
AcDbSpline
 70
8
 71
3
 72
8
 73
4
 74
0
 40
0
 40
0
 40
0
 40
0
 40
1
 40
1
 40
1
 40
1
 10
699.831722
 20
868.132678
 30
0.0
 10
699.725494
 20
869.128330
 30
0.0
 10
698.914697
 20
869.874046
 30
0.0
 10
697.925057
 20
869.929644
 30
0.0
  0
LWPOLYLINE
  5
11f
100
AcDbEntity
  8
Layer_1
 62
7
100
AcDbPolyline
 90
2
 70
1
 10
707.208080
 20
868.132678
 30
0.0
 10
699.831722
 20
868.132678
 30
0.0
  0
SPLINE
  5
120
100
AcDbEntity
  8
Layer_1
 62
7
100
AcDbSpline
 70
8
 71
3
 72
8
 73
4
 74
0
 40
0
 40
0
 40
0
 40
0
 40
1
 40
1
 40
1
 40
1
 10
705.493354
 20
849.873606
 30
0.0
 10
703.119780
 20
849.905892
 30
0.0
 10
700.740703
 20
849.880097
 30
0.0
 10
698.357337
 20
849.795318
 30
0.0
  0
SPLINE
  5
121
100
AcDbEntity
  8
Layer_1
 62
7
100
AcDbSpline
 70
8
 71
3
 72
8
 73
4
 74
0
 40
0
 40
0
 40
0
 40
0
 40
1
 40
1
 40
1
 40
1
 10
698.357337
 20
849.795318
 30
0.0
 10
660.223103
 20
848.437518
 30
0.0
 10
624.161002
 20
832.102524
 30
0.0
 10
597.990958
 20
804.332196
 30
0.0
  0
SPLINE
  5
122
100
AcDbEntity
  8
Layer_1
 62
7
100
AcDbSpline
 70
8
 71
3
 72
8
 73
4
 74
0
 40
0
 40
0
 40
0
 40
0
 40
1
 40
1
 40
1
 40
1
 10
597.990958
 20
804.332196
 30
0.0
 10
571.820915
 20
776.561868
 30
0.0
 10
557.652259
 20
739.594962
 30
0.0
 10
558.557571
 20
701.447323
 30
0.0
  0
SPLINE
  5
123
100
AcDbEntity
  8
Layer_1
 62
7
100
AcDbSpline
 70
8
 71
3
 72
8
 73
4
 74
0
 40
0
 40
0
 40
0
 40
0
 40
1
 40
1
 40
1
 40
1
 10
558.557571
 20
701.447323
 30
0.0
 10
559.462884
 20
663.299684
 30
0.0
 10
575.368843
 20
627.046095
 30
0.0
 10
602.826751
 20
600.548448
 30
0.0
  0
SPLINE
  5
124
100
AcDbEntity
  8
Layer_1
 62
7
100
AcDbSpline
 70
8
 71
3
 72
8
 73
4
 74
0
 40
0
 40
0
 40
0
 40
0
 40
1
 40
1
 40
1
 40
1
 10
602.826751
 20
600.548448
 30
0.0
 10
630.284659
 20
574.050832
 30
0.0
 10
667.081357
 20
559.444762
 30
0.0
 10
705.237040
 20
559.897444
 30
0.0
  0
SPLINE
  5
125
100
AcDbEntity
  8
Layer_1
 62
7
100
AcDbSpline
 70
8
 71
3
 72
8
 73
4
 74
0
 40
0
 40
0
 40
0
 40
0
 40
1
 40
1
 40
1
 40
1
 10
705.237040
 20
559.897444
 30
0.0
 10
743.392778
 20
560.350162
 30
0.0
 10
779.831985
 20
575.825521
 30
0.0
 10
806.653482
 20
602.967205
 30
0.0
  0
SPLINE
  5
126
100
AcDbEntity
  8
Layer_1
 62
7
100
AcDbSpline
 70
8
 71
3
 72
8
 73
4
 74
0
 40
0
 40
0
 40
0
 40
0
 40
1
 40
1
 40
1
 40
1
 10
806.653482
 20
602.967205
 30
0.0
 10
833.475007
 20
630.108883
 30
0.0
 10
848.516718
 20
666.729051
 30
0.0
 10
848.516633
 20
704.887443
 30
0.0
  0
LWPOLYLINE
  5
127
100
AcDbEntity
  8
Layer_1
 62
7
100
AcDbPolyline
 90
3
 70
1
 10
697.925057
 20
869.929644
 30
0.0
 10
697.965866
 20
869.967687
 30
0.0
 10
697.965979
 20
869.970368
 30
0.0
  0
SPLINE
  5
128
100
AcDbEntity
  8
Layer_1
 62
7
100
AcDbSpline
 70
8
 71
3
 72
8
 73
4
 74
0
 40
0
 40
0
 40
0
 40
0
 40
1
 40
1
 40
1
 40
1
 10
848.353481
 20
711.763872
 30
0.0
 10
846.543194
 20
749.879140
 30
0.0
 10
829.781283
 20
785.744843
 30
0.0
 10
801.702486
 20
811.583445
 30
0.0
  0
SPLINE
  5
129
100
AcDbEntity
  8
Layer_1
 62
7
100
AcDbSpline
 70
8
 71
3
 72
8
 73
4
 74
0
 40
0
 40
0
 40
0
 40
0
 40
1
 40
1
 40
1
 40
1
 10
801.702486
 20
811.583445
 30
0.0
 10
775.378603
 20
835.807142
 30
0.0
 10
741.097211
 20
849.387252
 30
0.0
 10
705.493354
 20
849.871405
 30
0.0
  0
LWPOLYLINE
  5
12a
100
AcDbEntity
  8
Layer_1
 62
7
100
AcDbPolyline
 90
4
 70
1
 10
848.516633
 20
704.887443
 30
0.0
 10
848.516633
 20
704.887443
 30
0.0
 10
848.353481
 20
711.763872
 30
0.0
 10
848.353481
 20
711.763872
 30
0.0
  0
LWPOLYLINE
  5
12b
100
AcDbEntity
  8
Layer_1
 62
7
100
AcDbPolyline
 90
2
 70
1
 10
705.493354
 20
849.871405
 30
0.0
 10
705.493354
 20
849.873606
 30
0.0
  0
SPLINE
  5
12c
100
AcDbEntity
  8
Layer_1
 62
7
100
AcDbSpline
 70
8
 71
3
 72
8
 73
4
 74
0
 40
0
 40
0
 40
0
 40
0
 40
1
 40
1
 40
1
 40
1
 10
855.079344
 20
712.487151
 30
0.0
 10
853.964030
 20
712.447386
 30
0.0
 10
853.086263
 20
711.516476
 30
0.0
 10
853.112594
 20
710.400795
 30
0.0
  0
LWPOLYLINE
  5
12d
100
AcDbEntity
  8
Layer_1
 62
7
100
AcDbPolyline
 90
2
 70
1
 10
855.295414
 20
712.494771
 30
0.0
 10
855.079344
 20
712.487151
 30
0.0
  0
SPLINE
  5
12e
100
AcDbEntity
  8
Layer_1
 62
7
100
AcDbSpline
 70
8
 71
3
 72
8
 73
4
 74
0
 40
0
 40
0
 40
0
 40
0
 40
1
 40
1
 40
1
 40
1
 10
853.112594
 20
710.400795
 30
0.0
 10
853.138558
 20
709.361116
 30
0.0
 10
853.947887
 20
708.524807
 30
0.0
 10
854.975148
 20
708.433508
 30
0.0
  0
LWPOLYLINE
  5
12f
100
AcDbEntity
  8
Layer_1
 62
7
100
AcDbPolyline
 90
2
 70
1
 10
853.112594
 20
710.400795
 30
0.0
 10
853.112594
 20
710.400795
 30
0.0
  0
SPLINE
  5
130
100
AcDbEntity
  8
Layer_1
 62
7
100
AcDbSpline
 70
8
 71
3
 72
8
 73
4
 74
0
 40
0
 40
0
 40
0
 40
0
 40
1
 40
1
 40
1
 40
1
 10
854.975148
 20
701.421500
 30
0.0
 10
853.910803
 20
701.326842
 30
0.0
 10
853.087194
 20
700.433214
 30
0.0
 10
853.112594
 20
699.355548
 30
0.0
  0
SPLINE
  5
131
100
AcDbEntity
  8
Layer_1
 62
7
100
AcDbSpline
 70
8
 71
3
 72
8
 73
4
 74
0
 40
0
 40
0
 40
0
 40
0
 40
1
 40
1
 40
1
 40
1
 10
853.112594
 20
699.355548
 30
0.0
 10
853.139123
 20
698.239839
 30
0.0
 10
854.059873
 20
697.350952
 30
0.0
 10
855.175808
 20
697.364019
 30
0.0
  0
SPLINE
  5
132
100
AcDbEntity
  8
Layer_1
 62
7
100
AcDbSpline
 70
8
 71
3
 72
8
 73
4
 74
0
 40
0
 40
0
 40
0
 40
0
 40
1
 40
1
 40
1
 40
1
 10
855.175808
 20
697.364019
 30
0.0
 10
856.142362
 20
697.376437
 30
0.0
 10
856.953384
 20
698.071578
 30
0.0
 10
857.139228
 20
699.013241
 30
0.0
  0
LWPOLYLINE
  5
133
100
AcDbEntity
  8
Layer_1
 62
7
100
AcDbPolyline
 90
2
 70
1
 10
854.975148
 20
708.433508
 30
0.0
 10
854.975148
 20
701.421500
 30
0.0
  0
SPLINE
  5
134
100
AcDbEntity
  8
Layer_1
 62
7
100
AcDbSpline
 70
8
 71
3
 72
8
 73
4
 74
0
 40
0
 40
0
 40
0
 40
0
 40
1
 40
1
 40
1
 40
1
 10
864.411417
 20
699.013241
 30
0.0
 10
864.570901
 20
698.021174
 30
0.0
 10
865.422986
 20
697.281864
 30
0.0
 10
866.435487
 20
697.292899
 30
0.0
  0
SPLINE
  5
135
100
AcDbEntity
  8
Layer_1
 62
7
100
AcDbSpline
 70
8
 71
3
 72
8
 73
4
 74
0
 40
0
 40
0
 40
0
 40
0
 40
1
 40
1
 40
1
 40
1
 10
866.435487
 20
697.292899
 30
0.0
 10
867.551422
 20
697.306164
 30
0.0
 10
868.450666
 20
698.216387
 30
0.0
 10
868.450723
 20
699.332406
 30
0.0
  0
LWPOLYLINE
  5
136
100
AcDbEntity
  8
Layer_1
 62
7
100
AcDbPolyline
 90
2
 70
1
 10
857.139228
 20
699.013241
 30
0.0
 10
864.411417
 20
699.013241
 30
0.0
  0
SPLINE
  5
137
100
AcDbEntity
  8
Layer_1
 62
7
100
AcDbSpline
 70
8
 71
3
 72
8
 73
4
 74
0
 40
0
 40
0
 40
0
 40
0
 40
1
 40
1
 40
1
 40
1
 10
868.447900
 20
699.427769
 30
0.0
 10
868.399725
 20
700.435274
 30
0.0
 10
867.617292
 20
701.240200
 30
0.0
 10
866.622290
 20
701.346005
 30
0.0
  0
LWPOLYLINE
  5
138
100
AcDbEntity
  8
Layer_1
 62
7
100
AcDbPolyline
 90
4
 70
1
 10
868.450723
 20
699.332406
 30
0.0
 10
868.450723
 20
699.332406
 30
0.0
 10
868.447900
 20
699.427769
 30
0.0
 10
868.447900
 20
699.427769
 30
0.0
  0
SPLINE
  5
139
100
AcDbEntity
  8
Layer_1
 62
7
100
AcDbSpline
 70
8
 71
3
 72
8
 73
4
 74
0
 40
0
 40
0
 40
0
 40
0
 40
1
 40
1
 40
1
 40
1
 10
866.622290
 20
708.380620
 30
0.0
 10
867.716155
 20
708.418720
 30
0.0
 10
868.592822
 20
709.310542
 30
0.0
 10
868.592878
 20
710.410729
 30
0.0
  0
LWPOLYLINE
  5
13a
100
AcDbEntity
  8
Layer_1
 62
7
100
AcDbPolyline
 90
2
 70
1
 10
866.622290
 20
701.346005
 30
0.0
 10
866.622290
 20
708.380620
 30
0.0
  0
SPLINE
  5
13b
100
AcDbEntity
  8
Layer_1
 62
7
100
AcDbSpline
 70
8
 71
3
 72
8
 73
4
 74
0
 40
0
 40
0
 40
0
 40
0
 40
1
 40
1
 40
1
 40
1
 10
868.590056
 20
710.506092
 30
0.0
 10
868.537196
 20
711.621067
 30
0.0
 10
867.595533
 20
712.487772
 30
0.0
 10
866.480021
 20
712.448007
 30
0.0
  0
SPLINE
  5
13c
100
AcDbEntity
  8
Layer_1
 62
7
100
AcDbSpline
 70
8
 71
3
 72
8
 73
4
 74
0
 40
0
 40
0
 40
0
 40
0
 40
1
 40
1
 40
1
 40
1
 10
866.480021
 20
712.448007
 30
0.0
 10
865.476552
 20
712.411910
 30
0.0
 10
864.664147
 20
711.645846
 30
0.0
 10
864.541380
 20
710.657109
 30
0.0
  0
LWPOLYLINE
  5
13d
100
AcDbEntity
  8
Layer_1
 62
7
100
AcDbPolyline
 90
4
 70
1
 10
868.592878
 20
710.410729
 30
0.0
 10
868.592878
 20
710.410729
 30
0.0
 10
868.590056
 20
710.506092
 30
0.0
 10
868.590056
 20
710.506092
 30
0.0
  0
SPLINE
  5
13e
100
AcDbEntity
  8
Layer_1
 62
7
100
AcDbSpline
 70
8
 71
3
 72
8
 73
4
 74
0
 40
0
 40
0
 40
0
 40
0
 40
1
 40
1
 40
1
 40
1
 10
857.165023
 20
710.657109
 30
0.0
 10
857.058710
 20
711.653523
 30
0.0
 10
856.246841
 20
712.400085
 30
0.0
 10
855.256156
 20
712.454639
 30
0.0
  0
LWPOLYLINE
  5
13f
100
AcDbEntity
  8
Layer_1
 62
7
100
AcDbPolyline
 90
2
 70
1
 10
864.541380
 20
710.657109
 30
0.0
 10
857.165023
 20
710.657109
 30
0.0
  0
LWPOLYLINE
  5
140
100
AcDbEntity
  8
Layer_1
 62
7
100
AcDbPolyline
 90
3
 70
1
 10
855.256156
 20
712.454639
 30
0.0
 10
855.295301
 20
712.492118
 30
0.0
 10
855.295414
 20
712.494771
 30
0.0
  0
SPLINE
  5
141
100
AcDbEntity
  8
Layer_1
 62
7
100
AcDbSpline
 70
8
 71
3
 72
8
 73
4
 74
0
 40
0
 40
0
 40
0
 40
0
 40
1
 40
1
 40
1
 40
1
 10
540.408170
 20
712.486022
 30
0.0
 10
539.292856
 20
712.446257
 30
0.0
 10
538.415089
 20
711.515347
 30
0.0
 10
538.441448
 20
710.399666
 30
0.0
  0
LWPOLYLINE
  5
142
100
AcDbEntity
  8
Layer_1
 62
7
100
AcDbPolyline
 90
2
 70
1
 10
540.448415
 20
712.488844
 30
0.0
 10
540.408170
 20
712.486022
 30
0.0
  0
SPLINE
  5
143
100
AcDbEntity
  8
Layer_1
 62
7
100
AcDbSpline
 70
8
 71
3
 72
8
 73
4
 74
0
 40
0
 40
0
 40
0
 40
0
 40
1
 40
1
 40
1
 40
1
 10
538.441448
 20
710.399666
 30
0.0
 10
538.467413
 20
709.359988
 30
0.0
 10
539.276742
 20
708.523678
 30
0.0
 10
540.304002
 20
708.432380
 30
0.0
  0
LWPOLYLINE
  5
144
100
AcDbEntity
  8
Layer_1
 62
7
100
AcDbPolyline
 90
2
 70
1
 10
538.441448
 20
710.399666
 30
0.0
 10
538.441448
 20
710.399666
 30
0.0
  0
SPLINE
  5
145
100
AcDbEntity
  8
Layer_1
 62
7
100
AcDbSpline
 70
8
 71
3
 72
8
 73
4
 74
0
 40
0
 40
0
 40
0
 40
0
 40
1
 40
1
 40
1
 40
1
 10
540.304002
 20
701.420371
 30
0.0
 10
539.239629
 20
701.325714
 30
0.0
 10
538.416020
 20
700.432085
 30
0.0
 10
538.441448
 20
699.354420
 30
0.0
  0
SPLINE
  5
146
100
AcDbEntity
  8
Layer_1
 62
7
100
AcDbSpline
 70
8
 71
3
 72
8
 73
4
 74
0
 40
0
 40
0
 40
0
 40
0
 40
1
 40
1
 40
1
 40
1
 10
538.441448
 20
699.354420
 30
0.0
 10
538.467977
 20
698.238710
 30
0.0
 10
539.388699
 20
697.349823
 30
0.0
 10
540.504634
 20
697.362890
 30
0.0
  0
SPLINE
  5
147
100
AcDbEntity
  8
Layer_1
 62
7
100
AcDbSpline
 70
8
 71
3
 72
8
 73
4
 74
0
 40
0
 40
0
 40
0
 40
0
 40
1
 40
1
 40
1
 40
1
 10
540.504634
 20
697.362890
 30
0.0
 10
541.471189
 20
697.375308
 30
0.0
 10
542.282211
 20
698.070450
 30
0.0
 10
542.468054
 20
699.012112
 30
0.0
  0
LWPOLYLINE
  5
148
100
AcDbEntity
  8
Layer_1
 62
7
100
AcDbPolyline
 90
2
 70
1
 10
540.304002
 20
708.432380
 30
0.0
 10
540.304002
 20
701.420371
 30
0.0
  0
SPLINE
  5
149
100
AcDbEntity
  8
Layer_1
 62
7
100
AcDbSpline
 70
8
 71
3
 72
8
 73
4
 74
0
 40
0
 40
0
 40
0
 40
0
 40
1
 40
1
 40
1
 40
1
 10
549.740243
 20
699.012112
 30
0.0
 10
549.899727
 20
698.020045
 30
0.0
 10
550.751812
 20
697.280735
 30
0.0
 10
551.764313
 20
697.291770
 30
0.0
  0
SPLINE
  5
14a
100
AcDbEntity
  8
Layer_1
 62
7
100
AcDbSpline
 70
8
 71
3
 72
8
 73
4
 74
0
 40
0
 40
0
 40
0
 40
0
 40
1
 40
1
 40
1
 40
1
 10
551.764313
 20
697.291770
 30
0.0
 10
552.880248
 20
697.305035
 30
0.0
 10
553.779492
 20
698.215258
 30
0.0
 10
553.779549
 20
699.331277
 30
0.0
  0
LWPOLYLINE
  5
14b
100
AcDbEntity
  8
Layer_1
 62
7
100
AcDbPolyline
 90
2
 70
1
 10
542.468054
 20
699.012112
 30
0.0
 10
549.740243
 20
699.012112
 30
0.0
  0
SPLINE
  5
14c
100
AcDbEntity
  8
Layer_1
 62
7
100
AcDbSpline
 70
8
 71
3
 72
8
 73
4
 74
0
 40
0
 40
0
 40
0
 40
0
 40
1
 40
1
 40
1
 40
1
 10
553.776162
 20
699.428926
 30
0.0
 10
553.727987
 20
700.436431
 30
0.0
 10
552.945554
 20
701.241357
 30
0.0
 10
551.950551
 20
701.347162
 30
0.0
  0
LWPOLYLINE
  5
14d
100
AcDbEntity
  8
Layer_1
 62
7
100
AcDbPolyline
 90
4
 70
1
 10
553.779549
 20
699.331277
 30
0.0
 10
553.779549
 20
699.334100
 30
0.0
 10
553.776162
 20
699.428926
 30
0.0
 10
553.776162
 20
699.428926
 30
0.0
  0
SPLINE
  5
14e
100
AcDbEntity
  8
Layer_1
 62
7
100
AcDbSpline
 70
8
 71
3
 72
8
 73
4
 74
0
 40
0
 40
0
 40
0
 40
0
 40
1
 40
1
 40
1
 40
1
 10
551.950551
 20
708.381777
 30
0.0
 10
553.044388
 20
708.419877
 30
0.0
 10
553.921083
 20
709.311699
 30
0.0
 10
553.921140
 20
710.411886
 30
0.0
  0
LWPOLYLINE
  5
14f
100
AcDbEntity
  8
Layer_1
 62
7
100
AcDbPolyline
 90
2
 70
1
 10
551.950551
 20
701.347162
 30
0.0
 10
551.950551
 20
708.381777
 30
0.0
  0
SPLINE
  5
150
100
AcDbEntity
  8
Layer_1
 62
7
100
AcDbSpline
 70
8
 71
3
 72
8
 73
4
 74
0
 40
0
 40
0
 40
0
 40
0
 40
1
 40
1
 40
1
 40
1
 10
553.918318
 20
710.507249
 30
0.0
 10
553.865457
 20
711.622224
 30
0.0
 10
552.923795
 20
712.488929
 30
0.0
 10
551.808255
 20
712.449164
 30
0.0
  0
SPLINE
  5
151
100
AcDbEntity
  8
Layer_1
 62
7
100
AcDbSpline
 70
8
 71
3
 72
8
 73
4
 74
0
 40
0
 40
0
 40
0
 40
0
 40
1
 40
1
 40
1
 40
1
 10
551.808255
 20
712.449164
 30
0.0
 10
550.804786
 20
712.413068
 30
0.0
 10
549.992381
 20
711.647004
 30
0.0
 10
549.869642
 20
710.658266
 30
0.0
  0
LWPOLYLINE
  5
152
100
AcDbEntity
  8
Layer_1
 62
7
100
AcDbPolyline
 90
4
 70
1
 10
553.921140
 20
710.411886
 30
0.0
 10
553.921140
 20
710.411886
 30
0.0
 10
553.918318
 20
710.507249
 30
0.0
 10
553.918318
 20
710.507249
 30
0.0
  0
SPLINE
  5
153
100
AcDbEntity
  8
Layer_1
 62
7
100
AcDbSpline
 70
8
 71
3
 72
8
 73
4
 74
0
 40
0
 40
0
 40
0
 40
0
 40
1
 40
1
 40
1
 40
1
 10
542.493285
 20
710.658266
 30
0.0
 10
542.382230
 20
711.698678
 30
0.0
 10
541.506749
 20
712.486784
 30
0.0
 10
540.457080
 20
712.476737
 30
0.0
  0
LWPOLYLINE
  5
154
100
AcDbEntity
  8
Layer_1
 62
7
100
AcDbPolyline
 90
2
 70
1
 10
549.869642
 20
710.658266
 30
0.0
 10
542.493285
 20
710.658266
 30
0.0
  0
SPLINE
  5
155
100
AcDbEntity
  8
Layer_1
 62
7
100
AcDbSpline
 70
8
 71
3
 72
8
 73
4
 74
0
 40
0
 40
0
 40
0
 40
0
 40
1
 40
1
 40
1
 40
1
 10
697.743193
 20
555.008856
 30
0.0
 10
696.628359
 20
554.968506
 30
0.0
 10
695.751212
 20
554.037777
 30
0.0
 10
695.777572
 20
552.922505
 30
0.0
  0
LWPOLYLINE
  5
156
100
AcDbEntity
  8
Layer_1
 62
7
100
AcDbPolyline
 90
3
 70
1
 10
540.457080
 20
712.476737
 30
0.0
 10
540.448331
 20
712.487179
 30
0.0
 10
540.448415
 20
712.488844
 30
0.0
  0
SPLINE
  5
157
100
AcDbEntity
  8
Layer_1
 62
7
100
AcDbSpline
 70
8
 71
3
 72
8
 73
4
 74
0
 40
0
 40
0
 40
0
 40
0
 40
1
 40
1
 40
1
 40
1
 10
695.777572
 20
552.921941
 30
0.0
 10
695.803536
 20
551.882231
 30
0.0
 10
696.612865
 20
551.045928
 30
0.0
 10
697.640125
 20
550.954654
 30
0.0
  0
LWPOLYLINE
  5
158
100
AcDbEntity
  8
Layer_1
 62
7
100
AcDbPolyline
 90
2
 70
1
 10
695.777572
 20
552.922505
 30
0.0
 10
695.777572
 20
552.921941
 30
0.0
  0
SPLINE
  5
159
100
AcDbEntity
  8
Layer_1
 62
7
100
AcDbSpline
 70
8
 71
3
 72
8
 73
4
 74
0
 40
0
 40
0
 40
0
 40
0
 40
1
 40
1
 40
1
 40
1
 10
697.640125
 20
543.942646
 30
0.0
 10
696.575752
 20
543.847988
 30
0.0
 10
695.752172
 20
542.954374
 30
0.0
 10
695.777572
 20
541.876689
 30
0.0
  0
SPLINE
  5
15a
100
AcDbEntity
  8
Layer_1
 62
7
100
AcDbSpline
 70
8
 71
3
 72
8
 73
4
 74
0
 40
0
 40
0
 40
0
 40
0
 40
1
 40
1
 40
1
 40
1
 10
695.777572
 20
541.876689
 30
0.0
 10
695.804100
 20
540.760980
 30
0.0
 10
696.724822
 20
539.872078
 30
0.0
 10
697.840757
 20
539.885148
 30
0.0
  0
SPLINE
  5
15b
100
AcDbEntity
  8
Layer_1
 62
7
100
AcDbSpline
 70
8
 71
3
 72
8
 73
4
 74
0
 40
0
 40
0
 40
0
 40
0
 40
1
 40
1
 40
1
 40
1
 10
697.840757
 20
539.885148
 30
0.0
 10
698.807312
 20
539.897707
 30
0.0
 10
699.618334
 20
540.592736
 30
0.0
 10
699.804205
 20
541.534384
 30
0.0
  0
LWPOLYLINE
  5
15c
100
AcDbEntity
  8
Layer_1
 62
7
100
AcDbPolyline
 90
2
 70
1
 10
697.640125
 20
550.954654
 30
0.0
 10
697.640125
 20
543.942646
 30
0.0
  0
SPLINE
  5
15d
100
AcDbEntity
  8
Layer_1
 62
7
100
AcDbSpline
 70
8
 71
3
 72
8
 73
4
 74
0
 40
0
 40
0
 40
0
 40
0
 40
1
 40
1
 40
1
 40
1
 10
707.076395
 20
541.534384
 30
0.0
 10
707.235878
 20
540.542314
 30
0.0
 10
708.087936
 20
539.802996
 30
0.0
 10
709.100436
 20
539.814042
 30
0.0
  0
SPLINE
  5
15e
100
AcDbEntity
  8
Layer_1
 62
7
100
AcDbSpline
 70
8
 71
3
 72
8
 73
4
 74
0
 40
0
 40
0
 40
0
 40
0
 40
1
 40
1
 40
1
 40
1
 10
709.100436
 20
539.814042
 30
0.0
 10
710.216399
 20
539.827391
 30
0.0
 10
711.115644
 20
540.737516
 30
0.0
 10
711.115700
 20
541.853538
 30
0.0
  0
LWPOLYLINE
  5
15f
100
AcDbEntity
  8
Layer_1
 62
7
100
AcDbPolyline
 90
2
 70
1
 10
699.804205
 20
541.534384
 30
0.0
 10
707.076395
 20
541.534384
 30
0.0
  0
SPLINE
  5
160
100
AcDbEntity
  8
Layer_1
 62
7
100
AcDbSpline
 70
8
 71
3
 72
8
 73
4
 74
0
 40
0
 40
0
 40
0
 40
0
 40
1
 40
1
 40
1
 40
1
 10
711.112878
 20
541.950591
 30
0.0
 10
711.064703
 20
542.958074
 30
0.0
 10
710.282270
 20
543.763011
 30
0.0
 10
709.287239
 20
543.868822
 30
0.0
  0
LWPOLYLINE
  5
161
100
AcDbEntity
  8
Layer_1
 62
7
100
AcDbPolyline
 90
4
 70
1
 10
711.115700
 20
541.853538
 30
0.0
 10
711.115700
 20
541.854667
 30
0.0
 10
711.112878
 20
541.950027
 30
0.0
 10
711.112878
 20
541.950591
 30
0.0
  0
SPLINE
  5
162
100
AcDbEntity
  8
Layer_1
 62
7
100
AcDbSpline
 70
8
 71
3
 72
8
 73
4
 74
0
 40
0
 40
0
 40
0
 40
0
 40
1
 40
1
 40
1
 40
1
 10
709.287239
 20
550.903431
 30
0.0
 10
710.381132
 20
550.941522
 30
0.0
 10
711.257799
 20
551.833339
 30
0.0
 10
711.257856
 20
552.933557
 30
0.0
  0
LWPOLYLINE
  5
163
100
AcDbEntity
  8
Layer_1
 62
7
100
AcDbPolyline
 90
2
 70
1
 10
709.287239
 20
543.868822
 30
0.0
 10
709.287239
 20
550.903431
 30
0.0
  0
SPLINE
  5
164
100
AcDbEntity
  8
Layer_1
 62
7
100
AcDbSpline
 70
8
 71
3
 72
8
 73
4
 74
0
 40
0
 40
0
 40
0
 40
0
 40
1
 40
1
 40
1
 40
1
 10
711.255033
 20
553.030610
 30
0.0
 10
711.202173
 20
554.145586
 30
0.0
 10
710.260510
 20
555.012316
 30
0.0
 10
709.144971
 20
554.972542
 30
0.0
  0
SPLINE
  5
165
100
AcDbEntity
  8
Layer_1
 62
7
100
AcDbSpline
 70
8
 71
3
 72
8
 73
4
 74
0
 40
0
 40
0
 40
0
 40
0
 40
1
 40
1
 40
1
 40
1
 10
709.144971
 20
554.972542
 30
0.0
 10
708.141530
 20
554.936423
 30
0.0
 10
707.329096
 20
554.170362
 30
0.0
 10
707.206358
 20
553.181642
 30
0.0
  0
LWPOLYLINE
  5
166
100
AcDbEntity
  8
Layer_1
 62
7
100
AcDbPolyline
 90
4
 70
1
 10
711.257856
 20
552.933557
 30
0.0
 10
711.257856
 20
552.934686
 30
0.0
 10
711.255033
 20
553.030046
 30
0.0
 10
711.255033
 20
553.030610
 30
0.0
  0
SPLINE
  5
167
100
AcDbEntity
  8
Layer_1
 62
7
100
AcDbSpline
 70
8
 71
3
 72
8
 73
4
 74
0
 40
0
 40
0
 40
0
 40
0
 40
1
 40
1
 40
1
 40
1
 10
699.830000
 20
553.181642
 30
0.0
 10
699.717112
 20
554.239588
 30
0.0
 10
698.816061
 20
555.045434
 30
0.0
 10
697.743644
 20
555.007820
 30
0.0
  0
LWPOLYLINE
  5
168
100
AcDbEntity
  8
Layer_1
 62
7
100
AcDbPolyline
 90
2
 70
1
 10
707.206358
 20
553.181642
 30
0.0
 10
699.830000
 20
553.181642
 30
0.0
  0
LWPOLYLINE
  5
169
100
AcDbEntity
  8
Layer_1
 62
7
100
AcDbPolyline
 90
4
 70
1
 10
697.743644
 20
555.007820
 30
0.0
 10
697.743644
 20
555.007820
 30
0.0
 10
697.743644
 20
555.008949
 30
0.0
 10
697.743193
 20
555.008856
 30
0.0
  0
SPLINE
  5
16a
100
AcDbEntity
  8
Layer_1
 62
7
100
AcDbSpline
 70
8
 71
3
 72
8
 73
4
 74
0
 40
0
 40
0
 40
0
 40
0
 40
1
 40
1
 40
1
 40
1
 10
252.122246
 20
887.003241
 30
0.0
 10
250.403405
 20
886.992799
 30
0.0
 10
248.684697
 20
886.956985
 30
0.0
 10
246.966729
 20
886.895771
 30
0.0
  0
SPLINE
  5
16b
100
AcDbEntity
  8
Layer_1
 62
7
100
AcDbSpline
 70
8
 71
3
 72
8
 73
4
 74
0
 40
0
 40
0
 40
0
 40
0
 40
1
 40
1
 40
1
 40
1
 10
246.966729
 20
886.895771
 30
0.0
 10
200.942567
 20
885.257104
 30
0.0
 10
157.419015
 20
865.542132
 30
0.0
 10
125.834417
 20
832.026127
 30
0.0
  0
SPLINE
  5
16c
100
AcDbEntity
  8
Layer_1
 62
7
100
AcDbSpline
 70
8
 71
3
 72
8
 73
4
 74
0
 40
0
 40
0
 40
0
 40
0
 40
1
 40
1
 40
1
 40
1
 10
125.834417
 20
832.026127
 30
0.0
 10
94.249819
 20
798.510149
 30
0.0
 10
77.150349
 20
753.894795
 30
0.0
 10
78.243041
 20
707.854417
 30
0.0
  0
SPLINE
  5
16d
100
AcDbEntity
  8
Layer_1
 62
7
100
AcDbSpline
 70
8
 71
3
 72
8
 73
4
 74
0
 40
0
 40
0
 40
0
 40
0
 40
1
 40
1
 40
1
 40
1
 10
78.243041
 20
707.854417
 30
0.0
 10
79.335670
 20
661.814123
 30
0.0
 10
98.532851
 20
618.059857
 30
0.0
 10
131.671785
 20
586.079930
 30
0.0
  0
SPLINE
  5
16e
100
AcDbEntity
  8
Layer_1
 62
7
100
AcDbSpline
 70
8
 71
3
 72
8
 73
4
 74
0
 40
0
 40
0
 40
0
 40
0
 40
1
 40
1
 40
1
 40
1
 10
131.671785
 20
586.079930
 30
0.0
 10
164.810719
 20
554.100012
 30
0.0
 10
209.219650
 20
536.472037
 30
0.0
 10
255.269684
 20
537.018467
 30
0.0
  0
SPLINE
  5
16f
100
AcDbEntity
  8
Layer_1
 62
7
100
AcDbSpline
 70
8
 71
3
 72
8
 73
4
 74
0
 40
0
 40
0
 40
0
 40
0
 40
1
 40
1
 40
1
 40
1
 10
255.269684
 20
537.018467
 30
0.0
 10
301.319664
 20
537.564841
 30
0.0
 10
345.298466
 20
556.241486
 30
0.0
 10
377.669242
 20
588.998616
 30
0.0
  0
SPLINE
  5
170
100
AcDbEntity
  8
Layer_1
 62
7
100
AcDbSpline
 70
8
 71
3
 72
8
 73
4
 74
0
 40
0
 40
0
 40
0
 40
0
 40
1
 40
1
 40
1
 40
1
 10
377.669242
 20
588.998616
 30
0.0
 10
410.040046
 20
621.755754
 30
0.0
 10
428.193623
 20
665.952968
 30
0.0
 10
428.193652
 20
712.006188
 30
0.0
  0
LWPOLYLINE
  5
171
100
AcDbEntity
  8
Layer_1
 62
7
100
AcDbPolyline
 90
5
 70
1
 10
697.743193
 20
555.007162
 30
0.0
 10
697.826985
 20
554.926133
 30
0.0
 10
697.782337
 20
554.853374
 30
0.0
 10
697.743193
 20
555.007162
 30
0.0
 10
697.743193
 20
555.007162
 30
0.0
  0
SPLINE
  5
172
100
AcDbEntity
  8
Layer_1
 62
7
100
AcDbSpline
 70
8
 71
3
 72
8
 73
4
 74
0
 40
0
 40
0
 40
0
 40
0
 40
1
 40
1
 40
1
 40
1
 10
427.996858
 20
720.305271
 30
0.0
 10
425.896927
 20
764.525429
 30
0.0
 10
407.115490
 20
806.306736
 30
0.0
 10
375.436836
 20
837.230728
 30
0.0
  0
SPLINE
  5
173
100
AcDbEntity
  8
Layer_1
 62
7
100
AcDbSpline
 70
8
 71
3
 72
8
 73
4
 74
0
 40
0
 40
0
 40
0
 40
0
 40
1
 40
1
 40
1
 40
1
 10
375.436836
 20
837.230728
 30
0.0
 10
343.758153
 20
868.154720
 30
0.0
 10
301.536241
 20
885.923628
 30
0.0
 10
257.278313
 20
886.956957
 30
0.0
  0
SPLINE
  5
174
100
AcDbEntity
  8
Layer_1
 62
7
100
AcDbSpline
 70
8
 71
3
 72
8
 73
4
 74
0
 40
0
 40
0
 40
0
 40
0
 40
1
 40
1
 40
1
 40
1
 10
257.278313
 20
886.956957
 30
0.0
 10
255.559721
 20
886.997032
 30
0.0
 10
253.841083
 20
887.011623
 30
0.0
 10
252.122246
 20
887.001040
 30
0.0
  0
LWPOLYLINE
  5
175
100
AcDbEntity
  8
Layer_1
 62
7
100
AcDbPolyline
 90
4
 70
1
 10
428.193652
 20
712.006188
 30
0.0
 10
428.193652
 20
712.006188
 30
0.0
 10
427.996858
 20
720.305271
 30
0.0
 10
427.996858
 20
720.305271
 30
0.0
  0
LWPOLYLINE
  5
176
100
AcDbEntity
  8
Layer_1
 62
7
100
AcDbPolyline
 90
2
 70
1
 10
252.122246
 20
887.001040
 30
0.0
 10
252.122246
 20
887.003241
 30
0.0
  0
SPLINE
  5
177
100
AcDbEntity
  8
Layer_1
 62
7
100
AcDbSpline
 70
8
 71
3
 72
8
 73
4
 74
0
 40
0
 40
0
 40
0
 40
0
 40
1
 40
1
 40
1
 40
1
 10
247.420957
 20
877.097411
 30
0.0
 10
246.296547
 20
877.057363
 30
0.0
 10
245.411679
 20
876.118241
 30
0.0
 10
245.438236
 20
874.993416
 30
0.0
  0
SPLINE
  5
178
100
AcDbEntity
  8
Layer_1
 62
7
100
AcDbSpline
 70
8
 71
3
 72
8
 73
4
 74
0
 40
0
 40
0
 40
0
 40
0
 40
1
 40
1
 40
1
 40
1
 10
245.438236
 20
874.993416
 30
0.0
 10
245.464172
 20
873.950689
 30
0.0
 10
246.272854
 20
873.112405
 30
0.0
 10
247.300790
 20
873.012921
 30
0.0
  0
LWPOLYLINE
  5
179
100
AcDbEntity
  8
Layer_1
 62
7
100
AcDbPolyline
 90
2
 70
1
 10
247.686091
 20
877.106724
 30
0.0
 10
247.420957
 20
877.097411
 30
0.0
  0
SPLINE
  5
17a
100
AcDbEntity
  8
Layer_1
 62
7
100
AcDbSpline
 70
8
 71
3
 72
8
 73
4
 74
0
 40
0
 40
0
 40
0
 40
0
 40
1
 40
1
 40
1
 40
1
 10
247.300790
 20
866.026821
 30
0.0
 10
246.235688
 20
865.923584
 30
0.0
 10
245.412748
 20
865.028601
 30
0.0
 10
245.438236
 20
863.947633
 30
0.0
  0
SPLINE
  5
17b
100
AcDbEntity
  8
Layer_1
 62
7
100
AcDbSpline
 70
8
 71
3
 72
8
 73
4
 74
0
 40
0
 40
0
 40
0
 40
0
 40
1
 40
1
 40
1
 40
1
 10
245.438236
 20
863.947633
 30
0.0
 10
245.464906
 20
862.822808
 30
0.0
 10
246.393473
 20
861.926386
 30
0.0
 10
247.518521
 20
861.939537
 30
0.0
  0
SPLINE
  5
17c
100
AcDbEntity
  8
Layer_1
 62
7
100
AcDbSpline
 70
8
 71
3
 72
8
 73
4
 74
0
 40
0
 40
0
 40
0
 40
0
 40
1
 40
1
 40
1
 40
1
 10
247.518521
 20
861.939537
 30
0.0
 10
248.488005
 20
861.952237
 30
0.0
 10
249.300532
 20
862.646871
 30
0.0
 10
249.493526
 20
863.588788
 30
0.0
  0
LWPOLYLINE
  5
17d
100
AcDbEntity
  8
Layer_1
 62
7
100
AcDbPolyline
 90
2
 70
1
 10
247.300790
 20
873.012921
 30
0.0
 10
247.300790
 20
866.026821
 30
0.0
  0
SPLINE
  5
17e
100
AcDbEntity
  8
Layer_1
 62
7
100
AcDbSpline
 70
8
 71
3
 72
8
 73
4
 74
0
 40
0
 40
0
 40
0
 40
0
 40
1
 40
1
 40
1
 40
1
 10
256.741456
 20
863.588788
 30
0.0
 10
256.908560
 20
862.596240
 30
0.0
 10
257.762547
 20
861.857382
 30
0.0
 10
258.778194
 20
861.868446
 30
0.0
  0
SPLINE
  5
17f
100
AcDbEntity
  8
Layer_1
 62
7
100
AcDbSpline
 70
8
 71
3
 72
8
 73
4
 74
0
 40
0
 40
0
 40
0
 40
0
 40
1
 40
1
 40
1
 40
1
 10
258.778194
 20
861.868446
 30
0.0
 10
259.903237
 20
861.881992
 30
0.0
 10
260.809909
 20
862.799892
 30
0.0
 10
260.809974
 20
863.925027
 30
0.0
  0
LWPOLYLINE
  5
180
100
AcDbEntity
  8
Layer_1
 62
7
100
AcDbPolyline
 90
2
 70
1
 10
249.493526
 20
863.588788
 30
0.0
 10
256.741456
 20
863.588788
 30
0.0
  0
SPLINE
  5
181
100
AcDbEntity
  8
Layer_1
 62
7
100
AcDbSpline
 70
8
 71
3
 72
8
 73
4
 74
0
 40
0
 40
0
 40
0
 40
0
 40
1
 40
1
 40
1
 40
1
 10
260.807152
 20
864.023212
 30
0.0
 10
260.758836
 20
865.033540
 30
0.0
 10
259.976993
 20
865.839284
 30
0.0
 10
258.981527
 20
865.953020
 30
0.0
  0
LWPOLYLINE
  5
182
100
AcDbEntity
  8
Layer_1
 62
7
100
AcDbPolyline
 90
4
 70
1
 10
260.809974
 20
863.925027
 30
0.0
 10
260.809974
 20
863.927849
 30
0.0
 10
260.807152
 20
864.023212
 30
0.0
 10
260.807152
 20
864.023212
 30
0.0
  0
SPLINE
  5
183
100
AcDbEntity
  8
Layer_1
 62
7
100
AcDbSpline
 70
8
 71
3
 72
8
 73
4
 74
0
 40
0
 40
0
 40
0
 40
0
 40
1
 40
1
 40
1
 40
1
 10
258.981527
 20
872.961726
 30
0.0
 10
260.076270
 20
873.008942
 30
0.0
 10
260.952053
 20
873.901696
 30
0.0
 10
260.952121
 20
875.005072
 30
0.0
  0
LWPOLYLINE
  5
184
100
AcDbEntity
  8
Layer_1
 62
7
100
AcDbPolyline
 90
2
 70
1
 10
258.981527
 20
865.953020
 30
0.0
 10
258.981527
 20
872.961726
 30
0.0
  0
SPLINE
  5
185
100
AcDbEntity
  8
Layer_1
 62
7
100
AcDbSpline
 70
8
 71
3
 72
8
 73
4
 74
0
 40
0
 40
0
 40
0
 40
0
 40
1
 40
1
 40
1
 40
1
 10
260.949299
 20
875.103257
 30
0.0
 10
260.896007
 20
876.227320
 30
0.0
 10
259.946239
 20
877.101813
 30
0.0
 10
258.821609
 20
877.061710
 30
0.0
  0
SPLINE
  5
186
100
AcDbEntity
  8
Layer_1
 62
7
100
AcDbSpline
 70
8
 71
3
 72
8
 73
4
 74
0
 40
0
 40
0
 40
0
 40
0
 40
1
 40
1
 40
1
 40
1
 10
258.821609
 20
877.061710
 30
0.0
 10
257.815393
 20
877.025500
 30
0.0
 10
257.001558
 20
876.259775
 30
0.0
 10
256.870858
 20
875.270812
 30
0.0
  0
LWPOLYLINE
  5
187
100
AcDbEntity
  8
Layer_1
 62
7
100
AcDbPolyline
 90
4
 70
1
 10
260.952121
 20
875.005072
 30
0.0
 10
260.952121
 20
875.007894
 30
0.0
 10
260.949299
 20
875.103257
 30
0.0
 10
260.949299
 20
875.103257
 30
0.0
  0
SPLINE
  5
188
100
AcDbEntity
  8
Layer_1
 62
7
100
AcDbSpline
 70
8
 71
3
 72
8
 73
4
 74
0
 40
0
 40
0
 40
0
 40
0
 40
1
 40
1
 40
1
 40
1
 10
249.519852
 20
875.270812
 30
0.0
 10
249.406994
 20
876.254413
 30
0.0
 10
248.612747
 20
876.989432
 30
0.0
 10
247.636899
 20
877.061710
 30
0.0
  0
LWPOLYLINE
  5
189
100
AcDbEntity
  8
Layer_1
 62
7
100
AcDbPolyline
 90
2
 70
1
 10
256.870858
 20
875.270812
 30
0.0
 10
249.519852
 20
875.270812
 30
0.0
  0
LWPOLYLINE
  5
18a
100
AcDbEntity
  8
Layer_1
 62
7
100
AcDbPolyline
 90
3
 70
1
 10
247.636899
 20
877.061710
 30
0.0
 10
247.685958
 20
877.107458
 30
0.0
 10
247.686091
 20
877.106724
 30
0.0
  0
SPLINE
  5
18b
100
AcDbEntity
  8
Layer_1
 62
7
100
AcDbSpline
 70
8
 71
3
 72
8
 73
4
 74
0
 40
0
 40
0
 40
0
 40
0
 40
1
 40
1
 40
1
 40
1
 10
404.754898
 20
719.621813
 30
0.0
 10
403.630497
 20
719.581766
 30
0.0
 10
402.745617
 20
718.642643
 30
0.0
 10
402.772174
 20
717.517847
 30
0.0
  0
SPLINE
  5
18c
100
AcDbEntity
  8
Layer_1
 62
7
100
AcDbSpline
 70
8
 71
3
 72
8
 73
4
 74
0
 40
0
 40
0
 40
0
 40
0
 40
1
 40
1
 40
1
 40
1
 10
402.772174
 20
717.517847
 30
0.0
 10
402.798139
 20
716.475092
 30
0.0
 10
403.606790
 20
715.636807
 30
0.0
 10
404.634728
 20
715.537324
 30
0.0
  0
LWPOLYLINE
  5
18d
100
AcDbEntity
  8
Layer_1
 62
7
100
AcDbPolyline
 90
2
 70
1
 10
405.015615
 20
719.631127
 30
0.0
 10
404.754898
 20
719.621813
 30
0.0
  0
SPLINE
  5
18e
100
AcDbEntity
  8
Layer_1
 62
7
100
AcDbSpline
 70
8
 71
3
 72
8
 73
4
 74
0
 40
0
 40
0
 40
0
 40
0
 40
1
 40
1
 40
1
 40
1
 10
404.634728
 20
708.551223
 30
0.0
 10
403.569622
 20
708.447986
 30
0.0
 10
402.746690
 20
707.553003
 30
0.0
 10
402.772174
 20
706.472036
 30
0.0
  0
SPLINE
  5
18f
100
AcDbEntity
  8
Layer_1
 62
7
100
AcDbSpline
 70
8
 71
3
 72
8
 73
4
 74
0
 40
0
 40
0
 40
0
 40
0
 40
1
 40
1
 40
1
 40
1
 10
402.772174
 20
706.472036
 30
0.0
 10
402.798986
 20
705.347239
 30
0.0
 10
403.727412
 20
704.450788
 30
0.0
 10
404.852463
 20
704.463968
 30
0.0
  0
SPLINE
  5
190
100
AcDbEntity
  8
Layer_1
 62
7
100
AcDbSpline
 70
8
 71
3
 72
8
 73
4
 74
0
 40
0
 40
0
 40
0
 40
0
 40
1
 40
1
 40
1
 40
1
 10
404.852463
 20
704.463968
 30
0.0
 10
405.821952
 20
704.476668
 30
0.0
 10
406.634470
 20
705.171274
 30
0.0
 10
406.827454
 20
706.113190
 30
0.0
  0
LWPOLYLINE
  5
191
100
AcDbEntity
  8
Layer_1
 62
7
100
AcDbPolyline
 90
2
 70
1
 10
404.634728
 20
715.537324
 30
0.0
 10
404.634728
 20
708.551223
 30
0.0
  0
SPLINE
  5
192
100
AcDbEntity
  8
Layer_1
 62
7
100
AcDbSpline
 70
8
 71
3
 72
8
 73
4
 74
0
 40
0
 40
0
 40
0
 40
0
 40
1
 40
1
 40
1
 40
1
 10
414.075400
 20
706.113190
 30
0.0
 10
414.242504
 20
705.120643
 30
0.0
 10
415.096480
 20
704.381785
 30
0.0
 10
416.112142
 20
704.392848
 30
0.0
  0
SPLINE
  5
193
100
AcDbEntity
  8
Layer_1
 62
7
100
AcDbSpline
 70
8
 71
3
 72
8
 73
4
 74
0
 40
0
 40
0
 40
0
 40
0
 40
1
 40
1
 40
1
 40
1
 10
416.112142
 20
704.392848
 30
0.0
 10
417.237164
 20
704.406395
 30
0.0
 10
418.143859
 20
705.324323
 30
0.0
 10
418.143916
 20
706.449430
 30
0.0
  0
LWPOLYLINE
  5
194
100
AcDbEntity
  8
Layer_1
 62
7
100
AcDbPolyline
 90
2
 70
1
 10
406.827454
 20
706.113190
 30
0.0
 10
414.075400
 20
706.113190
 30
0.0
  0
SPLINE
  5
195
100
AcDbEntity
  8
Layer_1
 62
7
100
AcDbSpline
 70
8
 71
3
 72
8
 73
4
 74
0
 40
0
 40
0
 40
0
 40
0
 40
1
 40
1
 40
1
 40
1
 10
418.141094
 20
706.547615
 30
0.0
 10
418.092777
 20
707.557914
 30
0.0
 10
417.310937
 20
708.363658
 30
0.0
 10
416.315483
 20
708.477422
 30
0.0
  0
LWPOLYLINE
  5
196
100
AcDbEntity
  8
Layer_1
 62
7
100
AcDbPolyline
 90
4
 70
1
 10
418.143916
 20
706.449430
 30
0.0
 10
418.143916
 20
706.452252
 30
0.0
 10
418.141094
 20
706.547615
 30
0.0
 10
418.141094
 20
706.547615
 30
0.0
  0
SPLINE
  5
197
100
AcDbEntity
  8
Layer_1
 62
7
100
AcDbSpline
 70
8
 71
3
 72
8
 73
4
 74
0
 40
0
 40
0
 40
0
 40
0
 40
1
 40
1
 40
1
 40
1
 10
416.315483
 20
715.486101
 30
0.0
 10
417.410223
 20
715.533316
 30
0.0
 10
418.286015
 20
716.426042
 30
0.0
 10
418.286071
 20
717.529474
 30
0.0
  0
LWPOLYLINE
  5
198
100
AcDbEntity
  8
Layer_1
 62
7
100
AcDbPolyline
 90
2
 70
1
 10
416.315483
 20
708.477422
 30
0.0
 10
416.315483
 20
715.486101
 30
0.0
  0
SPLINE
  5
199
100
AcDbEntity
  8
Layer_1
 62
7
100
AcDbSpline
 70
8
 71
3
 72
8
 73
4
 74
0
 40
0
 40
0
 40
0
 40
0
 40
1
 40
1
 40
1
 40
1
 10
418.283249
 20
717.627659
 30
0.0
 10
418.229965
 20
718.751722
 30
0.0
 10
417.280203
 20
719.626216
 30
0.0
 10
416.155576
 20
719.586112
 30
0.0
  0
SPLINE
  5
19a
100
AcDbEntity
  8
Layer_1
 62
7
100
AcDbSpline
 70
8
 71
3
 72
8
 73
4
 74
0
 40
0
 40
0
 40
0
 40
0
 40
1
 40
1
 40
1
 40
1
 10
416.155576
 20
719.586112
 30
0.0
 10
415.149340
 20
719.549903
 30
0.0
 10
414.335524
 20
718.784178
 30
0.0
 10
414.204827
 20
717.795215
 30
0.0
  0
LWPOLYLINE
  5
19b
100
AcDbEntity
  8
Layer_1
 62
7
100
AcDbPolyline
 90
4
 70
1
 10
418.286071
 20
717.529474
 30
0.0
 10
418.286071
 20
717.532296
 30
0.0
 10
418.283249
 20
717.627659
 30
0.0
 10
418.283249
 20
717.627659
 30
0.0
  0
SPLINE
  5
19c
100
AcDbEntity
  8
Layer_1
 62
7
100
AcDbSpline
 70
8
 71
3
 72
8
 73
4
 74
0
 40
0
 40
0
 40
0
 40
0
 40
1
 40
1
 40
1
 40
1
 10
406.853813
 20
717.795215
 30
0.0
 10
406.740840
 20
718.779775
 30
0.0
 10
405.945255
 20
719.515641
 30
0.0
 10
404.968089
 20
719.586677
 30
0.0
  0
LWPOLYLINE
  5
19d
100
AcDbEntity
  8
Layer_1
 62
7
100
AcDbPolyline
 90
2
 70
1
 10
414.204827
 20
717.795215
 30
0.0
 10
406.853813
 20
717.795215
 30
0.0
  0
LWPOLYLINE
  5
19e
100
AcDbEntity
  8
Layer_1
 62
7
100
AcDbPolyline
 90
3
 70
1
 10
404.968089
 20
719.586677
 30
0.0
 10
405.015502
 20
719.631860
 30
0.0
 10
405.015615
 20
719.631127
 30
0.0
  0
SPLINE
  5
19f
100
AcDbEntity
  8
Layer_1
 62
7
100
AcDbSpline
 70
8
 71
3
 72
8
 73
4
 74
0
 40
0
 40
0
 40
0
 40
0
 40
1
 40
1
 40
1
 40
1
 10
90.085926
 20
719.620684
 30
0.0
 10
88.961516
 20
719.580637
 30
0.0
 10
88.076651
 20
718.641514
 30
0.0
 10
88.103205
 20
717.516718
 30
0.0
  0
SPLINE
  5
1a0
100
AcDbEntity
  8
Layer_1
 62
7
100
AcDbSpline
 70
8
 71
3
 72
8
 73
4
 74
0
 40
0
 40
0
 40
0
 40
0
 40
1
 40
1
 40
1
 40
1
 10
88.103205
 20
717.516718
 30
0.0
 10
88.129141
 20
716.473963
 30
0.0
 10
88.937826
 20
715.635678
 30
0.0
 10
89.965761
 20
715.536195
 30
0.0
  0
LWPOLYLINE
  5
1a1
100
AcDbEntity
  8
Layer_1
 62
7
100
AcDbPolyline
 90
2
 70
1
 10
90.133881
 20
719.623507
 30
0.0
 10
90.085926
 20
719.620684
 30
0.0
  0
SPLINE
  5
1a2
100
AcDbEntity
  8
Layer_1
 62
7
100
AcDbSpline
 70
8
 71
3
 72
8
 73
4
 74
0
 40
0
 40
0
 40
0
 40
0
 40
1
 40
1
 40
1
 40
1
 10
89.965761
 20
708.550094
 30
0.0
 10
88.900660
 20
708.446858
 30
0.0
 10
88.077717
 20
707.551874
 30
0.0
 10
88.103205
 20
706.470907
 30
0.0
  0
SPLINE
  5
1a3
100
AcDbEntity
  8
Layer_1
 62
7
100
AcDbSpline
 70
8
 71
3
 72
8
 73
4
 74
0
 40
0
 40
0
 40
0
 40
0
 40
1
 40
1
 40
1
 40
1
 10
88.103205
 20
706.470907
 30
0.0
 10
88.129875
 20
705.346110
 30
0.0
 10
89.058442
 20
704.449660
 30
0.0
 10
90.183490
 20
704.462839
 30
0.0
  0
SPLINE
  5
1a4
100
AcDbEntity
  8
Layer_1
 62
7
100
AcDbSpline
 70
8
 71
3
 72
8
 73
4
 74
0
 40
0
 40
0
 40
0
 40
0
 40
1
 40
1
 40
1
 40
1
 10
90.183490
 20
704.462839
 30
0.0
 10
91.152983
 20
704.475539
 30
0.0
 10
91.965509
 20
705.170145
 30
0.0
 10
92.158495
 20
706.112061
 30
0.0
  0
LWPOLYLINE
  5
1a5
100
AcDbEntity
  8
Layer_1
 62
7
100
AcDbPolyline
 90
2
 70
1
 10
89.965761
 20
715.536195
 30
0.0
 10
89.965761
 20
708.550094
 30
0.0
  0
SPLINE
  5
1a6
100
AcDbEntity
  8
Layer_1
 62
7
100
AcDbSpline
 70
8
 71
3
 72
8
 73
4
 74
0
 40
0
 40
0
 40
0
 40
0
 40
1
 40
1
 40
1
 40
1
 10
99.406425
 20
706.112061
 30
0.0
 10
99.573529
 20
705.119514
 30
0.0
 10
100.426963
 20
704.380656
 30
0.0
 10
101.442613
 20
704.391719
 30
0.0
  0
LWPOLYLINE
  5
1a7
100
AcDbEntity
  8
Layer_1
 62
7
100
AcDbPolyline
 90
2
 70
1
 10
92.158495
 20
706.112061
 30
0.0
 10
99.406425
 20
706.112061
 30
0.0
  0
SPLINE
  5
1a8
100
AcDbEntity
  8
Layer_1
 62
7
100
AcDbSpline
 70
8
 71
3
 72
8
 73
4
 74
0
 40
0
 40
0
 40
0
 40
0
 40
1
 40
1
 40
1
 40
1
 10
101.443178
 20
704.391719
 30
0.0
 10
102.568223
 20
704.405266
 30
0.0
 10
103.474895
 20
705.323194
 30
0.0
 10
103.474957
 20
706.448301
 30
0.0
  0
LWPOLYLINE
  5
1a9
100
AcDbEntity
  8
Layer_1
 62
7
100
AcDbPolyline
 90
2
 70
1
 10
101.442613
 20
704.391719
 30
0.0
 10
101.443178
 20
704.391719
 30
0.0
  0
SPLINE
  5
1aa
100
AcDbEntity
  8
Layer_1
 62
7
100
AcDbSpline
 70
8
 71
3
 72
8
 73
4
 74
0
 40
0
 40
0
 40
0
 40
0
 40
1
 40
1
 40
1
 40
1
 10
103.471655
 20
706.547022
 30
0.0
 10
103.423342
 20
707.557321
 30
0.0
 10
102.641499
 20
708.363066
 30
0.0
 10
101.646033
 20
708.476830
 30
0.0
  0
LWPOLYLINE
  5
1ab
100
AcDbEntity
  8
Layer_1
 62
7
100
AcDbPolyline
 90
4
 70
1
 10
103.474957
 20
706.448301
 30
0.0
 10
103.474957
 20
706.451123
 30
0.0
 10
103.471655
 20
706.547022
 30
0.0
 10
103.471655
 20
706.547022
 30
0.0
  0
SPLINE
  5
1ac
100
AcDbEntity
  8
Layer_1
 62
7
100
AcDbSpline
 70
8
 71
3
 72
8
 73
4
 74
0
 40
0
 40
0
 40
0
 40
0
 40
1
 40
1
 40
1
 40
1
 10
101.646033
 20
715.485508
 30
0.0
 10
102.740547
 20
715.532978
 30
0.0
 10
103.616560
 20
716.425647
 30
0.0
 10
103.616627
 20
717.528882
 30
0.0
  0
LWPOLYLINE
  5
1ad
100
AcDbEntity
  8
Layer_1
 62
7
100
AcDbPolyline
 90
2
 70
1
 10
101.646033
 20
708.476830
 30
0.0
 10
101.646033
 20
715.485508
 30
0.0
  0
SPLINE
  5
1ae
100
AcDbEntity
  8
Layer_1
 62
7
100
AcDbSpline
 70
8
 71
3
 72
8
 73
4
 74
0
 40
0
 40
0
 40
0
 40
0
 40
1
 40
1
 40
1
 40
1
 10
103.613805
 20
717.627067
 30
0.0
 10
103.560513
 20
718.751130
 30
0.0
 10
102.610745
 20
719.625623
 30
0.0
 10
101.486115
 20
719.585520
 30
0.0
  0
SPLINE
  5
1af
100
AcDbEntity
  8
Layer_1
 62
7
100
AcDbSpline
 70
8
 71
3
 72
8
 73
4
 74
0
 40
0
 40
0
 40
0
 40
0
 40
1
 40
1
 40
1
 40
1
 10
101.486115
 20
719.585520
 30
0.0
 10
100.479900
 20
719.549310
 30
0.0
 10
99.666064
 20
718.783585
 30
0.0
 10
99.535364
 20
717.794622
 30
0.0
  0
LWPOLYLINE
  5
1b0
100
AcDbEntity
  8
Layer_1
 62
7
100
AcDbPolyline
 90
4
 70
1
 10
103.616627
 20
717.528882
 30
0.0
 10
103.616627
 20
717.531704
 30
0.0
 10
103.613805
 20
717.627067
 30
0.0
 10
103.613805
 20
717.627067
 30
0.0
  0
SPLINE
  5
1b1
100
AcDbEntity
  8
Layer_1
 62
7
100
AcDbSpline
 70
8
 71
3
 72
8
 73
4
 74
0
 40
0
 40
0
 40
0
 40
0
 40
1
 40
1
 40
1
 40
1
 10
92.184355
 20
717.794622
 30
0.0
 10
92.065269
 20
718.832522
 30
0.0
 10
91.192768
 20
719.616169
 30
0.0
 10
90.144309
 20
719.610891
 30
0.0
  0
LWPOLYLINE
  5
1b2
100
AcDbEntity
  8
Layer_1
 62
7
100
AcDbPolyline
 90
2
 70
1
 10
99.535364
 20
717.794622
 30
0.0
 10
92.184355
 20
717.794622
 30
0.0
  0
LWPOLYLINE
  5
1b3
100
AcDbEntity
  8
Layer_1
 62
7
100
AcDbPolyline
 90
3
 70
1
 10
90.144309
 20
719.610891
 30
0.0
 10
90.133839
 20
719.623591
 30
0.0
 10
90.133881
 20
719.623507
 30
0.0
  0
LWPOLYLINE
  5
1b4
100
AcDbEntity
  8
Layer_1
 62
7
100
AcDbPolyline
 90
5
 70
1
 10
90.084272
 20
719.607984
 30
0.0
 10
90.087574
 20
719.425528
 30
0.0
 10
90.015365
 20
719.457504
 30
0.0
 10
90.084267
 20
719.607984
 30
0.0
 10
90.084272
 20
719.607984
 30
0.0
  0
SPLINE
  5
1b5
100
AcDbEntity
  8
Layer_1
 62
7
100
AcDbSpline
 70
8
 71
3
 72
8
 73
4
 74
0
 40
0
 40
0
 40
0
 40
0
 40
1
 40
1
 40
1
 40
1
 10
247.420951
 20
562.145615
 30
0.0
 10
246.296541
 20
562.105553
 30
0.0
 10
245.411676
 20
561.166431
 30
0.0
 10
245.438230
 20
560.041626
 30
0.0
  0
LWPOLYLINE
  5
1b6
100
AcDbEntity
  8
Layer_1
 62
7
100
AcDbPolyline
 90
2
 70
1
 10
247.691046
 20
562.154985
 30
0.0
 10
247.420951
 20
562.145615
 30
0.0
  0
SPLINE
  5
1b7
100
AcDbEntity
  8
Layer_1
 62
7
100
AcDbSpline
 70
8
 71
3
 72
8
 73
4
 74
0
 40
0
 40
0
 40
0
 40
0
 40
1
 40
1
 40
1
 40
1
 10
245.438230
 20
560.041061
 30
0.0
 10
245.464166
 20
558.998318
 30
0.0
 10
246.272849
 20
558.160589
 30
0.0
 10
247.300784
 20
558.061094
 30
0.0
  0
LWPOLYLINE
  5
1b8
100
AcDbEntity
  8
Layer_1
 62
7
100
AcDbPolyline
 90
2
 70
1
 10
245.438230
 20
560.041626
 30
0.0
 10
245.438230
 20
560.041061
 30
0.0
  0
SPLINE
  5
1b9
100
AcDbEntity
  8
Layer_1
 62
7
100
AcDbSpline
 70
8
 71
3
 72
8
 73
4
 74
0
 40
0
 40
0
 40
0
 40
0
 40
1
 40
1
 40
1
 40
1
 10
247.300784
 20
551.074441
 30
0.0
 10
246.235691
 20
550.971204
 30
0.0
 10
245.412743
 20
550.076768
 30
0.0
 10
245.438230
 20
548.995809
 30
0.0
  0
SPLINE
  5
1ba
100
AcDbEntity
  8
Layer_1
 62
7
100
AcDbSpline
 70
8
 71
3
 72
8
 73
4
 74
0
 40
0
 40
0
 40
0
 40
0
 40
1
 40
1
 40
1
 40
1
 10
245.438230
 20
548.995809
 30
0.0
 10
245.464900
 20
547.871004
 30
0.0
 10
246.393468
 20
546.974573
 30
0.0
 10
247.518515
 20
546.987730
 30
0.0
  0
SPLINE
  5
1bb
100
AcDbEntity
  8
Layer_1
 62
7
100
AcDbSpline
 70
8
 71
3
 72
8
 73
4
 74
0
 40
0
 40
0
 40
0
 40
0
 40
1
 40
1
 40
1
 40
1
 10
247.518515
 20
546.987730
 30
0.0
 10
248.488000
 20
547.000317
 30
0.0
 10
249.300526
 20
547.695053
 30
0.0
 10
249.493521
 20
548.636969
 30
0.0
  0
LWPOLYLINE
  5
1bc
100
AcDbEntity
  8
Layer_1
 62
7
100
AcDbPolyline
 90
2
 70
1
 10
247.300784
 20
558.061094
 30
0.0
 10
247.300784
 20
551.074441
 30
0.0
  0
SPLINE
  5
1bd
100
AcDbEntity
  8
Layer_1
 62
7
100
AcDbSpline
 70
8
 71
3
 72
8
 73
4
 74
0
 40
0
 40
0
 40
0
 40
0
 40
1
 40
1
 40
1
 40
1
 10
256.741450
 20
548.636969
 30
0.0
 10
256.908554
 20
547.644419
 30
0.0
 10
257.762542
 20
546.905558
 30
0.0
 10
258.778189
 20
546.916624
 30
0.0
  0
SPLINE
  5
1be
100
AcDbEntity
  8
Layer_1
 62
7
100
AcDbSpline
 70
8
 71
3
 72
8
 73
4
 74
0
 40
0
 40
0
 40
0
 40
0
 40
1
 40
1
 40
1
 40
1
 10
258.778189
 20
546.916624
 30
0.0
 10
259.903231
 20
546.930086
 30
0.0
 10
260.809904
 20
547.848090
 30
0.0
 10
260.809969
 20
548.973209
 30
0.0
  0
LWPOLYLINE
  5
1bf
100
AcDbEntity
  8
Layer_1
 62
7
100
AcDbPolyline
 90
2
 70
1
 10
249.493521
 20
548.636969
 30
0.0
 10
256.741450
 20
548.636969
 30
0.0
  0
SPLINE
  5
1c0
100
AcDbEntity
  8
Layer_1
 62
7
100
AcDbSpline
 70
8
 71
3
 72
8
 73
4
 74
0
 40
0
 40
0
 40
0
 40
0
 40
1
 40
1
 40
1
 40
1
 10
260.807146
 20
549.071391
 30
0.0
 10
260.758830
 20
550.081696
 30
0.0
 10
259.976987
 20
550.887446
 30
0.0
 10
258.981521
 20
551.001196
 30
0.0
  0
LWPOLYLINE
  5
1c1
100
AcDbEntity
  8
Layer_1
 62
7
100
AcDbPolyline
 90
4
 70
1
 10
260.809969
 20
548.973209
 30
0.0
 10
260.809969
 20
548.974902
 30
0.0
 10
260.807146
 20
549.070262
 30
0.0
 10
260.807146
 20
549.071391
 30
0.0
  0
SPLINE
  5
1c2
100
AcDbEntity
  8
Layer_1
 62
7
100
AcDbSpline
 70
8
 71
3
 72
8
 73
4
 74
0
 40
0
 40
0
 40
0
 40
0
 40
1
 40
1
 40
1
 40
1
 10
258.981521
 20
558.009897
 30
0.0
 10
260.076275
 20
558.057110
 30
0.0
 10
260.952065
 20
558.949838
 30
0.0
 10
260.952115
 20
560.053253
 30
0.0
  0
LWPOLYLINE
  5
1c3
100
AcDbEntity
  8
Layer_1
 62
7
100
AcDbPolyline
 90
2
 70
1
 10
258.981521
 20
551.001196
 30
0.0
 10
258.981521
 20
558.009897
 30
0.0
  0
SPLINE
  5
1c4
100
AcDbEntity
  8
Layer_1
 62
7
100
AcDbSpline
 70
8
 71
3
 72
8
 73
4
 74
0
 40
0
 40
0
 40
0
 40
0
 40
1
 40
1
 40
1
 40
1
 10
260.949293
 20
560.150871
 30
0.0
 10
260.896001
 20
561.274948
 30
0.0
 10
259.946233
 20
562.148886
 30
0.0
 10
258.821603
 20
562.108788
 30
0.0
  0
SPLINE
  5
1c5
100
AcDbEntity
  8
Layer_1
 62
7
100
AcDbSpline
 70
8
 71
3
 72
8
 73
4
 74
0
 40
0
 40
0
 40
0
 40
0
 40
1
 40
1
 40
1
 40
1
 10
258.821603
 20
562.108788
 30
0.0
 10
257.815388
 20
562.072570
 30
0.0
 10
257.001552
 20
561.307406
 30
0.0
 10
256.870852
 20
560.318440
 30
0.0
  0
LWPOLYLINE
  5
1c6
100
AcDbEntity
  8
Layer_1
 62
7
100
AcDbPolyline
 90
4
 70
1
 10
260.952115
 20
560.053253
 30
0.0
 10
260.952115
 20
560.054947
 30
0.0
 10
260.949293
 20
560.150307
 30
0.0
 10
260.949293
 20
560.150871
 30
0.0
  0
SPLINE
  5
1c7
100
AcDbEntity
  8
Layer_1
 62
7
100
AcDbSpline
 70
8
 71
3
 72
8
 73
4
 74
0
 40
0
 40
0
 40
0
 40
0
 40
1
 40
1
 40
1
 40
1
 10
249.519846
 20
560.318440
 30
0.0
 10
249.407096
 20
561.301096
 30
0.0
 10
248.614235
 20
562.035258
 30
0.0
 10
247.639651
 20
562.108788
 30
0.0
  0
LWPOLYLINE
  5
1c8
100
AcDbEntity
  8
Layer_1
 62
7
100
AcDbPolyline
 90
2
 70
1
 10
256.870852
 20
560.318440
 30
0.0
 10
249.519846
 20
560.318440
 30
0.0
  0
LWPOLYLINE
  5
1c9
100
AcDbEntity
  8
Layer_1
 62
7
100
AcDbPolyline
 90
3
 70
1
 10
247.639651
 20
562.108788
 30
0.0
 10
247.690914
 20
562.155089
 30
0.0
 10
247.691046
 20
562.154985
 30
0.0
  0
LWPOLYLINE
  5
1ca
100
AcDbEntity
  8
Layer_1
 62
7
100
AcDbPolyline
 90
16
 70
1
 10
449.579915
 20
705.943321
 30
0.0
 10
449.579915
 20
694.532060
 30
0.0
 10
446.840920
 20
694.532060
 30
0.0
 10
446.840920
 20
550.571151
 30
0.0
 10
449.579915
 20
550.571151
 30
0.0
 10
449.579915
 20
539.489526
 30
0.0
 10
461.062832
 20
539.489526
 30
0.0
 10
461.062832
 20
550.571151
 30
0.0
 10
463.801799
 20
550.571151
 30
0.0
 10
463.801799
 20
550.571151
 30
0.0
 10
463.801799
 20
694.532060
 30
0.0
 10
463.801799
 20
694.532060
 30
0.0
 10
461.062832
 20
694.532060
 30
0.0
 10
461.062832
 20
705.943321
 30
0.0
 10
449.579915
 20
705.943321
 30
0.0
 10
449.579915
 20
705.943321
 30
0.0
  0
LWPOLYLINE
  5
1cb
100
AcDbEntity
  8
Layer_1
 62
7
100
AcDbPolyline
 90
16
 70
1
 10
449.682983
 20
883.115263
 30
0.0
 10
449.682983
 20
871.704003
 30
0.0
 10
446.943988
 20
871.704003
 30
0.0
 10
446.943988
 20
727.743125
 30
0.0
 10
449.682983
 20
727.743125
 30
0.0
 10
449.682983
 20
716.661472
 30
0.0
 10
461.165900
 20
716.661472
 30
0.0
 10
461.165900
 20
727.743125
 30
0.0
 10
463.904866
 20
727.743125
 30
0.0
 10
463.904866
 20
727.743125
 30
0.0
 10
463.904866
 20
871.704003
 30
0.0
 10
463.904866
 20
871.704003
 30
0.0
 10
461.165900
 20
871.704003
 30
0.0
 10
461.165900
 20
883.115263
 30
0.0
 10
449.682983
 20
883.115263
 30
0.0
 10
449.682983
 20
883.115263
 30
0.0
  0
LWPOLYLINE
  5
1cc
100
AcDbEntity
  8
Layer_1
 62
7
100
AcDbPolyline
 90
16
 70
1
 10
492.567666
 20
704.480252
 30
0.0
 10
492.567666
 20
693.068992
 30
0.0
 10
489.828671
 20
693.068992
 30
0.0
 10
489.828671
 20
549.108111
 30
0.0
 10
492.567666
 20
549.108111
 30
0.0
 10
492.567666
 20
538.026458
 30
0.0
 10
504.050582
 20
538.026458
 30
0.0
 10
504.050582
 20
549.108111
 30
0.0
 10
506.789549
 20
549.108111
 30
0.0
 10
506.789549
 20
549.108111
 30
0.0
 10
506.789549
 20
693.068992
 30
0.0
 10
506.789549
 20
693.068992
 30
0.0
 10
504.050582
 20
693.068992
 30
0.0
 10
504.050582
 20
704.480252
 30
0.0
 10
492.567666
 20
704.480252
 30
0.0
 10
492.567666
 20
704.480252
 30
0.0
  0
LWPOLYLINE
  5
1cd
100
AcDbEntity
  8
Layer_1
 62
7
100
AcDbPolyline
 90
16
 70
1
 10
490.964841
 20
883.449245
 30
0.0
 10
490.964841
 20
872.037985
 30
0.0
 10
488.225846
 20
872.037985
 30
0.0
 10
488.225846
 20
728.077106
 30
0.0
 10
490.964841
 20
728.077106
 30
0.0
 10
490.964841
 20
716.995453
 30
0.0
 10
502.447758
 20
716.995453
 30
0.0
 10
502.447758
 20
728.077106
 30
0.0
 10
505.186724
 20
728.077106
 30
0.0
 10
505.186724
 20
728.077106
 30
0.0
 10
505.186724
 20
872.037985
 30
0.0
 10
505.186724
 20
872.037985
 30
0.0
 10
502.447758
 20
872.037985
 30
0.0
 10
502.447758
 20
883.449245
 30
0.0
 10
490.964841
 20
883.449245
 30
0.0
 10
490.964841
 20
883.449245
 30
0.0
  0
ENDSEC
  0
SECTION
  2
OBJECTS
  0
DICTIONARY
  5
C
330
0
100
AcDbDictionary
  3
ACAD_GROUP
350
D
  3
ACAD_MLINESTYLE
350
17
  0
DICTIONARY
  5
D
330
C
100
AcDbDictionary
  0
DICTIONARY
  5
1A
330
C
100
AcDbDictionary
  0
DICTIONARY
  5
17
330
C
100
AcDbDictionary
  3
STANDARD
350
18
  0
DICTIONARY
  5
19
330
C
100
AcDbDictionary
  0
ENDSEC
  0
EOF
