  0
SECTION
  2
HEADER
  9
$ACADVER
  1
AC1018
  9
$ACADMAINTVER
 70
     0
  9
$DWGCODEPAGE
  3
ANSI_932
  9
$INSBASE
 10
0.0
 20
0.0
 30
0.0
  9
$EXTMIN
 10
1.000000000000000E+20
 20
1.000000000000000E+20
 30
1.000000000000000E+20
  9
$EXTMAX
 10
-1.000000000000000E+20
 20
-1.000000000000000E+20
 30
-1.000000000000000E+20
  9
$LIMMIN
 10
0.0
 20
0.0
  9
$LIMMAX
 10
12.0
 20
9.0
  9
$ORTHOMODE
 70
     0
  9
$REGENMODE
 70
     1
  9
$FILLMODE
 70
     1
  9
$QTEXTMODE
 70
     0
  9
$MIRRTEXT
 70
     1
  9
$LTSCALE
 40
1.0
  9
$ATTMODE
 70
     1
  9
$TEXTSIZE
 40
0.2
  9
$TRACEWID
 40
0.05
  9
$TEXTSTYLE
  7
Standard
  9
$CLAYER
  8
0
  9
$CELTYPE
  6
ByLayer
  9
$CECOLOR
 62
   256
  9
$CELTSCALE
 40
1.0
  9
$DISPSILH
 70
     0
  9
$DIMSCALE
 40
1.0
  9
$DIMASZ
 40
0.18
  9
$DIMEXO
 40
0.0625
  9
$DIMDLI
 40
0.38
  9
$DIMRND
 40
0.0
  9
$DIMDLE
 40
0.0
  9
$DIMEXE
 40
0.18
  9
$DIMTP
 40
0.0
  9
$DIMTM
 40
0.0
  9
$DIMTXT
 40
0.18
  9
$DIMCEN
 40
0.09
  9
$DIMTSZ
 40
0.0
  9
$DIMTOL
 70
     0
  9
$DIMLIM
 70
     0
  9
$DIMTIH
 70
     1
  9
$DIMTOH
 70
     1
  9
$DIMSE1
 70
     0
  9
$DIMSE2
 70
     0
  9
$DIMTAD
 70
     0
  9
$DIMZIN
 70
     0
  9
$DIMBLK
  1

  9
$DIMASO
 70
     1
  9
$DIMSHO
 70
     1
  9
$DIMPOST
  1

  9
$DIMAPOST
  1

  9
$DIMALT
 70
     0
  9
$DIMALTD
 70
     2
  9
$DIMALTF
 40
25.4
  9
$DIMLFAC
 40
1.0
  9
$DIMTOFL
 70
     0
  9
$DIMTVP
 40
0.0
  9
$DIMTIX
 70
     0
  9
$DIMSOXD
 70
     0
  9
$DIMSAH
 70
     0
  9
$DIMBLK1
  1

  9
$DIMBLK2
  1

  9
$DIMSTYLE
  2
Standard
  9
$DIMCLRD
 70
     0
  9
$DIMCLRE
 70
     0
  9
$DIMCLRT
 70
     0
  9
$DIMTFAC
 40
1.0
  9
$DIMGAP
 40
0.09
  9
$DIMJUST
 70
     0
  9
$DIMSD1
 70
     0
  9
$DIMSD2
 70
     0
  9
$DIMTOLJ
 70
     1
  9
$DIMTZIN
 70
     0
  9
$DIMALTZ
 70
     0
  9
$DIMALTTZ
 70
     0
  9
$DIMUPT
 70
     0
  9
$DIMDEC
 70
     4
  9
$DIMTDEC
 70
     4
  9
$DIMALTU
 70
     2
  9
$DIMALTTD
 70
     2
  9
$DIMTXSTY
  7
Standard
  9
$DIMAUNIT
 70
     0
  9
$DIMADEC
 70
     0
  9
$DIMALTRND
 40
0.0
  9
$DIMAZIN
 70
     0
  9
$DIMDSEP
 70
    46
  9
$DIMATFIT
 70
     3
  9
$DIMFRAC
 70
     0
  9
$DIMLDRBLK
  1

  9
$DIMLUNIT
 70
     2
  9
$DIMLWD
 70
    -2
  9
$DIMLWE
 70
    -2
  9
$DIMTMOVE
 70
     0
  9
$LUNITS
 70
     2
  9
$LUPREC
 70
     4
  9
$SKETCHINC
 40
0.1
  9
$FILLETRAD
 40
0.5
  9
$AUNITS
 70
     0
  9
$AUPREC
 70
     0
  9
$MENU
  1
.
  9
$ELEVATION
 40
0.0
  9
$PELEVATION
 40
0.0
  9
$THICKNESS
 40
0.0
  9
$LIMCHECK
 70
     0
  9
$CHAMFERA
 40
0.5
  9
$CHAMFERB
 40
0.5
  9
$CHAMFERC
 40
1.0
  9
$CHAMFERD
 40
0.0
  9
$SKPOLY
 70
     0
  9
$TDCREATE
 40
2457598.087465278
  9
$TDUCREATE
 40
2457597.712465278
  9
$TDUPDATE
 40
2457598.08746529
  9
$TDUUPDATE
 40
2457597.71246529
  9
$TDINDWG
 40
0.0000000116
  9
$TDUSRTIMER
 40
0.0000000116
  9
$USRTIMER
 70
     1
  9
$ANGBASE
 50
0.0
  9
$ANGDIR
 70
     0
  9
$PDMODE
 70
     0
  9
$PDSIZE
 40
0.0
  9
$PLINEWID
 40
0.0
  9
$SPLFRAME
 70
     0
  9
$SPLINETYPE
 70
     6
  9
$SPLINESEGS
 70
     8
  9
$HANDSEED
  5
77
  9
$SURFTAB1
 70
     6
  9
$SURFTAB2
 70
     6
  9
$SURFTYPE
 70
     6
  9
$SURFU
 70
     6
  9
$SURFV
 70
     6
  9
$UCSBASE
  2

  9
$UCSNAME
  2

  9
$UCSORG
 10
0.0
 20
0.0
 30
0.0
  9
$UCSXDIR
 10
1.0
 20
0.0
 30
0.0
  9
$UCSYDIR
 10
0.0
 20
1.0
 30
0.0
  9
$UCSORTHOREF
  2

  9
$UCSORTHOVIEW
 70
     0
  9
$UCSORGTOP
 10
0.0
 20
0.0
 30
0.0
  9
$UCSORGBOTTOM
 10
0.0
 20
0.0
 30
0.0
  9
$UCSORGLEFT
 10
0.0
 20
0.0
 30
0.0
  9
$UCSORGRIGHT
 10
0.0
 20
0.0
 30
0.0
  9
$UCSORGFRONT
 10
0.0
 20
0.0
 30
0.0
  9
$UCSORGBACK
 10
0.0
 20
0.0
 30
0.0
  9
$PUCSBASE
  2

  9
$PUCSNAME
  2

  9
$PUCSORG
 10
0.0
 20
0.0
 30
0.0
  9
$PUCSXDIR
 10
1.0
 20
0.0
 30
0.0
  9
$PUCSYDIR
 10
0.0
 20
1.0
 30
0.0
  9
$PUCSORTHOREF
  2

  9
$PUCSORTHOVIEW
 70
     0
  9
$PUCSORGTOP
 10
0.0
 20
0.0
 30
0.0
  9
$PUCSORGBOTTOM
 10
0.0
 20
0.0
 30
0.0
  9
$PUCSORGLEFT
 10
0.0
 20
0.0
 30
0.0
  9
$PUCSORGRIGHT
 10
0.0
 20
0.0
 30
0.0
  9
$PUCSORGFRONT
 10
0.0
 20
0.0
 30
0.0
  9
$PUCSORGBACK
 10
0.0
 20
0.0
 30
0.0
  9
$USERI1
 70
     0
  9
$USERI2
 70
     0
  9
$USERI3
 70
     0
  9
$USERI4
 70
     0
  9
$USERI5
 70
     0
  9
$USERR1
 40
0.0
  9
$USERR2
 40
0.0
  9
$USERR3
 40
0.0
  9
$USERR4
 40
0.0
  9
$USERR5
 40
0.0
  9
$WORLDVIEW
 70
     1
  9
$SHADEDGE
 70
     3
  9
$SHADEDIF
 70
    70
  9
$TILEMODE
 70
     1
  9
$MAXACTVP
 70
    64
  9
$PINSBASE
 10
0.0
 20
0.0
 30
0.0
  9
$PLIMCHECK
 70
     0
  9
$PEXTMIN
 10
1.000000000000000E+20
 20
1.000000000000000E+20
 30
1.000000000000000E+20
  9
$PEXTMAX
 10
-1.000000000000000E+20
 20
-1.000000000000000E+20
 30
-1.000000000000000E+20
  9
$PLIMMIN
 10
0.0
 20
0.0
  9
$PLIMMAX
 10
12.0
 20
9.0
  9
$UNITMODE
 70
     0
  9
$VISRETAIN
 70
     1
  9
$PLINEGEN
 70
     0
  9
$PSLTSCALE
 70
     1
  9
$TREEDEPTH
 70
  3020
  9
$CMLSTYLE
  2
Standard
  9
$CMLJUST
 70
     0
  9
$CMLSCALE
 40
1.0
  9
$PROXYGRAPHICS
 70
     1
  9
$MEASUREMENT
 70
     0
  9
$CELWEIGHT
370
    -1
  9
$ENDCAPS
280
     0
  9
$JOINSTYLE
280
     0
  9
$LWDISPLAY
290
     1
  9
$INSUNITS
 70
     1
  9
$HYPERLINKBASE
  1

  9
$STYLESHEET
  1

  9
$XEDIT
290
     1
  9
$CEPSNTYPE
380
     0
  9
$PSTYLEMODE
290
     1
  9
$FINGERPRINTGUID
  2
{41093BA6-EEC5-3E99-11AC-C0AAA68D7103}
  9
$VERSIONGUID
  2
{FAEB1C32-E019-11D5-929B-00C0DF256EC4}
  9
$EXTNAMES
290
     1
  9
$PSVPSCALE
 40
0.0
  9
$OLESTARTUP
290
     0
  9
$SORTENTS
280
   127
  9
$INDEXCTL
280
     0
  9
$HIDETEXT
280
     1
  9
$XCLIPFRAME
290
     0
  9
$HALOGAP
280
     0
  9
$OBSCOLOR
 70
   257
  9
$OBSLTYPE
280
     0
  9
$INTERSECTIONDISPLAY
280
     0
  9
$INTERSECTIONCOLOR
 70
   257
  9
$DIMASSOC
280
     2
  9
$PROJECTNAME
  1

  0
ENDSEC
  0
SECTION
  2
CLASSES
  0
CLASS
  1
ACDBDICTIONARYWDFLT
  2
AcDbDictionaryWithDefault
  3
ObjectDBX Classes
 90
        0
 91
        3
280
     0
281
     0
  0
CLASS
  1
VISUALSTYLE
  2
AcDbVisualStyle
  3
ObjectDBX Classes
 90
     4095
 91
        3
280
     0
281
     0
  0
ENDSEC
  0
SECTION
  2
TABLES
  0
TABLE
  2
VPORT
  5
8
330
0
100
AcDbSymbolTable
 70
     1
  0
VPORT
  5
29
330
8
100
AcDbSymbolTableRecord
100
AcDbViewportTableRecord
  2
*Active
 70
     0
 10
0.0
 20
0.0
 11
1.0
 21
1.0
 12
0.0
 22
0.0
 13
0.0
 23
0.0
 14
0.5
 24
0.5
 15
0.5
 25
0.5
 16
0.0
 26
0.0
 36
1.0
 17
300.0004651485242
 27
224.9998751607639
 37
0.0
 40
449.9997503215279
 41
1.333336140449731
 42
50.0
 43
0.0
 44
0.0
 50
0.0
 51
0.0
 71
     0
 72
   100
 73
     1
 74
     3
 75
     0
 76
     0
 77
     0
 78
     0
281
     0
 65
     1
110
0.0
120
0.0
130
0.0
111
1.0
121
0.0
131
0.0
112
0.0
122
1.0
132
0.0
 79
     0
146
0.0
  0
ENDTAB
  0
TABLE
  2
LTYPE
  5
5
330
0
100
AcDbSymbolTable
 70
     1
  0
LTYPE
  5
14
330
5
100
AcDbSymbolTableRecord
100
AcDbLinetypeTableRecord
  2
ByBlock
 70
     0
  3

 72
    65
 73
     0
 40
0.0
  0
LTYPE
  5
15
330
5
100
AcDbSymbolTableRecord
100
AcDbLinetypeTableRecord
  2
ByLayer
 70
     0
  3

 72
    65
 73
     0
 40
0.0
  0
LTYPE
  5
16
330
5
100
AcDbSymbolTableRecord
100
AcDbLinetypeTableRecord
  2
Continuous
 70
     0
  3
Solid line
 72
    65
 73
     0
 40
0.0
  0
ENDTAB
  0
TABLE
  2
LAYER
  5
2
330
0
100
AcDbSymbolTable
 70
     2
  0
LAYER
  5
10
330
2
100
AcDbSymbolTableRecord
100
AcDbLayerTableRecord
  2
0
 70
     0
 62
     7
  6
Continuous
370
    -3
390
F
  0
LAYER
  5
3B
330
2
100
AcDbSymbolTableRecord
100
AcDbLayerTableRecord
  2
Layer 1
 70
     0
 62
     7
  6
Continuous
370
    -3
390
F
  0
ENDTAB
  0
TABLE
  2
STYLE
  5
3
330
0
100
AcDbSymbolTable
 70
     1
  0
STYLE
  5
11
330
3
100
AcDbSymbolTableRecord
100
AcDbTextStyleTableRecord
  2
Standard
 70
     0
 40
0.0
 41
1.0
 50
0.0
 71
     0
 42
0.2
  3
txt
  4

  0
ENDTAB
  0
TABLE
  2
VIEW
  5
6
330
0
100
AcDbSymbolTable
 70
     0
  0
ENDTAB
  0
TABLE
  2
UCS
  5
7
330
0
100
AcDbSymbolTable
 70
     0
  0
ENDTAB
  0
TABLE
  2
APPID
  5
9
330
0
100
AcDbSymbolTable
 70
     1
  0
APPID
  5
12
330
9
100
AcDbSymbolTableRecord
100
AcDbRegAppTableRecord
  2
ACAD
 70
     0
  0
ENDTAB
  0
TABLE
  2
DIMSTYLE
  5
A
330
0
100
AcDbSymbolTable
 70
     1
100
AcDbDimStyleTable
  0
DIMSTYLE
105
27
330
A
100
AcDbSymbolTableRecord
100
AcDbDimStyleTableRecord
  2
Standard
 70
     0
340
11
  0
ENDTAB
  0
TABLE
  2
BLOCK_RECORD
  5
1
330
0
100
AcDbSymbolTable
 70
     2
  0
BLOCK_RECORD
  5
1F
330
1
100
AcDbSymbolTableRecord
100
AcDbBlockTableRecord
  2
*Model_Space
340
22
  0
BLOCK_RECORD
  5
1B
330
1
100
AcDbSymbolTableRecord
100
AcDbBlockTableRecord
  2
*Paper_Space
340
1E
  0
BLOCK_RECORD
  5
23
330
1
100
AcDbSymbolTableRecord
100
AcDbBlockTableRecord
  2
*Paper_Space0
340
26
  0
BLOCK_RECORD
  5
3D
330
1
100
AcDbSymbolTableRecord
100
AcDbBlockTableRecord
  2
block 2
340
0
102
{BLKREFS
331
3E
102
}
  0
ENDTAB
  0
ENDSEC
  0
SECTION
  2
BLOCKS
  0
BLOCK
  5
20
330
1F
100
AcDbEntity
  8
0
100
AcDbBlockBegin
  2
*Model_Space
 70
     0
 71
     0
 10
0.0
 20
0.0
 30
0.0
  3
*Model_Space
  1

  0
ENDBLK
  5
21
330
1F
100
AcDbEntity
  8
0
100
AcDbBlockEnd
  0
BLOCK
  5
1C
330
1B
100
AcDbEntity
 67
     1
  8
0
100
AcDbBlockBegin
  2
*Paper_Space
 70
     0
 71
     0
 10
0.0
 20
0.0
 30
0.0
  3
*Paper_Space
  1

  0
ENDBLK
  5
1D
330
1B
100
AcDbEntity
 67
     1
  8
0
100
AcDbBlockEnd
  0
BLOCK
  5
24
330
23
100
AcDbEntity
  8
0
100
AcDbBlockBegin
  2
*Paper_Space0
 70
     0
 71
     0
 10
0.0
 20
0.0
 30
0.0
  3
*Paper_Space0
  1

  0
ENDBLK
  5
25
330
23
100
AcDbEntity
  8
0
100
AcDbBlockEnd
  0
BLOCK
  5
3F
330
3D
100
AcDbEntity
  8
0
100
AcDbBlockBegin
  2
block 2
 70
     0
 71
     0
 10
0.0
 20
0.0
 30
0.0
  3
block 2
  1

  0
SPLINE
  5
41
330
3D
100
AcDbEntity
  8
Layer 1
370
     0
100
AcDbSpline
210
0.0
220
0.0
230
1.0
 70
    11
 71
     3
 72
   104
 73
   100
 74
     0
 42
0.0000000001
 43
0.0000000001
 40
0.0
 40
0.0
 40
0.0
 40
0.0
 40
1.0
 40
1.0
 40
1.0
 40
2.0
 40
2.0
 40
2.0
 40
3.0
 40
3.0
 40
3.0
 40
4.0
 40
4.0
 40
4.0
 40
5.0
 40
5.0
 40
5.0
 40
6.0
 40
6.0
 40
6.0
 40
7.0
 40
7.0
 40
7.0
 40
8.0
 40
8.0
 40
8.0
 40
9.0
 40
9.0
 40
9.0
 40
10.0
 40
10.0
 40
10.0
 40
11.0
 40
11.0
 40
11.0
 40
12.0
 40
12.0
 40
12.0
 40
13.0
 40
13.0
 40
13.0
 40
14.0
 40
14.0
 40
14.0
 40
15.0
 40
15.0
 40
15.0
 40
16.0
 40
16.0
 40
16.0
 40
17.0
 40
17.0
 40
17.0
 40
18.0
 40
18.0
 40
18.0
 40
19.0
 40
19.0
 40
19.0
 40
20.0
 40
20.0
 40
20.0
 40
21.0
 40
21.0
 40
21.0
 40
22.0
 40
22.0
 40
22.0
 40
23.0
 40
23.0
 40
23.0
 40
24.0
 40
24.0
 40
24.0
 40
25.0
 40
25.0
 40
25.0
 40
26.0
 40
26.0
 40
26.0
 40
27.0
 40
27.0
 40
27.0
 40
28.0
 40
28.0
 40
28.0
 40
29.0
 40
29.0
 40
29.0
 40
30.0
 40
30.0
 40
30.0
 40
31.0
 40
31.0
 40
31.0
 40
32.0
 40
32.0
 40
32.0
 40
33.0
 40
33.0
 40
33.0
 40
33.0
 10
171.6422362852144
 20
219.2472547194938
 30
0.0
 10
171.6422362852144
 20
219.2472547194938
 30
0.0
 10
163.9357299394848
 20
219.2472547194938
 30
0.0
 10
163.9357299394848
 20
219.2472547194938
 30
0.0
 10
163.4756374374297
 20
219.2472547194938
 30
0.0
 10
163.1008110486345
 20
219.2724039165361
 30
0.0
 10
162.8112507730993
 20
219.3223578010722
 30
0.0
 10
162.5213459880155
 20
219.3719671760598
 30
0.0
 10
162.2963812528287
 20
219.4722194546806
 30
0.0
 10
162.1367010770874
 20
219.6220811082889
 30
0.0
 10
161.976331882249
 20
219.7722872714458
 30
0.0
 10
161.866777845818
 20
219.9820935864975
 30
0.0
 10
161.8068331843747
 20
220.2518445629926
 30
0.0
 10
161.7468885229313
 20
220.5219400490362
 30
0.0
 10
161.7169161922097
 20
220.8864311513756
 30
0.0
 10
161.7169161922097
 20
221.3463513986565
 30
0.0
 10
161.7169161922097
 20
221.3463513986565
 30
0.0
 10
161.7169161922097
 20
235.2900308656567
 30
0.0
 10
161.7169161922097
 20
235.2900308656567
 30
0.0
 10
161.7169161922097
 20
236.149237679678
 30
0.0
 10
161.8714287247231
 20
236.6994194286724
 30
0.0
 10
162.1816595731699
 20
236.9391980744458
 30
0.0
 10
162.4913736572938
 20
237.1789767202192
 30
0.0
 10
163.0258802218303
 20
237.2992105526544
 30
0.0
 10
163.7858682858765
 20
237.2992105526544
 30
0.0
 10
163.7858682858765
 20
237.2992105526544
 30
0.0
 10
171.6422362852144
 20
237.2992105526544
 30
0.0
 10
171.6422362852144
 20
237.2992105526544
 30
0.0
 10
172.0620211700922
 20
237.2992105526544
 30
0.0
 10
172.4017075849378
 20
237.2788844892914
 30
0.0
 10
172.6618122940741
 20
237.2389213816625
 30
0.0
 10
172.9214002388877
 20
237.1986137644851
 30
0.0
 10
173.1265556750344
 20
237.1086967723201
 30
0.0
 10
173.2764173286427
 20
236.9691704051674
 30
0.0
 10
173.4264512370253
 20
236.8289550189178
 30
0.0
 10
173.5313543945512
 20
236.6243163470939
 30
0.0
 10
173.5912990559945
 20
236.3545653705989
 30
0.0
 10
173.6512437174379
 20
236.0844698845553
 30
0.0
 10
173.6812160481596
 20
235.7296250495745
 30
0.0
 10
173.6812160481596
 20
235.2900308656567
 30
0.0
 10
173.6812160481596
 20
235.2900308656567
 30
0.0
 10
173.6812160481596
 20
230.0124890918025
 30
0.0
 10
173.6812160481596
 20
230.0124890918025
 30
0.0
 10
173.6812160481596
 20
230.0124890918025
 30
0.0
 10
176.1701252814783
 20
230.0124890918025
 30
0.0
 10
176.1701252814783
 20
230.0124890918025
 30
0.0
 10
176.1701252814783
 20
230.0124890918025
 30
0.0
 10
176.1701252814783
 20
238.5284206217915
 30
0.0
 10
176.1701252814783
 20
238.5284206217915
 30
0.0
 10
176.1701252814783
 20
238.7482177137504
 30
0.0
 10
176.209916134333
 20
238.8980793673588
 30
0.0
 10
176.290014604365
 20
238.9783500921652
 30
0.0
 10
176.3697685648485
 20
239.0579317978744
 30
0.0
 10
176.5196302184569
 20
239.0982394150518
 30
0.0
 10
176.7399440747386
 20
239.0982394150518
 30
0.0
 10
176.7399440747386
 20
239.0982394150518
 30
0.0
 10
179.5285766152741
 20
239.0982394150518
 30
0.0
 10
179.5285766152741
 20
239.0982394150518
 30
0.0
 10
179.9080538829744
 20
239.0982394150518
 30
0.0
 10
180.0983954085344
 20
238.908070144266
 30
0.0
 10
180.0983954085344
 20
238.5284206217915
 30
0.0
 10
180.0983954085344
 20
238.5284206217915
 30
0.0
 10
180.0983954085344
 20
212.3804903982938
 30
0.0
 10
180.0983954085344
 20
212.3804903982938
 30
0.0
 10
180.0983954085344
 20
212.1407117525204
 30
0.0
 10
180.058087791357
 20
211.9860269652327
 30
0.0
 10
179.9783338308735
 20
211.9157470173336
 30
0.0
 10
179.8982353608414
 20
211.8461560885315
 30
0.0
 10
179.748373707233
 20
211.811016114582
 30
0.0
 10
179.5285766152741
 20
211.811016114582
 30
0.0
 10
179.5285766152741
 20
211.811016114582
 30
0.0
 10
176.7399440747386
 20
211.811016114582
 30
0.0
 10
176.7399440747386
 20
211.811016114582
 30
0.0
 10
176.5196302184569
 20
211.811016114582
 30
0.0
 10
176.3697685648485
 20
211.8409884453037
 30
0.0
 10
176.290014604365
 20
211.900933106747
 30
0.0
 10
176.209916134333
 20
211.9608777681904
 30
0.0
 10
176.1701252814783
 20
212.1210747082545
 30
0.0
 10
176.1701252814783
 20
212.3804903982938
 30
0.0
 10
176.1701252814783
 20
212.3804903982938
 30
0.0
 10
176.1701252814783
 20
226.6238931725107
 30
0.0
 10
176.1701252814783
 20
226.6238931725107
 30
0.0
 10
176.1701252814783
 20
226.6238931725107
 30
0.0
 10
173.6812160481596
 20
226.6238931725107
 30
0.0
 10
173.6812160481596
 20
226.6238931725107
 30
0.0
 10
173.6812160481596
 20
226.6238931725107
 30
0.0
 10
173.6812160481596
 20
221.3463513986565
 30
0.0
 10
173.6812160481596
 20
221.3463513986565
 30
0.0
 10
173.6812160481596
 20
220.9064127051901
 30
0.0
 10
173.6512437174379
 20
220.54674473653
 30
0.0
 10
173.5912990559945
 20
220.2670029831277
 30
0.0
 10
173.5313543945512
 20
219.9869167201769
 30
0.0
 10
173.4264512370253
 20
219.7722872714458
 30
0.0
 10
173.2764173286427
 20
219.6220811082889
 30
0.0
 10
173.1265556750344
 20
219.4722194546806
 30
0.0
 10
172.9214002388877
 20
219.3719671760598
 30
0.0
 10
172.6618122940741
 20
219.3223578010722
 30
0.0
 10
172.4017075849378
 20
219.2724039165361
 30
0.0
 10
172.0620211700922
 20
219.2472547194938
 30
0.0
 10
171.6422362852144
 20
219.2472547194938
 30
0.0
  0
SPLINE
  5
42
330
3D
100
AcDbEntity
  8
Layer 1
370
     0
100
AcDbSpline
210
0.0
220
0.0
230
1.0
 70
    11
 71
     3
 72
    41
 73
    37
 74
     0
 42
0.0000000001
 43
0.0000000001
 40
0.0
 40
0.0
 40
0.0
 40
0.0
 40
1.0
 40
1.0
 40
1.0
 40
2.0
 40
2.0
 40
2.0
 40
3.0
 40
3.0
 40
3.0
 40
4.0
 40
4.0
 40
4.0
 40
5.0
 40
5.0
 40
5.0
 40
6.0
 40
6.0
 40
6.0
 40
7.0
 40
7.0
 40
7.0
 40
8.0
 40
8.0
 40
8.0
 40
9.0
 40
9.0
 40
9.0
 40
10.0
 40
10.0
 40
10.0
 40
11.0
 40
11.0
 40
11.0
 40
12.0
 40
12.0
 40
12.0
 40
12.0
 10
185.5557711667187
 20
210.8212401816697
 30
0.0
 10
185.5557711667187
 20
210.8212401816697
 30
0.0
 10
182.5871323870789
 20
210.8212401816697
 30
0.0
 10
182.5871323870789
 20
210.8212401816697
 30
0.0
 10
182.3669907855715
 20
210.8212401816697
 30
0.0
 10
182.2169568771888
 20
210.8615477988471
 30
0.0
 10
182.1373751714796
 20
210.9411295045564
 30
0.0
 10
182.0572767014475
 20
211.0214002293627
 30
0.0
 10
182.0174858485929
 20
211.1712618829711
 30
0.0
 10
182.0174858485929
 20
211.39105897493
 30
0.0
 10
182.0174858485929
 20
211.39105897493
 30
0.0
 10
182.0174858485929
 20
239.0382947536085
 30
0.0
 10
182.0174858485929
 20
239.0382947536085
 30
0.0
 10
182.0174858485929
 20
239.2580918455674
 30
0.0
 10
182.0624443446754
 20
239.4079534991758
 30
0.0
 10
182.1523613368404
 20
239.4878797144336
 30
0.0
 10
182.2422783290054
 20
239.5678059296914
 30
0.0
 10
182.3969631162931
 20
239.6081135468688
 30
0.0
 10
182.6171047178006
 20
239.6081135468688
 30
0.0
 10
182.6171047178006
 20
239.6081135468688
 30
0.0
 10
185.5557711667187
 20
239.6081135468688
 30
0.0
 10
185.5557711667187
 20
239.6081135468688
 30
0.0
 10
185.7755682586777
 20
239.6081135468688
 30
0.0
 10
185.925429912286
 20
239.5678059296914
 30
0.0
 10
186.0055283823181
 20
239.4878797144336
 30
0.0
 10
186.0852823428016
 20
239.4079534991758
 30
0.0
 10
186.125589959979
 20
239.2580918455674
 30
0.0
 10
186.125589959979
 20
239.0382947536085
 30
0.0
 10
186.125589959979
 20
239.0382947536085
 30
0.0
 10
186.125589959979
 20
211.39105897493
 30
0.0
 10
186.125589959979
 20
211.39105897493
 30
0.0
 10
186.125589959979
 20
211.1712618829711
 30
0.0
 10
186.0852823428016
 20
211.0214002293627
 30
0.0
 10
186.0055283823181
 20
210.9411295045564
 30
0.0
 10
185.925429912286
 20
210.8615477988471
 30
0.0
 10
185.7755682586777
 20
210.8212401816697
 30
0.0
 10
185.5557711667187
 20
210.8212401816697
 30
0.0
  0
SPLINE
  5
43
330
3D
100
AcDbEntity
  8
Layer 1
 62
   179
420
  2301728
370
    35
100
AcDbSpline
210
0.0
220
0.0
230
1.0
 70
    11
 71
     3
 72
   104
 73
   100
 74
     0
 42
0.0000000001
 43
0.0000000001
 40
0.0
 40
0.0
 40
0.0
 40
0.0
 40
1.0
 40
1.0
 40
1.0
 40
2.0
 40
2.0
 40
2.0
 40
3.0
 40
3.0
 40
3.0
 40
4.0
 40
4.0
 40
4.0
 40
5.0
 40
5.0
 40
5.0
 40
6.0
 40
6.0
 40
6.0
 40
7.0
 40
7.0
 40
7.0
 40
8.0
 40
8.0
 40
8.0
 40
9.0
 40
9.0
 40
9.0
 40
10.0
 40
10.0
 40
10.0
 40
11.0
 40
11.0
 40
11.0
 40
12.0
 40
12.0
 40
12.0
 40
13.0
 40
13.0
 40
13.0
 40
14.0
 40
14.0
 40
14.0
 40
15.0
 40
15.0
 40
15.0
 40
16.0
 40
16.0
 40
16.0
 40
17.0
 40
17.0
 40
17.0
 40
18.0
 40
18.0
 40
18.0
 40
19.0
 40
19.0
 40
19.0
 40
20.0
 40
20.0
 40
20.0
 40
21.0
 40
21.0
 40
21.0
 40
22.0
 40
22.0
 40
22.0
 40
23.0
 40
23.0
 40
23.0
 40
24.0
 40
24.0
 40
24.0
 40
25.0
 40
25.0
 40
25.0
 40
26.0
 40
26.0
 40
26.0
 40
27.0
 40
27.0
 40
27.0
 40
28.0
 40
28.0
 40
28.0
 40
29.0
 40
29.0
 40
29.0
 40
30.0
 40
30.0
 40
30.0
 40
31.0
 40
31.0
 40
31.0
 40
32.0
 40
32.0
 40
32.0
 40
33.0
 40
33.0
 40
33.0
 40
33.0
 10
171.6420640304402
 20
219.2472547194938
 30
0.0
 10
171.6420640304402
 20
219.2472547194938
 30
0.0
 10
163.9355576847106
 20
219.2472547194938
 30
0.0
 10
163.9355576847106
 20
219.2472547194938
 30
0.0
 10
163.4756374374297
 20
219.2472547194938
 30
0.0
 10
163.1009833034088
 20
219.2727484260846
 30
0.0
 10
162.8114230278735
 20
219.3223578010722
 30
0.0
 10
162.5215182427898
 20
219.3723116856083
 30
0.0
 10
162.2963812528287
 20
219.471874945132
 30
0.0
 10
162.1367010770874
 20
219.6224256178375
 30
0.0
 10
161.9765041370233
 20
219.7726317809943
 30
0.0
 10
161.8666055910438
 20
219.981749076949
 30
0.0
 10
161.8066609296004
 20
220.2521890725411
 30
0.0
 10
161.7470607777056
 20
220.5215955394877
 30
0.0
 10
161.7167439374354
 20
220.8860866418271
 30
0.0
 10
161.7167439374354
 20
221.3470404177535
 30
0.0
 10
161.7167439374354
 20
221.3470404177535
 30
0.0
 10
161.7167439374354
 20
235.2902031204309
 30
0.0
 10
161.7167439374354
 20
235.2902031204309
 30
0.0
 10
161.7167439374354
 20
236.1495821892265
 30
0.0
 10
161.8716009794974
 20
236.6994194286724
 30
0.0
 10
162.1816595731699
 20
236.9397148387686
 30
0.0
 10
162.4912014025196
 20
237.1789767202192
 30
0.0
 10
163.0258802218303
 20
237.2990382978801
 30
0.0
 10
163.7860405406507
 20
237.2990382978801
 30
0.0
 10
163.7860405406507
 20
237.2990382978801
 30
0.0
 10
171.6420640304402
 20
237.2990382978801
 30
0.0
 10
171.6420640304402
 20
237.2990382978801
 30
0.0
 10
172.0620211700922
 20
237.2990382978801
 30
0.0
 10
172.4018798397121
 20
237.2785399797429
 30
0.0
 10
172.6616400392999
 20
237.2394381459853
 30
0.0
 10
172.9214002388877
 20
237.1984415097108
 30
0.0
 10
173.1263834202601
 20
237.1086967723201
 30
0.0
 10
173.2764173286427
 20
236.9689981503932
 30
0.0
 10
173.4262789822511
 20
236.8292995284663
 30
0.0
 10
173.5311821397769
 20
236.6243163470939
 30
0.0
 10
173.5912990559945
 20
236.3547376253731
 30
0.0
 10
173.6514159722122
 20
236.0841253750067
 30
0.0
 10
173.6810437933853
 20
235.7296250495745
 30
0.0
 10
173.6810437933853
 20
235.2902031204309
 30
0.0
 10
173.6810437933853
 20
235.2902031204309
 30
0.0
 10
173.6810437933853
 20
230.0119723274797
 30
0.0
 10
173.6810437933853
 20
230.0119723274797
 30
0.0
 10
173.6810437933853
 20
230.0119723274797
 30
0.0
 10
176.169953026704
 20
230.0119723274797
 30
0.0
 10
176.169953026704
 20
230.0119723274797
 30
0.0
 10
176.169953026704
 20
230.0119723274797
 30
0.0
 10
176.169953026704
 20
238.5285928765658
 30
0.0
 10
176.169953026704
 20
238.5285928765658
 30
0.0
 10
176.169953026704
 20
238.7482177137504
 30
0.0
 10
176.209916134333
 20
238.8977348578103
 30
0.0
 10
176.290014604365
 20
238.9786946017137
 30
0.0
 10
176.3695963100743
 20
239.0579317978744
 30
0.0
 10
176.5194579636826
 20
239.0978949055033
 30
0.0
 10
176.7397718199644
 20
239.0978949055033
 30
0.0
 10
176.7397718199644
 20
239.0978949055033
 30
0.0
 10
179.5287488700484
 20
239.0978949055033
 30
0.0
 10
179.5287488700484
 20
239.0978949055033
 30
0.0
 10
179.9082261377486
 20
239.0978949055033
 30
0.0
 10
180.0985676633087
 20
238.9084146538146
 30
0.0
 10
180.0985676633087
 20
238.5285928765658
 30
0.0
 10
180.0985676633087
 20
238.5285928765658
 30
0.0
 10
180.0985676633087
 20
212.3801458887453
 30
0.0
 10
180.0985676633087
 20
212.3801458887453
 30
0.0
 10
180.0985676633087
 20
212.1407117525204
 30
0.0
 10
180.058087791357
 20
211.9863714747812
 30
0.0
 10
179.9785060856478
 20
211.9160915268821
 30
0.0
 10
179.8984076156157
 20
211.845811578983
 30
0.0
 10
179.7485459620073
 20
211.8106716050335
 30
0.0
 10
179.5287488700484
 20
211.8106716050335
 30
0.0
 10
179.5287488700484
 20
211.8106716050335
 30
0.0
 10
176.7397718199644
 20
211.8106716050335
 30
0.0
 10
176.7397718199644
 20
211.8106716050335
 30
0.0
 10
176.5194579636826
 20
211.8106716050335
 30
0.0
 10
176.3695963100743
 20
211.8409884453037
 30
0.0
 10
176.290014604365
 20
211.9005885971985
 30
0.0
 10
176.209916134333
 20
211.9612222777389
 30
0.0
 10
176.169953026704
 20
212.121419217803
 30
0.0
 10
176.169953026704
 20
212.3801458887453
 30
0.0
 10
176.169953026704
 20
212.3801458887453
 30
0.0
 10
176.169953026704
 20
226.6242376820592
 30
0.0
 10
176.169953026704
 20
226.6242376820592
 30
0.0
 10
176.169953026704
 20
226.6242376820592
 30
0.0
 10
173.6810437933853
 20
226.6242376820592
 30
0.0
 10
173.6810437933853
 20
226.6242376820592
 30
0.0
 10
173.6810437933853
 20
226.6242376820592
 30
0.0
 10
173.6810437933853
 20
221.3470404177535
 30
0.0
 10
173.6810437933853
 20
221.3470404177535
 30
0.0
 10
173.6810437933853
 20
220.9064127051901
 30
0.0
 10
173.6514159722122
 20
220.5470892460785
 30
0.0
 10
173.5912990559945
 20
220.2666584735792
 30
0.0
 10
173.5311821397769
 20
219.9865722106284
 30
0.0
 10
173.4262789822511
 20
219.7726317809943
 30
0.0
 10
173.2764173286427
 20
219.6224256178375
 30
0.0
 10
173.1263834202601
 20
219.471874945132
 30
0.0
 10
172.9214002388877
 20
219.3723116856083
 30
0.0
 10
172.6616400392999
 20
219.3223578010722
 30
0.0
 10
172.4018798397121
 20
219.2727484260846
 30
0.0
 10
172.0620211700922
 20
219.2472547194938
 30
0.0
 10
171.6420640304402
 20
219.2472547194938
 30
0.0
  0
SPLINE
  5
44
330
3D
100
AcDbEntity
  8
Layer 1
 62
   179
420
  2301728
370
    35
100
AcDbSpline
210
0.0
220
0.0
230
1.0
 70
    11
 71
     3
 72
    41
 73
    37
 74
     0
 42
0.0000000001
 43
0.0000000001
 40
0.0
 40
0.0
 40
0.0
 40
0.0
 40
1.0
 40
1.0
 40
1.0
 40
2.0
 40
2.0
 40
2.0
 40
3.0
 40
3.0
 40
3.0
 40
4.0
 40
4.0
 40
4.0
 40
5.0
 40
5.0
 40
5.0
 40
6.0
 40
6.0
 40
6.0
 40
7.0
 40
7.0
 40
7.0
 40
8.0
 40
8.0
 40
8.0
 40
9.0
 40
9.0
 40
9.0
 40
10.0
 40
10.0
 40
10.0
 40
11.0
 40
11.0
 40
11.0
 40
12.0
 40
12.0
 40
12.0
 40
12.0
 10
169.6034287770436
 20
233.3108235093806
 30
0.0
 10
169.6034287770436
 20
233.5705837089685
 30
0.0
 10
169.5829304589064
 20
233.7356037827119
 30
0.0
 10
169.5429673512775
 20
233.805883730611
 30
0.0
 10
169.5028319888743
 20
233.8751301498646
 30
0.0
 10
169.3529703352659
 20
233.9102701238141
 30
0.0
 10
169.0932101356781
 20
233.9102701238141
 30
0.0
 10
169.0932101356781
 20
233.9102701238141
 30
0.0
 10
166.3944945873076
 20
233.9102701238141
 30
0.0
 10
166.3944945873076
 20
233.9102701238141
 30
0.0
 10
166.1347343877198
 20
233.9102701238141
 30
0.0
 10
165.9697143139763
 20
233.8801255383182
 30
0.0
 10
165.8999511304
 20
233.8205253864234
 30
0.0
 10
165.8294989277267
 20
233.7609252345285
 30
0.0
 10
165.7948757180999
 20
233.5910820271057
 30
0.0
 10
165.7948757180999
 20
233.3108235093806
 30
0.0
 10
165.7948757180999
 20
233.3108235093806
 30
0.0
 10
165.7948757180999
 20
223.2356417627675
 30
0.0
 10
165.7948757180999
 20
223.2356417627675
 30
0.0
 10
165.7948757180999
 20
222.9552109902681
 30
0.0
 10
165.8294989277267
 20
222.7853677828453
 30
0.0
 10
165.8999511304
 20
222.7257676309505
 30
0.0
 10
165.9697143139763
 20
222.6651339504101
 30
0.0
 10
166.1347343877198
 20
222.6358506387855
 30
0.0
 10
166.3944945873076
 20
222.6358506387855
 30
0.0
 10
166.3944945873076
 20
222.6358506387855
 30
0.0
 10
169.0932101356781
 20
222.6358506387855
 30
0.0
 10
169.0932101356781
 20
222.6358506387855
 30
0.0
 10
169.3529703352659
 20
222.6358506387855
 30
0.0
 10
169.5028319888743
 20
222.670301593638
 30
0.0
 10
169.5429673512775
 20
222.7405815415371
 30
0.0
 10
169.5829304589064
 20
222.8108614894362
 30
0.0
 10
169.6034287770436
 20
222.9758815631797
 30
0.0
 10
169.6034287770436
 20
223.2356417627675
 30
0.0
 10
169.6034287770436
 20
223.2356417627675
 30
0.0
 10
169.6034287770436
 20
233.3108235093806
 30
0.0
 10
169.6034287770436
 20
233.3108235093806
 30
0.0
  0
SPLINE
  5
45
330
3D
100
AcDbEntity
  8
Layer 1
 62
   179
420
  2301728
370
    35
100
AcDbSpline
210
0.0
220
0.0
230
1.0
 70
    11
 71
     3
 72
    41
 73
    37
 74
     0
 42
0.0000000001
 43
0.0000000001
 40
0.0
 40
0.0
 40
0.0
 40
0.0
 40
1.0
 40
1.0
 40
1.0
 40
2.0
 40
2.0
 40
2.0
 40
3.0
 40
3.0
 40
3.0
 40
4.0
 40
4.0
 40
4.0
 40
5.0
 40
5.0
 40
5.0
 40
6.0
 40
6.0
 40
6.0
 40
7.0
 40
7.0
 40
7.0
 40
8.0
 40
8.0
 40
8.0
 40
9.0
 40
9.0
 40
9.0
 40
10.0
 40
10.0
 40
10.0
 40
11.0
 40
11.0
 40
11.0
 40
12.0
 40
12.0
 40
12.0
 40
12.0
 10
185.5555989119444
 20
210.8215846912182
 30
0.0
 10
185.5555989119444
 20
210.8215846912182
 30
0.0
 10
182.5869601323047
 20
210.8215846912182
 30
0.0
 10
182.5869601323047
 20
210.8215846912182
 30
0.0
 10
182.3671630403457
 20
210.8215846912182
 30
0.0
 10
182.2167846224146
 20
210.8615477988471
 30
0.0
 10
182.1372029167053
 20
210.9414740141049
 30
0.0
 10
182.0571044466732
 20
211.0217447389113
 30
0.0
 10
182.0174858485929
 20
211.1712618829711
 30
0.0
 10
182.0174858485929
 20
211.3907144653815
 30
0.0
 10
182.0174858485929
 20
211.3907144653815
 30
0.0
 10
182.0174858485929
 20
239.0382947536085
 30
0.0
 10
182.0174858485929
 20
239.0382947536085
 30
0.0
 10
182.0174858485929
 20
239.2580918455674
 30
0.0
 10
182.0624443446754
 20
239.407436734853
 30
0.0
 10
182.1523613368404
 20
239.4875352048851
 30
0.0
 10
182.2421060742311
 20
239.5676336749171
 30
0.0
 10
182.3969631162931
 20
239.607596782546
 30
0.0
 10
182.6171047178006
 20
239.607596782546
 30
0.0
 10
182.6171047178006
 20
239.607596782546
 30
0.0
 10
185.5555989119444
 20
239.607596782546
 30
0.0
 10
185.5555989119444
 20
239.607596782546
 30
0.0
 10
185.7753960039034
 20
239.607596782546
 30
0.0
 10
185.9252576575117
 20
239.5676336749171
 30
0.0
 10
186.0053561275438
 20
239.4875352048851
 30
0.0
 10
186.0854545975759
 20
239.407436734853
 30
0.0
 10
186.1254177052048
 20
239.2580918455674
 30
0.0
 10
186.1254177052048
 20
239.0382947536085
 30
0.0
 10
186.1254177052048
 20
239.0382947536085
 30
0.0
 10
186.1254177052048
 20
211.3907144653815
 30
0.0
 10
186.1254177052048
 20
211.3907144653815
 30
0.0
 10
186.1254177052048
 20
211.1712618829711
 30
0.0
 10
186.0854545975759
 20
211.0217447389113
 30
0.0
 10
186.0053561275438
 20
210.9414740141049
 30
0.0
 10
185.9252576575117
 20
210.8615477988471
 30
0.0
 10
185.7753960039034
 20
210.8215846912182
 30
0.0
 10
185.5555989119444
 20
210.8215846912182
 30
0.0
  0
SPLINE
  5
46
330
3D
100
AcDbEntity
  8
Layer 1
370
     0
100
AcDbSpline
210
0.0
220
0.0
230
1.0
 70
    11
 71
     3
 72
    53
 73
    49
 74
     0
 42
0.0000000001
 43
0.0000000001
 40
0.0
 40
0.0
 40
0.0
 40
0.0
 40
1.0
 40
1.0
 40
1.0
 40
2.0
 40
2.0
 40
2.0
 40
3.0
 40
3.0
 40
3.0
 40
4.0
 40
4.0
 40
4.0
 40
5.0
 40
5.0
 40
5.0
 40
6.0
 40
6.0
 40
6.0
 40
7.0
 40
7.0
 40
7.0
 40
8.0
 40
8.0
 40
8.0
 40
9.0
 40
9.0
 40
9.0
 40
10.0
 40
10.0
 40
10.0
 40
11.0
 40
11.0
 40
11.0
 40
12.0
 40
12.0
 40
12.0
 40
13.0
 40
13.0
 40
13.0
 40
14.0
 40
14.0
 40
14.0
 40
15.0
 40
15.0
 40
15.0
 40
16.0
 40
16.0
 40
16.0
 40
16.0
 10
198.149662222598
 20
217.8981553274699
 30
0.0
 10
196.9900430822629
 20
217.8981553274699
 30
0.0
 10
195.9404947426816
 20
218.1379339732433
 30
0.0
 10
195.0010172038539
 20
218.6178357743386
 30
0.0
 10
194.0611951554778
 20
219.0973930658854
 30
0.0
 10
193.2619330028998
 20
219.7722872714458
 30
0.0
 10
192.6021972174745
 20
220.6418293719229
 30
0.0
 10
191.9424614320491
 20
221.5113714724
 30
0.0
 10
191.4327595550064
 20
222.5459336466205
 30
0.0
 10
191.0729193315721
 20
223.7451713850359
 30
0.0
 10
190.7130791081377
 20
224.9447536329999
 30
0.0
 10
190.5330728690334
 20
226.2642252038506
 30
0.0
 10
190.5330728690334
 20
227.703586097588
 30
0.0
 10
190.5330728690334
 20
229.1825655894058
 30
0.0
 10
190.7130791081377
 20
230.537177134206
 30
0.0
 10
191.0729193315721
 20
231.7667317128917
 30
0.0
 10
191.4327595550064
 20
232.9959417820288
 30
0.0
 10
191.9424614320491
 20
234.0501410005153
 30
0.0
 10
192.6021972174745
 20
234.9300183874481
 30
0.0
 10
193.2619330028998
 20
235.8095512648324
 30
0.0
 10
194.0611951554778
 20
236.4940917377515
 30
0.0
 10
195.0010172038539
 20
236.9843288253025
 30
0.0
 10
195.9404947426816
 20
237.4738768937565
 30
0.0
 10
196.9900430822629
 20
237.7188231827578
 30
0.0
 10
198.149662222598
 20
237.7188231827578
 30
0.0
 10
199.328918407199
 20
237.7188231827578
 30
0.0
 10
200.3934529121412
 20
237.4790445369844
 30
0.0
 10
201.3430934826503
 20
236.9991427358891
 30
0.0
 10
202.2923895436109
 20
236.5192409347938
 30
0.0
 10
203.0973361037396
 20
235.8446912387819
 30
0.0
 10
203.7570718891649
 20
234.9751491383048
 30
0.0
 10
204.416635419816
 20
234.1056070378278
 30
0.0
 10
204.926509551633
 20
233.0558864434722
 30
0.0
 10
205.2863497750673
 20
231.826676374335
 30
0.0
 10
205.6461899985017
 20
230.5971217956493
 30
0.0
 10
205.8260239828317
 20
229.2425102508491
 30
0.0
 10
205.8260239828317
 20
227.7635307590313
 30
0.0
 10
205.8260239828317
 20
226.2838622481165
 30
0.0
 10
205.6461899985017
 20
224.9395859897721
 30
0.0
 10
205.2863497750673
 20
223.7303574744494
 30
0.0
 10
204.926509551633
 20
222.5204399400296
 30
0.0
 10
204.416635419816
 20
221.4862222753576
 30
0.0
 10
203.7570718891649
 20
220.6266709517878
 30
0.0
 10
203.0973361037396
 20
219.767119628218
 30
0.0
 10
202.2923895436109
 20
219.0973930658854
 30
0.0
 10
201.3430934826503
 20
218.6178357743386
 30
0.0
 10
200.3934529121412
 20
218.1379339732433
 30
0.0
 10
199.328918407199
 20
217.8981553274699
 30
0.0
 10
198.149662222598
 20
217.8981553274699
 30
0.0
  0
SPLINE
  5
47
330
3D
100
AcDbEntity
  8
Layer 1
370
     0
100
AcDbSpline
210
0.0
220
0.0
230
1.0
 70
    11
 71
     3
 72
    53
 73
    49
 74
     0
 42
0.0000000001
 43
0.0000000001
 40
0.0
 40
0.0
 40
0.0
 40
0.0
 40
1.0
 40
1.0
 40
1.0
 40
2.0
 40
2.0
 40
2.0
 40
3.0
 40
3.0
 40
3.0
 40
4.0
 40
4.0
 40
4.0
 40
5.0
 40
5.0
 40
5.0
 40
6.0
 40
6.0
 40
6.0
 40
7.0
 40
7.0
 40
7.0
 40
8.0
 40
8.0
 40
8.0
 40
9.0
 40
9.0
 40
9.0
 40
10.0
 40
10.0
 40
10.0
 40
11.0
 40
11.0
 40
11.0
 40
12.0
 40
12.0
 40
12.0
 40
13.0
 40
13.0
 40
13.0
 40
14.0
 40
14.0
 40
14.0
 40
15.0
 40
15.0
 40
15.0
 40
16.0
 40
16.0
 40
16.0
 40
16.0
 10
198.149662222598
 20
234.0904486176927
 30
0.0
 10
197.6294528043253
 20
234.0904486176927
 30
0.0
 10
197.1548909012321
 20
233.9354193208564
 30
0.0
 10
196.7252874942215
 20
233.6257052367325
 30
0.0
 10
196.295167322888
 20
233.31564664306
 30
0.0
 10
195.9255085773207
 20
232.8808755928215
 30
0.0
 10
195.6157944931967
 20
232.3213920860169
 30
0.0
 10
195.30556364475
 20
231.7615640696638
 30
0.0
 10
195.0657849989766
 20
231.0918375073312
 30
0.0
 10
194.8961140463281
 20
230.3122123990192
 30
0.0
 10
194.726098584131
 20
229.5325872907071
 30
0.0
 10
194.6411769804196
 20
228.682682234496
 30
0.0
 10
194.6411769804196
 20
227.7635307590313
 30
0.0
 10
194.6411769804196
 20
226.8836533720985
 30
0.0
 10
194.726098584131
 20
226.0640651561576
 30
0.0
 10
194.8961140463281
 20
225.3047661112086
 30
0.0
 10
195.0657849989766
 20
224.5447780471624
 30
0.0
 10
195.30556364475
 20
223.8850422617371
 30
0.0
 10
195.6157944931967
 20
223.3255587549325
 30
0.0
 10
195.9255085773207
 20
222.7657307385794
 30
0.0
 10
196.295167322888
 20
222.325792045113
 30
0.0
 10
196.7252874942215
 20
222.0060871840818
 30
0.0
 10
197.1548909012321
 20
221.6860378135021
 30
0.0
 10
197.6294528043253
 20
221.5261853829865
 30
0.0
 10
198.149662222598
 20
221.5261853829865
 30
0.0
 10
198.6893364303624
 20
221.5261853829865
 30
0.0
 10
199.1737168555885
 20
221.6860378135021
 30
0.0
 10
199.603837026922
 20
222.0060871840818
 30
0.0
 10
200.0336126887069
 20
222.325792045113
 30
0.0
 10
200.4032714342742
 20
222.7657307385794
 30
0.0
 10
200.7133300279467
 20
223.3255587549325
 30
0.0
 10
201.0230441120706
 20
223.8850422617371
 30
0.0
 10
201.2629950126183
 20
224.5447780471624
 30
0.0
 10
201.4330104748154
 20
225.3047661112086
 30
0.0
 10
201.6026814274639
 20
226.0640651561576
 30
0.0
 10
201.6879475407239
 20
226.8836533720985
 30
0.0
 10
201.6879475407239
 20
227.7635307590313
 30
0.0
 10
201.6879475407239
 20
228.682682234496
 30
0.0
 10
201.6026814274639
 20
229.5325872907071
 30
0.0
 10
201.4330104748154
 20
230.3122123990192
 30
0.0
 10
201.2629950126183
 20
231.0918375073312
 30
0.0
 10
201.0230441120706
 20
231.7615640696638
 30
0.0
 10
200.7133300279467
 20
232.3213920860169
 30
0.0
 10
200.4032714342742
 20
232.8808755928215
 30
0.0
 10
200.0336126887069
 20
233.31564664306
 30
0.0
 10
199.603837026922
 20
233.6257052367325
 30
0.0
 10
199.1737168555885
 20
233.9354193208564
 30
0.0
 10
198.6893364303624
 20
234.0904486176927
 30
0.0
 10
198.149662222598
 20
234.0904486176927
 30
0.0
  0
SPLINE
  5
48
330
3D
100
AcDbEntity
  8
Layer 1
370
     0
100
AcDbSpline
210
0.0
220
0.0
230
1.0
 70
    11
 71
     3
 72
    41
 73
    37
 74
     0
 42
0.0000000001
 43
0.0000000001
 40
0.0
 40
0.0
 40
0.0
 40
0.0
 40
1.0
 40
1.0
 40
1.0
 40
2.0
 40
2.0
 40
2.0
 40
3.0
 40
3.0
 40
3.0
 40
4.0
 40
4.0
 40
4.0
 40
5.0
 40
5.0
 40
5.0
 40
6.0
 40
6.0
 40
6.0
 40
7.0
 40
7.0
 40
7.0
 40
8.0
 40
8.0
 40
8.0
 40
9.0
 40
9.0
 40
9.0
 40
10.0
 40
10.0
 40
10.0
 40
11.0
 40
11.0
 40
11.0
 40
12.0
 40
12.0
 40
12.0
 40
12.0
 10
212.4530096582583
 20
210.8512125123914
 30
0.0
 10
212.4530096582583
 20
210.8512125123914
 30
0.0
 10
209.4543985478968
 20
210.8512125123914
 30
0.0
 10
209.4543985478968
 20
210.8512125123914
 30
0.0
 10
209.2340846916151
 20
210.8512125123914
 30
0.0
 10
209.0842230380067
 20
210.8863524863409
 30
0.0
 10
209.0046413322975
 20
210.9562879246915
 30
0.0
 10
208.9243706074911
 20
211.0265678725906
 30
0.0
 10
208.8845797546365
 20
211.1812526598783
 30
0.0
 10
208.8845797546365
 20
211.4210313056517
 30
0.0
 10
208.8845797546365
 20
211.4210313056517
 30
0.0
 10
208.8845797546365
 20
239.0382947536085
 30
0.0
 10
208.8845797546365
 20
239.0382947536085
 30
0.0
 10
208.8845797546365
 20
239.2580918455674
 30
0.0
 10
208.9243706074911
 20
239.4079534991758
 30
0.0
 10
209.0046413322975
 20
239.4878797144336
 30
0.0
 10
209.0842230380067
 20
239.5678059296914
 30
0.0
 10
209.2340846916151
 20
239.6081135468688
 30
0.0
 10
209.4543985478968
 20
239.6081135468688
 30
0.0
 10
209.4543985478968
 20
239.6081135468688
 30
0.0
 10
212.4530096582583
 20
239.6081135468688
 30
0.0
 10
212.4530096582583
 20
239.6081135468688
 30
0.0
 10
212.672634495443
 20
239.6081135468688
 30
0.0
 10
212.8226684038256
 20
239.5678059296914
 30
0.0
 10
212.9027668738576
 20
239.4878797144336
 30
0.0
 10
212.9823485795669
 20
239.4079534991758
 30
0.0
 10
213.0226561967444
 20
239.2580918455674
 30
0.0
 10
213.0226561967444
 20
239.0382947536085
 30
0.0
 10
213.0226561967444
 20
239.0382947536085
 30
0.0
 10
213.0226561967444
 20
211.4210313056517
 30
0.0
 10
213.0226561967444
 20
211.4210313056517
 30
0.0
 10
213.0226561967444
 20
211.1812526598783
 30
0.0
 10
212.9823485795669
 20
211.0265678725906
 30
0.0
 10
212.9027668738576
 20
210.9562879246915
 30
0.0
 10
212.8226684038256
 20
210.8863524863409
 30
0.0
 10
212.672634495443
 20
210.8512125123914
 30
0.0
 10
212.4530096582583
 20
210.8512125123914
 30
0.0
  0
SPLINE
  5
49
330
3D
100
AcDbEntity
  8
Layer 1
 62
   179
420
  2301728
370
    35
100
AcDbSpline
210
0.0
220
0.0
230
1.0
 70
    11
 71
     3
 72
    53
 73
    49
 74
     0
 42
0.0000000001
 43
0.0000000001
 40
0.0
 40
0.0
 40
0.0
 40
0.0
 40
1.0
 40
1.0
 40
1.0
 40
2.0
 40
2.0
 40
2.0
 40
3.0
 40
3.0
 40
3.0
 40
4.0
 40
4.0
 40
4.0
 40
5.0
 40
5.0
 40
5.0
 40
6.0
 40
6.0
 40
6.0
 40
7.0
 40
7.0
 40
7.0
 40
8.0
 40
8.0
 40
8.0
 40
9.0
 40
9.0
 40
9.0
 40
10.0
 40
10.0
 40
10.0
 40
11.0
 40
11.0
 40
11.0
 40
12.0
 40
12.0
 40
12.0
 40
13.0
 40
13.0
 40
13.0
 40
14.0
 40
14.0
 40
14.0
 40
15.0
 40
15.0
 40
15.0
 40
16.0
 40
16.0
 40
16.0
 40
16.0
 10
198.1498344773723
 20
217.8978108179214
 30
0.0
 10
196.9902153370372
 20
217.8978108179214
 30
0.0
 10
195.9404947426816
 20
218.1379339732433
 30
0.0
 10
195.0010172038539
 20
218.6174912647901
 30
0.0
 10
194.0610229007035
 20
219.0977375754339
 30
0.0
 10
193.2617607481255
 20
219.7726317809943
 30
0.0
 10
192.6020249627002
 20
220.6418293719229
 30
0.0
 10
191.9422891772749
 20
221.5110269628514
 30
0.0
 10
191.4325873002321
 20
222.546278156169
 30
0.0
 10
191.0727470767978
 20
223.7451713850359
 30
0.0
 10
190.7129068533634
 20
224.9445813782257
 30
0.0
 10
190.5332451238077
 20
226.2638806943021
 30
0.0
 10
190.5332451238077
 20
227.7032415880395
 30
0.0
 10
190.5332451238077
 20
229.1829100989543
 30
0.0
 10
190.7129068533634
 20
230.5373493889803
 30
0.0
 10
191.0727470767978
 20
231.7667317128917
 30
0.0
 10
191.4325873002321
 20
232.9962862915773
 30
0.0
 10
191.9422891772749
 20
234.049968745741
 30
0.0
 10
192.6020249627002
 20
234.9298461326738
 30
0.0
 10
193.2617607481255
 20
235.8097235196066
 30
0.0
 10
194.0610229007035
 20
236.4944362473
 30
0.0
 10
195.0010172038539
 20
236.9846733348511
 30
0.0
 10
195.9404947426816
 20
237.4738768937565
 30
0.0
 10
196.9902153370372
 20
237.7189954375321
 30
0.0
 10
198.1498344773723
 20
237.7189954375321
 30
0.0
 10
199.3290906619733
 20
237.7189954375321
 30
0.0
 10
200.3936251669155
 20
237.4787000274359
 30
0.0
 10
201.3432657374246
 20
236.9991427358891
 30
0.0
 10
202.2923895436109
 20
236.5197576991166
 30
0.0
 10
203.0971638489653
 20
235.8450357483304
 30
0.0
 10
203.7572441439392
 20
234.9748046287563
 30
0.0
 10
204.4164631650417
 20
234.1056070378278
 30
0.0
 10
204.9266818064072
 20
233.0558864434722
 30
0.0
 10
205.2861775202931
 20
231.8263318647865
 30
0.0
 10
205.6460177437274
 20
230.5969495408751
 30
0.0
 10
205.826196237606
 20
229.2423379960748
 30
0.0
 10
205.826196237606
 20
227.7638752685799
 30
0.0
 10
205.826196237606
 20
226.283517738568
 30
0.0
 10
205.6460177437274
 20
224.9395859897721
 30
0.0
 10
205.2861775202931
 20
223.7307019839979
 30
0.0
 10
204.9266818064072
 20
222.5207844495781
 30
0.0
 10
204.4164631650417
 20
221.4865667849062
 30
0.0
 10
203.7572441439392
 20
220.6270154613363
 30
0.0
 10
203.0971638489653
 20
219.7667751186694
 30
0.0
 10
202.2923895436109
 20
219.0977375754339
 30
0.0
 10
201.3432657374246
 20
218.6174912647901
 30
0.0
 10
200.3936251669155
 20
218.1379339732433
 30
0.0
 10
199.3290906619733
 20
217.8978108179214
 30
0.0
 10
198.1498344773723
 20
217.8978108179214
 30
0.0
  0
SPLINE
  5
4A
330
3D
100
AcDbEntity
  8
Layer 1
 62
   179
420
  2301728
370
    35
100
AcDbSpline
210
0.0
220
0.0
230
1.0
 70
    11
 71
     3
 72
    53
 73
    49
 74
     0
 42
0.0000000001
 43
0.0000000001
 40
0.0
 40
0.0
 40
0.0
 40
0.0
 40
1.0
 40
1.0
 40
1.0
 40
2.0
 40
2.0
 40
2.0
 40
3.0
 40
3.0
 40
3.0
 40
4.0
 40
4.0
 40
4.0
 40
5.0
 40
5.0
 40
5.0
 40
6.0
 40
6.0
 40
6.0
 40
7.0
 40
7.0
 40
7.0
 40
8.0
 40
8.0
 40
8.0
 40
9.0
 40
9.0
 40
9.0
 40
10.0
 40
10.0
 40
10.0
 40
11.0
 40
11.0
 40
11.0
 40
12.0
 40
12.0
 40
12.0
 40
13.0
 40
13.0
 40
13.0
 40
14.0
 40
14.0
 40
14.0
 40
15.0
 40
15.0
 40
15.0
 40
16.0
 40
16.0
 40
16.0
 40
16.0
 10
198.1498344773723
 20
234.0901041081441
 30
0.0
 10
197.629280549551
 20
234.0901041081441
 30
0.0
 10
197.1547186464579
 20
233.935763830405
 30
0.0
 10
196.7251152394472
 20
233.6262220010553
 30
0.0
 10
196.2953395776623
 20
233.31564664306
 30
0.0
 10
195.925680832095
 20
232.8810478475957
 30
0.0
 10
195.6156222384225
 20
232.3215643407912
 30
0.0
 10
195.30556364475
 20
231.7619085792123
 30
0.0
 10
195.0659572537509
 20
231.0920097621055
 30
0.0
 10
194.8959417915538
 20
230.312729163342
 30
0.0
 10
194.726098584131
 20
229.5324150359329
 30
0.0
 10
194.6410047256453
 20
228.6828544892703
 30
0.0
 10
194.6410047256453
 20
227.7638752685799
 30
0.0
 10
194.6410047256453
 20
226.8839978816471
 30
0.0
 10
194.726098584131
 20
226.0637206466091
 30
0.0
 10
194.8959417915538
 20
225.3049383659828
 30
0.0
 10
195.0659572537509
 20
224.545122556711
 30
0.0
 10
195.30556364475
 20
223.8850422617371
 30
0.0
 10
195.6156222384225
 20
223.3255587549325
 30
0.0
 10
195.925680832095
 20
222.7657307385794
 30
0.0
 10
196.2953395776623
 20
222.3254475355645
 30
0.0
 10
196.7251152394472
 20
222.0060871840818
 30
0.0
 10
197.1547186464579
 20
221.6856933039536
 30
0.0
 10
197.629280549551
 20
221.5265298925351
 30
0.0
 10
198.1498344773723
 20
221.5265298925351
 30
0.0
 10
198.6893364303624
 20
221.5265298925351
 30
0.0
 10
199.1737168555885
 20
221.6856933039536
 30
0.0
 10
199.6040092816962
 20
222.0060871840818
 30
0.0
 10
200.0336126887069
 20
222.3254475355645
 30
0.0
 10
200.4032714342742
 20
222.7657307385794
 30
0.0
 10
200.7133300279467
 20
223.3255587549325
 30
0.0
 10
201.0228718572964
 20
223.8850422617371
 30
0.0
 10
201.2631672673926
 20
224.545122556711
 30
0.0
 10
201.4330104748154
 20
225.3049383659828
 30
0.0
 10
201.6025091726897
 20
226.0637206466091
 30
0.0
 10
201.6879475407239
 20
226.8839978816471
 30
0.0
 10
201.6879475407239
 20
227.7638752685799
 30
0.0
 10
201.6879475407239
 20
228.6828544892703
 30
0.0
 10
201.6025091726897
 20
229.5324150359329
 30
0.0
 10
201.4330104748154
 20
230.312729163342
 30
0.0
 10
201.2631672673926
 20
231.0920097621055
 30
0.0
 10
201.0228718572964
 20
231.7619085792123
 30
0.0
 10
200.7133300279467
 20
232.3215643407912
 30
0.0
 10
200.4032714342742
 20
232.8810478475957
 30
0.0
 10
200.0336126887069
 20
233.31564664306
 30
0.0
 10
199.6040092816962
 20
233.6262220010553
 30
0.0
 10
199.1737168555885
 20
233.935763830405
 30
0.0
 10
198.6893364303624
 20
234.0901041081441
 30
0.0
 10
198.1498344773723
 20
234.0901041081441
 30
0.0
  0
SPLINE
  5
4B
330
3D
100
AcDbEntity
  8
Layer 1
 62
   179
420
  2301728
370
    35
100
AcDbSpline
210
0.0
220
0.0
230
1.0
 70
    11
 71
     3
 72
    41
 73
    37
 74
     0
 42
0.0000000001
 43
0.0000000001
 40
0.0
 40
0.0
 40
0.0
 40
0.0
 40
1.0
 40
1.0
 40
1.0
 40
2.0
 40
2.0
 40
2.0
 40
3.0
 40
3.0
 40
3.0
 40
4.0
 40
4.0
 40
4.0
 40
5.0
 40
5.0
 40
5.0
 40
6.0
 40
6.0
 40
6.0
 40
7.0
 40
7.0
 40
7.0
 40
8.0
 40
8.0
 40
8.0
 40
9.0
 40
9.0
 40
9.0
 40
10.0
 40
10.0
 40
10.0
 40
11.0
 40
11.0
 40
11.0
 40
12.0
 40
12.0
 40
12.0
 40
12.0
 10
212.4531819130326
 20
210.8519015314884
 30
0.0
 10
212.4531819130326
 20
210.8519015314884
 30
0.0
 10
209.4545708026711
 20
210.8519015314884
 30
0.0
 10
209.4545708026711
 20
210.8519015314884
 30
0.0
 10
209.2339124368408
 20
210.8519015314884
 30
0.0
 10
209.084395292781
 20
210.8860079767924
 30
0.0
 10
209.0048135870717
 20
210.9562879246915
 30
0.0
 10
208.9243706074911
 20
211.0265678725906
 30
0.0
 10
208.8847520094108
 20
211.1809081503298
 30
0.0
 10
208.8847520094108
 20
211.4210313056517
 30
0.0
 10
208.8847520094108
 20
211.4210313056517
 30
0.0
 10
208.8847520094108
 20
239.0382947536085
 30
0.0
 10
208.8847520094108
 20
239.0382947536085
 30
0.0
 10
208.8847520094108
 20
239.2580918455674
 30
0.0
 10
208.9243706074911
 20
239.407436734853
 30
0.0
 10
209.0048135870717
 20
239.4875352048851
 30
0.0
 10
209.084395292781
 20
239.5676336749171
 30
0.0
 10
209.2339124368408
 20
239.607596782546
 30
0.0
 10
209.4545708026711
 20
239.607596782546
 30
0.0
 10
209.4545708026711
 20
239.607596782546
 30
0.0
 10
212.4531819130326
 20
239.607596782546
 30
0.0
 10
212.4531819130326
 20
239.607596782546
 30
0.0
 10
212.6728067502172
 20
239.607596782546
 30
0.0
 10
212.8226684038256
 20
239.5676336749171
 30
0.0
 10
212.9027668738576
 20
239.4875352048851
 30
0.0
 10
212.9823485795669
 20
239.407436734853
 30
0.0
 10
213.0224839419701
 20
239.2580918455674
 30
0.0
 10
213.0224839419701
 20
239.0382947536085
 30
0.0
 10
213.0224839419701
 20
239.0382947536085
 30
0.0
 10
213.0224839419701
 20
211.4210313056517
 30
0.0
 10
213.0224839419701
 20
211.4210313056517
 30
0.0
 10
213.0224839419701
 20
211.1809081503298
 30
0.0
 10
212.9823485795669
 20
211.0265678725906
 30
0.0
 10
212.9027668738576
 20
210.9562879246915
 30
0.0
 10
212.8226684038256
 20
210.8860079767924
 30
0.0
 10
212.6728067502172
 20
210.8519015314884
 30
0.0
 10
212.4531819130326
 20
210.8519015314884
 30
0.0
  0
SPLINE
  5
4C
330
3D
100
AcDbEntity
  8
Layer 1
370
     0
100
AcDbSpline
210
0.0
220
0.0
230
1.0
 70
    11
 71
     3
 72
    38
 73
    34
 74
     0
 42
0.0000000001
 43
0.0000000001
 40
0.0
 40
0.0
 40
0.0
 40
0.0
 40
1.0
 40
1.0
 40
1.0
 40
2.0
 40
2.0
 40
2.0
 40
3.0
 40
3.0
 40
3.0
 40
4.0
 40
4.0
 40
4.0
 40
5.0
 40
5.0
 40
5.0
 40
6.0
 40
6.0
 40
6.0
 40
7.0
 40
7.0
 40
7.0
 40
8.0
 40
8.0
 40
8.0
 40
9.0
 40
9.0
 40
9.0
 40
10.0
 40
10.0
 40
10.0
 40
11.0
 40
11.0
 40
11.0
 40
11.0
 10
243.2783460220797
 20
222.5759059773421
 30
0.0
 10
243.2783460220797
 20
222.5759059773421
 30
0.0
 10
217.5502006834597
 20
222.5759059773421
 30
0.0
 10
217.5502006834597
 20
222.5759059773421
 30
0.0
 10
217.2701144205089
 20
222.5759059773421
 30
0.0
 10
217.1004434678603
 20
222.6255153523298
 30
0.0
 10
217.040498806417
 20
222.7257676309505
 30
0.0
 10
216.9805541449736
 20
222.8256754000228
 30
0.0
 10
216.950581814252
 20
222.9955186074456
 30
0.0
 10
216.950581814252
 20
223.2356417627675
 30
0.0
 10
216.950581814252
 20
223.2356417627675
 30
0.0
 10
216.950581814252
 20
225.3946831033736
 30
0.0
 10
216.950581814252
 20
225.3946831033736
 30
0.0
 10
216.950581814252
 20
225.614135685784
 30
0.0
 10
216.9903726671066
 20
225.7695094921687
 30
0.0
 10
217.0704711371386
 20
225.8594264843338
 30
0.0
 10
217.1500528428479
 20
225.9493434764988
 30
0.0
 10
217.310249782912
 20
225.994129717807
 30
0.0
 10
217.5502006834597
 20
225.994129717807
 30
0.0
 10
217.5502006834597
 20
225.994129717807
 30
0.0
 10
243.2783460220797
 20
225.994129717807
 30
0.0
 10
243.2783460220797
 20
225.994129717807
 30
0.0
 10
243.4581800064098
 20
225.994129717807
 30
0.0
 10
243.6082139147924
 20
225.9538221006296
 30
0.0
 10
243.7281032376791
 20
225.8742403949203
 30
0.0
 10
243.8479925605658
 20
225.7943141796625
 30
0.0
 10
243.9079372220091
 20
225.6344617491469
 30
0.0
 10
243.9079372220091
 20
225.3946831033736
 30
0.0
 10
243.9079372220091
 20
225.3946831033736
 30
0.0
 10
243.9079372220091
 20
223.2356417627675
 30
0.0
 10
243.9079372220091
 20
223.2356417627675
 30
0.0
 10
243.9079372220091
 20
222.7957030693011
 30
0.0
 10
243.6981309069574
 20
222.5759059773421
 30
0.0
 10
243.2783460220797
 20
222.5759059773421
 30
0.0
  0
SPLINE
  5
4D
330
3D
100
AcDbEntity
  8
Layer 1
370
     0
100
AcDbSpline
210
0.0
220
0.0
230
1.0
 70
    11
 71
     3
 72
    56
 73
    52
 74
     0
 42
0.0000000001
 43
0.0000000001
 40
0.0
 40
0.0
 40
0.0
 40
0.0
 40
1.0
 40
1.0
 40
1.0
 40
2.0
 40
2.0
 40
2.0
 40
3.0
 40
3.0
 40
3.0
 40
4.0
 40
4.0
 40
4.0
 40
5.0
 40
5.0
 40
5.0
 40
6.0
 40
6.0
 40
6.0
 40
7.0
 40
7.0
 40
7.0
 40
8.0
 40
8.0
 40
8.0
 40
9.0
 40
9.0
 40
9.0
 40
10.0
 40
10.0
 40
10.0
 40
11.0
 40
11.0
 40
11.0
 40
12.0
 40
12.0
 40
12.0
 40
13.0
 40
13.0
 40
13.0
 40
14.0
 40
14.0
 40
14.0
 40
15.0
 40
15.0
 40
15.0
 40
16.0
 40
16.0
 40
16.0
 40
17.0
 40
17.0
 40
17.0
 40
17.0
 10
240.0397840111706
 20
211.480975967095
 30
0.0
 10
240.0397840111706
 20
211.480975967095
 30
0.0
 10
223.1875826807482
 20
211.480975967095
 30
0.0
 10
223.1875826807482
 20
211.480975967095
 30
0.0
 10
222.7677977958706
 20
211.480975967095
 30
0.0
 10
222.4229437377971
 20
211.5161159410446
 30
0.0
 10
222.1530205065277
 20
211.5860513793952
 30
0.0
 10
221.8832695300327
 20
211.6563313272943
 30
0.0
 10
221.6732909602067
 20
211.7710530069531
 30
0.0
 10
221.5234293065983
 20
211.9309054374687
 30
0.0
 10
221.3733953982157
 20
212.0911023775328
 30
0.0
 10
221.2684922406898
 20
212.3108994694917
 30
0.0
 10
221.2085475792465
 20
212.590641222894
 30
0.0
 10
221.1486029178031
 20
212.8707274858448
 30
0.0
 10
221.1186305870815
 20
213.2200601680492
 30
0.0
 10
221.1186305870815
 20
213.6400173077011
 30
0.0
 10
221.1186305870815
 20
213.6400173077011
 30
0.0
 10
221.1186305870815
 20
219.9069905049191
 30
0.0
 10
221.1186305870815
 20
219.9069905049191
 30
0.0
 10
221.1186305870815
 20
220.326947644571
 30
0.0
 10
221.3181016156774
 20
220.5367539596228
 30
0.0
 10
221.7182494562892
 20
220.5367539596228
 30
0.0
 10
221.7182494562892
 20
220.5367539596228
 30
0.0
 10
224.6569159052073
 20
220.5367539596228
 30
0.0
 10
224.6569159052073
 20
220.5367539596228
 30
0.0
 10
225.076700790085
 20
220.5367539596228
 30
0.0
 10
225.286679359911
 20
220.326947644571
 30
0.0
 10
225.286679359911
 20
219.9069905049191
 30
0.0
 10
225.286679359911
 20
219.9069905049191
 30
0.0
 10
225.286679359911
 20
215.3491291779335
 30
0.0
 10
225.286679359911
 20
215.3491291779335
 30
0.0
 10
225.286679359911
 20
215.0494058707168
 30
0.0
 10
225.4365410135194
 20
214.8995442171085
 30
0.0
 10
225.7364365755103
 20
214.8995442171085
 30
0.0
 10
225.7364365755103
 20
214.8995442171085
 30
0.0
 10
240.0397840111706
 20
214.8995442171085
 30
0.0
 10
240.0397840111706
 20
214.8995442171085
 30
0.0
 10
240.1996364416862
 20
214.8995442171085
 30
0.0
 10
240.3443304520667
 20
214.8647487527074
 30
0.0
 10
240.4745550614091
 20
214.7944688048083
 30
0.0
 10
240.6044351612031
 20
214.7245333664578
 30
0.0
 10
240.6695474658743
 20
214.5798393560773
 30
0.0
 10
240.6695474658743
 20
214.3596977545698
 30
0.0
 10
240.6695474658743
 20
214.3596977545698
 30
0.0
 10
240.6695474658743
 20
212.0208224296337
 30
0.0
 10
240.6695474658743
 20
212.0208224296337
 30
0.0
 10
240.6695474658743
 20
211.7410806762314
 30
0.0
 10
240.6044351612031
 20
211.5812282457158
 30
0.0
 10
240.4745550614091
 20
211.5409206285384
 30
0.0
 10
240.3443304520667
 20
211.501302030458
 30
0.0
 10
240.1996364416862
 20
211.480975967095
 30
0.0
 10
240.0397840111706
 20
211.480975967095
 30
0.0
  0
SPLINE
  5
4E
330
3D
100
AcDbEntity
  8
Layer 1
370
     0
100
AcDbSpline
210
0.0
220
0.0
230
1.0
 70
    11
 71
     3
 72
    62
 73
    58
 74
     0
 42
0.0000000001
 43
0.0000000001
 40
0.0
 40
0.0
 40
0.0
 40
0.0
 40
1.0
 40
1.0
 40
1.0
 40
2.0
 40
2.0
 40
2.0
 40
3.0
 40
3.0
 40
3.0
 40
4.0
 40
4.0
 40
4.0
 40
5.0
 40
5.0
 40
5.0
 40
6.0
 40
6.0
 40
6.0
 40
7.0
 40
7.0
 40
7.0
 40
8.0
 40
8.0
 40
8.0
 40
9.0
 40
9.0
 40
9.0
 40
10.0
 40
10.0
 40
10.0
 40
11.0
 40
11.0
 40
11.0
 40
12.0
 40
12.0
 40
12.0
 40
13.0
 40
13.0
 40
13.0
 40
14.0
 40
14.0
 40
14.0
 40
15.0
 40
15.0
 40
15.0
 40
16.0
 40
16.0
 40
16.0
 40
17.0
 40
17.0
 40
17.0
 40
18.0
 40
18.0
 40
18.0
 40
19.0
 40
19.0
 40
19.0
 40
19.0
 10
239.7398884491796
 20
228.5431558673434
 30
0.0
 10
239.7398884491796
 20
228.5431558673434
 30
0.0
 10
223.7873738047302
 20
228.5431558673434
 30
0.0
 10
223.7873738047302
 20
228.5431558673434
 30
0.0
 10
223.2874904498205
 20
228.5431558673434
 30
0.0
 10
222.8675333101685
 20
228.5827744654238
 30
0.0
 10
222.5278468953229
 20
228.6630451902301
 30
0.0
 10
222.1878159709287
 20
228.7426268959394
 30
0.0
 10
221.9178927396594
 20
228.8776746389611
 30
0.0
 10
221.7182494562892
 20
229.0678439097469
 30
0.0
 10
221.5182616633705
 20
229.2576686709842
 30
0.0
 10
221.3733953982157
 20
229.5126057368927
 30
0.0
 10
221.2834784060507
 20
229.8326551074724
 30
0.0
 10
221.1935614138856
 20
230.152015458955
 30
0.0
 10
221.1486029178031
 20
230.5619818216998
 30
0.0
 10
221.1486029178031
 20
231.0618651766096
 30
0.0
 10
221.1486029178031
 20
231.0618651766096
 30
0.0
 10
221.1486029178031
 20
238.2886419760181
 30
0.0
 10
221.1486029178031
 20
238.2886419760181
 30
0.0
 10
221.1486029178031
 20
238.4684759603482
 30
0.0
 10
221.1883937706578
 20
238.6131699707286
 30
0.0
 10
221.2684922406898
 20
238.7234130262567
 30
0.0
 10
221.3480739463991
 20
238.8329670626876
 30
0.0
 10
221.4981078547817
 20
238.8884331000001
 30
0.0
 10
221.7182494562892
 20
238.8884331000001
 30
0.0
 10
221.7182494562892
 20
238.8884331000001
 30
0.0
 10
224.686888235929
 20
238.8884331000001
 30
0.0
 10
224.686888235929
 20
238.8884331000001
 30
0.0
 10
225.1264824198469
 20
238.8884331000001
 30
0.0
 10
225.3466240213543
 20
238.6882730523071
 30
0.0
 10
225.3466240213543
 20
238.2886419760181
 30
0.0
 10
225.3466240213543
 20
238.2886419760181
 30
0.0
 10
225.3466240213543
 20
232.5611707317903
 30
0.0
 10
225.3466240213543
 20
232.5611707317903
 30
0.0
 10
225.3466240213543
 20
232.2810844688395
 30
0.0
 10
225.3915825174368
 20
232.1064181277373
 30
0.0
 10
225.4814995096019
 20
232.0364826893867
 30
0.0
 10
225.5715887565411
 20
231.9662027414876
 30
0.0
 10
225.7364365755103
 20
231.9314072770866
 30
0.0
 10
225.976387476058
 20
231.9314072770866
 30
0.0
 10
225.976387476058
 20
231.9314072770866
 30
0.0
 10
239.7398884491796
 20
231.9314072770866
 30
0.0
 10
239.7398884491796
 20
231.9314072770866
 30
0.0
 10
239.8997408796952
 20
231.9314072770866
 30
0.0
 10
240.0444348900757
 20
231.9014349463649
 30
0.0
 10
240.1746594994181
 20
231.8414902849216
 30
0.0
 10
240.3045395992121
 20
231.7815456234782
 30
0.0
 10
240.3696519038833
 20
231.6416747467771
 30
0.0
 10
240.3696519038833
 20
231.4218776548182
 30
0.0
 10
240.3696519038833
 20
231.4218776548182
 30
0.0
 10
240.3696519038833
 20
229.1129746606037
 30
0.0
 10
240.3696519038833
 20
229.1129746606037
 30
0.0
 10
240.3696519038833
 20
228.8325438881044
 30
0.0
 10
240.3045395992121
 20
228.6678683239094
 30
0.0
 10
240.1746594994181
 20
228.6179144393733
 30
0.0
 10
240.0444348900757
 20
228.5679605548372
 30
0.0
 10
239.8997408796952
 20
228.5431558673434
 30
0.0
 10
239.7398884491796
 20
228.5431558673434
 30
0.0
  0
SPLINE
  5
4F
330
3D
100
AcDbEntity
  8
Layer 1
 62
   179
420
  2301728
370
    35
100
AcDbSpline
210
0.0
220
0.0
230
1.0
 70
    11
 71
     3
 72
    38
 73
    34
 74
     0
 42
0.0000000001
 43
0.0000000001
 40
0.0
 40
0.0
 40
0.0
 40
0.0
 40
1.0
 40
1.0
 40
1.0
 40
2.0
 40
2.0
 40
2.0
 40
3.0
 40
3.0
 40
3.0
 40
4.0
 40
4.0
 40
4.0
 40
5.0
 40
5.0
 40
5.0
 40
6.0
 40
6.0
 40
6.0
 40
7.0
 40
7.0
 40
7.0
 40
8.0
 40
8.0
 40
8.0
 40
9.0
 40
9.0
 40
9.0
 40
10.0
 40
10.0
 40
10.0
 40
11.0
 40
11.0
 40
11.0
 40
11.0
 10
243.2783460220797
 20
222.5755614677936
 30
0.0
 10
243.2783460220797
 20
222.5755614677936
 30
0.0
 10
217.5502006834597
 20
222.5755614677936
 30
0.0
 10
217.5502006834597
 20
222.5755614677936
 30
0.0
 10
217.2699421657346
 20
222.5755614677936
 30
0.0
 10
217.1006157226346
 20
222.6251708427812
 30
0.0
 10
217.040498806417
 20
222.7257676309505
 30
0.0
 10
216.9803818901994
 20
222.8253308904742
 30
0.0
 10
216.9507540690262
 20
222.9951740978971
 30
0.0
 10
216.9507540690262
 20
223.2356417627675
 30
0.0
 10
216.9507540690262
 20
223.2356417627675
 30
0.0
 10
216.9507540690262
 20
225.3946831033736
 30
0.0
 10
216.9507540690262
 20
225.3946831033736
 30
0.0
 10
216.9507540690262
 20
225.6144801953325
 30
0.0
 10
216.9902004123323
 20
225.769681746943
 30
0.0
 10
217.0702988823644
 20
225.859598739108
 30
0.0
 10
217.1498805880736
 20
225.9493434764988
 30
0.0
 10
217.3100775281378
 20
225.9943019725813
 30
0.0
 10
217.5502006834597
 20
225.9943019725813
 30
0.0
 10
217.5502006834597
 20
225.9943019725813
 30
0.0
 10
243.2783460220797
 20
225.9943019725813
 30
0.0
 10
243.2783460220797
 20
225.9943019725813
 30
0.0
 10
243.4580077516355
 20
225.9943019725813
 30
0.0
 10
243.6083861695667
 20
225.9543388649524
 30
0.0
 10
243.7281032376791
 20
225.8742403949203
 30
0.0
 10
243.8481648153401
 20
225.7941419248883
 30
0.0
 10
243.9082817315577
 20
225.6339449848242
 30
0.0
 10
243.9082817315577
 20
225.3946831033736
 30
0.0
 10
243.9082817315577
 20
225.3946831033736
 30
0.0
 10
243.9082817315577
 20
223.2356417627675
 30
0.0
 10
243.9082817315577
 20
223.2356417627675
 30
0.0
 10
243.9082817315577
 20
222.795014050204
 30
0.0
 10
243.6981309069574
 20
222.5755614677936
 30
0.0
 10
243.2783460220797
 20
222.5755614677936
 30
0.0
  0
SPLINE
  5
50
330
3D
100
AcDbEntity
  8
Layer 1
 62
   179
420
  2301728
370
    35
100
AcDbSpline
210
0.0
220
0.0
230
1.0
 70
    11
 71
     3
 72
    56
 73
    52
 74
     0
 42
0.0000000001
 43
0.0000000001
 40
0.0
 40
0.0
 40
0.0
 40
0.0
 40
1.0
 40
1.0
 40
1.0
 40
2.0
 40
2.0
 40
2.0
 40
3.0
 40
3.0
 40
3.0
 40
4.0
 40
4.0
 40
4.0
 40
5.0
 40
5.0
 40
5.0
 40
6.0
 40
6.0
 40
6.0
 40
7.0
 40
7.0
 40
7.0
 40
8.0
 40
8.0
 40
8.0
 40
9.0
 40
9.0
 40
9.0
 40
10.0
 40
10.0
 40
10.0
 40
11.0
 40
11.0
 40
11.0
 40
12.0
 40
12.0
 40
12.0
 40
13.0
 40
13.0
 40
13.0
 40
14.0
 40
14.0
 40
14.0
 40
15.0
 40
15.0
 40
15.0
 40
16.0
 40
16.0
 40
16.0
 40
17.0
 40
17.0
 40
17.0
 40
17.0
 10
240.0399562659449
 20
211.4806314575465
 30
0.0
 10
240.0399562659449
 20
211.4806314575465
 30
0.0
 10
223.187410425974
 20
211.4806314575465
 30
0.0
 10
223.187410425974
 20
211.4806314575465
 30
0.0
 10
222.767453286322
 20
211.4806314575465
 30
0.0
 10
222.4227714830228
 20
211.5157714314961
 30
0.0
 10
222.1528482517535
 20
211.5860513793952
 30
0.0
 10
221.8832695300327
 20
211.6563313272943
 30
0.0
 10
221.6732909602067
 20
211.7707084974045
 30
0.0
 10
221.5234293065983
 20
211.9309054374687
 30
0.0
 10
221.3735676529899
 20
212.0911023775328
 30
0.0
 10
221.2684922406898
 20
212.3108994694917
 30
0.0
 10
221.2085475792465
 20
212.5909857324425
 30
0.0
 10
221.1484306630289
 20
212.8703829762963
 30
0.0
 10
221.1186305870815
 20
213.2200601680492
 30
0.0
 10
221.1186305870815
 20
213.6400173077011
 30
0.0
 10
221.1186305870815
 20
213.6400173077011
 30
0.0
 10
221.1186305870815
 20
219.9073350144676
 30
0.0
 10
221.1186305870815
 20
219.9073350144676
 30
0.0
 10
221.1186305870815
 20
220.326258625474
 30
0.0
 10
221.3182738704517
 20
220.5364094500742
 30
0.0
 10
221.7182494562892
 20
220.5364094500742
 30
0.0
 10
221.7182494562892
 20
220.5364094500742
 30
0.0
 10
224.656743650433
 20
220.5364094500742
 30
0.0
 10
224.656743650433
 20
220.5364094500742
 30
0.0
 10
225.076700790085
 20
220.5364094500742
 30
0.0
 10
225.2865071051367
 20
220.326258625474
 30
0.0
 10
225.2865071051367
 20
219.9073350144676
 30
0.0
 10
225.2865071051367
 20
219.9073350144676
 30
0.0
 10
225.2865071051367
 20
215.348784668385
 30
0.0
 10
225.2865071051367
 20
215.348784668385
 30
0.0
 10
225.2865071051367
 20
215.0490613611683
 30
0.0
 10
225.4365410135194
 20
214.8995442171085
 30
0.0
 10
225.7362643207361
 20
214.8995442171085
 30
0.0
 10
225.7362643207361
 20
214.8995442171085
 30
0.0
 10
240.0399562659449
 20
214.8995442171085
 30
0.0
 10
240.0399562659449
 20
214.8995442171085
 30
0.0
 10
240.1996364416862
 20
214.8995442171085
 30
0.0
 10
240.3441581972924
 20
214.8644042431589
 30
0.0
 10
240.4745550614091
 20
214.7941242952598
 30
0.0
 10
240.6044351612031
 20
214.7248778760063
 30
0.0
 10
240.6693752111
 20
214.5801838656258
 30
0.0
 10
240.6693752111
 20
214.3596977545698
 30
0.0
 10
240.6693752111
 20
214.3596977545698
 30
0.0
 10
240.6693752111
 20
212.0208224296337
 30
0.0
 10
240.6693752111
 20
212.0208224296337
 30
0.0
 10
240.6693752111
 20
211.7414251857799
 30
0.0
 10
240.6044351612031
 20
211.5812282457158
 30
0.0
 10
240.4745550614091
 20
211.5412651380869
 30
0.0
 10
240.3441581972924
 20
211.501302030458
 30
0.0
 10
240.1996364416862
 20
211.4806314575465
 30
0.0
 10
240.0399562659449
 20
211.4806314575465
 30
0.0
  0
SPLINE
  5
51
330
3D
100
AcDbEntity
  8
Layer 1
 62
   179
420
  2301728
370
    35
100
AcDbSpline
210
0.0
220
0.0
230
1.0
 70
    11
 71
     3
 72
    62
 73
    58
 74
     0
 42
0.0000000001
 43
0.0000000001
 40
0.0
 40
0.0
 40
0.0
 40
0.0
 40
1.0
 40
1.0
 40
1.0
 40
2.0
 40
2.0
 40
2.0
 40
3.0
 40
3.0
 40
3.0
 40
4.0
 40
4.0
 40
4.0
 40
5.0
 40
5.0
 40
5.0
 40
6.0
 40
6.0
 40
6.0
 40
7.0
 40
7.0
 40
7.0
 40
8.0
 40
8.0
 40
8.0
 40
9.0
 40
9.0
 40
9.0
 40
10.0
 40
10.0
 40
10.0
 40
11.0
 40
11.0
 40
11.0
 40
12.0
 40
12.0
 40
12.0
 40
13.0
 40
13.0
 40
13.0
 40
14.0
 40
14.0
 40
14.0
 40
15.0
 40
15.0
 40
15.0
 40
16.0
 40
16.0
 40
16.0
 40
17.0
 40
17.0
 40
17.0
 40
18.0
 40
18.0
 40
18.0
 40
19.0
 40
19.0
 40
19.0
 40
19.0
 10
239.7397161944054
 20
228.5431558673434
 30
0.0
 10
239.7397161944054
 20
228.5431558673434
 30
0.0
 10
223.7875460595045
 20
228.5431558673434
 30
0.0
 10
223.7875460595045
 20
228.5431558673434
 30
0.0
 10
223.2876627045948
 20
228.5431558673434
 30
0.0
 10
222.8677055649428
 20
228.5831189749723
 30
0.0
 10
222.5278468953229
 20
228.6633896997786
 30
0.0
 10
222.187988225703
 20
228.7424546411651
 30
0.0
 10
221.9178927396594
 20
228.8771578746384
 30
0.0
 10
221.7182494562892
 20
229.0674994001984
 30
0.0
 10
221.5180894085962
 20
229.2580131805327
 30
0.0
 10
221.3735676529899
 20
229.5129502464412
 30
0.0
 10
221.2836506608249
 20
229.8323105979239
 30
0.0
 10
221.1933891591114
 20
230.1525322232779
 30
0.0
 10
221.1484306630289
 20
230.5616373121513
 30
0.0
 10
221.1484306630289
 20
231.0616929218353
 30
0.0
 10
221.1484306630289
 20
231.0616929218353
 30
0.0
 10
221.1484306630289
 20
238.2882974664696
 30
0.0
 10
221.1484306630289
 20
238.2882974664696
 30
0.0
 10
221.1484306630289
 20
238.468992724671
 30
0.0
 10
221.1883937706578
 20
238.6135144802772
 30
0.0
 10
221.2684922406898
 20
238.7228962619339
 30
0.0
 10
221.3480739463991
 20
238.8333115722361
 30
0.0
 10
221.4979356000075
 20
238.8879163356773
 30
0.0
 10
221.7182494562892
 20
238.8879163356773
 30
0.0
 10
221.7182494562892
 20
238.8879163356773
 30
0.0
 10
224.6870604907032
 20
238.8879163356773
 30
0.0
 10
224.6870604907032
 20
238.8879163356773
 30
0.0
 10
225.1264824198469
 20
238.8879163356773
 30
0.0
 10
225.3466240213543
 20
238.6877562879843
 30
0.0
 10
225.3466240213543
 20
238.2882974664696
 30
0.0
 10
225.3466240213543
 20
238.2882974664696
 30
0.0
 10
225.3466240213543
 20
232.5616874961131
 30
0.0
 10
225.3466240213543
 20
232.5616874961131
 30
0.0
 10
225.3466240213543
 20
232.281428978388
 30
0.0
 10
225.3915825174368
 20
232.1065903825116
 30
0.0
 10
225.4814995096019
 20
232.0363104346125
 30
0.0
 10
225.5717610113154
 20
231.9660304867134
 30
0.0
 10
225.7362643207361
 20
231.9317517866351
 30
0.0
 10
225.9765597308323
 20
231.9317517866351
 30
0.0
 10
225.9765597308323
 20
231.9317517866351
 30
0.0
 10
239.7397161944054
 20
231.9317517866351
 30
0.0
 10
239.7397161944054
 20
231.9317517866351
 30
0.0
 10
239.8999131344695
 20
231.9317517866351
 30
0.0
 10
240.0444348900757
 20
231.9016072011392
 30
0.0
 10
240.1748317541924
 20
231.8420070492444
 30
0.0
 10
240.3047118539863
 20
231.7815456234782
 30
0.0
 10
240.3696519038833
 20
231.6418470015514
 30
0.0
 10
240.3696519038833
 20
231.4220499095924
 30
0.0
 10
240.3696519038833
 20
231.4220499095924
 30
0.0
 10
240.3696519038833
 20
229.1124578962809
 30
0.0
 10
240.3696519038833
 20
229.1124578962809
 30
0.0
 10
240.3696519038833
 20
228.8321993785559
 30
0.0
 10
240.3047118539863
 20
228.6682128334579
 30
0.0
 10
240.1748317541924
 20
228.6184312036961
 30
0.0
 10
240.0444348900757
 20
228.5676160452887
 30
0.0
 10
239.8999131344695
 20
228.5431558673434
 30
0.0
 10
239.7397161944054
 20
228.5431558673434
 30
0.0
  0
SPLINE
  5
52
330
3D
100
AcDbEntity
  8
Layer 1
370
     0
100
AcDbSpline
210
0.0
220
0.0
230
1.0
 70
    11
 71
     3
 72
    56
 73
    52
 74
     0
 42
0.0000000001
 43
0.0000000001
 40
0.0
 40
0.0
 40
0.0
 40
0.0
 40
1.0
 40
1.0
 40
1.0
 40
2.0
 40
2.0
 40
2.0
 40
3.0
 40
3.0
 40
3.0
 40
4.0
 40
4.0
 40
4.0
 40
5.0
 40
5.0
 40
5.0
 40
6.0
 40
6.0
 40
6.0
 40
7.0
 40
7.0
 40
7.0
 40
8.0
 40
8.0
 40
8.0
 40
9.0
 40
9.0
 40
9.0
 40
10.0
 40
10.0
 40
10.0
 40
11.0
 40
11.0
 40
11.0
 40
12.0
 40
12.0
 40
12.0
 40
13.0
 40
13.0
 40
13.0
 40
14.0
 40
14.0
 40
14.0
 40
15.0
 40
15.0
 40
15.0
 40
16.0
 40
16.0
 40
16.0
 40
17.0
 40
17.0
 40
17.0
 40
17.0
 10
261.1795789277606
 20
213.9697129456395
 30
0.0
 10
260.9594373262532
 20
213.9697129456395
 30
0.0
 10
260.8094034178706
 20
214.0151882060448
 30
0.0
 10
260.7298217121613
 20
214.1047606886613
 30
0.0
 10
260.6497232421293
 20
214.1953666999234
 30
0.0
 10
260.6097601345003
 20
214.3600422641183
 30
0.0
 10
260.6097601345003
 20
214.6001654194403
 30
0.0
 10
260.6097601345003
 20
214.6001654194403
 30
0.0
 10
260.6097601345003
 20
231.7102321469336
 30
0.0
 10
260.6097601345003
 20
231.7102321469336
 30
0.0
 10
260.6097601345003
 20
231.7102321469336
 30
0.0
 10
258.7807589413812
 20
229.9525444303591
 30
0.0
 10
258.7807589413812
 20
229.9525444303591
 30
0.0
 10
258.4607095708015
 20
229.6524766135938
 30
0.0
 10
258.2109401481209
 20
229.6225042828722
 30
0.0
 10
258.0311061637909
 20
229.8626274381941
 30
0.0
 10
258.0311061637909
 20
229.8626274381941
 30
0.0
 10
256.2618773773408
 20
231.8714626156433
 30
0.0
 10
256.2618773773408
 20
231.8714626156433
 30
0.0
 10
256.1418157996798
 20
232.0113334923444
 30
0.0
 10
256.1066758257303
 20
232.136390458459
 30
0.0
 10
256.1569742198149
 20
232.2462890044384
 30
0.0
 10
256.2065835948025
 20
232.3561875504179
 30
0.0
 10
256.3218220387841
 20
232.4908907838912
 30
0.0
 10
256.5016560231142
 20
232.6510877239553
 30
0.0
 10
256.5016560231142
 20
232.6510877239553
 30
0.0
 10
261.1196342663173
 20
236.9691704051674
 30
0.0
 10
261.1196342663173
 20
236.9691704051674
 30
0.0
 10
261.339259103502
 20
237.1490043894975
 30
0.0
 10
261.5792100040496
 20
237.2389213816625
 30
0.0
 10
261.839314713186
 20
237.2389213816625
 30
0.0
 10
261.839314713186
 20
237.2389213816625
 30
0.0
 10
263.8183498146878
 20
237.2389213816625
 30
0.0
 10
263.8183498146878
 20
237.2389213816625
 30
0.0
 10
264.2577717438314
 20
237.2389213816625
 30
0.0
 10
264.5178764529678
 20
237.1889674971264
 30
0.0
 10
264.5979749229998
 20
237.0890597280541
 30
0.0
 10
264.6775566287091
 20
236.9888074494334
 30
0.0
 10
264.7178642458865
 20
236.6890841422166
 30
0.0
 10
264.7178642458865
 20
236.1895452968554
 30
0.0
 10
264.7178642458865
 20
236.1895452968554
 30
0.0
 10
264.7178642458865
 20
214.5994764003432
 30
0.0
 10
264.7178642458865
 20
214.5994764003432
 30
0.0
 10
264.7178642458865
 20
214.3796793083843
 30
0.0
 10
264.6775566287091
 20
214.2201713874172
 30
0.0
 10
264.5979749229998
 20
214.1199191087964
 30
0.0
 10
264.5178764529678
 20
214.0200113397242
 30
0.0
 10
264.3680147993594
 20
213.9697129456395
 30
0.0
 10
264.1482177074005
 20
213.9697129456395
 30
0.0
 10
264.1482177074005
 20
213.9697129456395
 30
0.0
 10
261.1795789277606
 20
213.9697129456395
 30
0.0
 10
261.1795789277606
 20
213.9697129456395
 30
0.0
  0
SPLINE
  5
53
330
3D
100
AcDbEntity
  8
Layer 1
 62
   179
420
  2301728
370
    35
100
AcDbSpline
210
0.0
220
0.0
230
1.0
 70
    11
 71
     3
 72
    56
 73
    52
 74
     0
 42
0.0000000001
 43
0.0000000001
 40
0.0
 40
0.0
 40
0.0
 40
0.0
 40
1.0
 40
1.0
 40
1.0
 40
2.0
 40
2.0
 40
2.0
 40
3.0
 40
3.0
 40
3.0
 40
4.0
 40
4.0
 40
4.0
 40
5.0
 40
5.0
 40
5.0
 40
6.0
 40
6.0
 40
6.0
 40
7.0
 40
7.0
 40
7.0
 40
8.0
 40
8.0
 40
8.0
 40
9.0
 40
9.0
 40
9.0
 40
10.0
 40
10.0
 40
10.0
 40
11.0
 40
11.0
 40
11.0
 40
12.0
 40
12.0
 40
12.0
 40
13.0
 40
13.0
 40
13.0
 40
14.0
 40
14.0
 40
14.0
 40
15.0
 40
15.0
 40
15.0
 40
16.0
 40
16.0
 40
16.0
 40
17.0
 40
17.0
 40
17.0
 40
17.0
 10
261.1795789277606
 20
213.9700574551881
 30
0.0
 10
260.9594373262532
 20
213.9700574551881
 30
0.0
 10
260.8095756726448
 20
214.0148436964963
 30
0.0
 10
260.7299939669356
 20
214.1047606886613
 30
0.0
 10
260.6498954969035
 20
214.1953666999234
 30
0.0
 10
260.6097601345003
 20
214.3607312832154
 30
0.0
 10
260.6097601345003
 20
214.5998209098917
 30
0.0
 10
260.6097601345003
 20
214.5998209098917
 30
0.0
 10
260.6097601345003
 20
231.7102321469336
 30
0.0
 10
260.6097601345003
 20
231.7102321469336
 30
0.0
 10
260.6097601345003
 20
231.7102321469336
 30
0.0
 10
258.7807589413812
 20
229.9523721755848
 30
0.0
 10
258.7807589413812
 20
229.9523721755848
 30
0.0
 10
258.4608818255758
 20
229.6524766135938
 30
0.0
 10
258.2109401481209
 20
229.6223320280979
 30
0.0
 10
258.0312784185651
 20
229.8624551834198
 30
0.0
 10
258.0312784185651
 20
229.8624551834198
 30
0.0
 10
256.2617051225665
 20
231.871290360869
 30
0.0
 10
256.2617051225665
 20
231.871290360869
 30
0.0
 10
256.1416435449055
 20
232.0109889827959
 30
0.0
 10
256.1068480805046
 20
232.1360459489104
 30
0.0
 10
256.1571464745892
 20
232.2462890044384
 30
0.0
 10
256.2065835948025
 20
232.3556707860951
 30
0.0
 10
256.3218220387841
 20
232.491407548214
 30
0.0
 10
256.5014837683399
 20
232.6516044882781
 30
0.0
 10
256.5014837683399
 20
232.6516044882781
 30
0.0
 10
261.1196342663173
 20
236.9689981503932
 30
0.0
 10
261.1196342663173
 20
236.9689981503932
 30
0.0
 10
261.339259103502
 20
237.148659879949
 30
0.0
 10
261.5790377492754
 20
237.2394381459853
 30
0.0
 10
261.839314713186
 20
237.2394381459853
 30
0.0
 10
261.839314713186
 20
237.2394381459853
 30
0.0
 10
263.8183498146878
 20
237.2394381459853
 30
0.0
 10
263.8183498146878
 20
237.2394381459853
 30
0.0
 10
264.2577717438314
 20
237.2394381459853
 30
0.0
 10
264.518048707742
 20
237.1886229875778
 30
0.0
 10
264.5981471777741
 20
237.0890597280541
 30
0.0
 10
264.6777288834834
 20
236.9884629398848
 30
0.0
 10
264.7176919911122
 20
236.6887396326681
 30
0.0
 10
264.7176919911122
 20
236.1897175516297
 30
0.0
 10
264.7176919911122
 20
236.1897175516297
 30
0.0
 10
264.7176919911122
 20
214.5998209098917
 30
0.0
 10
264.7176919911122
 20
214.5998209098917
 30
0.0
 10
264.7176919911122
 20
214.3800238179328
 30
0.0
 10
264.6777288834834
 20
214.2198268778687
 30
0.0
 10
264.5981471777741
 20
214.1192300896994
 30
0.0
 10
264.518048707742
 20
214.0196668301757
 30
0.0
 10
264.3681870541337
 20
213.9700574551881
 30
0.0
 10
264.1483899621747
 20
213.9700574551881
 30
0.0
 10
264.1483899621747
 20
213.9700574551881
 30
0.0
 10
261.1795789277606
 20
213.9700574551881
 30
0.0
 10
261.1795789277606
 20
213.9700574551881
 30
0.0
  0
SPLINE
  5
54
330
3D
100
AcDbEntity
  8
Layer 1
370
     0
100
AcDbSpline
210
0.0
220
0.0
230
1.0
 70
    11
 71
     3
 72
    98
 73
    94
 74
     0
 42
0.0000000001
 43
0.0000000001
 40
0.0
 40
0.0
 40
0.0
 40
0.0
 40
1.0
 40
1.0
 40
1.0
 40
2.0
 40
2.0
 40
2.0
 40
3.0
 40
3.0
 40
3.0
 40
4.0
 40
4.0
 40
4.0
 40
5.0
 40
5.0
 40
5.0
 40
6.0
 40
6.0
 40
6.0
 40
7.0
 40
7.0
 40
7.0
 40
8.0
 40
8.0
 40
8.0
 40
9.0
 40
9.0
 40
9.0
 40
10.0
 40
10.0
 40
10.0
 40
11.0
 40
11.0
 40
11.0
 40
12.0
 40
12.0
 40
12.0
 40
13.0
 40
13.0
 40
13.0
 40
14.0
 40
14.0
 40
14.0
 40
15.0
 40
15.0
 40
15.0
 40
16.0
 40
16.0
 40
16.0
 40
17.0
 40
17.0
 40
17.0
 40
18.0
 40
18.0
 40
18.0
 40
19.0
 40
19.0
 40
19.0
 40
20.0
 40
20.0
 40
20.0
 40
21.0
 40
21.0
 40
21.0
 40
22.0
 40
22.0
 40
22.0
 40
23.0
 40
23.0
 40
23.0
 40
24.0
 40
24.0
 40
24.0
 40
25.0
 40
25.0
 40
25.0
 40
26.0
 40
26.0
 40
26.0
 40
27.0
 40
27.0
 40
27.0
 40
28.0
 40
28.0
 40
28.0
 40
29.0
 40
29.0
 40
29.0
 40
30.0
 40
30.0
 40
30.0
 40
31.0
 40
31.0
 40
31.0
 40
31.0
 10
280.3403387428489
 20
237.4490722062627
 30
0.0
 10
282.7991033906717
 20
237.4490722062627
 30
0.0
 10
284.6582491692868
 20
236.5192409347938
 30
0.0
 10
285.9176038239199
 20
234.660267410953
 30
0.0
 10
287.1771307333273
 20
232.8012938871122
 30
0.0
 10
287.8067219332567
 20
230.0221353591612
 30
0.0
 10
287.8067219332567
 20
226.324169865294
 30
0.0
 10
287.8067219332567
 20
224.6450303257832
 30
0.0
 10
287.6367064710596
 20
223.0406493583023
 30
0.0
 10
287.297020056214
 20
221.5113714724
 30
0.0
 10
286.9568168770455
 20
219.9820935864975
 30
0.0
 10
286.3975056250152
 20
218.6426404618324
 30
0.0
 10
285.6178805167032
 20
217.493356607953
 30
0.0
 10
284.8382554083911
 20
216.3433837349767
 30
0.0
 10
283.8036932341706
 20
215.4293999027399
 30
0.0
 10
282.5141939940416
 20
214.7493380539516
 30
0.0
 10
281.2248670086868
 20
214.0699652242603
 30
0.0
 10
279.6402953402462
 20
213.7299342998661
 30
0.0
 10
277.7615125173652
 20
213.7299342998661
 30
0.0
 10
277.4812539996401
 20
213.7299342998661
 30
0.0
 10
277.1663722722883
 20
213.7402695863219
 30
0.0
 10
276.8168673353097
 20
213.7599066305878
 30
0.0
 10
276.4668456340083
 20
213.7802326939508
 30
0.0
 10
276.1219915759348
 20
213.8153726679003
 30
0.0
 10
275.7823051610891
 20
213.8649820428879
 30
0.0
 10
275.442274236695
 20
213.914935927424
 30
0.0
 10
275.1124063439823
 20
213.9697129456395
 30
0.0
 10
274.7928737377254
 20
214.0296576070829
 30
0.0
 10
274.4728243671457
 20
214.0899467780747
 30
0.0
 10
274.1930826137434
 20
214.1602267259738
 30
0.0
 10
273.95330396797
 20
214.2398084316831
 30
0.0
 10
273.753143920277
 20
214.3197346469409
 30
0.0
 10
273.6384222406182
 20
214.4096516391059
 30
0.0
 10
273.6084499098965
 20
214.5095594081782
 30
0.0
 10
273.5784775791748
 20
214.6098116867989
 30
0.0
 10
273.5633191590397
 20
214.7396917865929
 30
0.0
 10
273.5633191590397
 20
214.8995442171085
 30
0.0
 10
273.5633191590397
 20
214.8995442171085
 30
0.0
 10
273.6833807367007
 20
217.747949164313
 30
0.0
 10
273.6833807367007
 20
217.747949164313
 30
0.0
 10
273.7030177809666
 20
217.967746256272
 30
0.0
 10
273.7681300856378
 20
218.0876355791586
 30
0.0
 10
273.8782008863916
 20
218.1079616425216
 30
0.0
 10
273.9879271775968
 20
218.1275986867876
 30
0.0
 10
274.1827473272876
 20
218.0976263560659
 30
0.0
 10
274.4630058450127
 20
218.0180446503566
 30
0.0
 10
274.8026922598584
 20
217.9177923717358
 30
0.0
 10
275.1077554650772
 20
217.8382106660266
 30
0.0
 10
275.3775064415723
 20
217.7779214950347
 30
0.0
 10
275.6474296728416
 20
217.7179768335913
 30
0.0
 10
275.9070176176552
 20
217.6680229490552
 30
0.0
 10
276.1571315498844
 20
217.6280598414263
 30
0.0
 10
276.4069009725649
 20
217.5877522242489
 30
0.0
 10
276.6670056817013
 20
217.5629475367551
 30
0.0
 10
276.9367566581964
 20
217.5533012693964
 30
0.0
 10
277.2066798894657
 20
217.5429659829406
 30
0.0
 10
277.5215616168176
 20
217.5381428492613
 30
0.0
 10
277.8814018402519
 20
217.5381428492613
 30
0.0
 10
279.5605413797626
 20
217.5381428492613
 30
0.0
 10
280.8650267852525
 20
218.0728216685721
 30
0.0
 10
281.7945135471729
 20
219.1425238167422
 30
0.0
 10
282.7241725638676
 20
220.2115369458152
 30
0.0
 10
283.2788329369928
 20
221.636083928966
 30
0.0
 10
283.4588391760971
 20
223.4154757470975
 30
0.0
 10
283.0390542912194
 20
222.9155923921878
 30
0.0
 10
282.4738863768642
 20
222.5159613158988
 30
0.0
 10
281.7645412164512
 20
222.2158934991335
 30
0.0
 10
281.0548515464898
 20
221.9161701919168
 30
0.0
 10
280.3899481178366
 20
221.7663085383084
 30
0.0
 10
279.7705199495886
 20
221.7663085383084
 30
0.0
 10
278.8108886021723
 20
221.7663085383084
 30
0.0
 10
277.9010388845178
 20
221.9409748794106
 30
0.0
 10
277.0418320704965
 20
222.290996580712
 30
0.0
 10
276.1821084921524
 20
222.6406737724649
 30
0.0
 10
275.4374511030156
 20
223.1457247706025
 30
0.0
 10
274.8078599030862
 20
223.8054605560278
 30
0.0
 10
274.1780964483826
 20
224.4648518319046
 30
0.0
 10
273.6782130934728
 20
225.2644584940311
 30
0.0
 10
273.3085543479055
 20
226.2042805424073
 30
0.0
 10
272.9383788380154
 20
227.1437580812349
 30
0.0
 10
272.753721720006
 20
228.193134166042
 30
0.0
 10
272.753721720006
 20
229.3527533063771
 30
0.0
 10
272.753721720006
 20
230.4920463833492
 30
0.0
 10
272.9285603158825
 20
231.5565808882914
 30
0.0
 10
273.2785820171839
 20
232.5463568212037
 30
0.0
 10
273.6280869541624
 20
233.5357882445674
 30
0.0
 10
274.1331379523
 20
234.3905164344579
 30
0.0
 10
274.7928737377254
 20
235.1101968813266
 30
0.0
 10
275.4526095231507
 20
235.8298773281953
 30
0.0
 10
276.2472207968236
 20
236.3993516119071
 30
0.0
 10
277.1767075587441
 20
236.8193087515591
 30
0.0
 10
278.1063665754387
 20
237.2389213816625
 30
0.0
 10
279.1605657939252
 20
237.4490722062627
 30
0.0
 10
280.3403387428489
 20
237.4490722062627
 30
0.0
  0
SPLINE
  5
55
330
3D
100
AcDbEntity
  8
Layer 1
370
     0
100
AcDbSpline
210
0.0
220
0.0
230
1.0
 70
    11
 71
     3
 72
    35
 73
    31
 74
     0
 42
0.0000000001
 43
0.0000000001
 40
0.0
 40
0.0
 40
0.0
 40
0.0
 40
1.0
 40
1.0
 40
1.0
 40
2.0
 40
2.0
 40
2.0
 40
3.0
 40
3.0
 40
3.0
 40
4.0
 40
4.0
 40
4.0
 40
5.0
 40
5.0
 40
5.0
 40
6.0
 40
6.0
 40
6.0
 40
7.0
 40
7.0
 40
7.0
 40
8.0
 40
8.0
 40
8.0
 40
9.0
 40
9.0
 40
9.0
 40
10.0
 40
10.0
 40
10.0
 40
10.0
 10
280.0104708501363
 20
225.4846000955386
 30
0.0
 10
281.1499361818827
 20
225.4846000955386
 30
0.0
 10
282.0391153266257
 20
225.8242865103842
 30
0.0
 10
282.6792140677851
 20
226.504003849624
 30
0.0
 10
283.3187960446217
 20
227.1833766793153
 30
0.0
 10
283.6386731604272
 20
228.1128634412357
 30
0.0
 10
283.6386731604272
 20
229.2928086449338
 30
0.0
 10
283.6386731604272
 20
229.9122368131817
 30
0.0
 10
283.5487561682621
 20
230.4968695170286
 30
0.0
 10
283.3689221839321
 20
231.047051266023
 30
0.0
 10
283.1889159448278
 20
231.5965439959203
 30
0.0
 10
282.9491372990544
 20
232.0664550201084
 30
0.0
 10
282.6492417370634
 20
232.4564398290387
 30
0.0
 10
282.3493461750724
 20
232.8460801284204
 30
0.0
 10
281.9941568305431
 20
233.1557942125444
 30
0.0
 10
281.5847072321212
 20
233.3859265909591
 30
0.0
 10
281.1747408693765
 20
233.6153699502767
 30
0.0
 10
280.7399698191379
 20
233.7307806490326
 30
0.0
 10
280.2802218266314
 20
233.7307806490326
 30
0.0
 10
279.2608180725459
 20
233.7307806490326
 30
0.0
 10
278.4160806595627
 20
233.3604328843682
 30
0.0
 10
277.7465263520044
 20
232.6211153932336
 30
0.0
 10
277.0764552801232
 20
231.8814533925505
 30
0.0
 10
276.7419365085055
 20
230.8417235751021
 30
0.0
 10
276.7419365085055
 20
229.5026149599855
 30
0.0
 10
276.7419365085055
 20
228.2231064967637
 30
0.0
 10
277.0314967840408
 20
227.2336750733999
 30
0.0
 10
277.6114786089826
 20
226.5339761803457
 30
0.0
 10
278.1911159243758
 20
225.8339327777429
 30
0.0
 10
278.9908948412766
 20
225.4846000955386
 30
0.0
 10
280.0104708501363
 20
225.4846000955386
 30
0.0
  0
SPLINE
  5
56
330
3D
100
AcDbEntity
  8
Layer 1
 62
   179
420
  2301728
370
    35
100
AcDbSpline
210
0.0
220
0.0
230
1.0
 70
    11
 71
     3
 72
    98
 73
    94
 74
     0
 42
0.0000000001
 43
0.0000000001
 40
0.0
 40
0.0
 40
0.0
 40
0.0
 40
1.0
 40
1.0
 40
1.0
 40
2.0
 40
2.0
 40
2.0
 40
3.0
 40
3.0
 40
3.0
 40
4.0
 40
4.0
 40
4.0
 40
5.0
 40
5.0
 40
5.0
 40
6.0
 40
6.0
 40
6.0
 40
7.0
 40
7.0
 40
7.0
 40
8.0
 40
8.0
 40
8.0
 40
9.0
 40
9.0
 40
9.0
 40
10.0
 40
10.0
 40
10.0
 40
11.0
 40
11.0
 40
11.0
 40
12.0
 40
12.0
 40
12.0
 40
13.0
 40
13.0
 40
13.0
 40
14.0
 40
14.0
 40
14.0
 40
15.0
 40
15.0
 40
15.0
 40
16.0
 40
16.0
 40
16.0
 40
17.0
 40
17.0
 40
17.0
 40
18.0
 40
18.0
 40
18.0
 40
19.0
 40
19.0
 40
19.0
 40
20.0
 40
20.0
 40
20.0
 40
21.0
 40
21.0
 40
21.0
 40
22.0
 40
22.0
 40
22.0
 40
23.0
 40
23.0
 40
23.0
 40
24.0
 40
24.0
 40
24.0
 40
25.0
 40
25.0
 40
25.0
 40
26.0
 40
26.0
 40
26.0
 40
27.0
 40
27.0
 40
27.0
 40
28.0
 40
28.0
 40
28.0
 40
29.0
 40
29.0
 40
29.0
 40
30.0
 40
30.0
 40
30.0
 40
31.0
 40
31.0
 40
31.0
 40
31.0
 10
280.3403387428489
 20
237.4494167158113
 30
0.0
 10
282.799275645446
 20
237.4494167158113
 30
0.0
 10
284.6582491692868
 20
236.5197576991166
 30
0.0
 10
285.9174315691457
 20
234.660267410953
 30
0.0
 10
287.1773029881015
 20
232.8009493775637
 30
0.0
 10
287.8065496784824
 20
230.0226521234839
 30
0.0
 10
287.8065496784824
 20
226.3245143748425
 30
0.0
 10
287.8065496784824
 20
224.6446858162347
 30
0.0
 10
287.6367064710596
 20
223.0403048487538
 30
0.0
 10
287.2968478014397
 20
221.5110269628514
 30
0.0
 10
286.9569891318198
 20
219.981749076949
 30
0.0
 10
286.3975056250152
 20
218.6426404618324
 30
0.0
 10
285.6177082619289
 20
217.493356607953
 30
0.0
 10
284.8384276631654
 20
216.3430392254281
 30
0.0
 10
283.8036932341706
 20
215.4290553931914
 30
0.0
 10
282.5141939940416
 20
214.7493380539516
 30
0.0
 10
281.2250392634611
 20
214.0706542433574
 30
0.0
 10
279.6401230854719
 20
213.7295897903176
 30
0.0
 10
277.7616847721395
 20
213.7295897903176
 30
0.0
 10
277.4814262544144
 20
213.7295897903176
 30
0.0
 10
277.1665445270626
 20
213.7406140958704
 30
0.0
 10
276.8168673353097
 20
213.7599066305878
 30
0.0
 10
276.4668456340083
 20
213.7805772034993
 30
0.0
 10
276.1219915759348
 20
213.8157171774488
 30
0.0
 10
275.7821329063149
 20
213.8646375333394
 30
0.0
 10
275.442274236695
 20
213.9152804369726
 30
0.0
 10
275.1122340892081
 20
213.9700574551881
 30
0.0
 10
274.7928737377254
 20
214.0296576070829
 30
0.0
 10
274.4726521123714
 20
214.0899467780747
 30
0.0
 10
274.1934271232919
 20
214.1602267259738
 30
0.0
 10
273.9531317131958
 20
214.2394639221346
 30
0.0
 10
273.7529716655027
 20
214.3193901373924
 30
0.0
 10
273.6385944953925
 20
214.4093071295574
 30
0.0
 10
273.6084499098965
 20
214.5099039177267
 30
0.0
 10
273.5786498339491
 20
214.6094671772504
 30
0.0
 10
273.563491413814
 20
214.7393472770443
 30
0.0
 10
273.563491413814
 20
214.8995442171085
 30
0.0
 10
273.563491413814
 20
214.8995442171085
 30
0.0
 10
273.683552991475
 20
217.7482936738616
 30
0.0
 10
273.683552991475
 20
217.7482936738616
 30
0.0
 10
273.7031900357409
 20
217.9680907658205
 30
0.0
 10
273.7679578308636
 20
218.0879800887072
 30
0.0
 10
273.8783731411658
 20
218.1076171329731
 30
0.0
 10
273.9877549228225
 20
218.1282877058846
 30
0.0
 10
274.1825750725134
 20
218.0979708656144
 30
0.0
 10
274.4628335902385
 20
218.0177001408081
 30
0.0
 10
274.8026922598584
 20
217.9181368812844
 30
0.0
 10
275.1079277198515
 20
217.8382106660266
 30
0.0
 10
275.3775064415723
 20
217.7775769854862
 30
0.0
 10
275.6474296728416
 20
217.7179768335913
 30
0.0
 10
275.9071898724295
 20
217.6680229490552
 30
0.0
 10
276.1571315498844
 20
217.6280598414263
 30
0.0
 10
276.4067287177907
 20
217.5880967337974
 30
0.0
 10
276.6670056817013
 20
217.5626030272066
 30
0.0
 10
276.9369289129706
 20
217.5529567598479
 30
0.0
 10
277.2065076346914
 20
217.5433104924892
 30
0.0
 10
277.5213893620433
 20
217.5381428492613
 30
0.0
 10
277.8814018402519
 20
217.5381428492613
 30
0.0
 10
279.5605413797626
 20
217.5381428492613
 30
0.0
 10
280.8651990400268
 20
218.0724771590235
 30
0.0
 10
281.7943412923987
 20
219.1428683262907
 30
0.0
 10
282.7241725638676
 20
220.2111924362667
 30
0.0
 10
283.2788329369928
 20
221.636083928966
 30
0.0
 10
283.4590114308714
 20
223.415131237549
 30
0.0
 10
283.0390542912194
 20
222.9152478826392
 30
0.0
 10
282.4740586316385
 20
222.5159613158988
 30
0.0
 10
281.7647134712255
 20
222.2158934991335
 30
0.0
 10
281.0546792917155
 20
221.9161701919168
 30
0.0
 10
280.3901203726108
 20
221.7659640287599
 30
0.0
 10
279.7705199495886
 20
221.7659640287599
 30
0.0
 10
278.8110608569465
 20
221.7659640287599
 30
0.0
 10
277.9008666297435
 20
221.9406303698621
 30
0.0
 10
277.0420043252707
 20
222.2913410902605
 30
0.0
 10
276.1821084921524
 20
222.6406737724649
 30
0.0
 10
275.4374511030156
 20
223.1457247706025
 30
0.0
 10
274.8080321578605
 20
223.8047715369308
 30
0.0
 10
274.1782687031568
 20
224.4651963414532
 30
0.0
 10
273.6782130934728
 20
225.2639417297083
 30
0.0
 10
273.3085543479055
 20
226.2042805424073
 30
0.0
 10
272.9383788380154
 20
227.1437580812349
 30
0.0
 10
272.7538939747803
 20
228.1926174017192
 30
0.0
 10
272.7538939747803
 20
229.3527533063771
 30
0.0
 10
272.7538939747803
 20
230.4923908928978
 30
0.0
 10
272.9287325706567
 20
231.5569253978399
 30
0.0
 10
273.2787542719581
 20
232.5460123116552
 30
0.0
 10
273.6279146993882
 20
233.5354437350189
 30
0.0
 10
274.1333102070743
 20
234.3908609440064
 30
0.0
 10
274.7928737377254
 20
235.1105413908751
 30
0.0
 10
275.4526095231507
 20
235.8293605638725
 30
0.0
 10
276.2470485420494
 20
236.3996961214556
 30
0.0
 10
277.1767075587441
 20
236.8194810063333
 30
0.0
 10
278.1063665754387
 20
237.2394381459853
 30
0.0
 10
279.1605657939252
 20
237.4494167158113
 30
0.0
 10
280.3403387428489
 20
237.4494167158113
 30
0.0
  0
SPLINE
  5
57
330
3D
100
AcDbEntity
  8
Layer 1
 62
   179
420
  2301728
370
    35
100
AcDbSpline
210
0.0
220
0.0
230
1.0
 70
    11
 71
     3
 72
    35
 73
    31
 74
     0
 42
0.0000000001
 43
0.0000000001
 40
0.0
 40
0.0
 40
0.0
 40
0.0
 40
1.0
 40
1.0
 40
1.0
 40
2.0
 40
2.0
 40
2.0
 40
3.0
 40
3.0
 40
3.0
 40
4.0
 40
4.0
 40
4.0
 40
5.0
 40
5.0
 40
5.0
 40
6.0
 40
6.0
 40
6.0
 40
7.0
 40
7.0
 40
7.0
 40
8.0
 40
8.0
 40
8.0
 40
9.0
 40
9.0
 40
9.0
 40
10.0
 40
10.0
 40
10.0
 40
10.0
 10
280.0108153596848
 20
225.4846000955386
 30
0.0
 10
281.1499361818827
 20
225.4846000955386
 30
0.0
 10
282.0391153266257
 20
225.8244587651585
 30
0.0
 10
282.6792140677851
 20
226.5041761043983
 30
0.0
 10
283.3187960446217
 20
227.1837211888638
 30
0.0
 10
283.6386731604272
 20
228.1125189316872
 30
0.0
 10
283.6386731604272
 20
229.2931531544823
 30
0.0
 10
283.6386731604272
 20
229.9122368131817
 30
0.0
 10
283.5487561682621
 20
230.4972140265771
 30
0.0
 10
283.3690944387063
 20
231.047051266023
 30
0.0
 10
283.1889159448278
 20
231.5968885054689
 30
0.0
 10
282.9491372990544
 20
232.0666272748826
 30
0.0
 10
282.6494139918377
 20
232.4562675742644
 30
0.0
 10
282.3495184298467
 20
232.8459078736462
 30
0.0
 10
281.9941568305431
 20
233.1554497029959
 30
0.0
 10
281.5848794868954
 20
233.3859265909591
 30
0.0
 10
281.1747408693765
 20
233.6153699502767
 30
0.0
 10
280.7401420739122
 20
233.7307806490326
 30
0.0
 10
280.2802218266314
 20
233.7307806490326
 30
0.0
 10
279.2606458177717
 20
233.7307806490326
 30
0.0
 10
278.4160806595627
 20
233.3606051391425
 30
0.0
 10
277.7465263520044
 20
232.6212876480079
 30
0.0
 10
277.0766275348975
 20
231.881108883002
 30
0.0
 10
276.7421087632798
 20
230.8420680846506
 30
0.0
 10
276.7421087632798
 20
229.5031317243082
 30
0.0
 10
276.7421087632798
 20
228.2229342419894
 30
0.0
 10
277.031669038815
 20
227.2336750733999
 30
0.0
 10
277.6113063542083
 20
226.5343206898942
 30
0.0
 10
278.1909436696016
 20
225.8342772872914
 30
0.0
 10
278.9907225865023
 20
225.4846000955386
 30
0.0
 10
280.0108153596848
 20
225.4846000955386
 30
0.0
  0
SPLINE
  5
58
330
3D
100
AcDbEntity
  8
Layer 1
370
     0
100
AcDbSpline
210
0.0
220
0.0
230
1.0
 70
    11
 71
     3
 72
   107
 73
   103
 74
     0
 42
0.0000000001
 43
0.0000000001
 40
0.0
 40
0.0
 40
0.0
 40
0.0
 40
1.0
 40
1.0
 40
1.0
 40
2.0
 40
2.0
 40
2.0
 40
3.0
 40
3.0
 40
3.0
 40
4.0
 40
4.0
 40
4.0
 40
5.0
 40
5.0
 40
5.0
 40
6.0
 40
6.0
 40
6.0
 40
7.0
 40
7.0
 40
7.0
 40
8.0
 40
8.0
 40
8.0
 40
9.0
 40
9.0
 40
9.0
 40
10.0
 40
10.0
 40
10.0
 40
11.0
 40
11.0
 40
11.0
 40
12.0
 40
12.0
 40
12.0
 40
13.0
 40
13.0
 40
13.0
 40
14.0
 40
14.0
 40
14.0
 40
15.0
 40
15.0
 40
15.0
 40
16.0
 40
16.0
 40
16.0
 40
17.0
 40
17.0
 40
17.0
 40
18.0
 40
18.0
 40
18.0
 40
19.0
 40
19.0
 40
19.0
 40
20.0
 40
20.0
 40
20.0
 40
21.0
 40
21.0
 40
21.0
 40
22.0
 40
22.0
 40
22.0
 40
23.0
 40
23.0
 40
23.0
 40
24.0
 40
24.0
 40
24.0
 40
25.0
 40
25.0
 40
25.0
 40
26.0
 40
26.0
 40
26.0
 40
27.0
 40
27.0
 40
27.0
 40
28.0
 40
28.0
 40
28.0
 40
29.0
 40
29.0
 40
29.0
 40
30.0
 40
30.0
 40
30.0
 40
31.0
 40
31.0
 40
31.0
 40
32.0
 40
32.0
 40
32.0
 40
33.0
 40
33.0
 40
33.0
 40
34.0
 40
34.0
 40
34.0
 40
34.0
 10
316.2032659799769
 20
222.9355739460022
 30
0.0
 10
316.2032659799769
 20
222.9355739460022
 30
0.0
 10
290.4752928961312
 20
222.9355739460022
 30
0.0
 10
290.4752928961312
 20
222.9355739460022
 30
0.0
 10
290.1952066331804
 20
222.9355739460022
 30
0.0
 10
290.0255356805318
 20
222.980704696859
 30
0.0
 10
289.9655910190885
 20
223.070621689024
 30
0.0
 10
289.9056463576451
 20
223.1605386811891
 30
0.0
 10
289.8756740269234
 20
223.3255587549325
 30
0.0
 10
289.8756740269234
 20
223.5653374007059
 30
0.0
 10
289.8756740269234
 20
223.5653374007059
 30
0.0
 10
289.8756740269234
 20
225.724378741312
 30
0.0
 10
289.8756740269234
 20
225.724378741312
 30
0.0
 10
289.8756740269234
 20
225.9441758332709
 30
0.0
 10
289.9154648797781
 20
226.0992051301072
 30
0.0
 10
289.9955633498101
 20
226.1891221222722
 30
0.0
 10
290.0751450555194
 20
226.2790391144372
 30
0.0
 10
290.2353419955836
 20
226.324169865294
 30
0.0
 10
290.4752928961312
 20
226.324169865294
 30
0.0
 10
290.4752928961312
 20
226.324169865294
 30
0.0
 10
301.270155089613
 20
226.324169865294
 30
0.0
 10
301.270155089613
 20
226.324169865294
 30
0.0
 10
301.270155089613
 20
226.324169865294
 30
0.0
 10
301.270155089613
 20
228.8129068438384
 30
0.0
 10
301.270155089613
 20
228.8129068438384
 30
0.0
 10
301.270155089613
 20
228.8129068438384
 30
0.0
 10
296.4425427861324
 20
228.8129068438384
 30
0.0
 10
296.4425427861324
 20
228.8129068438384
 30
0.0
 10
295.5626653991996
 20
228.8129068438384
 30
0.0
 10
294.9380695877238
 20
229.0178900252108
 30
0.0
 10
294.5684108421565
 20
229.4278563879556
 30
0.0
 10
294.1982353322664
 20
229.8371337316032
 30
0.0
 10
294.0137504690313
 20
230.4321017219059
 30
0.0
 10
294.0137504690313
 20
231.2117268302179
 30
0.0
 10
294.0137504690313
 20
231.2117268302179
 30
0.0
 10
294.0137504690313
 20
237.0291150666108
 30
0.0
 10
294.0137504690313
 20
237.0291150666108
 30
0.0
 10
294.0137504690313
 20
237.8883218806321
 30
0.0
 10
294.1884168101334
 20
238.4536620497616
 30
0.0
 10
294.5384385114348
 20
238.7234130262567
 30
0.0
 10
294.8879434484135
 20
238.9931640027517
 30
0.0
 10
295.4829114387161
 20
239.1282117457735
 30
0.0
 10
296.3226534632457
 20
239.1282117457735
 30
0.0
 10
296.3226534632457
 20
239.1282117457735
 30
0.0
 10
312.1552787848084
 20
239.1282117457735
 30
0.0
 10
312.1552787848084
 20
239.1282117457735
 30
0.0
 10
312.5349283072829
 20
239.1282117457735
 30
0.0
 10
312.7250975780688
 20
238.9380424749877
 30
0.0
 10
312.7250975780688
 20
238.5583929525132
 30
0.0
 10
312.7250975780688
 20
238.5583929525132
 30
0.0
 10
312.7250975780688
 20
236.3394069504638
 30
0.0
 10
312.7250975780688
 20
236.3394069504638
 30
0.0
 10
312.7250975780688
 20
236.1192653489563
 30
0.0
 10
312.6847899608913
 20
235.9694036953479
 30
0.0
 10
312.605208255182
 20
235.8898219896387
 30
0.0
 10
312.5249375303757
 20
235.8095512648324
 30
0.0
 10
312.3750758767674
 20
235.7695881572035
 30
0.0
 10
312.1552787848084
 20
235.7695881572035
 30
0.0
 10
312.1552787848084
 20
235.7695881572035
 30
0.0
 10
298.6915011189035
 20
235.7695881572035
 30
0.0
 10
298.6915011189035
 20
235.7695881572035
 30
0.0
 10
298.3714517483238
 20
235.7695881572035
 30
0.0
 10
298.2117715725825
 20
235.6093912171393
 30
0.0
 10
298.2117715725825
 20
235.2900308656567
 30
0.0
 10
298.2117715725825
 20
235.2900308656567
 30
0.0
 10
298.2117715725825
 20
232.6211153932336
 30
0.0
 10
298.2117715725825
 20
232.6211153932336
 30
0.0
 10
298.2117715725825
 20
232.3010660226539
 30
0.0
 10
298.3714517483238
 20
232.1415581016869
 30
0.0
 10
298.6915011189035
 20
232.1415581016869
 30
0.0
 10
298.6915011189035
 20
232.1415581016869
 30
0.0
 10
312.3051404384168
 20
232.1415581016869
 30
0.0
 10
312.3051404384168
 20
232.1415581016869
 30
0.0
 10
312.7447346223346
 20
232.1415581016869
 30
0.0
 10
312.9648762238421
 20
231.9713703847155
 30
0.0
 10
312.9648762238421
 20
231.6316839698699
 30
0.0
 10
312.9648762238421
 20
231.6316839698699
 30
0.0
 10
312.9648762238421
 20
229.4426702985421
 30
0.0
 10
312.9648762238421
 20
229.4426702985421
 30
0.0
 10
312.9648762238421
 20
229.0227131588902
 30
0.0
 10
312.7447346223346
 20
228.8129068438384
 30
0.0
 10
312.3051404384168
 20
228.8129068438384
 30
0.0
 10
312.3051404384168
 20
228.8129068438384
 30
0.0
 10
305.4383761172168
 20
228.8129068438384
 30
0.0
 10
305.4383761172168
 20
228.8129068438384
 30
0.0
 10
305.4383761172168
 20
228.8129068438384
 30
0.0
 10
305.4383761172168
 20
226.324169865294
 30
0.0
 10
305.4383761172168
 20
226.324169865294
 30
0.0
 10
305.4383761172168
 20
226.324169865294
 30
0.0
 10
316.2032659799769
 20
226.324169865294
 30
0.0
 10
316.2032659799769
 20
226.324169865294
 30
0.0
 10
316.383099964307
 20
226.324169865294
 30
0.0
 10
316.5333061274639
 20
226.2838622481165
 30
0.0
 10
316.6531954503506
 20
226.2042805424073
 30
0.0
 10
316.7730847732373
 20
226.1240098176009
 30
0.0
 10
316.8330294346807
 20
225.9641573870854
 30
0.0
 10
316.8330294346807
 20
225.724378741312
 30
0.0
 10
316.8330294346807
 20
225.724378741312
 30
0.0
 10
316.8330294346807
 20
223.5653374007059
 30
0.0
 10
316.8330294346807
 20
223.5653374007059
 30
0.0
 10
316.8330294346807
 20
223.1457247706025
 30
0.0
 10
316.6232231196289
 20
222.9355739460022
 30
0.0
 10
316.2032659799769
 20
222.9355739460022
 30
0.0
  0
SPLINE
  5
59
330
3D
100
AcDbEntity
  8
Layer 1
370
     0
100
AcDbSpline
210
0.0
220
0.0
230
1.0
 70
    11
 71
     3
 72
    53
 73
    49
 74
     0
 42
0.0000000001
 43
0.0000000001
 40
0.0
 40
0.0
 40
0.0
 40
0.0
 40
1.0
 40
1.0
 40
1.0
 40
2.0
 40
2.0
 40
2.0
 40
3.0
 40
3.0
 40
3.0
 40
4.0
 40
4.0
 40
4.0
 40
5.0
 40
5.0
 40
5.0
 40
6.0
 40
6.0
 40
6.0
 40
7.0
 40
7.0
 40
7.0
 40
8.0
 40
8.0
 40
8.0
 40
9.0
 40
9.0
 40
9.0
 40
10.0
 40
10.0
 40
10.0
 40
11.0
 40
11.0
 40
11.0
 40
12.0
 40
12.0
 40
12.0
 40
13.0
 40
13.0
 40
13.0
 40
14.0
 40
14.0
 40
14.0
 40
15.0
 40
15.0
 40
15.0
 40
16.0
 40
16.0
 40
16.0
 40
16.0
 10
303.3392794380541
 20
210.701350858783
 30
0.0
 10
301.8199923290589
 20
210.701350858783
 30
0.0
 10
300.4653807842587
 20
210.8415662450327
 30
0.0
 10
299.2763060775247
 20
211.121307998435
 30
0.0
 10
298.0867146064679
 20
211.4013942613858
 30
0.0
 10
297.0769571197412
 20
211.7858669175397
 30
0.0
 10
296.2477226364416
 20
212.2757594955422
 30
0.0
 10
295.4177991340449
 20
212.7656520735447
 30
0.0
 10
294.7882079341155
 20
213.335470866805
 30
0.0
 10
294.3584322723306
 20
213.9848713657746
 30
0.0
 10
293.9284843557714
 20
214.6346163742927
 30
0.0
 10
293.7138549070403
 20
215.3394829105749
 30
0.0
 10
293.7138549070403
 20
216.0987819555239
 30
0.0
 10
293.7138549070403
 20
216.8584255100215
 30
0.0
 10
293.9284843557714
 20
217.568115179983
 30
0.0
 10
294.3584322723306
 20
218.2278509654083
 30
0.0
 10
294.7882079341155
 20
218.8875867508337
 30
0.0
 10
295.4177991340449
 20
219.457405544094
 30
0.0
 10
296.2477226364416
 20
219.9369628356408
 30
0.0
 10
297.0769571197412
 20
220.4168646367361
 30
0.0
 10
298.0867146064679
 20
220.7965141592106
 30
0.0
 10
299.2763060775247
 20
221.0766004221614
 30
0.0
 10
300.4653807842587
 20
221.3563421755637
 30
0.0
 10
301.8199923290589
 20
221.4962130522648
 30
0.0
 10
303.3392794380541
 20
221.4962130522648
 30
0.0
 10
304.8585665470492
 20
221.4962130522648
 30
0.0
 10
306.212833582301
 20
221.3563421755637
 30
0.0
 10
307.4024250533577
 20
221.0766004221614
 30
0.0
 10
308.591672014866
 20
220.7965141592106
 30
0.0
 10
309.5962618583648
 20
220.4168646367361
 30
0.0
 10
310.4161945838543
 20
219.9369628356408
 30
0.0
 10
311.2354382902467
 20
219.457405544094
 30
0.0
 10
311.8652017449504
 20
218.8875867508337
 30
0.0
 10
312.3051404384168
 20
218.2278509654083
 30
0.0
 10
312.7447346223346
 20
217.568115179983
 30
0.0
 10
312.9648762238421
 20
216.8584255100215
 30
0.0
 10
312.9648762238421
 20
216.0987819555239
 30
0.0
 10
312.9648762238421
 20
215.3394829105749
 30
0.0
 10
312.7447346223346
 20
214.6346163742927
 30
0.0
 10
312.3051404384168
 20
213.9848713657746
 30
0.0
 10
311.8652017449504
 20
213.335470866805
 30
0.0
 10
311.2354382902467
 20
212.7656520735447
 30
0.0
 10
310.4161945838543
 20
212.2757594955422
 30
0.0
 10
309.5962618583648
 20
211.7858669175397
 30
0.0
 10
308.591672014866
 20
211.4013942613858
 30
0.0
 10
307.4024250533577
 20
211.121307998435
 30
0.0
 10
306.212833582301
 20
210.8415662450327
 30
0.0
 10
304.8585665470492
 20
210.701350858783
 30
0.0
 10
303.3392794380541
 20
210.701350858783
 30
0.0
  0
SPLINE
  5
5A
330
3D
100
AcDbEntity
  8
Layer 1
370
     0
100
AcDbSpline
210
0.0
220
0.0
230
1.0
 70
    11
 71
     3
 72
    41
 73
    37
 74
     0
 42
0.0000000001
 43
0.0000000001
 40
0.0
 40
0.0
 40
0.0
 40
0.0
 40
1.0
 40
1.0
 40
1.0
 40
2.0
 40
2.0
 40
2.0
 40
3.0
 40
3.0
 40
3.0
 40
4.0
 40
4.0
 40
4.0
 40
5.0
 40
5.0
 40
5.0
 40
6.0
 40
6.0
 40
6.0
 40
7.0
 40
7.0
 40
7.0
 40
8.0
 40
8.0
 40
8.0
 40
9.0
 40
9.0
 40
9.0
 40
10.0
 40
10.0
 40
10.0
 40
11.0
 40
11.0
 40
11.0
 40
12.0
 40
12.0
 40
12.0
 40
12.0
 10
303.3392794380541
 20
218.2877956268517
 30
0.0
 10
301.7001030061722
 20
218.2877956268517
 30
0.0
 10
300.3957898554566
 20
218.0728216685721
 30
0.0
 10
299.426167731133
 20
217.6432182615614
 30
0.0
 10
298.4563733520352
 20
217.2129258354537
 30
0.0
 10
297.9718206720348
 20
216.6882377930502
 30
0.0
 10
297.9718206720348
 20
216.0688096248022
 30
0.0
 10
297.9718206720348
 20
215.7887233618515
 30
0.0
 10
298.0965331286009
 20
215.5193168949049
 30
0.0
 10
298.34664706083
 20
215.2592121857685
 30
0.0
 10
298.5964164835106
 20
214.9997964957292
 30
0.0
 10
298.956256706945
 20
214.7644964740867
 30
0.0
 10
299.426167731133
 20
214.5546901590349
 30
0.0
 10
299.8955619909983
 20
214.3445393344347
 30
0.0
 10
300.4605576505793
 20
214.1750406365604
 30
0.0
 10
301.1206379455532
 20
214.044816027218
 30
0.0
 10
301.78002922143
 20
213.914935927424
 30
0.0
 10
302.5193467125646
 20
213.8498236227528
 30
0.0
 10
303.3392794380541
 20
213.8498236227528
 30
0.0
 10
304.158867653995
 20
213.8498236227528
 30
0.0
 10
304.8985296546782
 20
213.914935927424
 30
0.0
 10
305.5582654401035
 20
214.044816027218
 30
0.0
 10
306.2180012255288
 20
214.1750406365604
 30
0.0
 10
306.7826523755613
 20
214.3445393344347
 30
0.0
 10
307.2525633997494
 20
214.5546901590349
 30
0.0
 10
307.7221299143889
 20
214.7644964740867
 30
0.0
 10
308.081797883049
 20
214.9997964957292
 30
0.0
 10
308.3319118152781
 20
215.2592121857685
 30
0.0
 10
308.5820257475073
 20
215.5193168949049
 30
0.0
 10
308.7067382040733
 20
215.7887233618515
 30
0.0
 10
308.7067382040733
 20
216.0688096248022
 30
0.0
 10
308.7067382040733
 20
216.6882377930502
 30
0.0
 10
308.2220132692987
 20
217.2129258354537
 30
0.0
 10
307.2525633997494
 20
217.6432182615614
 30
0.0
 10
306.2827690206515
 20
218.0728216685721
 30
0.0
 10
304.9784558699359
 20
218.2877956268517
 30
0.0
 10
303.3392794380541
 20
218.2877956268517
 30
0.0
  0
SPLINE
  5
5B
330
3D
100
AcDbEntity
  8
Layer 1
 62
   179
420
  2301728
370
    35
100
AcDbSpline
210
0.0
220
0.0
230
1.0
 70
    11
 71
     3
 72
   107
 73
   103
 74
     0
 42
0.0000000001
 43
0.0000000001
 40
0.0
 40
0.0
 40
0.0
 40
0.0
 40
1.0
 40
1.0
 40
1.0
 40
2.0
 40
2.0
 40
2.0
 40
3.0
 40
3.0
 40
3.0
 40
4.0
 40
4.0
 40
4.0
 40
5.0
 40
5.0
 40
5.0
 40
6.0
 40
6.0
 40
6.0
 40
7.0
 40
7.0
 40
7.0
 40
8.0
 40
8.0
 40
8.0
 40
9.0
 40
9.0
 40
9.0
 40
10.0
 40
10.0
 40
10.0
 40
11.0
 40
11.0
 40
11.0
 40
12.0
 40
12.0
 40
12.0
 40
13.0
 40
13.0
 40
13.0
 40
14.0
 40
14.0
 40
14.0
 40
15.0
 40
15.0
 40
15.0
 40
16.0
 40
16.0
 40
16.0
 40
17.0
 40
17.0
 40
17.0
 40
18.0
 40
18.0
 40
18.0
 40
19.0
 40
19.0
 40
19.0
 40
20.0
 40
20.0
 40
20.0
 40
21.0
 40
21.0
 40
21.0
 40
22.0
 40
22.0
 40
22.0
 40
23.0
 40
23.0
 40
23.0
 40
24.0
 40
24.0
 40
24.0
 40
25.0
 40
25.0
 40
25.0
 40
26.0
 40
26.0
 40
26.0
 40
27.0
 40
27.0
 40
27.0
 40
28.0
 40
28.0
 40
28.0
 40
29.0
 40
29.0
 40
29.0
 40
30.0
 40
30.0
 40
30.0
 40
31.0
 40
31.0
 40
31.0
 40
32.0
 40
32.0
 40
32.0
 40
33.0
 40
33.0
 40
33.0
 40
34.0
 40
34.0
 40
34.0
 40
34.0
 10
316.2036104895255
 20
222.9355739460022
 30
0.0
 10
316.2036104895255
 20
222.9355739460022
 30
0.0
 10
290.4751206413569
 20
222.9355739460022
 30
0.0
 10
290.4751206413569
 20
222.9355739460022
 30
0.0
 10
290.1952066331804
 20
222.9355739460022
 30
0.0
 10
290.0253634257576
 20
222.980704696859
 30
0.0
 10
289.9657632738628
 20
223.070621689024
 30
0.0
 10
289.9058186124194
 20
223.1601941716405
 30
0.0
 10
289.8755017721492
 20
223.3255587549325
 30
0.0
 10
289.8755017721492
 20
223.5656819102544
 30
0.0
 10
289.8755017721492
 20
223.5656819102544
 30
0.0
 10
289.8755017721492
 20
225.7247232508605
 30
0.0
 10
289.8755017721492
 20
225.7247232508605
 30
0.0
 10
289.8755017721492
 20
225.9445203428194
 30
0.0
 10
289.9154648797781
 20
226.0988606205586
 30
0.0
 10
289.9955633498101
 20
226.189638886595
 30
0.0
 10
290.0751450555194
 20
226.27955587876
 30
0.0
 10
290.2353419955836
 20
226.3245143748425
 30
0.0
 10
290.4751206413569
 20
226.3245143748425
 30
0.0
 10
290.4751206413569
 20
226.3245143748425
 30
0.0
 10
301.2704995991616
 20
226.3245143748425
 30
0.0
 10
301.2704995991616
 20
226.3245143748425
 30
0.0
 10
301.2704995991616
 20
226.3245143748425
 30
0.0
 10
301.2704995991616
 20
228.8127345890642
 30
0.0
 10
301.2704995991616
 20
228.8127345890642
 30
0.0
 10
301.2704995991616
 20
228.8127345890642
 30
0.0
 10
296.4423705313582
 20
228.8127345890642
 30
0.0
 10
296.4423705313582
 20
228.8127345890642
 30
0.0
 10
295.5624931444254
 20
228.8127345890642
 30
0.0
 10
294.9378973329495
 20
229.0178900252108
 30
0.0
 10
294.5684108421565
 20
229.4278563879556
 30
0.0
 10
294.1982353322664
 20
229.8371337316032
 30
0.0
 10
294.0135782142571
 20
230.4317572123574
 30
0.0
 10
294.0135782142571
 20
231.2120713397664
 30
0.0
 10
294.0135782142571
 20
231.2120713397664
 30
0.0
 10
294.0135782142571
 20
237.0294595761593
 30
0.0
 10
294.0135782142571
 20
237.0294595761593
 30
0.0
 10
294.0135782142571
 20
237.8888386449549
 30
0.0
 10
294.1884168101334
 20
238.4533175402131
 30
0.0
 10
294.5386107662091
 20
238.7228962619339
 30
0.0
 10
294.8881157031877
 20
238.993336257526
 30
0.0
 10
295.4829114387161
 20
239.1282117457735
 30
0.0
 10
296.3226534632457
 20
239.1282117457735
 30
0.0
 10
296.3226534632457
 20
239.1282117457735
 30
0.0
 10
312.1552787848084
 20
239.1282117457735
 30
0.0
 10
312.1552787848084
 20
239.1282117457735
 30
0.0
 10
312.5345837977344
 20
239.1282117457735
 30
0.0
 10
312.7250975780688
 20
238.9376979654392
 30
0.0
 10
312.7250975780688
 20
238.5587374620617
 30
0.0
 10
312.7250975780688
 20
238.5587374620617
 30
0.0
 10
312.7250975780688
 20
236.3390624409153
 30
0.0
 10
312.7250975780688
 20
236.3390624409153
 30
0.0
 10
312.7250975780688
 20
236.1192653489563
 30
0.0
 10
312.6844454513428
 20
235.9690591857994
 30
0.0
 10
312.6048637456335
 20
235.8898219896387
 30
0.0
 10
312.5249375303757
 20
235.8097235196066
 30
0.0
 10
312.3750758767674
 20
235.7697604119777
 30
0.0
 10
312.1552787848084
 20
235.7697604119777
 30
0.0
 10
312.1552787848084
 20
235.7697604119777
 30
0.0
 10
298.6913288641293
 20
235.7697604119777
 30
0.0
 10
298.6913288641293
 20
235.7697604119777
 30
0.0
 10
298.3716240030981
 20
235.7697604119777
 30
0.0
 10
298.2119438273568
 20
235.6095634719136
 30
0.0
 10
298.2119438273568
 20
235.2902031204309
 30
0.0
 10
298.2119438273568
 20
235.2902031204309
 30
0.0
 10
298.2119438273568
 20
232.6212876480079
 30
0.0
 10
298.2119438273568
 20
232.6212876480079
 30
0.0
 10
298.2119438273568
 20
232.3010660226539
 30
0.0
 10
298.3716240030981
 20
232.1419026112354
 30
0.0
 10
298.6913288641293
 20
232.1419026112354
 30
0.0
 10
298.6913288641293
 20
232.1419026112354
 30
0.0
 10
312.3051404384168
 20
232.1419026112354
 30
0.0
 10
312.3051404384168
 20
232.1419026112354
 30
0.0
 10
312.7447346223346
 20
232.1419026112354
 30
0.0
 10
312.9648762238421
 20
231.9708536203927
 30
0.0
 10
312.9648762238421
 20
231.6320284794184
 30
0.0
 10
312.9648762238421
 20
231.6320284794184
 30
0.0
 10
312.9648762238421
 20
229.4426702985421
 30
0.0
 10
312.9648762238421
 20
229.4426702985421
 30
0.0
 10
312.9648762238421
 20
229.0227131588902
 30
0.0
 10
312.7447346223346
 20
228.8127345890642
 30
0.0
 10
312.3051404384168
 20
228.8127345890642
 30
0.0
 10
312.3051404384168
 20
228.8127345890642
 30
0.0
 10
305.4383761172168
 20
228.8127345890642
 30
0.0
 10
305.4383761172168
 20
228.8127345890642
 30
0.0
 10
305.4383761172168
 20
228.8127345890642
 30
0.0
 10
305.4383761172168
 20
226.3245143748425
 30
0.0
 10
305.4383761172168
 20
226.3245143748425
 30
0.0
 10
305.4383761172168
 20
226.3245143748425
 30
0.0
 10
316.2036104895255
 20
226.3245143748425
 30
0.0
 10
316.2036104895255
 20
226.3245143748425
 30
0.0
 10
316.383099964307
 20
226.3245143748425
 30
0.0
 10
316.5333061274639
 20
226.283517738568
 30
0.0
 10
316.6531954503506
 20
226.2042805424073
 30
0.0
 10
316.7730847732373
 20
226.1241820723752
 30
0.0
 10
316.8330294346807
 20
225.9641573870854
 30
0.0
 10
316.8330294346807
 20
225.7247232508605
 30
0.0
 10
316.8330294346807
 20
225.7247232508605
 30
0.0
 10
316.8330294346807
 20
223.5656819102544
 30
0.0
 10
316.8330294346807
 20
223.5656819102544
 30
0.0
 10
316.8330294346807
 20
223.1457247706025
 30
0.0
 10
316.6228786100804
 20
222.9355739460022
 30
0.0
 10
316.2036104895255
 20
222.9355739460022
 30
0.0
  0
SPLINE
  5
5C
330
3D
100
AcDbEntity
  8
Layer 1
 62
   179
420
  2301728
370
    35
100
AcDbSpline
210
0.0
220
0.0
230
1.0
 70
    11
 71
     3
 72
    53
 73
    49
 74
     0
 42
0.0000000001
 43
0.0000000001
 40
0.0
 40
0.0
 40
0.0
 40
0.0
 40
1.0
 40
1.0
 40
1.0
 40
2.0
 40
2.0
 40
2.0
 40
3.0
 40
3.0
 40
3.0
 40
4.0
 40
4.0
 40
4.0
 40
5.0
 40
5.0
 40
5.0
 40
6.0
 40
6.0
 40
6.0
 40
7.0
 40
7.0
 40
7.0
 40
8.0
 40
8.0
 40
8.0
 40
9.0
 40
9.0
 40
9.0
 40
10.0
 40
10.0
 40
10.0
 40
11.0
 40
11.0
 40
11.0
 40
12.0
 40
12.0
 40
12.0
 40
13.0
 40
13.0
 40
13.0
 40
14.0
 40
14.0
 40
14.0
 40
15.0
 40
15.0
 40
15.0
 40
16.0
 40
16.0
 40
16.0
 40
16.0
 10
303.3392794380541
 20
210.701350858783
 30
0.0
 10
301.8196478195104
 20
210.701350858783
 30
0.0
 10
300.4653807842587
 20
210.8408772259356
 30
0.0
 10
299.2763060775247
 20
211.121307998435
 30
0.0
 10
298.0868868612422
 20
211.4013942613858
 30
0.0
 10
297.0771293745154
 20
211.7862114270882
 30
0.0
 10
296.2475503816673
 20
212.2757594955422
 30
0.0
 10
295.4179713888191
 20
212.7656520735447
 30
0.0
 10
294.7880356793412
 20
213.3351263572565
 30
0.0
 10
294.3584322723306
 20
213.9845268562261
 30
0.0
 10
293.9286566105456
 20
214.6349608838413
 30
0.0
 10
293.7138549070403
 20
215.3391384010263
 30
0.0
 10
293.7138549070403
 20
216.0987819555239
 30
0.0
 10
293.7138549070403
 20
216.8584255100215
 30
0.0
 10
293.9286566105456
 20
217.5684596895315
 30
0.0
 10
294.3584322723306
 20
218.2278509654083
 30
0.0
 10
294.7880356793412
 20
218.8879312603822
 30
0.0
 10
295.4179713888191
 20
219.457405544094
 30
0.0
 10
296.2475503816673
 20
219.9366183260923
 30
0.0
 10
297.0771293745154
 20
220.4172091462846
 30
0.0
 10
298.0868868612422
 20
220.7961696496621
 30
0.0
 10
299.2763060775247
 20
221.0762559126129
 30
0.0
 10
300.4653807842587
 20
221.3566866851122
 30
0.0
 10
301.8196478195104
 20
221.4962130522648
 30
0.0
 10
303.3392794380541
 20
221.4962130522648
 30
0.0
 10
304.8582220375008
 20
221.4962130522648
 30
0.0
 10
306.212833582301
 20
221.3566866851122
 30
0.0
 10
307.4024250533577
 20
221.0762559126129
 30
0.0
 10
308.591672014866
 20
220.7961696496621
 30
0.0
 10
309.5962618583648
 20
220.4172091462846
 30
0.0
 10
310.4158500743058
 20
219.9366183260923
 30
0.0
 10
311.2357827997952
 20
219.457405544094
 30
0.0
 10
311.8652017449504
 20
218.8879312603822
 30
0.0
 10
312.3051404384168
 20
218.2278509654083
 30
0.0
 10
312.7447346223346
 20
217.5684596895315
 30
0.0
 10
312.9648762238421
 20
216.8584255100215
 30
0.0
 10
312.9648762238421
 20
216.0987819555239
 30
0.0
 10
312.9648762238421
 20
215.3391384010263
 30
0.0
 10
312.7447346223346
 20
214.6349608838413
 30
0.0
 10
312.3051404384168
 20
213.9845268562261
 30
0.0
 10
311.8652017449504
 20
213.3351263572565
 30
0.0
 10
311.2357827997952
 20
212.7656520735447
 30
0.0
 10
310.4158500743058
 20
212.2757594955422
 30
0.0
 10
309.5962618583648
 20
211.7862114270882
 30
0.0
 10
308.591672014866
 20
211.4013942613858
 30
0.0
 10
307.4024250533577
 20
211.121307998435
 30
0.0
 10
306.212833582301
 20
210.8408772259356
 30
0.0
 10
304.8582220375008
 20
210.701350858783
 30
0.0
 10
303.3392794380541
 20
210.701350858783
 30
0.0
  0
SPLINE
  5
5D
330
3D
100
AcDbEntity
  8
Layer 1
 62
   179
420
  2301728
370
    35
100
AcDbSpline
210
0.0
220
0.0
230
1.0
 70
    11
 71
     3
 72
    41
 73
    37
 74
     0
 42
0.0000000001
 43
0.0000000001
 40
0.0
 40
0.0
 40
0.0
 40
0.0
 40
1.0
 40
1.0
 40
1.0
 40
2.0
 40
2.0
 40
2.0
 40
3.0
 40
3.0
 40
3.0
 40
4.0
 40
4.0
 40
4.0
 40
5.0
 40
5.0
 40
5.0
 40
6.0
 40
6.0
 40
6.0
 40
7.0
 40
7.0
 40
7.0
 40
8.0
 40
8.0
 40
8.0
 40
9.0
 40
9.0
 40
9.0
 40
10.0
 40
10.0
 40
10.0
 40
11.0
 40
11.0
 40
11.0
 40
12.0
 40
12.0
 40
12.0
 40
12.0
 10
303.3392794380541
 20
218.2881401364002
 30
0.0
 10
301.7001030061722
 20
218.2881401364002
 30
0.0
 10
300.3954453459081
 20
218.0724771590235
 30
0.0
 10
299.4263399859073
 20
217.6428737520129
 30
0.0
 10
298.4565456068095
 20
217.2132703450023
 30
0.0
 10
297.9716484172606
 20
216.6885823025987
 30
0.0
 10
297.9716484172606
 20
216.0684651152537
 30
0.0
 10
297.9716484172606
 20
215.7883788523029
 30
0.0
 10
298.0967053833751
 20
215.5186278758079
 30
0.0
 10
298.34664706083
 20
215.25886767622
 30
0.0
 10
298.5965887382849
 20
214.9991074766322
 30
0.0
 10
298.9560844521707
 20
214.7648409836352
 30
0.0
 10
299.4263399859073
 20
214.5550346685835
 30
0.0
 10
299.8955619909983
 20
214.3448838439832
 30
0.0
 10
300.4609021601278
 20
214.1750406365604
 30
0.0
 10
301.1206379455532
 20
214.0451605367665
 30
0.0
 10
301.7803737309785
 20
213.9152804369726
 30
0.0
 10
302.5193467125646
 20
213.8498236227528
 30
0.0
 10
303.3392794380541
 20
213.8498236227528
 30
0.0
 10
304.1585231444465
 20
213.8498236227528
 30
0.0
 10
304.8988741642267
 20
213.9152804369726
 30
0.0
 10
305.557920930555
 20
214.0451605367665
 30
0.0
 10
306.2183457350774
 20
214.1750406365604
 30
0.0
 10
306.7826523755613
 20
214.3448838439832
 30
0.0
 10
307.2525633997494
 20
214.5550346685835
 30
0.0
 10
307.7221299143889
 20
214.7648409836352
 30
0.0
 10
308.0821423925975
 20
214.9991074766322
 30
0.0
 10
308.3319118152781
 20
215.25886767622
 30
0.0
 10
308.5820257475073
 20
215.5186278758079
 30
0.0
 10
308.7070827136218
 20
215.7883788523029
 30
0.0
 10
308.7070827136218
 20
216.0684651152537
 30
0.0
 10
308.7070827136218
 20
216.6885823025987
 30
0.0
 10
308.2220132692987
 20
217.2132703450023
 30
0.0
 10
307.2525633997494
 20
217.6428737520129
 30
0.0
 10
306.2827690206515
 20
218.0724771590235
 30
0.0
 10
304.9784558699359
 20
218.2881401364002
 30
0.0
 10
303.3392794380541
 20
218.2881401364002
 30
0.0
  0
SPLINE
  5
5E
330
3D
100
AcDbEntity
  8
Layer 1
370
     0
100
AcDbSpline
210
0.0
220
0.0
230
1.0
 70
    11
 71
     3
 72
    95
 73
    91
 74
     0
 42
0.0000000001
 43
0.0000000001
 40
0.0
 40
0.0
 40
0.0
 40
0.0
 40
1.0
 40
1.0
 40
1.0
 40
2.0
 40
2.0
 40
2.0
 40
3.0
 40
3.0
 40
3.0
 40
4.0
 40
4.0
 40
4.0
 40
5.0
 40
5.0
 40
5.0
 40
6.0
 40
6.0
 40
6.0
 40
7.0
 40
7.0
 40
7.0
 40
8.0
 40
8.0
 40
8.0
 40
9.0
 40
9.0
 40
9.0
 40
10.0
 40
10.0
 40
10.0
 40
11.0
 40
11.0
 40
11.0
 40
12.0
 40
12.0
 40
12.0
 40
13.0
 40
13.0
 40
13.0
 40
14.0
 40
14.0
 40
14.0
 40
15.0
 40
15.0
 40
15.0
 40
16.0
 40
16.0
 40
16.0
 40
17.0
 40
17.0
 40
17.0
 40
18.0
 40
18.0
 40
18.0
 40
19.0
 40
19.0
 40
19.0
 40
20.0
 40
20.0
 40
20.0
 40
21.0
 40
21.0
 40
21.0
 40
22.0
 40
22.0
 40
22.0
 40
23.0
 40
23.0
 40
23.0
 40
24.0
 40
24.0
 40
24.0
 40
25.0
 40
25.0
 40
25.0
 40
26.0
 40
26.0
 40
26.0
 40
27.0
 40
27.0
 40
27.0
 40
28.0
 40
28.0
 40
28.0
 40
29.0
 40
29.0
 40
29.0
 40
30.0
 40
30.0
 40
30.0
 40
30.0
 10
336.9534205971852
 20
211.811016114582
 30
0.0
 10
336.9534205971852
 20
211.811016114582
 30
0.0
 10
334.1646158018755
 20
211.811016114582
 30
0.0
 10
334.1646158018755
 20
211.811016114582
 30
0.0
 10
333.9444742003681
 20
211.811016114582
 30
0.0
 10
333.7946125467597
 20
211.8409884453037
 30
0.0
 10
333.7146863315019
 20
211.900933106747
 30
0.0
 10
333.6347601162441
 20
211.9608777681904
 30
0.0
 10
333.5947970086152
 20
212.1210747082545
 30
0.0
 10
333.5947970086152
 20
212.3804903982938
 30
0.0
 10
333.5947970086152
 20
212.3804903982938
 30
0.0
 10
333.5947970086152
 20
226.2642252038506
 30
0.0
 10
333.5947970086152
 20
226.2642252038506
 30
0.0
 10
333.5947970086152
 20
226.2642252038506
 30
0.0
 10
331.4361001775576
 20
226.2642252038506
 30
0.0
 10
331.4361001775576
 20
226.2642252038506
 30
0.0
 10
331.295884791308
 20
225.1645507249589
 30
0.0
 10
331.0409477253995
 20
224.1351561939662
 30
0.0
 10
330.6712889798322
 20
223.1756971013241
 30
0.0
 10
330.3012857247164
 20
222.2158934991335
 30
0.0
 10
329.8361978342076
 20
221.3863145062854
 30
0.0
 10
329.2767143274031
 20
220.6866156132311
 30
0.0
 10
328.7172308205985
 20
219.9869167201769
 30
0.0
 10
328.0723089457597
 20
219.4319118375032
 30
0.0
 10
327.3426377219838
 20
219.0226344938555
 30
0.0
 10
326.6129664982079
 20
218.6126681311107
 30
0.0
 10
325.8181829697608
 20
218.4076849497384
 30
0.0
 10
324.9589761557394
 20
218.4076849497384
 30
0.0
 10
323.9791909997344
 20
218.4076849497384
 30
0.0
 10
323.0948349886708
 20
218.6522867291911
 30
0.0
 10
322.3052191034515
 20
219.1425238167422
 30
0.0
 10
321.5152587086837
 20
219.6320718851962
 30
0.0
 10
320.8458766558996
 20
220.3066215812081
 30
0.0
 10
320.2960394164538
 20
221.1665174143264
 30
0.0
 10
319.7462021770079
 20
222.0257242283477
 30
0.0
 10
319.3262450373559
 20
223.0454724919817
 30
0.0
 10
319.0365125070464
 20
224.2250731861313
 30
0.0
 10
318.7464354671884
 20
225.4043293707323
 30
0.0
 10
318.6017414568079
 20
226.6735025474983
 30
0.0
 10
318.6017414568079
 20
228.0332817355264
 30
0.0
 10
318.6017414568079
 20
229.5522243349731
 30
0.0
 10
318.7567707536442
 20
230.9068358797733
 30
0.0
 10
319.0668293473166
 20
232.0964273508301
 30
0.0
 10
319.3761989218921
 20
233.2856743123383
 30
0.0
 10
319.816482124907
 20
234.2902641558372
 30
0.0
 10
320.3863009181673
 20
235.1101968813266
 30
0.0
 10
320.9557752018791
 20
235.929440587719
 30
0.0
 10
321.6251572546632
 20
236.5592040424227
 30
0.0
 10
322.3951360956165
 20
236.9991427358891
 30
0.0
 10
323.1644259174728
 20
237.438736919807
 30
0.0
 10
324.0191541073633
 20
237.6588785213144
 30
0.0
 10
324.9589761557394
 20
237.6588785213144
 30
0.0
 10
325.8181829697608
 20
237.6588785213144
 30
0.0
 10
326.6233017846636
 20
237.4790445369844
 30
0.0
 10
327.372954562254
 20
237.1190320587758
 30
0.0
 10
328.1226073398444
 20
236.7593640901157
 30
0.0
 10
328.7868217494005
 20
236.2346760477122
 30
0.0
 10
329.3669758291166
 20
235.5449679315652
 30
0.0
 10
329.9464408897356
 20
234.8552598154182
 30
0.0
 10
330.4211750476031
 20
234.0156900456628
 30
0.0
 10
330.7911783027189
 20
233.0259141127505
 30
0.0
 10
331.1611815578347
 20
232.0364826893867
 30
0.0
 10
331.4057833372875
 20
230.9120035230012
 30
0.0
 10
331.5256726601742
 20
229.6524766135938
 30
0.0
 10
331.5256726601742
 20
229.6524766135938
 30
0.0
 10
333.5947970086152
 20
229.6524766135938
 30
0.0
 10
333.5947970086152
 20
229.6524766135938
 30
0.0
 10
333.5947970086152
 20
229.6524766135938
 30
0.0
 10
333.5947970086152
 20
238.5284206217915
 30
0.0
 10
333.5947970086152
 20
238.5284206217915
 30
0.0
 10
333.5947970086152
 20
238.7482177137504
 30
0.0
 10
333.6347601162441
 20
238.8980793673588
 30
0.0
 10
333.7146863315019
 20
238.9783500921652
 30
0.0
 10
333.7946125467597
 20
239.0579317978744
 30
0.0
 10
333.9444742003681
 20
239.0982394150518
 30
0.0
 10
334.1646158018755
 20
239.0982394150518
 30
0.0
 10
334.1646158018755
 20
239.0982394150518
 30
0.0
 10
336.9534205971852
 20
239.0982394150518
 30
0.0
 10
336.9534205971852
 20
239.0982394150518
 30
0.0
 10
337.3327256101113
 20
239.0982394150518
 30
0.0
 10
337.5228948808971
 20
238.908070144266
 30
0.0
 10
337.5228948808971
 20
238.5284206217915
 30
0.0
 10
337.5228948808971
 20
238.5284206217915
 30
0.0
 10
337.5228948808971
 20
212.3804903982938
 30
0.0
 10
337.5228948808971
 20
212.3804903982938
 30
0.0
 10
337.5228948808971
 20
212.1407117525204
 30
0.0
 10
337.4829317732681
 20
211.9860269652327
 30
0.0
 10
337.4030055580104
 20
211.9157470173336
 30
0.0
 10
337.3230793427526
 20
211.8461560885315
 30
0.0
 10
337.1732176891442
 20
211.811016114582
 30
0.0
 10
336.9534205971852
 20
211.811016114582
 30
0.0
  0
SPLINE
  5
5F
330
3D
100
AcDbEntity
  8
Layer 1
370
     0
100
AcDbSpline
210
0.0
220
0.0
230
1.0
 70
    11
 71
     3
 72
    53
 73
    49
 74
     0
 42
0.0000000001
 43
0.0000000001
 40
0.0
 40
0.0
 40
0.0
 40
0.0
 40
1.0
 40
1.0
 40
1.0
 40
2.0
 40
2.0
 40
2.0
 40
3.0
 40
3.0
 40
3.0
 40
4.0
 40
4.0
 40
4.0
 40
5.0
 40
5.0
 40
5.0
 40
6.0
 40
6.0
 40
6.0
 40
7.0
 40
7.0
 40
7.0
 40
8.0
 40
8.0
 40
8.0
 40
9.0
 40
9.0
 40
9.0
 40
10.0
 40
10.0
 40
10.0
 40
11.0
 40
11.0
 40
11.0
 40
12.0
 40
12.0
 40
12.0
 40
13.0
 40
13.0
 40
13.0
 40
14.0
 40
14.0
 40
14.0
 40
15.0
 40
15.0
 40
15.0
 40
16.0
 40
16.0
 40
16.0
 40
16.0
 10
324.9889484864611
 20
234.1204209484144
 30
0.0
 10
324.5093911949143
 20
234.1204209484144
 30
0.0
 10
324.1090710995283
 20
233.9302516776285
 30
0.0
 10
323.7893662384971
 20
233.5509466647026
 30
0.0
 10
323.4696613774659
 20
233.1709526326795
 30
0.0
 10
323.2147243115575
 20
232.681060054677
 30
0.0
 10
323.0248995503202
 20
232.0816134402435
 30
0.0
 10
322.8343857699859
 20
231.4818223162615
 30
0.0
 10
322.6952039123818
 20
230.8220865308361
 30
0.0
 10
322.6049424106682
 20
230.1024060839675
 30
0.0
 10
322.5150254185032
 20
229.3827256370988
 30
0.0
 10
322.4698946676464
 20
228.682682234496
 30
0.0
 10
322.4698946676464
 20
228.0033094048047
 30
0.0
 10
322.4698946676464
 20
227.3435736193794
 30
0.0
 10
322.5150254185032
 20
226.6538655032324
 30
0.0
 10
322.6049424106682
 20
225.9341850563637
 30
0.0
 10
322.6952039123818
 20
225.214504609495
 30
0.0
 10
322.8398979227622
 20
224.5551133336182
 30
0.0
 10
323.0397134609067
 20
223.9553222096362
 30
0.0
 10
323.2395289990512
 20
223.3555310856542
 30
0.0
 10
323.4992891986391
 20
222.8608153739723
 30
0.0
 10
323.8196830787673
 20
222.470830565042
 30
0.0
 10
324.13904343025
 20
222.0811902656603
 30
0.0
 10
324.5286837296317
 20
221.8861978611951
 30
0.0
 10
324.9889484864611
 20
221.8861978611951
 30
0.0
 10
325.4085611165646
 20
221.8861978611951
 30
0.0
 10
325.7833875053597
 20
222.0608642022973
 30
0.0
 10
326.1134276528467
 20
222.4108859035987
 30
0.0
 10
326.4434678003336
 20
222.7605630953515
 30
0.0
 10
326.7280326874152
 20
223.2204833426324
 30
0.0
 10
326.9678113331886
 20
223.7903021358927
 30
0.0
 10
327.2079344885105
 20
224.360120929153
 30
0.0
 10
327.3877684728405
 20
225.0146890713505
 30
0.0
 10
327.5080023052758
 20
225.7543510720336
 30
0.0
 10
327.6278916281625
 20
226.4936685631683
 30
0.0
 10
327.6878362896059
 20
227.2433213407586
 30
0.0
 10
327.6878362896059
 20
228.0033094048047
 30
0.0
 10
327.6878362896059
 20
228.8025715573827
 30
0.0
 10
327.6278916281625
 20
229.5673827551082
 30
0.0
 10
327.5080023052758
 20
230.2973984884326
 30
0.0
 10
327.3877684728405
 20
231.02672520266
 30
0.0
 10
327.2124131126413
 20
231.6768147207266
 30
0.0
 10
326.9829697533237
 20
232.2462890044384
 30
0.0
 10
326.752837374909
 20
232.8161077976987
 30
0.0
 10
326.4682724878274
 20
233.2705158922032
 30
0.0
 10
326.1285860729818
 20
233.6108913261459
 30
0.0
 10
325.7882106390391
 20
233.9505777409915
 30
0.0
 10
325.4085611165646
 20
234.1204209484144
 30
0.0
 10
324.9889484864611
 20
234.1204209484144
 30
0.0
  0
SPLINE
  5
60
330
3D
100
AcDbEntity
  8
Layer 1
370
     0
100
AcDbSpline
210
0.0
220
0.0
230
1.0
 70
    11
 71
     3
 72
    41
 73
    37
 74
     0
 42
0.0000000001
 43
0.0000000001
 40
0.0
 40
0.0
 40
0.0
 40
0.0
 40
1.0
 40
1.0
 40
1.0
 40
2.0
 40
2.0
 40
2.0
 40
3.0
 40
3.0
 40
3.0
 40
4.0
 40
4.0
 40
4.0
 40
5.0
 40
5.0
 40
5.0
 40
6.0
 40
6.0
 40
6.0
 40
7.0
 40
7.0
 40
7.0
 40
8.0
 40
8.0
 40
8.0
 40
9.0
 40
9.0
 40
9.0
 40
10.0
 40
10.0
 40
10.0
 40
11.0
 40
11.0
 40
11.0
 40
12.0
 40
12.0
 40
12.0
 40
12.0
 10
343.0405598100732
 20
210.8212401816697
 30
0.0
 10
343.0405598100732
 20
210.8212401816697
 30
0.0
 10
340.0719210304334
 20
210.8212401816697
 30
0.0
 10
340.0719210304334
 20
210.8212401816697
 30
0.0
 10
339.851779428926
 20
210.8212401816697
 30
0.0
 10
339.7015732657691
 20
210.8615477988471
 30
0.0
 10
339.6223360696083
 20
210.9411295045564
 30
0.0
 10
339.542065344802
 20
211.0214002293627
 30
0.0
 10
339.5024467467216
 20
211.1712618829711
 30
0.0
 10
339.5024467467216
 20
211.39105897493
 30
0.0
 10
339.5024467467216
 20
211.39105897493
 30
0.0
 10
339.5024467467216
 20
239.0382947536085
 30
0.0
 10
339.5024467467216
 20
239.0382947536085
 30
0.0
 10
339.5024467467216
 20
239.2580918455674
 30
0.0
 10
339.5472329880299
 20
239.4079534991758
 30
0.0
 10
339.6371499801949
 20
239.4878797144336
 30
0.0
 10
339.7270669723599
 20
239.5678059296914
 30
0.0
 10
339.8817517596476
 20
239.6081135468688
 30
0.0
 10
340.1018933611551
 20
239.6081135468688
 30
0.0
 10
340.1018933611551
 20
239.6081135468688
 30
0.0
 10
343.0405598100732
 20
239.6081135468688
 30
0.0
 10
343.0405598100732
 20
239.6081135468688
 30
0.0
 10
343.2603569020321
 20
239.6081135468688
 30
0.0
 10
343.4102185556405
 20
239.5678059296914
 30
0.0
 10
343.4904892804469
 20
239.4878797144336
 30
0.0
 10
343.5700709861561
 20
239.4079534991758
 30
0.0
 10
343.6103786033335
 20
239.2580918455674
 30
0.0
 10
343.6103786033335
 20
239.0382947536085
 30
0.0
 10
343.6103786033335
 20
239.0382947536085
 30
0.0
 10
343.6103786033335
 20
211.39105897493
 30
0.0
 10
343.6103786033335
 20
211.39105897493
 30
0.0
 10
343.6103786033335
 20
211.1712618829711
 30
0.0
 10
343.5700709861561
 20
211.0214002293627
 30
0.0
 10
343.4904892804469
 20
210.9411295045564
 30
0.0
 10
343.4102185556405
 20
210.8615477988471
 30
0.0
 10
343.2603569020321
 20
210.8212401816697
 30
0.0
 10
343.0405598100732
 20
210.8212401816697
 30
0.0
  0
SPLINE
  5
61
330
3D
100
AcDbEntity
  8
Layer 1
 62
   179
420
  2301728
370
    35
100
AcDbSpline
210
0.0
220
0.0
230
1.0
 70
    11
 71
     3
 72
    95
 73
    91
 74
     0
 42
0.0000000001
 43
0.0000000001
 40
0.0
 40
0.0
 40
0.0
 40
0.0
 40
1.0
 40
1.0
 40
1.0
 40
2.0
 40
2.0
 40
2.0
 40
3.0
 40
3.0
 40
3.0
 40
4.0
 40
4.0
 40
4.0
 40
5.0
 40
5.0
 40
5.0
 40
6.0
 40
6.0
 40
6.0
 40
7.0
 40
7.0
 40
7.0
 40
8.0
 40
8.0
 40
8.0
 40
9.0
 40
9.0
 40
9.0
 40
10.0
 40
10.0
 40
10.0
 40
11.0
 40
11.0
 40
11.0
 40
12.0
 40
12.0
 40
12.0
 40
13.0
 40
13.0
 40
13.0
 40
14.0
 40
14.0
 40
14.0
 40
15.0
 40
15.0
 40
15.0
 40
16.0
 40
16.0
 40
16.0
 40
17.0
 40
17.0
 40
17.0
 40
18.0
 40
18.0
 40
18.0
 40
19.0
 40
19.0
 40
19.0
 40
20.0
 40
20.0
 40
20.0
 40
21.0
 40
21.0
 40
21.0
 40
22.0
 40
22.0
 40
22.0
 40
23.0
 40
23.0
 40
23.0
 40
24.0
 40
24.0
 40
24.0
 40
25.0
 40
25.0
 40
25.0
 40
26.0
 40
26.0
 40
26.0
 40
27.0
 40
27.0
 40
27.0
 40
28.0
 40
28.0
 40
28.0
 40
29.0
 40
29.0
 40
29.0
 40
30.0
 40
30.0
 40
30.0
 40
30.0
 10
336.9537651067338
 20
211.8106716050335
 30
0.0
 10
336.9537651067338
 20
211.8106716050335
 30
0.0
 10
334.1646158018755
 20
211.8106716050335
 30
0.0
 10
334.1646158018755
 20
211.8106716050335
 30
0.0
 10
333.9444742003681
 20
211.8106716050335
 30
0.0
 10
333.7942680372112
 20
211.8409884453037
 30
0.0
 10
333.7146863315019
 20
211.9005885971985
 30
0.0
 10
333.6347601162441
 20
211.9612222777389
 30
0.0
 10
333.5951415181638
 20
212.121419217803
 30
0.0
 10
333.5951415181638
 20
212.3801458887453
 30
0.0
 10
333.5951415181638
 20
212.3801458887453
 30
0.0
 10
333.5951415181638
 20
226.2638806943021
 30
0.0
 10
333.5951415181638
 20
226.2638806943021
 30
0.0
 10
333.5951415181638
 20
226.2638806943021
 30
0.0
 10
331.4361001775576
 20
226.2638806943021
 30
0.0
 10
331.4361001775576
 20
226.2638806943021
 30
0.0
 10
331.295884791308
 20
225.1642062154104
 30
0.0
 10
331.0409477253995
 20
224.1351561939662
 30
0.0
 10
330.6712889798322
 20
223.1760416108727
 30
0.0
 10
330.3012857247164
 20
222.2158934991335
 30
0.0
 10
329.8365423437562
 20
221.3859699967369
 30
0.0
 10
329.2767143274031
 20
220.6866156132311
 30
0.0
 10
328.7172308205985
 20
219.9865722106284
 30
0.0
 10
328.0723089457597
 20
219.4319118375032
 30
0.0
 10
327.3426377219838
 20
219.0226344938555
 30
0.0
 10
326.6126219886594
 20
218.6126681311107
 30
0.0
 10
325.8181829697608
 20
218.4073404401898
 30
0.0
 10
324.9589761557394
 20
218.4073404401898
 30
0.0
 10
323.9788464901858
 20
218.4073404401898
 30
0.0
 10
323.0948349886708
 20
218.6526312387396
 30
0.0
 10
322.3052191034515
 20
219.1428683262907
 30
0.0
 10
321.5152587086837
 20
219.6320718851962
 30
0.0
 10
320.8455321463511
 20
220.3069660907566
 30
0.0
 10
320.2960394164538
 20
221.1661729047779
 30
0.0
 10
319.7462021770079
 20
222.0257242283477
 30
0.0
 10
319.3262450373559
 20
223.0451279824332
 30
0.0
 10
319.0365125070464
 20
224.2247286765827
 30
0.0
 10
318.7464354671884
 20
225.4045016255065
 30
0.0
 10
318.6020859663564
 20
226.6740193118211
 30
0.0
 10
318.6020859663564
 20
228.0334539903007
 30
0.0
 10
318.6020859663564
 20
229.5518798254245
 30
0.0
 10
318.7567707536442
 20
230.9064913702248
 30
0.0
 10
319.0668293473166
 20
232.0969441151529
 30
0.0
 10
319.3765434314406
 20
233.2853298027898
 30
0.0
 10
319.816482124907
 20
234.2902641558372
 30
0.0
 10
320.3863009181673
 20
235.1105413908751
 30
0.0
 10
320.9554306923306
 20
235.9299573520418
 30
0.0
 10
321.6255017642117
 20
236.5588595328742
 30
0.0
 10
322.3951360956165
 20
236.9991427358891
 30
0.0
 10
323.1644259174728
 20
237.438736919807
 30
0.0
 10
324.0191541073633
 20
237.6583617569917
 30
0.0
 10
324.9589761557394
 20
237.6583617569917
 30
0.0
 10
325.8181829697608
 20
237.6583617569917
 30
0.0
 10
326.6229572751151
 20
237.4787000274359
 30
0.0
 10
327.372954562254
 20
237.1193765683243
 30
0.0
 10
328.1226073398444
 20
236.7590195805672
 30
0.0
 10
328.786477239852
 20
236.2346760477122
 30
0.0
 10
329.3673203386651
 20
235.5451401863394
 30
0.0
 10
329.9464408897356
 20
234.8547430510953
 30
0.0
 10
330.4215195571516
 20
234.015862300437
 30
0.0
 10
330.7911783027189
 20
233.0255696032019
 30
0.0
 10
331.1611815578347
 20
232.0363104346125
 30
0.0
 10
331.4057833372875
 20
230.9123480325497
 30
0.0
 10
331.5260171697226
 20
229.6524766135938
 30
0.0
 10
331.5260171697226
 20
229.6524766135938
 30
0.0
 10
333.5951415181638
 20
229.6524766135938
 30
0.0
 10
333.5951415181638
 20
229.6524766135938
 30
0.0
 10
333.5951415181638
 20
229.6524766135938
 30
0.0
 10
333.5951415181638
 20
238.5285928765658
 30
0.0
 10
333.5951415181638
 20
238.5285928765658
 30
0.0
 10
333.5951415181638
 20
238.7482177137504
 30
0.0
 10
333.6347601162441
 20
238.8977348578103
 30
0.0
 10
333.7146863315019
 20
238.9786946017137
 30
0.0
 10
333.7942680372112
 20
239.0579317978744
 30
0.0
 10
333.9444742003681
 20
239.0978949055033
 30
0.0
 10
334.1646158018755
 20
239.0978949055033
 30
0.0
 10
334.1646158018755
 20
239.0978949055033
 30
0.0
 10
336.9537651067338
 20
239.0978949055033
 30
0.0
 10
336.9537651067338
 20
239.0978949055033
 30
0.0
 10
337.3330701196598
 20
239.0978949055033
 30
0.0
 10
337.5228948808971
 20
238.9084146538146
 30
0.0
 10
337.5228948808971
 20
238.5285928765658
 30
0.0
 10
337.5228948808971
 20
238.5285928765658
 30
0.0
 10
337.5228948808971
 20
212.3801458887453
 30
0.0
 10
337.5228948808971
 20
212.3801458887453
 30
0.0
 10
337.5228948808971
 20
212.1407117525204
 30
0.0
 10
337.4829317732681
 20
211.9863714747812
 30
0.0
 10
337.4033500675589
 20
211.9160915268821
 30
0.0
 10
337.3230793427526
 20
211.845811578983
 30
0.0
 10
337.1732176891442
 20
211.8106716050335
 30
0.0
 10
336.9537651067338
 20
211.8106716050335
 30
0.0
  0
SPLINE
  5
62
330
3D
100
AcDbEntity
  8
Layer 1
 62
   179
420
  2301728
370
    35
100
AcDbSpline
210
0.0
220
0.0
230
1.0
 70
    11
 71
     3
 72
    53
 73
    49
 74
     0
 42
0.0000000001
 43
0.0000000001
 40
0.0
 40
0.0
 40
0.0
 40
0.0
 40
1.0
 40
1.0
 40
1.0
 40
2.0
 40
2.0
 40
2.0
 40
3.0
 40
3.0
 40
3.0
 40
4.0
 40
4.0
 40
4.0
 40
5.0
 40
5.0
 40
5.0
 40
6.0
 40
6.0
 40
6.0
 40
7.0
 40
7.0
 40
7.0
 40
8.0
 40
8.0
 40
8.0
 40
9.0
 40
9.0
 40
9.0
 40
10.0
 40
10.0
 40
10.0
 40
11.0
 40
11.0
 40
11.0
 40
12.0
 40
12.0
 40
12.0
 40
13.0
 40
13.0
 40
13.0
 40
14.0
 40
14.0
 40
14.0
 40
15.0
 40
15.0
 40
15.0
 40
16.0
 40
16.0
 40
16.0
 40
16.0
 10
324.9886039769126
 20
234.1204209484144
 30
0.0
 10
324.5093911949143
 20
234.1204209484144
 30
0.0
 10
324.1087265899798
 20
233.92990716808
 30
0.0
 10
323.7893662384971
 20
233.5509466647026
 30
0.0
 10
323.4696613774659
 20
233.1711248874537
 30
0.0
 10
323.2143798020089
 20
232.6808877999027
 30
0.0
 10
323.0248995503202
 20
232.081268930695
 30
0.0
 10
322.8343857699859
 20
231.4816500614872
 30
0.0
 10
322.6948594028332
 20
230.8224310403847
 30
0.0
 10
322.6049424106682
 20
230.102750593516
 30
0.0
 10
322.5150254185032
 20
229.3830701466473
 30
0.0
 10
322.470239177195
 20
228.6828544892703
 30
0.0
 10
322.470239177195
 20
228.0031371500305
 30
0.0
 10
322.470239177195
 20
227.3439181289279
 30
0.0
 10
322.5150254185032
 20
226.6535209936839
 30
0.0
 10
322.6049424106682
 20
225.9338405468152
 30
0.0
 10
322.6948594028332
 20
225.2150213738178
 30
0.0
 10
322.8398979227622
 20
224.5547688240696
 30
0.0
 10
323.0400579704553
 20
223.9553222096362
 30
0.0
 10
323.2398735085998
 20
223.3555310856542
 30
0.0
 10
323.4996337081876
 20
222.8604708644238
 30
0.0
 10
323.8193385692188
 20
222.470830565042
 30
0.0
 10
324.13904343025
 20
222.0811902656603
 30
0.0
 10
324.5286837296317
 20
221.8858533516466
 30
0.0
 10
324.9886039769126
 20
221.8858533516466
 30
0.0
 10
325.4085611165646
 20
221.8858533516466
 30
0.0
 10
325.7837320149083
 20
222.0608642022973
 30
0.0
 10
326.1134276528467
 20
222.4112304131472
 30
0.0
 10
326.4434678003336
 20
222.7609076049001
 30
0.0
 10
326.7280326874152
 20
223.2208278521809
 30
0.0
 10
326.9678113331886
 20
223.7903021358927
 30
0.0
 10
327.2079344885105
 20
224.359431910056
 30
0.0
 10
327.3877684728405
 20
225.0148613261248
 30
0.0
 10
327.5076577957273
 20
225.7541788172594
 30
0.0
 10
327.6278916281625
 20
226.4933240536197
 30
0.0
 10
327.6874917800573
 20
227.2433213407586
 30
0.0
 10
327.6874917800573
 20
228.0031371500305
 30
0.0
 10
327.6874917800573
 20
228.8029160669312
 30
0.0
 10
327.6278916281625
 20
229.5675550098824
 30
0.0
 10
327.5076577957273
 20
230.2970539788841
 30
0.0
 10
327.3877684728405
 20
231.0265529478857
 30
0.0
 10
327.2124131126413
 20
231.6769869755009
 30
0.0
 10
326.9829697533237
 20
232.2462890044384
 30
0.0
 10
326.752837374909
 20
232.8166245620216
 30
0.0
 10
326.4682724878274
 20
233.2706881469775
 30
0.0
 10
326.1282415634332
 20
233.6105468165974
 30
0.0
 10
325.7882106390391
 20
233.9504054862173
 30
0.0
 10
325.4085611165646
 20
234.1204209484144
 30
0.0
 10
324.9886039769126
 20
234.1204209484144
 30
0.0
  0
SPLINE
  5
63
330
3D
100
AcDbEntity
  8
Layer 1
 62
   179
420
  2301728
370
    35
100
AcDbSpline
210
0.0
220
0.0
230
1.0
 70
    11
 71
     3
 72
    41
 73
    37
 74
     0
 42
0.0000000001
 43
0.0000000001
 40
0.0
 40
0.0
 40
0.0
 40
0.0
 40
1.0
 40
1.0
 40
1.0
 40
2.0
 40
2.0
 40
2.0
 40
3.0
 40
3.0
 40
3.0
 40
4.0
 40
4.0
 40
4.0
 40
5.0
 40
5.0
 40
5.0
 40
6.0
 40
6.0
 40
6.0
 40
7.0
 40
7.0
 40
7.0
 40
8.0
 40
8.0
 40
8.0
 40
9.0
 40
9.0
 40
9.0
 40
10.0
 40
10.0
 40
10.0
 40
11.0
 40
11.0
 40
11.0
 40
12.0
 40
12.0
 40
12.0
 40
12.0
 10
343.0405598100732
 20
210.8215846912182
 30
0.0
 10
343.0405598100732
 20
210.8215846912182
 30
0.0
 10
340.0715765208849
 20
210.8215846912182
 30
0.0
 10
340.0715765208849
 20
210.8215846912182
 30
0.0
 10
339.8514349193774
 20
210.8215846912182
 30
0.0
 10
339.7015732657691
 20
210.8615477988471
 30
0.0
 10
339.6219915600598
 20
210.9414740141049
 30
0.0
 10
339.542065344802
 20
211.0217447389113
 30
0.0
 10
339.5024467467216
 20
211.1712618829711
 30
0.0
 10
339.5024467467216
 20
211.3907144653815
 30
0.0
 10
339.5024467467216
 20
211.3907144653815
 30
0.0
 10
339.5024467467216
 20
239.0382947536085
 30
0.0
 10
339.5024467467216
 20
239.0382947536085
 30
0.0
 10
339.5024467467216
 20
239.2580918455674
 30
0.0
 10
339.5472329880299
 20
239.407436734853
 30
0.0
 10
339.6371499801949
 20
239.4875352048851
 30
0.0
 10
339.7270669723599
 20
239.5676336749171
 30
0.0
 10
339.8817517596476
 20
239.607596782546
 30
0.0
 10
340.1018933611551
 20
239.607596782546
 30
0.0
 10
340.1018933611551
 20
239.607596782546
 30
0.0
 10
343.0405598100732
 20
239.607596782546
 30
0.0
 10
343.0405598100732
 20
239.607596782546
 30
0.0
 10
343.2603569020321
 20
239.607596782546
 30
0.0
 10
343.4102185556405
 20
239.5676336749171
 30
0.0
 10
343.4901447708983
 20
239.4875352048851
 30
0.0
 10
343.5704154957047
 20
239.407436734853
 30
0.0
 10
343.6103786033335
 20
239.2580918455674
 30
0.0
 10
343.6103786033335
 20
239.0382947536085
 30
0.0
 10
343.6103786033335
 20
239.0382947536085
 30
0.0
 10
343.6103786033335
 20
211.3907144653815
 30
0.0
 10
343.6103786033335
 20
211.3907144653815
 30
0.0
 10
343.6103786033335
 20
211.1712618829711
 30
0.0
 10
343.5704154957047
 20
211.0217447389113
 30
0.0
 10
343.4901447708983
 20
210.9414740141049
 30
0.0
 10
343.4102185556405
 20
210.8615477988471
 30
0.0
 10
343.2603569020321
 20
210.8215846912182
 30
0.0
 10
343.0405598100732
 20
210.8215846912182
 30
0.0
  0
SPLINE
  5
64
330
3D
100
AcDbEntity
  8
Layer 1
370
     0
100
AcDbSpline
210
0.0
220
0.0
230
1.0
 70
    11
 71
     3
 72
    53
 73
    49
 74
     0
 42
0.0000000001
 43
0.0000000001
 40
0.0
 40
0.0
 40
0.0
 40
0.0
 40
1.0
 40
1.0
 40
1.0
 40
2.0
 40
2.0
 40
2.0
 40
3.0
 40
3.0
 40
3.0
 40
4.0
 40
4.0
 40
4.0
 40
5.0
 40
5.0
 40
5.0
 40
6.0
 40
6.0
 40
6.0
 40
7.0
 40
7.0
 40
7.0
 40
8.0
 40
8.0
 40
8.0
 40
9.0
 40
9.0
 40
9.0
 40
10.0
 40
10.0
 40
10.0
 40
11.0
 40
11.0
 40
11.0
 40
12.0
 40
12.0
 40
12.0
 40
13.0
 40
13.0
 40
13.0
 40
14.0
 40
14.0
 40
14.0
 40
15.0
 40
15.0
 40
15.0
 40
16.0
 40
16.0
 40
16.0
 40
16.0
 10
363.5805636026813
 20
224.6150579950615
 30
0.0
 10
362.481233633338
 20
224.6150579950615
 30
0.0
 10
361.4766437898392
 20
224.7993706035224
 30
0.0
 10
360.5671385817332
 20
225.1697183681868
 30
0.0
 10
359.6569443545302
 20
225.5393771137541
 30
0.0
 10
358.8728406220874
 20
226.0440836023432
 30
0.0
 10
358.213104836662
 20
226.683837833954
 30
0.0
 10
357.5533690512367
 20
227.323592065565
 30
0.0
 10
357.0434949194197
 20
228.0580864230202
 30
0.0
 10
356.6838269507596
 20
228.8880099254169
 30
0.0
 10
356.3241589820995
 20
229.7172444087165
 30
0.0
 10
356.1443249977695
 20
230.6019449293287
 30
0.0
 10
356.1443249977695
 20
231.5417669777048
 30
0.0
 10
356.1443249977695
 20
232.4812445165325
 30
0.0
 10
356.3241589820995
 20
233.370768170824
 30
0.0
 10
356.6838269507596
 20
234.2103379405794
 30
0.0
 10
357.0434949194197
 20
235.0502522198833
 30
0.0
 10
357.5533690512367
 20
235.7895697110179
 30
0.0
 10
358.213104836662
 20
236.4293239426288
 30
0.0
 10
358.8728406220874
 20
237.0690781742397
 30
0.0
 10
359.6569443545302
 20
237.5734401532803
 30
0.0
 10
360.5671385817332
 20
237.9437879179446
 30
0.0
 10
361.4766437898392
 20
238.3134466635119
 30
0.0
 10
362.481233633338
 20
238.4984482910698
 30
0.0
 10
363.5805636026813
 20
238.4984482910698
 30
0.0
 10
364.699875125839
 20
238.4984482910698
 30
0.0
 10
365.7196233894729
 20
238.3134466635119
 30
0.0
 10
366.6394638840346
 20
237.9437879179446
 30
0.0
 10
367.5586153594992
 20
237.5734401532803
 30
0.0
 10
368.3482312447185
 20
237.0690781742397
 30
0.0
 10
369.0083115396924
 20
236.4293239426288
 30
0.0
 10
369.6677028155692
 20
235.7895697110179
 30
0.0
 10
370.1775769473862
 20
235.0502522198833
 30
0.0
 10
370.5372449160462
 20
234.2103379405794
 30
0.0
 10
370.8972573942549
 20
233.370768170824
 30
0.0
 10
371.0770913785849
 20
232.4812445165325
 30
0.0
 10
371.0770913785849
 20
231.5417669777048
 30
0.0
 10
371.0770913785849
 20
230.6019449293287
 30
0.0
 10
370.8972573942549
 20
229.7172444087165
 30
0.0
 10
370.5372449160462
 20
228.8880099254169
 30
0.0
 10
370.1775769473862
 20
228.0580864230202
 30
0.0
 10
369.6677028155692
 20
227.323592065565
 30
0.0
 10
369.0083115396924
 20
226.683837833954
 30
0.0
 10
368.3482312447185
 20
226.0440836023432
 30
0.0
 10
367.5586153594992
 20
225.5393771137541
 30
0.0
 10
366.6394638840346
 20
225.1697183681868
 30
0.0
 10
365.7196233894729
 20
224.7993706035224
 30
0.0
 10
364.699875125839
 20
224.6150579950615
 30
0.0
 10
363.5805636026813
 20
224.6150579950615
 30
0.0
  0
SPLINE
  5
65
330
3D
100
AcDbEntity
  8
Layer 1
370
     0
100
AcDbSpline
210
0.0
220
0.0
230
1.0
 70
    11
 71
     3
 72
   122
 73
   118
 74
     0
 42
0.0000000001
 43
0.0000000001
 40
0.0
 40
0.0
 40
0.0
 40
0.0
 40
1.0
 40
1.0
 40
1.0
 40
2.0
 40
2.0
 40
2.0
 40
3.0
 40
3.0
 40
3.0
 40
4.0
 40
4.0
 40
4.0
 40
5.0
 40
5.0
 40
5.0
 40
6.0
 40
6.0
 40
6.0
 40
7.0
 40
7.0
 40
7.0
 40
8.0
 40
8.0
 40
8.0
 40
9.0
 40
9.0
 40
9.0
 40
10.0
 40
10.0
 40
10.0
 40
11.0
 40
11.0
 40
11.0
 40
12.0
 40
12.0
 40
12.0
 40
13.0
 40
13.0
 40
13.0
 40
14.0
 40
14.0
 40
14.0
 40
15.0
 40
15.0
 40
15.0
 40
16.0
 40
16.0
 40
16.0
 40
17.0
 40
17.0
 40
17.0
 40
18.0
 40
18.0
 40
18.0
 40
19.0
 40
19.0
 40
19.0
 40
20.0
 40
20.0
 40
20.0
 40
21.0
 40
21.0
 40
21.0
 40
22.0
 40
22.0
 40
22.0
 40
23.0
 40
23.0
 40
23.0
 40
24.0
 40
24.0
 40
24.0
 40
25.0
 40
25.0
 40
25.0
 40
26.0
 40
26.0
 40
26.0
 40
27.0
 40
27.0
 40
27.0
 40
28.0
 40
28.0
 40
28.0
 40
29.0
 40
29.0
 40
29.0
 40
30.0
 40
30.0
 40
30.0
 40
31.0
 40
31.0
 40
31.0
 40
32.0
 40
32.0
 40
32.0
 40
33.0
 40
33.0
 40
33.0
 40
34.0
 40
34.0
 40
34.0
 40
35.0
 40
35.0
 40
35.0
 40
36.0
 40
36.0
 40
36.0
 40
37.0
 40
37.0
 40
37.0
 40
38.0
 40
38.0
 40
38.0
 40
39.0
 40
39.0
 40
39.0
 40
39.0
 10
370.4773002546029
 20
210.9411295045564
 30
0.0
 10
370.0773246687654
 20
210.7416584759604
 30
0.0
 10
369.6876843693836
 20
210.7416584759604
 30
0.0
 10
369.3080348469091
 20
210.9411295045564
 30
0.0
 10
368.5284097385971
 20
211.301141982765
 30
0.0
 10
367.7384493438293
 20
211.8558023558902
 30
0.0
 10
366.9391871912513
 20
212.6054551334806
 30
0.0
 10
366.1392360195763
 20
213.3551079110709
 30
0.0
 10
365.4495279034293
 20
214.1798637702398
 30
0.0
 10
364.8700628428103
 20
215.0793782014385
 30
0.0
 10
364.2499456554653
 20
214.1199191087964
 30
0.0
 10
363.51545129801
 20
213.2603677852266
 30
0.0
 10
362.6658907513474
 20
212.5003797211805
 30
0.0
 10
361.8163302046848
 20
211.7410806762314
 30
0.0
 10
360.8916665764438
 20
211.1316432848907
 30
0.0
 10
359.8925888857213
 20
210.6713785280613
 30
0.0
 10
359.6321396670364
 20
210.5514892051746
 30
0.0
 10
359.4426594153477
 20
210.5063584543179
 30
0.0
 10
359.322770092461
 20
210.5363307850395
 30
0.0
 10
359.2028807695743
 20
210.5663031157612
 30
0.0
 10
359.0826469371391
 20
210.6613877511541
 30
0.0
 10
358.9627576142524
 20
210.8212401816697
 30
0.0
 10
358.9627576142524
 20
210.8212401816697
 30
0.0
 10
357.5533690512367
 20
212.8603921993891
 30
0.0
 10
357.5533690512367
 20
212.8603921993891
 30
0.0
 10
357.3135904054633
 20
213.1804415699688
 30
0.0
 10
357.3931721111725
 20
213.4501925464639
 30
0.0
 10
357.7931476970101
 20
213.6699896384228
 30
0.0
 10
359.4323241288919
 20
214.5695040696215
 30
0.0
 10
360.6966741719786
 20
215.6895046118762
 30
0.0
 10
361.5865423358186
 20
217.0282687174443
 30
0.0
 10
362.4757214805616
 20
218.3673773325609
 30
0.0
 10
362.9008462634415
 20
219.9565998799067
 30
0.0
 10
362.8608831558126
 20
221.7962808690301
 30
0.0
 10
362.8608831558126
 20
221.9561332995457
 30
0.0
 10
362.8856878433064
 20
222.0811902656603
 30
0.0
 10
362.935986237391
 20
222.1711072578253
 30
0.0
 10
362.9855956123786
 20
222.2610242499903
 30
0.0
 10
363.1502711765735
 20
222.3061550008471
 30
0.0
 10
363.4307019490729
 20
222.3061550008471
 30
0.0
 10
363.4307019490729
 20
222.3061550008471
 30
0.0
 10
366.3094237365477
 20
222.2758381605769
 30
0.0
 10
366.3094237365477
 20
222.2758381605769
 30
0.0
 10
366.6091470437644
 20
222.2758381605769
 30
0.0
 10
366.76899947428
 20
222.1059949531541
 30
0.0
 10
366.7889810280944
 20
221.7663085383084
 30
0.0
 10
366.8089625819089
 20
221.4062960600998
 30
0.0
 10
366.8041394482295
 20
221.0466280914397
 30
0.0
 10
366.7741671175079
 20
220.6866156132311
 30
0.0
 10
366.7441947867862
 20
220.326947644571
 30
0.0
 10
366.7090548128367
 20
219.9769259432697
 30
0.0
 10
366.6690917052077
 20
219.637239528424
 30
0.0
 10
366.8888887971667
 20
218.677780435782
 30
0.0
 10
367.2437336321474
 20
217.8382106660266
 30
0.0
 10
367.73362621015
 20
217.1185302191579
 30
0.0
 10
368.2235187881525
 20
216.3988497722892
 30
0.0
 10
368.8181422689066
 20
215.7787325849442
 30
0.0
 10
369.5178411619609
 20
215.2592121857685
 30
0.0
 10
369.6776935924764
 20
215.1593044166963
 30
0.0
 10
369.7975829153631
 20
215.1045273984808
 30
0.0
 10
369.8778536401695
 20
215.0941921120251
 30
0.0
 10
369.9574353458787
 20
215.0845458446664
 30
0.0
 10
370.0473523380437
 20
215.1293320859746
 30
0.0
 10
370.1476046166645
 20
215.2292398550469
 30
0.0
 10
371.0068114306858
 20
215.9289387481011
 30
0.0
 10
371.6865287699256
 20
216.8432670898864
 30
0.0
 10
372.1867566343839
 20
217.9729138994998
 30
0.0
 10
372.6862954797451
 20
219.1022161995647
 30
0.0
 10
372.946055679333
 20
220.4268554136433
 30
0.0
 10
372.9660372331474
 20
221.9461425226385
 30
0.0
 10
372.9660372331474
 20
222.2458658298552
 30
0.0
 10
373.1562065039332
 20
222.3960719930121
 30
0.0
 10
373.5358560264077
 20
222.3960719930121
 30
0.0
 10
373.5358560264077
 20
222.3960719930121
 30
0.0
 10
376.2946884909958
 20
222.3660996622904
 30
0.0
 10
376.2946884909958
 20
222.3660996622904
 30
0.0
 10
376.5144855829547
 20
222.3660996622904
 30
0.0
 10
376.669514879791
 20
222.3406059556996
 30
0.0
 10
376.7597763815045
 20
222.290996580712
 30
0.0
 10
376.849348864121
 20
222.2406981866273
 30
0.0
 10
376.8941351054293
 20
222.1156412205128
 30
0.0
 10
376.8941351054293
 20
221.9161701919168
 30
0.0
 10
376.8941351054293
 20
221.6164468847001
 30
0.0
 10
376.8844888380706
 20
221.3212022016141
 30
0.0
 10
376.8645072842561
 20
221.0314696713046
 30
0.0
 10
376.8445257304417
 20
220.7413926314466
 30
0.0
 10
376.8142088901715
 20
220.456827744365
 30
0.0
 10
376.7742457825426
 20
220.1770859909627
 30
0.0
 10
377.1738768588315
 20
218.6178357743386
 30
0.0
 10
377.813975599991
 20
217.3479735784755
 30
0.0
 10
378.6938529869238
 20
216.3688774415675
 30
0.0
 10
379.5730413547595
 20
215.389436795111
 30
0.0
 10
380.572119045482
 20
214.5994764003432
 30
0.0
 10
381.6924640972852
 20
213.9996852763612
 30
0.0
 10
381.9122611892442
 20
213.9001220168375
 30
0.0
 10
382.0114799392194
 20
213.7650742738157
 30
0.0
 10
381.992187404502
 20
213.5948865568443
 30
0.0
 10
381.9722058506875
 20
213.4253878589701
 30
0.0
 10
381.9122611892442
 20
213.2903401159483
 30
0.0
 10
381.8123534201719
 20
213.1900878373275
 30
0.0
 10
381.8123534201719
 20
213.1900878373275
 30
0.0
 10
380.4928818493212
 20
211.1512803291566
 30
0.0
 10
380.4928818493212
 20
211.1512803291566
 30
0.0
 10
380.2930663111767
 20
210.8715385757544
 30
0.0
 10
380.0525986463063
 20
210.8016031374038
 30
0.0
 10
379.772856892904
 20
210.9411295045564
 30
0.0
 10
378.8929795059712
 20
211.3414495999424
 30
0.0
 10
378.0289495582705
 20
211.9457193480552
 30
0.0
 10
377.179389011608
 20
212.755316787089
 30
0.0
 10
376.3291394458483
 20
213.5649142261227
 30
0.0
 10
375.6249619286632
 20
214.4795870774565
 30
0.0
 10
375.0654784218586
 20
215.4989908315419
 30
0.0
 10
374.4253796806992
 20
214.4196424160131
 30
0.0
 10
373.7008761001512
 20
213.4901556540927
 30
0.0
 10
372.8912786611175
 20
212.7105305457807
 30
0.0
 10
372.0816812220838
 20
211.9309054374687
 30
0.0
 10
371.2765624071809
 20
211.3414495999424
 30
0.0
 10
370.4773002546029
 20
210.9411295045564
 30
0.0
  0
SPLINE
  5
66
330
3D
100
AcDbEntity
  8
Layer 1
370
     0
100
AcDbSpline
210
0.0
220
0.0
230
1.0
 70
    11
 71
     3
 72
    53
 73
    49
 74
     0
 42
0.0000000001
 43
0.0000000001
 40
0.0
 40
0.0
 40
0.0
 40
0.0
 40
1.0
 40
1.0
 40
1.0
 40
2.0
 40
2.0
 40
2.0
 40
3.0
 40
3.0
 40
3.0
 40
4.0
 40
4.0
 40
4.0
 40
5.0
 40
5.0
 40
5.0
 40
6.0
 40
6.0
 40
6.0
 40
7.0
 40
7.0
 40
7.0
 40
8.0
 40
8.0
 40
8.0
 40
9.0
 40
9.0
 40
9.0
 40
10.0
 40
10.0
 40
10.0
 40
11.0
 40
11.0
 40
11.0
 40
12.0
 40
12.0
 40
12.0
 40
13.0
 40
13.0
 40
13.0
 40
14.0
 40
14.0
 40
14.0
 40
15.0
 40
15.0
 40
15.0
 40
16.0
 40
16.0
 40
16.0
 40
16.0
 10
363.5805636026813
 20
234.9599907181697
 30
0.0
 10
363.0606986939571
 20
234.9599907181697
 30
0.0
 10
362.5911321793175
 20
234.8700737260047
 30
0.0
 10
362.1711750396656
 20
234.6902397416747
 30
0.0
 10
361.7515624095621
 20
234.5104057573446
 30
0.0
 10
361.391894440902
 20
234.2654594683434
 30
0.0
 10
361.0918266241368
 20
233.9557453842194
 30
0.0
 10
360.7917588073715
 20
233.6453422809984
 30
0.0
 10
360.5568032952775
 20
233.280851178659
 30
0.0
 10
360.3873045974032
 20
232.8612385485555
 30
0.0
 10
360.2171168804318
 20
232.4412814089036
 30
0.0
 10
360.1323675314947
 20
232.0013427154372
 30
0.0
 10
360.1323675314947
 20
231.5417669777048
 30
0.0
 10
360.1323675314947
 20
231.0815022208755
 30
0.0
 10
360.2171168804318
 20
230.6467311706369
 30
0.0
 10
360.3873045974032
 20
230.2374538269893
 30
0.0
 10
360.5568032952775
 20
229.8274874642445
 30
0.0
 10
360.7917588073715
 20
229.4674749860359
 30
0.0
 10
361.0918266241368
 20
229.157760901912
 30
0.0
 10
361.391894440902
 20
228.8477023082395
 30
0.0
 10
361.7515624095621
 20
228.6031005287867
 30
0.0
 10
362.1711750396656
 20
228.4232665444567
 30
0.0
 10
362.5911321793175
 20
228.2430880505781
 30
0.0
 10
363.0606986939571
 20
228.1531710584131
 30
0.0
 10
363.5805636026813
 20
228.1531710584131
 30
0.0
 10
364.1004285114055
 20
228.1531710584131
 30
0.0
 10
364.5799858029523
 20
228.2430880505781
 30
0.0
 10
365.0199244964186
 20
228.4232665444567
 30
0.0
 10
365.4595186803365
 20
228.6031005287867
 30
0.0
 10
365.8343450691317
 20
228.8477023082395
 30
0.0
 10
366.1444036628042
 20
229.157760901912
 30
0.0
 10
366.4541177469281
 20
229.4674749860359
 30
0.0
 10
366.6938963927016
 20
229.8274874642445
 30
0.0
 10
366.8640841096729
 20
230.2374538269893
 30
0.0
 10
367.0335828075472
 20
230.6467311706369
 30
0.0
 10
367.1190211755814
 20
231.0815022208755
 30
0.0
 10
367.1190211755814
 20
231.5417669777048
 30
0.0
 10
367.1190211755814
 20
232.0013427154372
 30
0.0
 10
367.0335828075472
 20
232.4412814089036
 30
0.0
 10
366.8640841096729
 20
232.8612385485555
 30
0.0
 10
366.6938963927016
 20
233.280851178659
 30
0.0
 10
366.4541177469281
 20
233.6453422809984
 30
0.0
 10
366.1444036628042
 20
233.9557453842194
 30
0.0
 10
365.8343450691317
 20
234.2654594683434
 30
0.0
 10
365.4595186803365
 20
234.5104057573446
 30
0.0
 10
365.0199244964186
 20
234.6902397416747
 30
0.0
 10
364.5799858029523
 20
234.8700737260047
 30
0.0
 10
364.1004285114055
 20
234.9599907181697
 30
0.0
 10
363.5805636026813
 20
234.9599907181697
 30
0.0
  0
SPLINE
  5
67
330
3D
100
AcDbEntity
  8
Layer 1
370
     0
100
AcDbSpline
210
0.0
220
0.0
230
1.0
 70
    11
 71
     3
 72
    38
 73
    34
 74
     0
 42
0.0000000001
 43
0.0000000001
 40
0.0
 40
0.0
 40
0.0
 40
0.0
 40
1.0
 40
1.0
 40
1.0
 40
2.0
 40
2.0
 40
2.0
 40
3.0
 40
3.0
 40
3.0
 40
4.0
 40
4.0
 40
4.0
 40
5.0
 40
5.0
 40
5.0
 40
6.0
 40
6.0
 40
6.0
 40
7.0
 40
7.0
 40
7.0
 40
8.0
 40
8.0
 40
8.0
 40
9.0
 40
9.0
 40
9.0
 40
10.0
 40
10.0
 40
10.0
 40
11.0
 40
11.0
 40
11.0
 40
11.0
 10
378.0337726919499
 20
223.9553222096362
 30
0.0
 10
378.0337726919499
 20
223.9553222096362
 30
0.0
 10
375.0654784218586
 20
223.9553222096362
 30
0.0
 10
375.0654784218586
 20
223.9553222096362
 30
0.0
 10
374.8253552665367
 20
223.9553222096362
 30
0.0
 10
374.6703259697005
 20
224.0001084509444
 30
0.0
 10
374.6003905313499
 20
224.0900254431095
 30
0.0
 10
374.5301105834508
 20
224.180286944823
 30
0.0
 10
374.4956596285983
 20
224.3346272225622
 30
0.0
 10
374.4956596285983
 20
224.5551133336182
 30
0.0
 10
374.4956596285983
 20
224.5551133336182
 30
0.0
 10
374.4956596285983
 20
239.0382947536085
 30
0.0
 10
374.4956596285983
 20
239.0382947536085
 30
0.0
 10
374.4956596285983
 20
239.2580918455674
 30
0.0
 10
374.5356227362272
 20
239.4079534991758
 30
0.0
 10
374.615548951485
 20
239.4878797144336
 30
0.0
 10
374.6951306571943
 20
239.5678059296914
 30
0.0
 10
374.8449923108026
 20
239.6081135468688
 30
0.0
 10
375.0654784218586
 20
239.6081135468688
 30
0.0
 10
375.0654784218586
 20
239.6081135468688
 30
0.0
 10
378.0337726919499
 20
239.6081135468688
 30
0.0
 10
378.0337726919499
 20
239.6081135468688
 30
0.0
 10
378.2535697839089
 20
239.6081135468688
 30
0.0
 10
378.4085990807451
 20
239.5678059296914
 30
0.0
 10
378.4988605824586
 20
239.4878797144336
 30
0.0
 10
378.5884330650752
 20
239.4079534991758
 30
0.0
 10
378.6339083254804
 20
239.2580918455674
 30
0.0
 10
378.6339083254804
 20
239.0382947536085
 30
0.0
 10
378.6339083254804
 20
239.0382947536085
 30
0.0
 10
378.6339083254804
 20
224.524796493348
 30
0.0
 10
378.6339083254804
 20
224.524796493348
 30
0.0
 10
378.6339083254804
 20
224.1451469708734
 30
0.0
 10
378.4334037682389
 20
223.9553222096362
 30
0.0
 10
378.0337726919499
 20
223.9553222096362
 30
0.0
  0
SPLINE
  5
68
330
3D
100
AcDbEntity
  8
Layer 1
 62
   179
420
  2301728
370
    35
100
AcDbSpline
210
0.0
220
0.0
230
1.0
 70
    11
 71
     3
 72
    53
 73
    49
 74
     0
 42
0.0000000001
 43
0.0000000001
 40
0.0
 40
0.0
 40
0.0
 40
0.0
 40
1.0
 40
1.0
 40
1.0
 40
2.0
 40
2.0
 40
2.0
 40
3.0
 40
3.0
 40
3.0
 40
4.0
 40
4.0
 40
4.0
 40
5.0
 40
5.0
 40
5.0
 40
6.0
 40
6.0
 40
6.0
 40
7.0
 40
7.0
 40
7.0
 40
8.0
 40
8.0
 40
8.0
 40
9.0
 40
9.0
 40
9.0
 40
10.0
 40
10.0
 40
10.0
 40
11.0
 40
11.0
 40
11.0
 40
12.0
 40
12.0
 40
12.0
 40
13.0
 40
13.0
 40
13.0
 40
14.0
 40
14.0
 40
14.0
 40
15.0
 40
15.0
 40
15.0
 40
16.0
 40
16.0
 40
16.0
 40
16.0
 10
363.5805636026813
 20
224.61540250461
 30
0.0
 10
362.4808891237895
 20
224.61540250461
 30
0.0
 10
361.4766437898392
 20
224.7990260939739
 30
0.0
 10
360.5667940721847
 20
225.169201603864
 30
0.0
 10
359.6572888640787
 20
225.5393771137541
 30
0.0
 10
358.8731851316359
 20
226.0440836023432
 30
0.0
 10
358.2127603271135
 20
226.683837833954
 30
0.0
 10
357.5533690512367
 20
227.3234198107907
 30
0.0
 10
357.0438394289682
 20
228.0577419134717
 30
0.0
 10
356.6841714603082
 20
228.8880099254169
 30
0.0
 10
356.3241589820995
 20
229.7170721539423
 30
0.0
 10
356.143980488221
 20
230.6017726745544
 30
0.0
 10
356.143980488221
 20
231.5412502133821
 30
0.0
 10
356.143980488221
 20
232.4807277522097
 30
0.0
 10
356.3241589820995
 20
233.3712849351468
 30
0.0
 10
356.6841714603082
 20
234.2101656858051
 30
0.0
 10
357.0438394289682
 20
235.050079965109
 30
0.0
 10
357.5533690512367
 20
235.7892252014694
 30
0.0
 10
358.2127603271135
 20
236.4289794330803
 30
0.0
 10
358.8731851316359
 20
237.0685614099169
 30
0.0
 10
359.6572888640787
 20
237.5734401532803
 30
0.0
 10
360.5667940721847
 20
237.9436156631704
 30
0.0
 10
361.4766437898392
 20
238.3137911730605
 30
0.0
 10
362.4808891237895
 20
238.4982760362956
 30
0.0
 10
363.5805636026813
 20
238.4982760362956
 30
0.0
 10
364.699875125839
 20
238.4982760362956
 30
0.0
 10
365.7196233894729
 20
238.3137911730605
 30
0.0
 10
366.6391193744861
 20
237.9436156631704
 30
0.0
 10
367.5586153594992
 20
237.5734401532803
 30
0.0
 10
368.348575754267
 20
237.0685614099169
 30
0.0
 10
369.0083115396924
 20
236.4289794330803
 30
0.0
 10
369.6680473251178
 20
235.7892252014694
 30
0.0
 10
370.1775769473862
 20
235.050079965109
 30
0.0
 10
370.5375894255948
 20
234.2101656858051
 30
0.0
 10
370.8976019038034
 20
233.3712849351468
 30
0.0
 10
371.0770913785849
 20
232.4807277522097
 30
0.0
 10
371.0770913785849
 20
231.5412502133821
 30
0.0
 10
371.0770913785849
 20
230.6017726745544
 30
0.0
 10
370.8976019038034
 20
229.7170721539423
 30
0.0
 10
370.5375894255948
 20
228.8880099254169
 30
0.0
 10
370.1775769473862
 20
228.0577419134717
 30
0.0
 10
369.6680473251178
 20
227.3234198107907
 30
0.0
 10
369.0083115396924
 20
226.683837833954
 30
0.0
 10
368.348575754267
 20
226.0440836023432
 30
0.0
 10
367.5586153594992
 20
225.5393771137541
 30
0.0
 10
366.6391193744861
 20
225.169201603864
 30
0.0
 10
365.7196233894729
 20
224.7990260939739
 30
0.0
 10
364.699875125839
 20
224.61540250461
 30
0.0
 10
363.5805636026813
 20
224.61540250461
 30
0.0
  0
SPLINE
  5
69
330
3D
100
AcDbEntity
  8
Layer 1
 62
   179
420
  2301728
370
    35
100
AcDbSpline
210
0.0
220
0.0
230
1.0
 70
    11
 71
     3
 72
   122
 73
   118
 74
     0
 42
0.0000000001
 43
0.0000000001
 40
0.0
 40
0.0
 40
0.0
 40
0.0
 40
1.0
 40
1.0
 40
1.0
 40
2.0
 40
2.0
 40
2.0
 40
3.0
 40
3.0
 40
3.0
 40
4.0
 40
4.0
 40
4.0
 40
5.0
 40
5.0
 40
5.0
 40
6.0
 40
6.0
 40
6.0
 40
7.0
 40
7.0
 40
7.0
 40
8.0
 40
8.0
 40
8.0
 40
9.0
 40
9.0
 40
9.0
 40
10.0
 40
10.0
 40
10.0
 40
11.0
 40
11.0
 40
11.0
 40
12.0
 40
12.0
 40
12.0
 40
13.0
 40
13.0
 40
13.0
 40
14.0
 40
14.0
 40
14.0
 40
15.0
 40
15.0
 40
15.0
 40
16.0
 40
16.0
 40
16.0
 40
17.0
 40
17.0
 40
17.0
 40
18.0
 40
18.0
 40
18.0
 40
19.0
 40
19.0
 40
19.0
 40
20.0
 40
20.0
 40
20.0
 40
21.0
 40
21.0
 40
21.0
 40
22.0
 40
22.0
 40
22.0
 40
23.0
 40
23.0
 40
23.0
 40
24.0
 40
24.0
 40
24.0
 40
25.0
 40
25.0
 40
25.0
 40
26.0
 40
26.0
 40
26.0
 40
27.0
 40
27.0
 40
27.0
 40
28.0
 40
28.0
 40
28.0
 40
29.0
 40
29.0
 40
29.0
 40
30.0
 40
30.0
 40
30.0
 40
31.0
 40
31.0
 40
31.0
 40
32.0
 40
32.0
 40
32.0
 40
33.0
 40
33.0
 40
33.0
 40
34.0
 40
34.0
 40
34.0
 40
35.0
 40
35.0
 40
35.0
 40
36.0
 40
36.0
 40
36.0
 40
37.0
 40
37.0
 40
37.0
 40
38.0
 40
38.0
 40
38.0
 40
39.0
 40
39.0
 40
39.0
 40
39.0
 10
370.4776447641514
 20
210.9414740141049
 30
0.0
 10
370.0769801592169
 20
210.7413139664119
 30
0.0
 10
369.6876843693836
 20
210.7413139664119
 30
0.0
 10
369.3080348469091
 20
210.9414740141049
 30
0.0
 10
368.5284097385971
 20
211.301141982765
 30
0.0
 10
367.7384493438293
 20
211.8558023558902
 30
0.0
 10
366.9388426817028
 20
212.6057996430291
 30
0.0
 10
366.1392360195763
 20
213.3547634015224
 30
0.0
 10
365.4495279034293
 20
214.1798637702398
 30
0.0
 10
364.8700628428103
 20
215.0793782014385
 30
0.0
 10
364.2499456554653
 20
214.1192300896994
 30
0.0
 10
363.51545129801
 20
213.2600232756781
 30
0.0
 10
362.6658907513474
 20
212.5003797211805
 30
0.0
 10
361.8163302046848
 20
211.7414251857799
 30
0.0
 10
360.8916665764438
 20
211.1319877944392
 30
0.0
 10
359.8925888857213
 20
210.6710340185128
 30
0.0
 10
359.6321396670364
 20
210.5511446956261
 30
0.0
 10
359.4423149057992
 20
210.5060139447693
 30
0.0
 10
359.322770092461
 20
210.5363307850395
 30
0.0
 10
359.2025362600258
 20
210.5666476253097
 30
0.0
 10
359.0826469371391
 20
210.6613877511541
 30
0.0
 10
358.9627576142524
 20
210.8215846912182
 30
0.0
 10
358.9627576142524
 20
210.8215846912182
 30
0.0
 10
357.5533690512367
 20
212.8607367089376
 30
0.0
 10
357.5533690512367
 20
212.8607367089376
 30
0.0
 10
357.3135904054633
 20
213.1797525508717
 30
0.0
 10
357.3931721111725
 20
213.4505370560124
 30
0.0
 10
357.7934922065586
 20
213.6699896384228
 30
0.0
 10
359.4319796193434
 20
214.5695040696215
 30
0.0
 10
360.6966741719786
 20
215.6898491214248
 30
0.0
 10
361.5865423358186
 20
217.0286132269929
 30
0.0
 10
362.4760659901102
 20
218.3673773325609
 30
0.0
 10
362.9008462634415
 20
219.9562553703582
 30
0.0
 10
362.8608831558126
 20
221.7959363594816
 30
0.0
 10
362.8608831558126
 20
221.9561332995457
 30
0.0
 10
362.8856878433064
 20
222.0811902656603
 30
0.0
 10
362.935986237391
 20
222.1711072578253
 30
0.0
 10
362.9859401219271
 20
222.2610242499903
 30
0.0
 10
363.1502711765735
 20
222.3058104912986
 30
0.0
 10
363.4307019490729
 20
222.3058104912986
 30
0.0
 10
363.4307019490729
 20
222.3058104912986
 30
0.0
 10
366.3094237365477
 20
222.2754936510284
 30
0.0
 10
366.3094237365477
 20
222.2754936510284
 30
0.0
 10
366.6094915533129
 20
222.2754936510284
 30
0.0
 10
366.76899947428
 20
222.1056504436056
 30
0.0
 10
366.7889810280944
 20
221.7659640287599
 30
0.0
 10
366.8086180723604
 20
221.4066405696483
 30
0.0
 10
366.8041394482295
 20
221.0462835818912
 30
0.0
 10
366.7745116270564
 20
220.6866156132311
 30
0.0
 10
366.7441947867862
 20
220.326258625474
 30
0.0
 10
366.7090548128367
 20
219.9769259432697
 30
0.0
 10
366.6694362147563
 20
219.6368950188755
 30
0.0
 10
366.8885442876182
 20
218.6781249453305
 30
0.0
 10
367.2437336321474
 20
217.8382106660266
 30
0.0
 10
367.7332817006014
 20
217.1185302191579
 30
0.0
 10
368.2235187881525
 20
216.3985052627407
 30
0.0
 10
368.8177977593581
 20
215.7783880753957
 30
0.0
 10
369.5181856715093
 20
215.25886767622
 30
0.0
 10
369.6776935924764
 20
215.1593044166963
 30
0.0
 10
369.7979274249116
 20
215.1048719080293
 30
0.0
 10
369.8778536401695
 20
215.0938476024766
 30
0.0
 10
369.9574353458787
 20
215.0842013351179
 30
0.0
 10
370.0473523380437
 20
215.1289875764261
 30
0.0
 10
370.147260107116
 20
215.2295843645954
 30
0.0
 10
371.0068114306858
 20
215.9289387481011
 30
0.0
 10
371.6865287699256
 20
216.8429225803379
 30
0.0
 10
372.1864121248354
 20
217.9729138994998
 30
0.0
 10
372.6859509701966
 20
219.1018716900162
 30
0.0
 10
372.9464001888815
 20
220.4268554136433
 30
0.0
 10
372.9663817426959
 20
221.946487032187
 30
0.0
 10
372.9663817426959
 20
222.2462103394037
 30
0.0
 10
373.1562065039332
 20
222.3957274834636
 30
0.0
 10
373.5362005359563
 20
222.3957274834636
 30
0.0
 10
373.5362005359563
 20
222.3957274834636
 30
0.0
 10
376.2950330005443
 20
222.366444171839
 30
0.0
 10
376.2950330005443
 20
222.366444171839
 30
0.0
 10
376.5144855829547
 20
222.366444171839
 30
0.0
 10
376.669514879791
 20
222.3409504652481
 30
0.0
 10
376.7597763815045
 20
222.2913410902605
 30
0.0
 10
376.8496933736695
 20
222.2403536770788
 30
0.0
 10
376.8941351054293
 20
222.1152967109642
 30
0.0
 10
376.8941351054293
 20
221.9161701919168
 30
0.0
 10
376.8941351054293
 20
221.6164468847001
 30
0.0
 10
376.8848333476191
 20
221.3215467111627
 30
0.0
 10
376.8648517938046
 20
221.0314696713046
 30
0.0
 10
376.8445257304417
 20
220.7413926314466
 30
0.0
 10
376.81455339972
 20
220.4561387252679
 30
0.0
 10
376.7742457825426
 20
220.1770859909627
 30
0.0
 10
377.1738768588315
 20
218.6174912647901
 30
0.0
 10
377.813975599991
 20
217.3479735784755
 30
0.0
 10
378.6938529869238
 20
216.368532932019
 30
0.0
 10
379.5730413547595
 20
215.3897813046595
 30
0.0
 10
380.572119045482
 20
214.5998209098917
 30
0.0
 10
381.6924640972852
 20
214.0003742954582
 30
0.0
 10
381.9122611892442
 20
213.8997775072889
 30
0.0
 10
382.0118244487679
 20
213.7647297642672
 30
0.0
 10
381.992187404502
 20
213.5948865568443
 30
0.0
 10
381.9722058506875
 20
213.4250433494215
 30
0.0
 10
381.9122611892442
 20
213.2903401159483
 30
0.0
 10
381.8123534201719
 20
213.1907768564245
 30
0.0
 10
381.8123534201719
 20
213.1907768564245
 30
0.0
 10
380.4932263588698
 20
211.1516248387051
 30
0.0
 10
380.4932263588698
 20
211.1516248387051
 30
0.0
 10
380.2930663111767
 20
210.8711940662058
 30
0.0
 10
380.0525986463063
 20
210.8019476469523
 30
0.0
 10
379.772856892904
 20
210.9414740141049
 30
0.0
 10
378.8929795059712
 20
211.3411050903939
 30
0.0
 10
378.0289495582705
 20
211.9453748385067
 30
0.0
 10
377.1790445020594
 20
212.7549722775404
 30
0.0
 10
376.3291394458483
 20
213.5645697165741
 30
0.0
 10
375.6249619286632
 20
214.4795870774565
 30
0.0
 10
375.0654784218586
 20
215.4993353410904
 30
0.0
 10
374.4253796806992
 20
214.4192979064646
 30
0.0
 10
373.7005315906027
 20
213.4905001636413
 30
0.0
 10
372.890934151569
 20
212.7101860362322
 30
0.0
 10
372.0813367125352
 20
211.9309054374687
 30
0.0
 10
371.2769069167294
 20
211.3411050903939
 30
0.0
 10
370.4776447641514
 20
210.9414740141049
 30
0.0
  0
SPLINE
  5
6A
330
3D
100
AcDbEntity
  8
Layer 1
 62
   179
420
  2301728
370
    35
100
AcDbSpline
210
0.0
220
0.0
230
1.0
 70
    11
 71
     3
 72
    53
 73
    49
 74
     0
 42
0.0000000001
 43
0.0000000001
 40
0.0
 40
0.0
 40
0.0
 40
0.0
 40
1.0
 40
1.0
 40
1.0
 40
2.0
 40
2.0
 40
2.0
 40
3.0
 40
3.0
 40
3.0
 40
4.0
 40
4.0
 40
4.0
 40
5.0
 40
5.0
 40
5.0
 40
6.0
 40
6.0
 40
6.0
 40
7.0
 40
7.0
 40
7.0
 40
8.0
 40
8.0
 40
8.0
 40
9.0
 40
9.0
 40
9.0
 40
10.0
 40
10.0
 40
10.0
 40
11.0
 40
11.0
 40
11.0
 40
12.0
 40
12.0
 40
12.0
 40
13.0
 40
13.0
 40
13.0
 40
14.0
 40
14.0
 40
14.0
 40
15.0
 40
15.0
 40
15.0
 40
16.0
 40
16.0
 40
16.0
 40
16.0
 10
363.5805636026813
 20
234.960162972944
 30
0.0
 10
363.0606986939571
 20
234.960162972944
 30
0.0
 10
362.591476688866
 20
234.8704182355532
 30
0.0
 10
362.1711750396656
 20
234.6905842512232
 30
0.0
 10
361.7515624095621
 20
234.5100612477961
 30
0.0
 10
361.3915499313535
 20
234.2658039778919
 30
0.0
 10
361.0918266241368
 20
233.9552286198966
 30
0.0
 10
360.79210331692
 20
233.6456867905469
 30
0.0
 10
360.5568032952775
 20
233.2805066691105
 30
0.0
 10
360.3873045974032
 20
232.8615830581041
 30
0.0
 10
360.2167723708833
 20
232.4416259184521
 30
0.0
 10
360.1323675314947
 20
232.0011704606629
 30
0.0
 10
360.1323675314947
 20
231.5412502133821
 30
0.0
 10
360.1323675314947
 20
231.0813299661012
 30
0.0
 10
360.2167723708833
 20
230.6467311706369
 30
0.0
 10
360.3873045974032
 20
230.2374538269893
 30
0.0
 10
360.5568032952775
 20
229.8273152094703
 30
0.0
 10
360.79210331692
 20
229.4679917503587
 30
0.0
 10
361.0918266241368
 20
229.1574163923634
 30
0.0
 10
361.3915499313535
 20
228.8478745630137
 30
0.0
 10
361.7515624095621
 20
228.6027560192382
 30
0.0
 10
362.1711750396656
 20
228.4230942896824
 30
0.0
 10
362.591476688866
 20
228.2434325601266
 30
0.0
 10
363.0606986939571
 20
228.1535155679616
 30
0.0
 10
363.5805636026813
 20
228.1535155679616
 30
0.0
 10
364.1000840018569
 20
228.1535155679616
 30
0.0
 10
364.5799858029523
 20
228.2434325601266
 30
0.0
 10
365.0199244964186
 20
228.4230942896824
 30
0.0
 10
365.4595186803365
 20
228.6027560192382
 30
0.0
 10
365.8343450691317
 20
228.8478745630137
 30
0.0
 10
366.1444036628042
 20
229.1574163923634
 30
0.0
 10
366.4541177469281
 20
229.4679917503587
 30
0.0
 10
366.69424090225
 20
229.8273152094703
 30
0.0
 10
366.8640841096729
 20
230.2374538269893
 30
0.0
 10
367.0335828075472
 20
230.6467311706369
 30
0.0
 10
367.1190211755814
 20
231.0813299661012
 30
0.0
 10
367.1190211755814
 20
231.5412502133821
 30
0.0
 10
367.1190211755814
 20
232.0011704606629
 30
0.0
 10
367.0335828075472
 20
232.4416259184521
 30
0.0
 10
366.8640841096729
 20
232.8615830581041
 30
0.0
 10
366.69424090225
 20
233.2805066691105
 30
0.0
 10
366.4541177469281
 20
233.6456867905469
 30
0.0
 10
366.1444036628042
 20
233.9552286198966
 30
0.0
 10
365.8343450691317
 20
234.2658039778919
 30
0.0
 10
365.4595186803365
 20
234.5100612477961
 30
0.0
 10
365.0199244964186
 20
234.6905842512232
 30
0.0
 10
364.5799858029523
 20
234.8704182355532
 30
0.0
 10
364.1000840018569
 20
234.960162972944
 30
0.0
 10
363.5805636026813
 20
234.960162972944
 30
0.0
  0
SPLINE
  5
6B
330
3D
100
AcDbEntity
  8
Layer 1
 62
   179
420
  2301728
370
    35
100
AcDbSpline
210
0.0
220
0.0
230
1.0
 70
    11
 71
     3
 72
    38
 73
    34
 74
     0
 42
0.0000000001
 43
0.0000000001
 40
0.0
 40
0.0
 40
0.0
 40
0.0
 40
1.0
 40
1.0
 40
1.0
 40
2.0
 40
2.0
 40
2.0
 40
3.0
 40
3.0
 40
3.0
 40
4.0
 40
4.0
 40
4.0
 40
5.0
 40
5.0
 40
5.0
 40
6.0
 40
6.0
 40
6.0
 40
7.0
 40
7.0
 40
7.0
 40
8.0
 40
8.0
 40
8.0
 40
9.0
 40
9.0
 40
9.0
 40
10.0
 40
10.0
 40
10.0
 40
11.0
 40
11.0
 40
11.0
 40
11.0
 10
378.0337726919499
 20
223.9553222096362
 30
0.0
 10
378.0337726919499
 20
223.9553222096362
 30
0.0
 10
375.0654784218586
 20
223.9553222096362
 30
0.0
 10
375.0654784218586
 20
223.9553222096362
 30
0.0
 10
374.8250107569882
 20
223.9553222096362
 30
0.0
 10
374.6703259697005
 20
224.0001084509444
 30
0.0
 10
374.6003905313499
 20
224.0900254431095
 30
0.0
 10
374.5301105834508
 20
224.1799424352745
 30
0.0
 10
374.4956596285983
 20
224.3353162416592
 30
0.0
 10
374.4956596285983
 20
224.5547688240696
 30
0.0
 10
374.4956596285983
 20
224.5547688240696
 30
0.0
 10
374.4956596285983
 20
239.0382947536085
 30
0.0
 10
374.4956596285983
 20
239.0382947536085
 30
0.0
 10
374.4956596285983
 20
239.2580918455674
 30
0.0
 10
374.5356227362272
 20
239.407436734853
 30
0.0
 10
374.615548951485
 20
239.4875352048851
 30
0.0
 10
374.6954751667428
 20
239.5676336749171
 30
0.0
 10
374.8449923108026
 20
239.607596782546
 30
0.0
 10
375.0654784218586
 20
239.607596782546
 30
0.0
 10
375.0654784218586
 20
239.607596782546
 30
0.0
 10
378.0337726919499
 20
239.607596782546
 30
0.0
 10
378.0337726919499
 20
239.607596782546
 30
0.0
 10
378.2535697839089
 20
239.607596782546
 30
0.0
 10
378.4085990807451
 20
239.5676336749171
 30
0.0
 10
378.4988605824586
 20
239.4875352048851
 30
0.0
 10
378.5884330650752
 20
239.407436734853
 30
0.0
 10
378.6339083254804
 20
239.2580918455674
 30
0.0
 10
378.6339083254804
 20
239.0382947536085
 30
0.0
 10
378.6339083254804
 20
239.0382947536085
 30
0.0
 10
378.6339083254804
 20
224.5244519837995
 30
0.0
 10
378.6339083254804
 20
224.5244519837995
 30
0.0
 10
378.6339083254804
 20
224.1448024613249
 30
0.0
 10
378.4334037682389
 20
223.9553222096362
 30
0.0
 10
378.0337726919499
 20
223.9553222096362
 30
0.0
  0
SPLINE
  5
6C
330
3D
100
AcDbEntity
  8
Layer 1
370
     0
100
AcDbSpline
210
0.0
220
0.0
230
1.0
 70
    11
 71
     3
 72
    98
 73
    94
 74
     0
 42
0.0000000001
 43
0.0000000001
 40
0.0
 40
0.0
 40
0.0
 40
0.0
 40
1.0
 40
1.0
 40
1.0
 40
2.0
 40
2.0
 40
2.0
 40
3.0
 40
3.0
 40
3.0
 40
4.0
 40
4.0
 40
4.0
 40
5.0
 40
5.0
 40
5.0
 40
6.0
 40
6.0
 40
6.0
 40
7.0
 40
7.0
 40
7.0
 40
8.0
 40
8.0
 40
8.0
 40
9.0
 40
9.0
 40
9.0
 40
10.0
 40
10.0
 40
10.0
 40
11.0
 40
11.0
 40
11.0
 40
12.0
 40
12.0
 40
12.0
 40
13.0
 40
13.0
 40
13.0
 40
14.0
 40
14.0
 40
14.0
 40
15.0
 40
15.0
 40
15.0
 40
16.0
 40
16.0
 40
16.0
 40
17.0
 40
17.0
 40
17.0
 40
18.0
 40
18.0
 40
18.0
 40
19.0
 40
19.0
 40
19.0
 40
20.0
 40
20.0
 40
20.0
 40
21.0
 40
21.0
 40
21.0
 40
22.0
 40
22.0
 40
22.0
 40
23.0
 40
23.0
 40
23.0
 40
24.0
 40
24.0
 40
24.0
 40
25.0
 40
25.0
 40
25.0
 40
26.0
 40
26.0
 40
26.0
 40
27.0
 40
27.0
 40
27.0
 40
28.0
 40
28.0
 40
28.0
 40
29.0
 40
29.0
 40
29.0
 40
30.0
 40
30.0
 40
30.0
 40
31.0
 40
31.0
 40
31.0
 40
31.0
 10
391.7972736650715
 20
217.6280598414263
 30
0.0
 10
390.6576360785509
 20
217.6280598414263
 30
0.0
 10
389.6278970380097
 20
217.8878200410142
 30
0.0
 10
388.7087455625451
 20
218.4076849497384
 30
0.0
 10
387.7889050679834
 20
218.9275498584626
 30
0.0
 10
387.0041123164434
 20
219.637239528424
 30
0.0
 10
386.3547118174739
 20
220.5367539596228
 30
0.0
 10
385.7049668089557
 20
221.4362683908215
 30
0.0
 10
385.205083454046
 20
222.5008028957637
 30
0.0
 10
384.8554062622931
 20
223.7303574744494
 30
0.0
 10
384.5053845609917
 20
224.959912053135
 30
0.0
 10
384.3307182198895
 20
226.2838622481165
 30
0.0
 10
384.3307182198895
 20
227.703586097588
 30
0.0
 10
384.3307182198895
 20
229.1825655894058
 30
0.0
 10
384.5053845609917
 20
230.5420002678854
 30
0.0
 10
384.8554062622931
 20
231.7815456234782
 30
0.0
 10
385.205083454046
 20
233.0207464695226
 30
0.0
 10
385.7049668089557
 20
234.0904486176927
 30
0.0
 10
386.3547118174739
 20
234.9899630488914
 30
0.0
 10
387.0041123164434
 20
235.8898219896387
 30
0.0
 10
387.7889050679834
 20
236.5943440163722
 30
0.0
 10
388.7087455625451
 20
237.1042181481892
 30
0.0
 10
389.6278970380097
 20
237.6137477704577
 30
0.0
 10
390.6576360785509
 20
237.8686848363662
 30
0.0
 10
391.7972736650715
 20
237.8686848363662
 30
0.0
 10
392.8363144634229
 20
237.8686848363662
 30
0.0
 10
393.7861272887063
 20
237.6637016549938
 30
0.0
 10
394.6460231218246
 20
237.2540798017976
 30
0.0
 10
395.5052299358459
 20
236.8441134390529
 30
0.0
 10
396.250059579757
 20
236.2742946457925
 30
0.0
 10
396.8798230344606
 20
235.5449679315652
 30
0.0
 10
397.5095864891643
 20
234.8149521982407
 30
0.0
 10
398.0239392451121
 20
233.9354193208564
 30
0.0
 10
398.4242593404981
 20
232.9060247898638
 30
0.0
 10
398.8238904167871
 20
231.8762857493226
 30
0.0
 10
399.0936413932822
 20
230.7418158060298
 30
0.0
 10
399.2338567795318
 20
229.5026149599855
 30
0.0
 10
399.2338567795318
 20
229.5026149599855
 30
0.0
 10
403.1619546518137
 20
229.5026149599855
 30
0.0
 10
403.1619546518137
 20
229.5026149599855
 30
0.0
 10
403.1619546518137
 20
229.5026149599855
 30
0.0
 10
403.1619546518137
 20
239.0382947536085
 30
0.0
 10
403.1619546518137
 20
239.0382947536085
 30
0.0
 10
403.1619546518137
 20
239.2580918455674
 30
0.0
 10
403.1967501162147
 20
239.4079534991758
 30
0.0
 10
403.2670300641138
 20
239.4878797144336
 30
0.0
 10
403.3366209929159
 20
239.5678059296914
 30
0.0
 10
403.4813150032963
 20
239.6081135468688
 30
0.0
 10
403.7018011143523
 20
239.6081135468688
 30
0.0
 10
403.7018011143523
 20
239.6081135468688
 30
0.0
 10
406.7303845554355
 20
239.6081135468688
 30
0.0
 10
406.7303845554355
 20
239.6081135468688
 30
0.0
 10
406.9498371378459
 20
239.6081135468688
 30
0.0
 10
407.1000433010028
 20
239.5678059296914
 30
0.0
 10
407.1799695162606
 20
239.4878797144336
 30
0.0
 10
407.2595512219698
 20
239.4079534991758
 30
0.0
 10
407.2998588391472
 20
239.2580918455674
 30
0.0
 10
407.2998588391472
 20
239.0382947536085
 30
0.0
 10
407.2998588391472
 20
239.0382947536085
 30
0.0
 10
407.2998588391472
 20
211.4210313056517
 30
0.0
 10
407.2998588391472
 20
211.4210313056517
 30
0.0
 10
407.2998588391472
 20
211.1812526598783
 30
0.0
 10
407.2595512219698
 20
211.0265678725906
 30
0.0
 10
407.1799695162606
 20
210.9562879246915
 30
0.0
 10
407.1000433010028
 20
210.8863524863409
 30
0.0
 10
406.9498371378459
 20
210.8512125123914
 30
0.0
 10
406.7303845554355
 20
210.8512125123914
 30
0.0
 10
406.7303845554355
 20
210.8512125123914
 30
0.0
 10
403.7018011143523
 20
210.8512125123914
 30
0.0
 10
403.7018011143523
 20
210.8512125123914
 30
0.0
 10
403.4813150032963
 20
210.8512125123914
 30
0.0
 10
403.3366209929159
 20
210.8863524863409
 30
0.0
 10
403.2670300641138
 20
210.9562879246915
 30
0.0
 10
403.1967501162147
 20
211.0265678725906
 30
0.0
 10
403.1619546518137
 20
211.1812526598783
 30
0.0
 10
403.1619546518137
 20
211.4210313056517
 30
0.0
 10
403.1619546518137
 20
211.4210313056517
 30
0.0
 10
403.1619546518137
 20
226.0843912195206
 30
0.0
 10
403.1619546518137
 20
226.0843912195206
 30
0.0
 10
403.1619546518137
 20
226.0843912195206
 30
0.0
 10
399.2638291102535
 20
226.0843912195206
 30
0.0
 10
399.2638291102535
 20
226.0843912195206
 30
0.0
 10
399.1439397873668
 20
224.8248643101132
 30
0.0
 10
398.8838350782304
 20
223.6800590803647
 30
0.0
 10
398.4842040019415
 20
222.6506645493721
 30
0.0
 10
398.0838839065555
 20
221.6209255088309
 30
0.0
 10
397.5643635073798
 20
220.7317463640879
 30
0.0
 10
396.9249537853174
 20
219.9820935864975
 30
0.0
 10
396.284855044158
 20
219.2324408089072
 30
0.0
 10
395.5303791328882
 20
218.6522867291911
 30
0.0
 10
394.6608370324112
 20
218.2430093855434
 30
0.0
 10
393.7912949319341
 20
217.8330430227987
 30
0.0
 10
392.8363144634229
 20
217.6280598414263
 30
0.0
 10
391.7972736650715
 20
217.6280598414263
 30
0.0
  0
SPLINE
  5
6D
330
3D
100
AcDbEntity
  8
Layer 1
370
     0
100
AcDbSpline
210
0.0
220
0.0
230
1.0
 70
    11
 71
     3
 72
    53
 73
    49
 74
     0
 42
0.0000000001
 43
0.0000000001
 40
0.0
 40
0.0
 40
0.0
 40
0.0
 40
1.0
 40
1.0
 40
1.0
 40
2.0
 40
2.0
 40
2.0
 40
3.0
 40
3.0
 40
3.0
 40
4.0
 40
4.0
 40
4.0
 40
5.0
 40
5.0
 40
5.0
 40
6.0
 40
6.0
 40
6.0
 40
7.0
 40
7.0
 40
7.0
 40
8.0
 40
8.0
 40
8.0
 40
9.0
 40
9.0
 40
9.0
 40
10.0
 40
10.0
 40
10.0
 40
11.0
 40
11.0
 40
11.0
 40
12.0
 40
12.0
 40
12.0
 40
13.0
 40
13.0
 40
13.0
 40
14.0
 40
14.0
 40
14.0
 40
15.0
 40
15.0
 40
15.0
 40
16.0
 40
16.0
 40
16.0
 40
16.0
 10
391.7972736650715
 20
234.3005994422929
 30
0.0
 10
391.2973903101618
 20
234.3005994422929
 30
0.0
 10
390.8422931965603
 20
234.1355793685495
 30
0.0
 10
390.4326713433641
 20
233.8055392210625
 30
0.0
 10
390.0227049806193
 20
233.4758435831241
 30
0.0
 10
389.6682046551871
 20
233.0155788262947
 30
0.0
 10
389.3681368384219
 20
232.426467498317
 30
0.0
 10
389.0684135312051
 20
231.8363226416937
 30
0.0
 10
388.8331135095626
 20
231.1414468823188
 30
0.0
 10
388.6636148116883
 20
230.3421847297409
 30
0.0
 10
388.4934270947169
 20
229.5425780676144
 30
0.0
 10
388.4086777457798
 20
228.6630451902301
 30
0.0
 10
388.4086777457798
 20
227.703586097588
 30
0.0
 10
388.4086777457798
 20
226.7837456030263
 30
0.0
 10
388.4934270947169
 20
225.9290174131358
 30
0.0
 10
388.6636148116883
 20
225.1397460374651
 30
0.0
 10
388.8331135095626
 20
224.3497856426973
 30
0.0
 10
389.0684135312051
 20
223.6600775265503
 30
0.0
 10
389.3681368384219
 20
223.070621689024
 30
0.0
 10
389.6682046551871
 20
222.4808213419493
 30
0.0
 10
390.0227049806193
 20
222.0212456042169
 30
0.0
 10
390.4326713433641
 20
221.69120545673
 30
0.0
 10
390.8422931965603
 20
221.3615098187916
 30
0.0
 10
391.2973903101618
 20
221.1964897450481
 30
0.0
 10
391.7972736650715
 20
221.1964897450481
 30
0.0
 10
392.3167940642472
 20
221.1964897450481
 30
0.0
 10
392.7915282221147
 20
221.3659884429224
 30
0.0
 10
393.2214761386738
 20
221.7063638768651
 30
0.0
 10
393.6510795456845
 20
222.0460502917107
 30
0.0
 10
394.0207382912518
 20
222.5056260294431
 30
0.0
 10
394.3311413944728
 20
223.0857801091591
 30
0.0
 10
394.6408554785967
 20
223.6652451697781
 30
0.0
 10
394.8806341243701
 20
224.3549532859251
 30
0.0
 10
395.0508218413415
 20
225.1545599480517
 30
0.0
 10
395.2203205392158
 20
225.9538221006296
 30
0.0
 10
395.3054143977014
 20
226.8040716663893
 30
0.0
 10
395.3054143977014
 20
227.703586097588
 30
0.0
 10
395.3054143977014
 20
228.6630451902301
 30
0.0
 10
395.2203205392158
 20
229.5425780676144
 30
0.0
 10
395.0508218413415
 20
230.3421847297409
 30
0.0
 10
394.8806341243701
 20
231.1414468823188
 30
0.0
 10
394.6408554785967
 20
231.8363226416937
 30
0.0
 10
394.3311413944728
 20
232.426467498317
 30
0.0
 10
394.0207382912518
 20
233.0155788262947
 30
0.0
 10
393.6510795456845
 20
233.4758435831241
 30
0.0
 10
393.2214761386738
 20
233.8055392210625
 30
0.0
 10
392.7915282221147
 20
234.1355793685495
 30
0.0
 10
392.3167940642472
 20
234.3005994422929
 30
0.0
 10
391.7972736650715
 20
234.3005994422929
 30
0.0
  0
SPLINE
  5
6E
330
3D
100
AcDbEntity
  8
Layer 1
 62
   179
420
  2301728
370
    35
100
AcDbSpline
210
0.0
220
0.0
230
1.0
 70
    11
 71
     3
 72
    98
 73
    94
 74
     0
 42
0.0000000001
 43
0.0000000001
 40
0.0
 40
0.0
 40
0.0
 40
0.0
 40
1.0
 40
1.0
 40
1.0
 40
2.0
 40
2.0
 40
2.0
 40
3.0
 40
3.0
 40
3.0
 40
4.0
 40
4.0
 40
4.0
 40
5.0
 40
5.0
 40
5.0
 40
6.0
 40
6.0
 40
6.0
 40
7.0
 40
7.0
 40
7.0
 40
8.0
 40
8.0
 40
8.0
 40
9.0
 40
9.0
 40
9.0
 40
10.0
 40
10.0
 40
10.0
 40
11.0
 40
11.0
 40
11.0
 40
12.0
 40
12.0
 40
12.0
 40
13.0
 40
13.0
 40
13.0
 40
14.0
 40
14.0
 40
14.0
 40
15.0
 40
15.0
 40
15.0
 40
16.0
 40
16.0
 40
16.0
 40
17.0
 40
17.0
 40
17.0
 40
18.0
 40
18.0
 40
18.0
 40
19.0
 40
19.0
 40
19.0
 40
20.0
 40
20.0
 40
20.0
 40
21.0
 40
21.0
 40
21.0
 40
22.0
 40
22.0
 40
22.0
 40
23.0
 40
23.0
 40
23.0
 40
24.0
 40
24.0
 40
24.0
 40
25.0
 40
25.0
 40
25.0
 40
26.0
 40
26.0
 40
26.0
 40
27.0
 40
27.0
 40
27.0
 40
28.0
 40
28.0
 40
28.0
 40
29.0
 40
29.0
 40
29.0
 40
30.0
 40
30.0
 40
30.0
 40
31.0
 40
31.0
 40
31.0
 40
31.0
 10
391.7972736650715
 20
217.6280598414263
 30
0.0
 10
390.6576360785509
 20
217.6280598414263
 30
0.0
 10
389.6278970380097
 20
217.8878200410142
 30
0.0
 10
388.7090900720936
 20
218.4073404401898
 30
0.0
 10
387.7889050679834
 20
218.9268608393655
 30
0.0
 10
387.0037678068949
 20
219.6368950188755
 30
0.0
 10
386.3543673079253
 20
220.5364094500742
 30
0.0
 10
385.7049668089557
 20
221.43661290037
 30
0.0
 10
385.205083454046
 20
222.5011474053122
 30
0.0
 10
384.8554062622931
 20
223.7307019839979
 30
0.0
 10
384.5053845609917
 20
224.9602565626836
 30
0.0
 10
384.3307182198895
 20
226.283517738568
 30
0.0
 10
384.3307182198895
 20
227.7032415880395
 30
0.0
 10
384.3307182198895
 20
229.1829100989543
 30
0.0
 10
384.5053845609917
 20
230.5421725226596
 30
0.0
 10
384.8554062622931
 20
231.7815456234782
 30
0.0
 10
385.205083454046
 20
233.0207464695226
 30
0.0
 10
385.7049668089557
 20
234.0901041081441
 30
0.0
 10
386.3543673079253
 20
234.9904798132142
 30
0.0
 10
387.0037678068949
 20
235.8898219896387
 30
0.0
 10
387.7889050679834
 20
236.5939995068237
 30
0.0
 10
388.7090900720936
 20
237.1037013838665
 30
0.0
 10
389.6278970380097
 20
237.6134032609092
 30
0.0
 10
390.6576360785509
 20
237.8683403268176
 30
0.0
 10
391.7972736650715
 20
237.8683403268176
 30
0.0
 10
392.8363144634229
 20
237.8683403268176
 30
0.0
 10
393.7861272887063
 20
237.6633571454453
 30
0.0
 10
394.6460231218246
 20
237.2540798017976
 30
0.0
 10
395.5052299358459
 20
236.8439411842786
 30
0.0
 10
396.250059579757
 20
236.2746391553411
 30
0.0
 10
396.8798230344606
 20
235.5451401863394
 30
0.0
 10
397.5095864891643
 20
234.8146076886922
 30
0.0
 10
398.0239392451121
 20
233.935763830405
 30
0.0
 10
398.4242593404981
 20
232.9063692994123
 30
0.0
 10
398.8235459072386
 20
231.8762857493226
 30
0.0
 10
399.0936413932822
 20
230.7414712964813
 30
0.0
 10
399.2338567795318
 20
229.5031317243082
 30
0.0
 10
399.2338567795318
 20
229.5031317243082
 30
0.0
 10
403.1619546518137
 20
229.5031317243082
 30
0.0
 10
403.1619546518137
 20
229.5031317243082
 30
0.0
 10
403.1619546518137
 20
229.5031317243082
 30
0.0
 10
403.1619546518137
 20
239.0382947536085
 30
0.0
 10
403.1619546518137
 20
239.0382947536085
 30
0.0
 10
403.1619546518137
 20
239.2580918455674
 30
0.0
 10
403.1967501162147
 20
239.407436734853
 30
0.0
 10
403.2670300641138
 20
239.4875352048851
 30
0.0
 10
403.3362764833673
 20
239.5676336749171
 30
0.0
 10
403.4813150032963
 20
239.607596782546
 30
0.0
 10
403.7018011143523
 20
239.607596782546
 30
0.0
 10
403.7018011143523
 20
239.607596782546
 30
0.0
 10
406.7303845554355
 20
239.607596782546
 30
0.0
 10
406.7303845554355
 20
239.607596782546
 30
0.0
 10
406.9498371378459
 20
239.607596782546
 30
0.0
 10
407.1000433010028
 20
239.5676336749171
 30
0.0
 10
407.1799695162606
 20
239.4875352048851
 30
0.0
 10
407.2598957315184
 20
239.407436734853
 30
0.0
 10
407.2998588391472
 20
239.2580918455674
 30
0.0
 10
407.2998588391472
 20
239.0382947536085
 30
0.0
 10
407.2998588391472
 20
239.0382947536085
 30
0.0
 10
407.2998588391472
 20
211.4210313056517
 30
0.0
 10
407.2998588391472
 20
211.4210313056517
 30
0.0
 10
407.2998588391472
 20
211.1809081503298
 30
0.0
 10
407.2598957315184
 20
211.0265678725906
 30
0.0
 10
407.1799695162606
 20
210.9562879246915
 30
0.0
 10
407.1000433010028
 20
210.8860079767924
 30
0.0
 10
406.9498371378459
 20
210.8519015314884
 30
0.0
 10
406.7303845554355
 20
210.8519015314884
 30
0.0
 10
406.7303845554355
 20
210.8519015314884
 30
0.0
 10
403.7018011143523
 20
210.8519015314884
 30
0.0
 10
403.7018011143523
 20
210.8519015314884
 30
0.0
 10
403.4813150032963
 20
210.8519015314884
 30
0.0
 10
403.3362764833673
 20
210.8860079767924
 30
0.0
 10
403.2670300641138
 20
210.9562879246915
 30
0.0
 10
403.1967501162147
 20
211.0265678725906
 30
0.0
 10
403.1619546518137
 20
211.1809081503298
 30
0.0
 10
403.1619546518137
 20
211.4210313056517
 30
0.0
 10
403.1619546518137
 20
211.4210313056517
 30
0.0
 10
403.1619546518137
 20
226.0842189647463
 30
0.0
 10
403.1619546518137
 20
226.0842189647463
 30
0.0
 10
403.1619546518137
 20
226.0842189647463
 30
0.0
 10
399.2638291102535
 20
226.0842189647463
 30
0.0
 10
399.2638291102535
 20
226.0842189647463
 30
0.0
 10
399.1439397873668
 20
224.8245198005647
 30
0.0
 10
398.8838350782304
 20
223.6797145708162
 30
0.0
 10
398.48454851149
 20
222.6506645493721
 30
0.0
 10
398.0838839065555
 20
221.6212700183794
 30
0.0
 10
397.5643635073798
 20
220.7317463640879
 30
0.0
 10
396.9246092757689
 20
219.981749076949
 30
0.0
 10
396.2845105346095
 20
219.2327853184557
 30
0.0
 10
395.5303791328882
 20
218.6526312387396
 30
0.0
 10
394.6604925228627
 20
218.243353895092
 30
0.0
 10
393.7916394414827
 20
217.8333875323472
 30
0.0
 10
392.8363144634229
 20
217.6280598414263
 30
0.0
 10
391.7972736650715
 20
217.6280598414263
 30
0.0
  0
SPLINE
  5
6F
330
3D
100
AcDbEntity
  8
Layer 1
 62
   179
420
  2301728
370
    35
100
AcDbSpline
210
0.0
220
0.0
230
1.0
 70
    11
 71
     3
 72
    53
 73
    49
 74
     0
 42
0.0000000001
 43
0.0000000001
 40
0.0
 40
0.0
 40
0.0
 40
0.0
 40
1.0
 40
1.0
 40
1.0
 40
2.0
 40
2.0
 40
2.0
 40
3.0
 40
3.0
 40
3.0
 40
4.0
 40
4.0
 40
4.0
 40
5.0
 40
5.0
 40
5.0
 40
6.0
 40
6.0
 40
6.0
 40
7.0
 40
7.0
 40
7.0
 40
8.0
 40
8.0
 40
8.0
 40
9.0
 40
9.0
 40
9.0
 40
10.0
 40
10.0
 40
10.0
 40
11.0
 40
11.0
 40
11.0
 40
12.0
 40
12.0
 40
12.0
 40
13.0
 40
13.0
 40
13.0
 40
14.0
 40
14.0
 40
14.0
 40
15.0
 40
15.0
 40
15.0
 40
16.0
 40
16.0
 40
16.0
 40
16.0
 10
391.7972736650715
 20
234.3009439518414
 30
0.0
 10
391.2973903101618
 20
234.3009439518414
 30
0.0
 10
390.8422931965603
 20
234.135923878098
 30
0.0
 10
390.4326713433641
 20
233.805883730611
 30
0.0
 10
390.0230494901679
 20
233.4758435831241
 30
0.0
 10
389.6685491647357
 20
233.0159233358432
 30
0.0
 10
389.3681368384219
 20
232.4259507339942
 30
0.0
 10
389.0684135312051
 20
231.8361503869195
 30
0.0
 10
388.8331135095626
 20
231.1417913918673
 30
0.0
 10
388.6636148116883
 20
230.3420124749666
 30
0.0
 10
388.4937716042655
 20
229.5422335580658
 30
0.0
 10
388.4086777457798
 20
228.6633896997786
 30
0.0
 10
388.4086777457798
 20
227.7032415880395
 30
0.0
 10
388.4086777457798
 20
226.7834010934778
 30
0.0
 10
388.4937716042655
 20
225.9290174131358
 30
0.0
 10
388.6636148116883
 20
225.1399182922393
 30
0.0
 10
388.8331135095626
 20
224.3497856426973
 30
0.0
 10
389.0684135312051
 20
223.6604220360988
 30
0.0
 10
389.3681368384219
 20
223.070621689024
 30
0.0
 10
389.6685491647357
 20
222.4808213419493
 30
0.0
 10
390.0230494901679
 20
222.0205565851199
 30
0.0
 10
390.4326713433641
 20
221.6915499662785
 30
0.0
 10
390.8422931965603
 20
221.3615098187916
 30
0.0
 10
391.2973903101618
 20
221.1964897450481
 30
0.0
 10
391.7972736650715
 20
221.1964897450481
 30
0.0
 10
392.3167940642472
 20
221.1964897450481
 30
0.0
 10
392.7915282221147
 20
221.3663329524709
 30
0.0
 10
393.2218206482223
 20
221.7063638768651
 30
0.0
 10
393.6507350361359
 20
222.0460502917107
 30
0.0
 10
394.0203937817033
 20
222.504937010346
 30
0.0
 10
394.3311413944728
 20
223.0861246187077
 30
0.0
 10
394.6405109690483
 20
223.6652451697781
 30
0.0
 10
394.8809786339187
 20
224.3546087763766
 30
0.0
 10
395.0508218413415
 20
225.1545599480517
 30
0.0
 10
395.2203205392158
 20
225.9543388649524
 30
0.0
 10
395.30575890725
 20
226.803899411615
 30
0.0
 10
395.30575890725
 20
227.7032415880395
 30
0.0
 10
395.30575890725
 20
228.6633896997786
 30
0.0
 10
395.2203205392158
 20
229.5422335580658
 30
0.0
 10
395.0508218413415
 20
230.3420124749666
 30
0.0
 10
394.8809786339187
 20
231.1417913918673
 30
0.0
 10
394.6405109690483
 20
231.8361503869195
 30
0.0
 10
394.3311413944728
 20
232.4259507339942
 30
0.0
 10
394.0203937817033
 20
233.0159233358432
 30
0.0
 10
393.6507350361359
 20
233.4758435831241
 30
0.0
 10
393.2218206482223
 20
233.805883730611
 30
0.0
 10
392.7915282221147
 20
234.135923878098
 30
0.0
 10
392.3167940642472
 20
234.3009439518414
 30
0.0
 10
391.7972736650715
 20
234.3009439518414
 30
0.0
  0
SPLINE
  5
70
330
3D
100
AcDbEntity
  8
Layer 1
370
     0
100
AcDbSpline
210
0.0
220
0.0
230
1.0
 70
    11
 71
     3
 72
    83
 73
    79
 74
     0
 42
0.0000000001
 43
0.0000000001
 40
0.0
 40
0.0
 40
0.0
 40
0.0
 40
1.0
 40
1.0
 40
1.0
 40
2.0
 40
2.0
 40
2.0
 40
3.0
 40
3.0
 40
3.0
 40
4.0
 40
4.0
 40
4.0
 40
5.0
 40
5.0
 40
5.0
 40
6.0
 40
6.0
 40
6.0
 40
7.0
 40
7.0
 40
7.0
 40
8.0
 40
8.0
 40
8.0
 40
9.0
 40
9.0
 40
9.0
 40
10.0
 40
10.0
 40
10.0
 40
11.0
 40
11.0
 40
11.0
 40
12.0
 40
12.0
 40
12.0
 40
13.0
 40
13.0
 40
13.0
 40
14.0
 40
14.0
 40
14.0
 40
15.0
 40
15.0
 40
15.0
 40
16.0
 40
16.0
 40
16.0
 40
17.0
 40
17.0
 40
17.0
 40
18.0
 40
18.0
 40
18.0
 40
19.0
 40
19.0
 40
19.0
 40
20.0
 40
20.0
 40
20.0
 40
21.0
 40
21.0
 40
21.0
 40
22.0
 40
22.0
 40
22.0
 40
23.0
 40
23.0
 40
23.0
 40
24.0
 40
24.0
 40
24.0
 40
25.0
 40
25.0
 40
25.0
 40
26.0
 40
26.0
 40
26.0
 40
26.0
 10
437.3755424253783
 20
215.7391139868639
 30
0.0
 10
437.3755424253783
 20
215.7391139868639
 30
0.0
 10
411.6175970108109
 20
215.7391139868639
 30
0.0
 10
411.6175970108109
 20
215.7391139868639
 30
0.0
 10
411.3574923016745
 20
215.7391139868639
 30
0.0
 10
411.1924722279311
 20
215.7990586483072
 30
0.0
 10
411.1225367895805
 20
215.9189479711939
 30
0.0
 10
411.0522568416814
 20
216.0388372940806
 30
0.0
 10
411.0178058868289
 20
216.1886989476889
 30
0.0
 10
411.0178058868289
 20
216.3688774415675
 30
0.0
 10
411.0178058868289
 20
216.3688774415675
 30
0.0
 10
411.0178058868289
 20
218.5275742726251
 30
0.0
 10
411.0178058868289
 20
218.5275742726251
 30
0.0
 10
411.0178058868289
 20
218.747371364584
 30
0.0
 10
411.0522568416814
 20
218.9072237950996
 30
0.0
 10
411.1225367895805
 20
219.0074760737204
 30
0.0
 10
411.1924722279311
 20
219.1073838427926
 30
0.0
 10
411.3574923016745
 20
219.1573377273287
 30
0.0
 10
411.6175970108109
 20
219.1573377273287
 30
0.0
 10
411.6175970108109
 20
219.1573377273287
 30
0.0
 10
416.9550834461085
 20
219.1573377273287
 30
0.0
 10
416.9550834461085
 20
219.1573377273287
 30
0.0
 10
416.9550834461085
 20
219.1573377273287
 30
0.0
 10
416.9550834461085
 20
222.7257676309505
 30
0.0
 10
416.9550834461085
 20
222.7257676309505
 30
0.0
 10
416.9550834461085
 20
222.9455647229094
 30
0.0
 10
416.9947020441888
 20
223.1005940197457
 30
0.0
 10
417.0749727689952
 20
223.1905110119107
 30
0.0
 10
417.1545544747044
 20
223.2804280040757
 30
0.0
 10
417.3147514147686
 20
223.3255587549325
 30
0.0
 10
417.5545300605419
 20
223.3255587549325
 30
0.0
 10
417.5545300605419
 20
223.3255587549325
 30
0.0
 10
420.4931965094601
 20
223.3255587549325
 30
0.0
 10
420.4931965094601
 20
223.3255587549325
 30
0.0
 10
420.7529567090479
 20
223.3255587549325
 30
0.0
 10
420.9231444260192
 20
223.2804280040757
 30
0.0
 10
421.003070641277
 20
223.1905110119107
 30
0.0
 10
421.0826523469863
 20
223.1005940197457
 30
0.0
 10
421.1229599641637
 20
222.9455647229094
 30
0.0
 10
421.1229599641637
 20
222.7257676309505
 30
0.0
 10
421.1229599641637
 20
222.7257676309505
 30
0.0
 10
421.1229599641637
 20
219.1573377273287
 30
0.0
 10
421.1229599641637
 20
219.1573377273287
 30
0.0
 10
421.1229599641637
 20
219.1573377273287
 30
0.0
 10
427.869834962477
 20
219.1573377273287
 30
0.0
 10
427.869834962477
 20
219.1573377273287
 30
0.0
 10
427.869834962477
 20
219.1573377273287
 30
0.0
 10
427.869834962477
 20
222.7257676309505
 30
0.0
 10
427.869834962477
 20
222.7257676309505
 30
0.0
 10
427.869834962477
 20
222.9455647229094
 30
0.0
 10
427.9097980701059
 20
223.1005940197457
 30
0.0
 10
427.9897242853637
 20
223.1905110119107
 30
0.0
 10
428.0696505006215
 20
223.2804280040757
 30
0.0
 10
428.2394937080443
 20
223.3255587549325
 30
0.0
 10
428.4995984171807
 20
223.3255587549325
 30
0.0
 10
428.4995984171807
 20
223.3255587549325
 30
0.0
 10
431.4382648660988
 20
223.3255587549325
 30
0.0
 10
431.4382648660988
 20
223.3255587549325
 30
0.0
 10
431.6780435118722
 20
223.3255587549325
 30
0.0
 10
431.8378959423878
 20
223.2804280040757
 30
0.0
 10
431.9181666671941
 20
223.1905110119107
 30
0.0
 10
431.9977483729033
 20
223.1005940197457
 30
0.0
 10
432.0380559900808
 20
222.9455647229094
 30
0.0
 10
432.0380559900808
 20
222.7257676309505
 30
0.0
 10
432.0380559900808
 20
222.7257676309505
 30
0.0
 10
432.0380559900808
 20
219.1573377273287
 30
0.0
 10
432.0380559900808
 20
219.1573377273287
 30
0.0
 10
432.0380559900808
 20
219.1573377273287
 30
0.0
 10
437.3755424253783
 20
219.1573377273287
 30
0.0
 10
437.3755424253783
 20
219.1573377273287
 30
0.0
 10
437.7951550554818
 20
219.1573377273287
 30
0.0
 10
438.005305880082
 20
218.947531412277
 30
0.0
 10
438.005305880082
 20
218.5275742726251
 30
0.0
 10
438.005305880082
 20
218.5275742726251
 30
0.0
 10
438.005305880082
 20
216.3688774415675
 30
0.0
 10
438.005305880082
 20
216.3688774415675
 30
0.0
 10
438.005305880082
 20
215.9489203019156
 30
0.0
 10
437.7951550554818
 20
215.7391139868639
 30
0.0
 10
437.3755424253783
 20
215.7391139868639
 30
0.0
  0
SPLINE
  5
71
330
3D
100
AcDbEntity
  8
Layer 1
370
     0
100
AcDbSpline
210
0.0
220
0.0
230
1.0
 70
    11
 71
     3
 72
    53
 73
    49
 74
     0
 42
0.0000000001
 43
0.0000000001
 40
0.0
 40
0.0
 40
0.0
 40
0.0
 40
1.0
 40
1.0
 40
1.0
 40
2.0
 40
2.0
 40
2.0
 40
3.0
 40
3.0
 40
3.0
 40
4.0
 40
4.0
 40
4.0
 40
5.0
 40
5.0
 40
5.0
 40
6.0
 40
6.0
 40
6.0
 40
7.0
 40
7.0
 40
7.0
 40
8.0
 40
8.0
 40
8.0
 40
9.0
 40
9.0
 40
9.0
 40
10.0
 40
10.0
 40
10.0
 40
11.0
 40
11.0
 40
11.0
 40
12.0
 40
12.0
 40
12.0
 40
13.0
 40
13.0
 40
13.0
 40
14.0
 40
14.0
 40
14.0
 40
15.0
 40
15.0
 40
15.0
 40
16.0
 40
16.0
 40
16.0
 40
16.0
 10
424.5115558834555
 20
224.0452392018012
 30
0.0
 10
423.0318873725407
 20
224.0452392018012
 30
0.0
 10
421.6628064267024
 20
224.2199055429034
 30
0.0
 10
420.403279517295
 20
224.5699272442048
 30
0.0
 10
419.1440971174362
 20
224.9196044359576
 30
0.0
 10
418.0444226385445
 20
225.4194877908674
 30
0.0
 10
417.1049450997168
 20
226.0692327993855
 30
0.0
 10
416.1651230513407
 20
226.7186332983551
 30
0.0
 10
415.4302841843369
 20
227.4934352729878
 30
0.0
 10
414.900773008254
 20
228.393294213735
 30
0.0
 10
414.3709173226226
 20
229.2928086449338
 30
0.0
 10
414.1063339893554
 20
230.2922308452047
 30
0.0
 10
414.1063339893554
 20
231.3919053240965
 30
0.0
 10
414.1063339893554
 20
232.4712537396252
 30
0.0
 10
414.3709173226226
 20
233.460685162989
 30
0.0
 10
414.900773008254
 20
234.3605441037363
 30
0.0
 10
415.4302841843369
 20
235.260058534935
 30
0.0
 10
416.1602999176613
 20
236.0293483567913
 30
0.0
 10
417.0897866795817
 20
236.6694470979507
 30
0.0
 10
418.0196179510507
 20
237.3088568200131
 30
0.0
 10
419.1186034108454
 20
237.8087401749228
 30
0.0
 10
420.3884656067085
 20
238.1687526531314
 30
0.0
 10
421.6576387834745
 20
238.5284206217915
 30
0.0
 10
423.0318873725407
 20
238.7082546061216
 30
0.0
 10
424.5115558834555
 20
238.7082546061216
 30
0.0
 10
426.0108614386362
 20
238.7082546061216
 30
0.0
 10
427.3902776709302
 20
238.5284206217915
 30
0.0
 10
428.649460070789
 20
238.1687526531314
 30
0.0
 10
429.9089869801964
 20
237.8087401749228
 30
0.0
 10
431.0034938158603
 20
237.3088568200131
 30
0.0
 10
431.9329805777807
 20
236.6694470979507
 30
0.0
 10
432.8624673397011
 20
236.0293483567913
 30
0.0
 10
433.5869709202491
 20
235.260058534935
 30
0.0
 10
434.1071803385219
 20
234.3605441037363
 30
0.0
 10
434.6267007376975
 20
233.460685162989
 30
0.0
 10
434.8868054468339
 20
232.4712537396252
 30
0.0
 10
434.8868054468339
 20
231.3919053240965
 30
0.0
 10
434.8868054468339
 20
230.2922308452047
 30
0.0
 10
434.6267007376975
 20
229.2928086449338
 30
0.0
 10
434.1071803385219
 20
228.393294213735
 30
0.0
 10
433.5869709202491
 20
227.4934352729878
 30
0.0
 10
432.8624673397011
 20
226.7186332983551
 30
0.0
 10
431.9329805777807
 20
226.0692327993855
 30
0.0
 10
431.0034938158603
 20
225.4194877908674
 30
0.0
 10
429.9089869801964
 20
224.9196044359576
 30
0.0
 10
428.649460070789
 20
224.5699272442048
 30
0.0
 10
427.3902776709302
 20
224.2199055429034
 30
0.0
 10
426.0108614386362
 20
224.0452392018012
 30
0.0
 10
424.5115558834555
 20
224.0452392018012
 30
0.0
  0
SPLINE
  5
72
330
3D
100
AcDbEntity
  8
Layer 1
370
     0
100
AcDbSpline
210
0.0
220
0.0
230
1.0
 70
    11
 71
     3
 72
    53
 73
    49
 74
     0
 42
0.0000000001
 43
0.0000000001
 40
0.0
 40
0.0
 40
0.0
 40
0.0
 40
1.0
 40
1.0
 40
1.0
 40
2.0
 40
2.0
 40
2.0
 40
3.0
 40
3.0
 40
3.0
 40
4.0
 40
4.0
 40
4.0
 40
5.0
 40
5.0
 40
5.0
 40
6.0
 40
6.0
 40
6.0
 40
7.0
 40
7.0
 40
7.0
 40
8.0
 40
8.0
 40
8.0
 40
9.0
 40
9.0
 40
9.0
 40
10.0
 40
10.0
 40
10.0
 40
11.0
 40
11.0
 40
11.0
 40
12.0
 40
12.0
 40
12.0
 40
13.0
 40
13.0
 40
13.0
 40
14.0
 40
14.0
 40
14.0
 40
15.0
 40
15.0
 40
15.0
 40
16.0
 40
16.0
 40
16.0
 40
16.0
 10
424.5115558834555
 20
235.2300862042133
 30
0.0
 10
423.5517522812648
 20
235.2300862042133
 30
0.0
 10
422.6822101807878
 20
235.1250107919132
 30
0.0
 10
421.9025850724757
 20
234.9152044768615
 30
0.0
 10
421.1229599641637
 20
234.7053981618098
 30
0.0
 10
420.4580565355105
 20
234.4249673893104
 30
0.0
 10
419.9085638056131
 20
234.0756347071061
 30
0.0
 10
419.3583820566188
 20
233.7256130058047
 30
0.0
 10
418.9287786496081
 20
233.31564664306
 30
0.0
 10
418.6190645654842
 20
232.8460801284204
 30
0.0
 10
418.3090059718116
 20
232.3761691042324
 30
0.0
 10
418.154321184524
 20
231.8910996599092
 30
0.0
 10
418.154321184524
 20
231.3919053240965
 30
0.0
 10
418.154321184524
 20
230.8716959058237
 30
0.0
 10
418.3090059718116
 20
230.3769801941419
 30
0.0
 10
418.6190645654842
 20
229.9074136795023
 30
0.0
 10
418.9287786496081
 20
229.4375026553142
 30
0.0
 10
419.3583820566188
 20
229.0227131588902
 30
0.0
 10
419.9085638056131
 20
228.6630451902301
 30
0.0
 10
420.4580565355105
 20
228.30337722157
 30
0.0
 10
421.1229599641637
 20
228.0184678249398
 30
0.0
 10
421.9025850724757
 20
227.8083170003396
 30
0.0
 10
422.6822101807878
 20
227.5985106852879
 30
0.0
 10
423.5517522812648
 20
227.4934352729878
 30
0.0
 10
424.5115558834555
 20
227.4934352729878
 30
0.0
 10
425.4510334222831
 20
227.4934352729878
 30
0.0
 10
426.3105847458529
 20
227.5985106852879
 30
0.0
 10
427.090209854165
 20
227.8083170003396
 30
0.0
 10
427.869834962477
 20
228.0184678249398
 30
0.0
 10
428.5343938815817
 20
228.30337722157
 30
0.0
 10
429.0842311210276
 20
228.6630451902301
 30
0.0
 10
429.6340683604735
 20
229.0227131588902
 30
0.0
 10
430.0588486338048
 20
229.4375026553142
 30
0.0
 10
430.35891645057
 20
229.9074136795023
 30
0.0
 10
430.6586397577868
 20
230.3769801941419
 30
0.0
 10
430.8085014113951
 20
230.8716959058237
 30
0.0
 10
430.8085014113951
 20
231.3919053240965
 30
0.0
 10
430.8085014113951
 20
231.8910996599092
 30
0.0
 10
430.6586397577868
 20
232.3761691042324
 30
0.0
 10
430.35891645057
 20
232.8460801284204
 30
0.0
 10
430.0588486338048
 20
233.31564664306
 30
0.0
 10
429.6340683604735
 20
233.7256130058047
 30
0.0
 10
429.0842311210276
 20
234.0756347071061
 30
0.0
 10
428.5343938815817
 20
234.4249673893104
 30
0.0
 10
427.869834962477
 20
234.7053981618098
 30
0.0
 10
427.090209854165
 20
234.9152044768615
 30
0.0
 10
426.3105847458529
 20
235.1250107919132
 30
0.0
 10
425.4510334222831
 20
235.2300862042133
 30
0.0
 10
424.5115558834555
 20
235.2300862042133
 30
0.0
  0
SPLINE
  5
73
330
3D
100
AcDbEntity
  8
Layer 1
 62
   179
420
  2301728
370
    35
100
AcDbSpline
210
0.0
220
0.0
230
1.0
 70
    11
 71
     3
 72
    83
 73
    79
 74
     0
 42
0.0000000001
 43
0.0000000001
 40
0.0
 40
0.0
 40
0.0
 40
0.0
 40
1.0
 40
1.0
 40
1.0
 40
2.0
 40
2.0
 40
2.0
 40
3.0
 40
3.0
 40
3.0
 40
4.0
 40
4.0
 40
4.0
 40
5.0
 40
5.0
 40
5.0
 40
6.0
 40
6.0
 40
6.0
 40
7.0
 40
7.0
 40
7.0
 40
8.0
 40
8.0
 40
8.0
 40
9.0
 40
9.0
 40
9.0
 40
10.0
 40
10.0
 40
10.0
 40
11.0
 40
11.0
 40
11.0
 40
12.0
 40
12.0
 40
12.0
 40
13.0
 40
13.0
 40
13.0
 40
14.0
 40
14.0
 40
14.0
 40
15.0
 40
15.0
 40
15.0
 40
16.0
 40
16.0
 40
16.0
 40
17.0
 40
17.0
 40
17.0
 40
18.0
 40
18.0
 40
18.0
 40
19.0
 40
19.0
 40
19.0
 40
20.0
 40
20.0
 40
20.0
 40
21.0
 40
21.0
 40
21.0
 40
22.0
 40
22.0
 40
22.0
 40
23.0
 40
23.0
 40
23.0
 40
24.0
 40
24.0
 40
24.0
 40
25.0
 40
25.0
 40
25.0
 40
26.0
 40
26.0
 40
26.0
 40
26.0
 10
437.3755424253783
 20
215.7394584964124
 30
0.0
 10
437.3755424253783
 20
215.7394584964124
 30
0.0
 10
411.6175970108109
 20
215.7394584964124
 30
0.0
 10
411.6175970108109
 20
215.7394584964124
 30
0.0
 10
411.3574923016745
 20
215.7394584964124
 30
0.0
 10
411.1924722279311
 20
215.7990586483072
 30
0.0
 10
411.1225367895805
 20
215.9192924807424
 30
0.0
 10
411.0522568416814
 20
216.0391818036291
 30
0.0
 10
411.0174613772804
 20
216.1886989476889
 30
0.0
 10
411.0174613772804
 20
216.368532932019
 30
0.0
 10
411.0174613772804
 20
216.368532932019
 30
0.0
 10
411.0174613772804
 20
218.5275742726251
 30
0.0
 10
411.0174613772804
 20
218.5275742726251
 30
0.0
 10
411.0174613772804
 20
218.747371364584
 30
0.0
 10
411.0522568416814
 20
218.9075683046481
 30
0.0
 10
411.1225367895805
 20
219.0081650928174
 30
0.0
 10
411.1924722279311
 20
219.1077283523411
 30
0.0
 10
411.3574923016745
 20
219.1573377273287
 30
0.0
 10
411.6175970108109
 20
219.1573377273287
 30
0.0
 10
411.6175970108109
 20
219.1573377273287
 30
0.0
 10
416.9550834461085
 20
219.1573377273287
 30
0.0
 10
416.9550834461085
 20
219.1573377273287
 30
0.0
 10
416.9550834461085
 20
219.1573377273287
 30
0.0
 10
416.9550834461085
 20
222.7257676309505
 30
0.0
 10
416.9550834461085
 20
222.7257676309505
 30
0.0
 10
416.9550834461085
 20
222.9455647229094
 30
0.0
 10
416.9947020441888
 20
223.1009385292942
 30
0.0
 10
417.0753172785437
 20
223.1905110119107
 30
0.0
 10
417.154898984253
 20
223.2804280040757
 30
0.0
 10
417.3147514147686
 20
223.3255587549325
 30
0.0
 10
417.5545300605419
 20
223.3255587549325
 30
0.0
 10
417.5545300605419
 20
223.3255587549325
 30
0.0
 10
420.4931965094601
 20
223.3255587549325
 30
0.0
 10
420.4931965094601
 20
223.3255587549325
 30
0.0
 10
420.7529567090479
 20
223.3255587549325
 30
0.0
 10
420.9231444260192
 20
223.2804280040757
 30
0.0
 10
421.003070641277
 20
223.1905110119107
 30
0.0
 10
421.0823078374378
 20
223.1009385292942
 30
0.0
 10
421.1229599641637
 20
222.9455647229094
 30
0.0
 10
421.1229599641637
 20
222.7257676309505
 30
0.0
 10
421.1229599641637
 20
222.7257676309505
 30
0.0
 10
421.1229599641637
 20
219.1573377273287
 30
0.0
 10
421.1229599641637
 20
219.1573377273287
 30
0.0
 10
421.1229599641637
 20
219.1573377273287
 30
0.0
 10
427.8701794720255
 20
219.1573377273287
 30
0.0
 10
427.8701794720255
 20
219.1573377273287
 30
0.0
 10
427.8701794720255
 20
219.1573377273287
 30
0.0
 10
427.8701794720255
 20
222.7257676309505
 30
0.0
 10
427.8701794720255
 20
222.7257676309505
 30
0.0
 10
427.8701794720255
 20
222.9455647229094
 30
0.0
 10
427.9097980701059
 20
223.1009385292942
 30
0.0
 10
427.9897242853637
 20
223.1905110119107
 30
0.0
 10
428.0696505006215
 20
223.2804280040757
 30
0.0
 10
428.2398382175928
 20
223.3255587549325
 30
0.0
 10
428.4995984171807
 20
223.3255587549325
 30
0.0
 10
428.4995984171807
 20
223.3255587549325
 30
0.0
 10
431.4382648660988
 20
223.3255587549325
 30
0.0
 10
431.4382648660988
 20
223.3255587549325
 30
0.0
 10
431.6780435118722
 20
223.3255587549325
 30
0.0
 10
431.8378959423878
 20
223.2804280040757
 30
0.0
 10
431.9178221576456
 20
223.1905110119107
 30
0.0
 10
431.9974038633549
 20
223.1009385292942
 30
0.0
 10
432.0380559900808
 20
222.9455647229094
 30
0.0
 10
432.0380559900808
 20
222.7257676309505
 30
0.0
 10
432.0380559900808
 20
222.7257676309505
 30
0.0
 10
432.0380559900808
 20
219.1573377273287
 30
0.0
 10
432.0380559900808
 20
219.1573377273287
 30
0.0
 10
432.0380559900808
 20
219.1573377273287
 30
0.0
 10
437.3755424253783
 20
219.1573377273287
 30
0.0
 10
437.3755424253783
 20
219.1573377273287
 30
0.0
 10
437.7954995650303
 20
219.1573377273287
 30
0.0
 10
438.005305880082
 20
218.947531412277
 30
0.0
 10
438.005305880082
 20
218.5275742726251
 30
0.0
 10
438.005305880082
 20
218.5275742726251
 30
0.0
 10
438.005305880082
 20
216.368532932019
 30
0.0
 10
438.005305880082
 20
216.368532932019
 30
0.0
 10
438.005305880082
 20
215.9496093210126
 30
0.0
 10
437.7954995650303
 20
215.7394584964124
 30
0.0
 10
437.3755424253783
 20
215.7394584964124
 30
0.0
  0
SPLINE
  5
74
330
3D
100
AcDbEntity
  8
Layer 1
 62
   179
420
  2301728
370
    35
100
AcDbSpline
210
0.0
220
0.0
230
1.0
 70
    11
 71
     3
 72
    53
 73
    49
 74
     0
 42
0.0000000001
 43
0.0000000001
 40
0.0
 40
0.0
 40
0.0
 40
0.0
 40
1.0
 40
1.0
 40
1.0
 40
2.0
 40
2.0
 40
2.0
 40
3.0
 40
3.0
 40
3.0
 40
4.0
 40
4.0
 40
4.0
 40
5.0
 40
5.0
 40
5.0
 40
6.0
 40
6.0
 40
6.0
 40
7.0
 40
7.0
 40
7.0
 40
8.0
 40
8.0
 40
8.0
 40
9.0
 40
9.0
 40
9.0
 40
10.0
 40
10.0
 40
10.0
 40
11.0
 40
11.0
 40
11.0
 40
12.0
 40
12.0
 40
12.0
 40
13.0
 40
13.0
 40
13.0
 40
14.0
 40
14.0
 40
14.0
 40
15.0
 40
15.0
 40
15.0
 40
16.0
 40
16.0
 40
16.0
 40
16.0
 10
424.5115558834555
 20
224.0452392018012
 30
0.0
 10
423.0315428629921
 20
224.0452392018012
 30
0.0
 10
421.6631509362509
 20
224.2199055429034
 30
0.0
 10
420.403279517295
 20
224.5695827346562
 30
0.0
 10
419.1440971174362
 20
224.9192599264091
 30
0.0
 10
418.0444226385445
 20
225.4191432813188
 30
0.0
 10
417.1049450997168
 20
226.069577308934
 30
0.0
 10
416.1651230513407
 20
226.7189778079036
 30
0.0
 10
415.4302841843369
 20
227.4934352729878
 30
0.0
 10
414.900773008254
 20
228.3927774494122
 30
0.0
 10
414.3712618321711
 20
229.2931531544823
 30
0.0
 10
414.1063339893554
 20
230.2922308452047
 30
0.0
 10
414.1063339893554
 20
231.3919053240965
 30
0.0
 10
414.1063339893554
 20
232.4709092300767
 30
0.0
 10
414.3712618321711
 20
233.4612019273118
 30
0.0
 10
414.900773008254
 20
234.3605441037363
 30
0.0
 10
415.4302841843369
 20
235.260058534935
 30
0.0
 10
416.1599554081128
 20
236.0295206115655
 30
0.0
 10
417.0897866795817
 20
236.6691025884022
 30
0.0
 10
418.0196179510507
 20
237.3088568200131
 30
0.0
 10
419.1186034108454
 20
237.8087401749228
 30
0.0
 10
420.3884656067085
 20
238.1682358888087
 30
0.0
 10
421.6576387834745
 20
238.5285928765658
 30
0.0
 10
423.0315428629921
 20
238.7082546061216
 30
0.0
 10
424.5115558834555
 20
238.7082546061216
 30
0.0
 10
426.0108614386362
 20
238.7082546061216
 30
0.0
 10
427.3902776709302
 20
238.5285928765658
 30
0.0
 10
428.649460070789
 20
238.1682358888087
 30
0.0
 10
429.9093314897449
 20
237.8087401749228
 30
0.0
 10
431.0034938158603
 20
237.3088568200131
 30
0.0
 10
431.9329805777807
 20
236.6691025884022
 30
0.0
 10
432.8624673397011
 20
236.0295206115655
 30
0.0
 10
433.5869709202491
 20
235.260058534935
 30
0.0
 10
434.1075248480703
 20
234.3605441037363
 30
0.0
 10
434.627045247246
 20
233.4612019273118
 30
0.0
 10
434.8868054468339
 20
232.4709092300767
 30
0.0
 10
434.8868054468339
 20
231.3919053240965
 30
0.0
 10
434.8868054468339
 20
230.2922308452047
 30
0.0
 10
434.627045247246
 20
229.2931531544823
 30
0.0
 10
434.1075248480703
 20
228.3927774494122
 30
0.0
 10
433.5869709202491
 20
227.4934352729878
 30
0.0
 10
432.8624673397011
 20
226.7189778079036
 30
0.0
 10
431.9329805777807
 20
226.069577308934
 30
0.0
 10
431.0034938158603
 20
225.4191432813188
 30
0.0
 10
429.9093314897449
 20
224.9192599264091
 30
0.0
 10
428.649460070789
 20
224.5695827346562
 30
0.0
 10
427.3902776709302
 20
224.2199055429034
 30
0.0
 10
426.0108614386362
 20
224.0452392018012
 30
0.0
 10
424.5115558834555
 20
224.0452392018012
 30
0.0
  0
SPLINE
  5
75
330
3D
100
AcDbEntity
  8
Layer 1
 62
   179
420
  2301728
370
    35
100
AcDbSpline
210
0.0
220
0.0
230
1.0
 70
    11
 71
     3
 72
    53
 73
    49
 74
     0
 42
0.0000000001
 43
0.0000000001
 40
0.0
 40
0.0
 40
0.0
 40
0.0
 40
1.0
 40
1.0
 40
1.0
 40
2.0
 40
2.0
 40
2.0
 40
3.0
 40
3.0
 40
3.0
 40
4.0
 40
4.0
 40
4.0
 40
5.0
 40
5.0
 40
5.0
 40
6.0
 40
6.0
 40
6.0
 40
7.0
 40
7.0
 40
7.0
 40
8.0
 40
8.0
 40
8.0
 40
9.0
 40
9.0
 40
9.0
 40
10.0
 40
10.0
 40
10.0
 40
11.0
 40
11.0
 40
11.0
 40
12.0
 40
12.0
 40
12.0
 40
13.0
 40
13.0
 40
13.0
 40
14.0
 40
14.0
 40
14.0
 40
15.0
 40
15.0
 40
15.0
 40
16.0
 40
16.0
 40
16.0
 40
16.0
 10
424.5115558834555
 20
235.2297416946648
 30
0.0
 10
423.5517522812648
 20
235.2297416946648
 30
0.0
 10
422.6822101807878
 20
235.1251830466875
 30
0.0
 10
421.9029295820243
 20
234.9152044768615
 30
0.0
 10
421.1229599641637
 20
234.7052259070355
 30
0.0
 10
420.4580565355105
 20
234.4249673893104
 30
0.0
 10
419.9085638056131
 20
234.0754624523318
 30
0.0
 10
419.3583820566188
 20
233.725785260579
 30
0.0
 10
418.9287786496081
 20
233.31564664306
 30
0.0
 10
418.6190645654842
 20
232.8459078736462
 30
0.0
 10
418.3090059718116
 20
232.3761691042324
 30
0.0
 10
418.154321184524
 20
231.8907551503607
 30
0.0
 10
418.154321184524
 20
231.3919053240965
 30
0.0
 10
418.154321184524
 20
230.8713513962752
 30
0.0
 10
418.3090059718116
 20
230.3771524489161
 30
0.0
 10
418.6190645654842
 20
229.9074136795023
 30
0.0
 10
418.9287786496081
 20
229.4376749100885
 30
0.0
 10
419.3583820566188
 20
229.0227131588902
 30
0.0
 10
419.9085638056131
 20
228.6633896997786
 30
0.0
 10
420.4580565355105
 20
228.3030327120215
 30
0.0
 10
421.1229599641637
 20
228.0188123344884
 30
0.0
 10
421.9029295820243
 20
227.8088337646624
 30
0.0
 10
422.6822101807878
 20
227.5988551948364
 30
0.0
 10
423.5517522812648
 20
227.4934352729878
 30
0.0
 10
424.5115558834555
 20
227.4934352729878
 30
0.0
 10
425.4510334222831
 20
227.4934352729878
 30
0.0
 10
426.3105847458529
 20
227.5988551948364
 30
0.0
 10
427.090209854165
 20
227.8088337646624
 30
0.0
 10
427.8701794720255
 20
228.0188123344884
 30
0.0
 10
428.5340493720332
 20
228.3030327120215
 30
0.0
 10
429.0845756305761
 20
228.6633896997786
 30
0.0
 10
429.6344128700219
 20
229.0227131588902
 30
0.0
 10
430.0591931433533
 20
229.4376749100885
 30
0.0
 10
430.35891645057
 20
229.9074136795023
 30
0.0
 10
430.6586397577868
 20
230.3771524489161
 30
0.0
 10
430.8085014113951
 20
230.8713513962752
 30
0.0
 10
430.8085014113951
 20
231.3919053240965
 30
0.0
 10
430.8085014113951
 20
231.8907551503607
 30
0.0
 10
430.6586397577868
 20
232.3761691042324
 30
0.0
 10
430.35891645057
 20
232.8459078736462
 30
0.0
 10
430.0591931433533
 20
233.31564664306
 30
0.0
 10
429.6344128700219
 20
233.725785260579
 30
0.0
 10
429.0845756305761
 20
234.0754624523318
 30
0.0
 10
428.5340493720332
 20
234.4249673893104
 30
0.0
 10
427.8701794720255
 20
234.7052259070355
 30
0.0
 10
427.090209854165
 20
234.9152044768615
 30
0.0
 10
426.3105847458529
 20
235.1251830466875
 30
0.0
 10
425.4510334222831
 20
235.2297416946648
 30
0.0
 10
424.5115558834555
 20
235.2297416946648
 30
0.0
  0
ENDBLK
  5
40
330
3D
100
AcDbEntity
  8
0
100
AcDbBlockEnd
  0
ENDSEC
  0
SECTION
  2
ENTITIES
  0
SPLINE
  5
3C
330
1F
100
AcDbEntity
  8
Layer 1
370
     0
100
AcDbSpline
210
0.0
220
0.0
230
1.0
 70
    11
 71
     3
 72
    41
 73
    37
 74
     0
 42
0.0000000001
 43
0.0000000001
 40
0.0
 40
0.0
 40
0.0
 40
0.0
 40
1.0
 40
1.0
 40
1.0
 40
2.0
 40
2.0
 40
2.0
 40
3.0
 40
3.0
 40
3.0
 40
4.0
 40
4.0
 40
4.0
 40
5.0
 40
5.0
 40
5.0
 40
6.0
 40
6.0
 40
6.0
 40
7.0
 40
7.0
 40
7.0
 40
8.0
 40
8.0
 40
8.0
 40
9.0
 40
9.0
 40
9.0
 40
10.0
 40
10.0
 40
10.0
 40
11.0
 40
11.0
 40
11.0
 40
12.0
 40
12.0
 40
12.0
 40
12.0
 10
169.6032565222693
 20
233.3108235093806
 30
0.0
 10
169.6032565222693
 20
233.5705837089685
 30
0.0
 10
169.5831027136806
 20
233.7352592731634
 30
0.0
 10
169.5431396060517
 20
233.8055392210625
 30
0.0
 10
169.5030042436486
 20
233.8754746594131
 30
0.0
 10
169.3529703352659
 20
233.9106146333626
 30
0.0
 10
169.0933823904523
 20
233.9106146333626
 30
0.0
 10
169.0933823904523
 20
233.9106146333626
 30
0.0
 10
166.3946668420819
 20
233.9106146333626
 30
0.0
 10
166.3946668420819
 20
233.9106146333626
 30
0.0
 10
166.1345621329455
 20
233.9106146333626
 30
0.0
 10
165.9697143139763
 20
233.880642302641
 30
0.0
 10
165.8999511304
 20
233.8206976411976
 30
0.0
 10
165.8296711825009
 20
233.7607529797543
 30
0.0
 10
165.7948757180999
 20
233.5905652627829
 30
0.0
 10
165.7948757180999
 20
233.3108235093806
 30
0.0
 10
165.7948757180999
 20
233.3108235093806
 30
0.0
 10
165.7948757180999
 20
223.2356417627675
 30
0.0
 10
165.7948757180999
 20
223.2356417627675
 30
0.0
 10
165.7948757180999
 20
222.9552109902681
 30
0.0
 10
165.8296711825009
 20
222.7857122923939
 30
0.0
 10
165.8999511304
 20
222.7257676309505
 30
0.0
 10
165.9697143139763
 20
222.6658229695072
 30
0.0
 10
166.1345621329455
 20
222.6358506387855
 30
0.0
 10
166.3946668420819
 20
222.6358506387855
 30
0.0
 10
166.3946668420819
 20
222.6358506387855
 30
0.0
 10
169.0933823904523
 20
222.6358506387855
 30
0.0
 10
169.0933823904523
 20
222.6358506387855
 30
0.0
 10
169.3529703352659
 20
222.6358506387855
 30
0.0
 10
169.5030042436486
 20
222.6706461031865
 30
0.0
 10
169.5431396060517
 20
222.7409260510856
 30
0.0
 10
169.5831027136806
 20
222.8105169798877
 30
0.0
 10
169.6032565222693
 20
222.9755370536311
 30
0.0
 10
169.6032565222693
 20
223.2356417627675
 30
0.0
 10
169.6032565222693
 20
223.2356417627675
 30
0.0
 10
169.6032565222693
 20
233.3108235093806
 30
0.0
 10
169.6032565222693
 20
233.3108235093806
 30
0.0
  0
INSERT
  5
3E
330
1F
100
AcDbEntity
  8
Layer 1
100
AcDbBlockReference
  2
block 2
 10
0.0
 20
0.0
 30
0.0
  0
ENDSEC
  0
SECTION
  2
OBJECTS
  0
DICTIONARY
  5
C
330
0
100
AcDbDictionary
281
     1
  3
ACAD_GROUP
350
D
  3
ACAD_LAYOUT
350
1A
  3
ACAD_MLINESTYLE
350
17
  3
ACAD_PLOTSETTINGS
350
19
  3
ACAD_PLOTSTYLENAME
350
E
  3
ACAD_TABLESTYLE
350
76
  3
ACAD_VISUALSTYLE
350
2A
  0
DICTIONARY
  5
D
102
{ACAD_REACTORS
330
C
102
}
330
C
100
AcDbDictionary
281
     1
  0
DICTIONARY
  5
1A
102
{ACAD_REACTORS
330
C
102
}
330
C
100
AcDbDictionary
281
     1
  3
Layout1
350
1E
  3
Layout2
350
26
  3
Model
350
22
  0
DICTIONARY
  5
17
102
{ACAD_REACTORS
330
C
102
}
330
C
100
AcDbDictionary
281
     1
  3
Standard
350
18
  0
DICTIONARY
  5
19
102
{ACAD_REACTORS
330
C
102
}
330
C
100
AcDbDictionary
281
     1
  0
ACDBDICTIONARYWDFLT
  5
E
102
{ACAD_REACTORS
330
C
102
}
330
C
100
AcDbDictionary
281
     1
  3
Normal
350
F
100
AcDbDictionaryWithDefault
340
F
  0
DICTIONARY
  5
76
102
{ACAD_REACTORS
330
C
102
}
330
C
100
AcDbDictionary
281
     1
  0
DICTIONARY
  5
2A
102
{ACAD_REACTORS
330
C
102
}
330
C
100
AcDbDictionary
281
     1
  3
2dWireframe
350
2F
  3
3D Hidden
350
31
  3
3dWireframe
350
30
  3
Basic
350
32
  3
Brighten
350
36
  3
ColorChange
350
3A
  3
Conceptual
350
34
  3
Dim
350
35
  3
Facepattern
350
39
  3
Flat
350
2B
  3
FlatWithEdges
350
2C
  3
Gouraud
350
2D
  3
GouraudWithEdges
350
2E
  3
Linepattern
350
38
  3
Realistic
350
33
  3
Thicken
350
37
  0
LAYOUT
  5
1E
102
{ACAD_REACTORS
330
1A
102
}
330
1A
100
AcDbPlotSettings
  1

  2
none_device
  4

  6

 40
0.0
 41
0.0
 42
0.0
 43
0.0
 44
0.0
 45
0.0
 46
0.0
 47
0.0
 48
0.0
 49
0.0
140
0.0
141
0.0
142
1.0
143
1.0
 70
   688
 72
     0
 73
     0
 74
     5
  7

 75
    16
 76
     0
 77
     2
 78
   300
147
1.0
148
0.0
149
0.0
100
AcDbLayout
  1
Layout1
 70
     1
 71
     1
 10
0.0
 20
0.0
 11
12.0
 21
9.0
 12
0.0
 22
0.0
 32
0.0
 14
1.000000000000000E+20
 24
1.000000000000000E+20
 34
1.000000000000000E+20
 15
-1.000000000000000E+20
 25
-1.000000000000000E+20
 35
-1.000000000000000E+20
146
0.0
 13
0.0
 23
0.0
 33
0.0
 16
1.0
 26
0.0
 36
0.0
 17
0.0
 27
1.0
 37
0.0
 76
     0
330
1B
  0
LAYOUT
  5
26
102
{ACAD_REACTORS
330
1A
102
}
330
1A
100
AcDbPlotSettings
  1

  2
none_device
  4

  6

 40
0.0
 41
0.0
 42
0.0
 43
0.0
 44
0.0
 45
0.0
 46
0.0
 47
0.0
 48
0.0
 49
0.0
140
0.0
141
0.0
142
1.0
143
1.0
 70
   688
 72
     0
 73
     0
 74
     5
  7

 75
    16
 76
     0
 77
     2
 78
   300
147
1.0
148
0.0
149
0.0
100
AcDbLayout
  1
Layout2
 70
     1
 71
     2
 10
0.0
 20
0.0
 11
0.0
 21
0.0
 12
0.0
 22
0.0
 32
0.0
 14
0.0
 24
0.0
 34
0.0
 15
0.0
 25
0.0
 35
0.0
146
0.0
 13
0.0
 23
0.0
 33
0.0
 16
1.0
 26
0.0
 36
0.0
 17
0.0
 27
1.0
 37
0.0
 76
     0
330
23
  0
LAYOUT
  5
22
102
{ACAD_REACTORS
330
1A
102
}
330
1A
100
AcDbPlotSettings
  1

  2
none_device
  4

  6

 40
0.0
 41
0.0
 42
0.0
 43
0.0
 44
0.0
 45
0.0
 46
0.0
 47
0.0
 48
0.0
 49
0.0
140
0.0
141
0.0
142
1.0
143
1.0
 70
  1712
 72
     0
 73
     0
 74
     0
  7

 75
     0
 76
     0
 77
     2
 78
   300
147
1.0
148
0.0
149
0.0
100
AcDbLayout
  1
Model
 70
     1
 71
     0
 10
0.0
 20
0.0
 11
12.0
 21
9.0
 12
0.0
 22
0.0
 32
0.0
 14
1.000000000000000E+20
 24
1.000000000000000E+20
 34
1.000000000000000E+20
 15
-1.000000000000000E+20
 25
-1.000000000000000E+20
 35
-1.000000000000000E+20
146
0.0
 13
0.0
 23
0.0
 33
0.0
 16
1.0
 26
0.0
 36
0.0
 17
0.0
 27
1.0
 37
0.0
 76
     0
330
1F
331
29
  0
MLINESTYLE
  5
18
102
{ACAD_REACTORS
330
17
102
}
330
17
100
AcDbMlineStyle
  2
Standard
 70
     0
  3

 62
   256
 51
90.0
 52
90.0
 71
     2
 49
0.5
 62
   256
  6
BYLAYER
 49
-0.5
 62
   256
  6
BYLAYER
  0
ACDBPLACEHOLDER
  5
F
102
{ACAD_REACTORS
330
E
102
}
330
E
  0
VISUALSTYLE
  5
2F
102
{ACAD_REACTORS
330
2A
102
}
330
2A
100
AcDbVisualStyle
  2
2dWireframe
 70
     4
 71
     0
 72
     2
 73
     0
 90
        0
 40
-0.6
 41
-30.0
 62
     5
 63
     7
421
 16777215
 74
     1
 91
        4
 64
     7
 65
   257
 75
     1
175
     1
 42
1.0
 92
        0
 66
   257
 43
1.0
 76
     1
 77
     6
 78
     2
 67
     7
 79
     5
170
     0
171
     0
290
     0
174
     0
 93
        1
 44
0.0
173
     0
291
     0
 45
0.0
1001
ACAD
1000
AcDbSavedByObjectVersion
1070
     0
  0
VISUALSTYLE
  5
31
102
{ACAD_REACTORS
330
2A
102
}
330
2A
100
AcDbVisualStyle
  2
3D Hidden
 70
     6
 71
     1
 72
     2
 73
     2
 90
        0
 40
-0.6
 41
-30.0
 62
     5
 63
     7
421
 16777215
 74
     2
 91
        2
 64
     7
 65
   257
 75
     2
175
     1
 42
40.0
 92
        0
 66
   257
 43
1.0
 76
     1
 77
     6
 78
     2
 67
     7
 79
     3
170
     0
171
     0
290
     0
174
     0
 93
        1
 44
0.0
173
     0
291
     0
 45
0.0
1001
ACAD
1000
AcDbSavedByObjectVersion
1070
     0
  0
VISUALSTYLE
  5
30
102
{ACAD_REACTORS
330
2A
102
}
330
2A
100
AcDbVisualStyle
  2
3dWireframe
 70
     5
 71
     0
 72
     2
 73
     0
 90
        0
 40
-0.6
 41
-30.0
 62
     5
 63
     7
421
 16777215
 74
     1
 91
        4
 64
     7
 65
   257
 75
     1
175
     1
 42
1.0
 92
        0
 66
   257
 43
1.0
 76
     1
 77
     6
 78
     2
 67
     7
 79
     5
170
     0
171
     0
290
     0
174
     0
 93
        1
 44
0.0
173
     0
291
     0
 45
0.0
1001
ACAD
1000
AcDbSavedByObjectVersion
1070
     0
  0
VISUALSTYLE
  5
32
102
{ACAD_REACTORS
330
2A
102
}
330
2A
100
AcDbVisualStyle
  2
Basic
 70
     7
 71
     1
 72
     0
 73
     1
 90
        0
 40
-0.6
 41
-30.0
 62
     5
 63
     7
421
 16777215
 74
     0
 91
        4
 64
     7
 65
   257
 75
     1
175
     1
 42
1.0
 92
        8
 66
     7
 43
1.0
 76
     1
 77
     6
 78
     2
 67
     7
 79
     5
170
     0
171
     0
290
     0
174
     0
 93
        1
 44
0.0
173
     0
291
     1
 45
0.0
1001
ACAD
1000
AcDbSavedByObjectVersion
1070
     0
  0
VISUALSTYLE
  5
36
102
{ACAD_REACTORS
330
2A
102
}
330
2A
100
AcDbVisualStyle
  2
Brighten
 70
    12
 71
     2
 72
     2
 73
     0
 90
        0
 40
-0.6
 41
-30.0
 62
     5
 63
     7
421
 16777215
 74
     1
 91
        4
 64
     7
 65
   257
 75
     1
175
     1
 42
1.0
 92
        8
 66
     7
 43
1.0
 76
     1
 77
     6
 78
     2
 67
     7
 79
     5
170
     0
171
     0
290
     0
174
     0
 93
        1
 44
50.0
173
     0
291
     1
 45
0.0
1001
ACAD
1000
AcDbSavedByObjectVersion
1070
     0
  0
VISUALSTYLE
  5
3A
102
{ACAD_REACTORS
330
2A
102
}
330
2A
100
AcDbVisualStyle
  2
ColorChange
 70
    16
 71
     2
 72
     2
 73
     3
 90
        0
 40
-0.6
 41
-30.0
 62
     5
 63
     8
421
  8421504
 74
     1
 91
        4
 64
     7
 65
   257
 75
     1
175
     1
 42
1.0
 92
        8
 66
     8
424
  8421504
 43
1.0
 76
     1
 77
     6
 78
     2
 67
     7
 79
     5
170
     0
171
     0
290
     0
174
     0
 93
        1
 44
0.0
173
     0
291
     1
 45
0.0
1001
ACAD
1000
AcDbSavedByObjectVersion
1070
     0
  0
VISUALSTYLE
  5
34
102
{ACAD_REACTORS
330
2A
102
}
330
2A
100
AcDbVisualStyle
  2
Conceptual
 70
     9
 71
     3
 72
     2
 73
     0
 90
        0
 40
-0.6
 41
-30.0
 62
     5
 63
     7
421
 16777215
 74
     2
 91
        2
 64
     7
 65
   257
 75
     1
175
     1
 42
40.0
 92
        8
 66
     7
 43
1.0
 76
     1
 77
     6
 78
     2
 67
     7
 79
     3
170
     0
171
     0
290
     0
174
     0
 93
        1
 44
0.0
173
     0
291
     0
 45
0.0
1001
ACAD
1000
AcDbSavedByObjectVersion
1070
     0
  0
VISUALSTYLE
  5
35
102
{ACAD_REACTORS
330
2A
102
}
330
2A
100
AcDbVisualStyle
  2
Dim
 70
    11
 71
     2
 72
     2
 73
     0
 90
        0
 40
-0.6
 41
-30.0
 62
     5
 63
     7
421
 16777215
 74
     1
 91
        4
 64
     7
 65
   257
 75
     1
175
     1
 42
1.0
 92
        8
 66
     7
 43
1.0
 76
     1
 77
     6
 78
     2
 67
     7
 79
     5
170
     0
171
     0
290
     0
174
     0
 93
        1
 44
-50.0
173
     0
291
     1
 45
0.0
1001
ACAD
1000
AcDbSavedByObjectVersion
1070
     0
  0
VISUALSTYLE
  5
39
102
{ACAD_REACTORS
330
2A
102
}
330
2A
100
AcDbVisualStyle
  2
Facepattern
 70
    15
 71
     2
 72
     2
 73
     0
 90
        0
 40
-0.6
 41
-30.0
 62
     5
 63
     7
421
 16777215
 74
     1
 91
        4
 64
     7
 65
   257
 75
     1
175
     1
 42
1.0
 92
        8
 66
     7
 43
1.0
 76
     1
 77
     6
 78
     2
 67
     7
 79
     5
170
     0
171
     0
290
     0
174
     0
 93
        1
 44
0.0
173
     0
291
     1
 45
0.0
1001
ACAD
1000
AcDbSavedByObjectVersion
1070
     0
  0
VISUALSTYLE
  5
2B
102
{ACAD_REACTORS
330
2A
102
}
330
2A
100
AcDbVisualStyle
  2
Flat
 70
     0
 71
     2
 72
     1
 73
     1
 90
        2
 40
-0.6
 41
30.0
 62
     5
 63
     7
421
 16777215
 74
     0
 91
        4
 64
     7
 65
   257
 75
     1
175
     1
 42
1.0
 92
        8
 66
     7
 43
1.0
 76
     1
 77
     6
 78
     2
 67
     7
 79
     5
170
     0
171
     0
290
     0
174
     0
 93
       13
 44
0.0
173
     0
291
     1
 45
0.0
1001
ACAD
1000
AcDbSavedByObjectVersion
1070
     0
  0
VISUALSTYLE
  5
2C
102
{ACAD_REACTORS
330
2A
102
}
330
2A
100
AcDbVisualStyle
  2
FlatWithEdges
 70
     1
 71
     2
 72
     1
 73
     1
 90
        2
 40
-0.6
 41
30.0
 62
     5
 63
     7
421
 16777215
 74
     1
 91
        4
 64
     7
 65
   257
 75
     1
175
     1
 42
1.0
 92
        0
 66
   257
 43
1.0
 76
     1
 77
     6
 78
     2
 67
     7
 79
     5
170
     0
171
     0
290
     0
174
     0
 93
       13
 44
0.0
173
     0
291
     1
 45
0.0
1001
ACAD
1000
AcDbSavedByObjectVersion
1070
     0
  0
VISUALSTYLE
  5
2D
102
{ACAD_REACTORS
330
2A
102
}
330
2A
100
AcDbVisualStyle
  2
Gouraud
 70
     2
 71
     2
 72
     2
 73
     1
 90
        2
 40
-0.6
 41
30.0
 62
     5
 63
     7
421
 16777215
 74
     0
 91
        4
 64
     7
 65
   257
 75
     1
175
     1
 42
1.0
 92
        0
 66
     7
 43
1.0
 76
     1
 77
     6
 78
     2
 67
     7
 79
     5
170
     0
171
     0
290
     0
174
     0
 93
       13
 44
0.0
173
     0
291
     1
 45
0.0
1001
ACAD
1000
AcDbSavedByObjectVersion
1070
     0
  0
VISUALSTYLE
  5
2E
102
{ACAD_REACTORS
330
2A
102
}
330
2A
100
AcDbVisualStyle
  2
GouraudWithEdges
 70
     3
 71
     2
 72
     2
 73
     1
 90
        2
 40
-0.6
 41
30.0
 62
     5
 63
     7
421
 16777215
 74
     1
 91
        4
 64
     7
 65
   257
 75
     1
175
     1
 42
1.0
 92
        0
 66
   257
 43
1.0
 76
     1
 77
     6
 78
     2
 67
     7
 79
     5
170
     0
171
     0
290
     0
174
     0
 93
       13
 44
0.0
173
     0
291
     1
 45
0.0
1001
ACAD
1000
AcDbSavedByObjectVersion
1070
     0
  0
VISUALSTYLE
  5
38
102
{ACAD_REACTORS
330
2A
102
}
330
2A
100
AcDbVisualStyle
  2
Linepattern
 70
    14
 71
     2
 72
     2
 73
     0
 90
        0
 40
-0.6
 41
-30.0
 62
     5
 63
     7
421
 16777215
 74
     1
 91
        4
 64
     7
 65
   257
 75
     7
175
     7
 42
1.0
 92
        8
 66
     7
 43
1.0
 76
     1
 77
     6
 78
     2
 67
     7
 79
     5
170
     0
171
     0
290
     0
174
     0
 93
        1
 44
0.0
173
     0
291
     1
 45
0.0
1001
ACAD
1000
AcDbSavedByObjectVersion
1070
     0
  0
VISUALSTYLE
  5
33
102
{ACAD_REACTORS
330
2A
102
}
330
2A
100
AcDbVisualStyle
  2
Realistic
 70
     8
 71
     2
 72
     2
 73
     0
 90
        0
 40
-0.6
 41
-30.0
 62
     5
 63
     7
421
 16777215
 74
     1
 91
        0
 64
     7
 65
   257
 75
     1
175
     1
 42
1.0
 92
        8
 66
     8
424
  7895160
 43
1.0
 76
     1
 77
     6
 78
     2
 67
     7
 79
     5
170
     0
171
     0
290
     0
174
     0
 93
       13
 44
0.0
173
     0
291
     0
 45
0.0
1001
ACAD
1000
AcDbSavedByObjectVersion
1070
     0
  0
VISUALSTYLE
  5
37
102
{ACAD_REACTORS
330
2A
102
}
330
2A
100
AcDbVisualStyle
  2
Thicken
 70
    13
 71
     2
 72
     2
 73
     0
 90
        0
 40
-0.6
 41
-30.0
 62
     5
 63
     7
421
 16777215
 74
     1
 91
        4
 64
     7
 65
   257
 75
     1
175
     1
 42
1.0
 92
       12
 66
     7
 43
1.0
 76
     1
 77
     6
 78
     2
 67
     7
 79
     5
170
     0
171
     0
290
     0
174
     0
 93
        1
 44
0.0
173
     0
291
     1
 45
0.0
1001
ACAD
1000
AcDbSavedByObjectVersion
1070
     0
  0
ENDSEC
  0
EOF
