0
SECTION
2
HEADER
9
$INSUNITS
70
4
9
$ACADVER
1
AC1014
9
$HANDSEED
5
FFFF
0
ENDSEC
0
SECTION
2
TABLES
0
TABLE
2
VPORT
5
8
100
AcDbSymbolTable
0
ENDTAB
0
TABLE
2
LTYPE
5
5
100
AcDbSymbolTable
0
LTYPE
5
14
100
AcDbSymbolTableRecord
100
AcDbLinetypeTableRecord
2
BYBLOCK
70
0
0
LTYPE
5
15
100
AcDbSymbolTableRecord
100
AcDbLinetypeTableRecord
2
BYLAYER
70
0
0
ENDTAB
0
TABLE
2
LAYER
5
2
100
AcDbSymbolTable
70
2
0
LAYER
5
50
100
AcDbSymbolTableRecord
100
AcDbLayerTableRecord
2
0
70
0
6
CONTINUOUS
0
ENDTAB
0
TABLE
2
STYLE
5
3
100
AcDbSymbolTable
70
1
0
STYLE
5
11
100
AcDbSymbolTableRecord
100
AcDbTextStyleTableRecord
2
STANDARD
70
0
0
ENDTAB
0
TABLE
2
VIEW
5
6
100
AcDbSymbolTable
70
0
0
ENDTAB
0
TABLE
2
UCS
5
7
100
AcDbSymbolTable
70
0
0
ENDTAB
0
TABLE
2
APPID
5
9
100
AcDbSymbolTable
70
2
0
APPID
5
12
100
AcDbSymbolTableRecord
100
AcDbRegAppTableRecord
2
ACAD
70
0
0
ENDTAB
0
TABLE
2
DIMSTYLE
5
A
100
AcDbSymbolTable
70
1
0
ENDTAB
0
TABLE
2
BLOCK_RECORD
5
1
100
AcDbSymbolTable
70
1
0
BLOCK_RECORD
5
1F
100
AcDbSymbolTableRecord
100
AcDbBlockTableRecord
2
*MODEL_SPACE
0
BLOCK_RECORD
5
1B
100
AcDbSymbolTableRecord
100
AcDbBlockTableRecord
2
*PAPER_SPACE
0
ENDTAB
0
ENDSEC
0
SECTION
2
BLOCKS
0
BLOCK
5
20
100
AcDbEntity
100
AcDbBlockBegin
2
*MODEL_SPACE
0
ENDBLK
5
21
100
AcDbEntity
100
AcDbBlockEnd
0
BLOCK
5
1C
100
AcDbEntity
100
AcDbBlockBegin
2
*PAPER_SPACE
0
ENDBLK
5
1D
100
AcDbEntity
100
AcDbBlockEnd
0
ENDSEC
0
SECTION
2
ENTITIES
0
LWPOLYLINE
5
100
100
AcDbEntity
8
0
100
AcDbPolyline
90
4
70
1
43
0.0
10
600
20
300
10
-600
20
300
10
-600
20
-400
10
600
20
-400
0
LWPOLYLINE
5
101
100
AcDbEntity
8
0
100
AcDbPolyline
90
16
70
1
43
0.0
10
436.44926665168259
20
119.10691084530245
42
-2.4142135623731247
10
439.44926665168254
20
122.10691084530252
10
451.44926665168259
20
122.10691084530256
10
451.44926665168225
20
241.10691084530225
10
439.44926665168236
20
241.10691084530217
42
-2.4142135623731145
10
436.44926665168236
20
244.10691084530214
10
436.44926665168225
20
251.60691084530211
10
286.44926665168254
20
251.60691084530171
10
286.44926665168259
20
244.10691084530174
42
-2.4142135623730945
10
283.44926665168254
20
241.10691084530174
10
271.44926665168259
20
241.10691084530171
10
271.44926665168282
20
122.10691084530205
10
283.44926665168282
20
122.1069108453021
42
-2.4142135623731051
10
286.44926665168282
20
119.10691084530211
10
286.44926665168282
20
111.60691084530214
10
436.44926665168259
20
111.60691084530256
0
LWPOLYLINE
5
102
100
AcDbEntity
8
0
100
AcDbPolyline
90
16
70
1
43
0.0
10
227.5436521039025
20
242.14843141401468
42
-2.4142135623730945
10
224.5436521039025
20
245.14843141401468
10
224.5436521039025
20
252.64843141401462
10
74.54365210390263
20
252.64843141401471
10
74.543652103902645
20
245.14843141401462
42
-2.41421356237309
10
71.543652103902645
20
242.14843141401468
10
59.543652103902652
20
242.14843141401468
10
59.543652103902602
20
123.14843141401461
10
71.543652103902588
20
123.14843141401461
42
-2.4142135623730994
10
74.543652103902588
20
120.1484314140146
10
74.543652103902588
20
112.64843141401462
10
224.54365210390247
20
112.64843141401458
10
224.54365210390247
20
120.1484314140146
42
-2.4142135623730945
10
227.54365210390247
20
123.14843141401461
10
239.54365210390247
20
123.14843141401461
10
239.5436521039025
20
242.14843141401468
0
LWPOLYLINE
5
103
100
AcDbEntity
8
0
100
AcDbPolyline
90
8
70
1
43
0.0
10
-185.50733723814957
20
70.035169294130824
10
-193.69885768103953
20
64.299404930620341
42
2.4142135623731051
10
-194.43558450485335
20
60.121219488700234
10
-129.04787076083414
20
-33.262113560244813
42
2.4142135623730945
10
-124.86968531891408
20
-33.998840384058653
10
-116.67816487602407
20
-28.263076020548148
42
2.4142135623730869
10
-115.94143805221022
20
-24.084890578628073
10
-181.32915179622941
20
69.298442470316971
42
2.4142135623730994
0
LWPOLYLINE
5
104
100
AcDbEntity
8
0
100
AcDbPolyline
90
8
70
1
43
0.0
10
384.49266276185023
20
70.035169294130824
10
376.30114231896022
20
64.299404930620312
42
2.4142135623731145
10
375.56441549514648
20
60.121219488700241
10
440.95212923916563
20
-33.262113560244806
42
2.4142135623730718
10
445.13031468108574
20
-33.99884038405866
10
453.3218351239758
20
-28.263076020548151
42
2.4142135623731087
10
454.05856194778954
20
-24.084890578628109
10
388.67084820377039
20
69.298442470316971
42
2.4142135623730887
0
LWPOLYLINE
5
105
100
AcDbEntity
8
0
100
AcDbPolyline
90
8
70
1
43
0.0
10
4.4926627618503678
20
70.035169294130824
10
-3.6988576810395877
20
64.299404930620341
42
2.4142135623730963
10
-4.4355845048534182
20
60.121219488700234
10
60.952129239165785
20
-33.262113560244813
42
2.414213562373098
10
65.130314681085849
20
-33.998840384058653
10
73.321835123975859
20
-28.263076020548148
42
2.4142135623730825
10
74.058561947789713
20
-24.084890578628055
10
8.670848203770511
20
69.298442470316985
42
2.4142135623731007
0
LWPOLYLINE
5
106
100
AcDbEntity
8
0
100
AcDbPolyline
90
8
70
1
43
0.0
10
194.49266276185028
20
70.035169294130824
10
186.30114231896033
20
64.299404930620341
42
2.4142135623731051
10
185.56441549514653
20
60.121219488700234
10
250.95212923916574
20
-33.262113560244821
42
2.41421356237311
10
255.13031468108576
20
-33.99884038405866
10
263.3218351239758
20
-28.263076020548151
42
2.4142135623731114
10
264.0585619477896
20
-24.084890578628073
10
198.67084820377045
20
69.298442470316971
42
2.4142135623730994
0
LWPOLYLINE
5
107
100
AcDbEntity
8
0
100
AcDbPolyline
90
14
70
1
43
0.0
10
434.60915150070412
20
82.146851986635653
10
486.90209867557587
20
7.4647837121718741
10
486.90209867557587
20
-42.853148013364319
10
-513.0979013244239
20
-42.853148013364482
10
-513.0979013244239
20
-20.353148013364386
10
-466.09790132442333
20
-20.353148013364386
42
2.4142135623730914
10
-463.09790132442339
20
-17.353148013364418
10
-463.09790132442339
20
-7.3531480133643647
42
2.4142135623730914
10
-466.09790132442333
20
-4.3531480133643941
10
-513.0979013244239
20
-4.3531480133643896
10
-513.0979013244239
20
182.14685198663562
42
-0.41421356237309792
10
-463.09790132442339
20
132.14685198663562
10
-463.09790132442339
20
107.14685198663562
42
0.41421356237309509
10
-438.09790132442339
20
82.146851986635653
0
LINE
5
108
100
AcDbEntity
8
0
100
AcDbLine
10
274.77742372054144
20
-117.33570705886649
30
0
11
274.77742372054144
21
-70.335707058866802
31
0
0
LINE
5
109
100
AcDbEntity
8
0
100
AcDbLine
10
274.77742372054144
20
-70.335707058866802
30
0
11
254.77742372054163
21
-70.335707058866873
31
0
0
LINE
5
110
100
AcDbEntity
8
0
100
AcDbLine
10
254.77742372054163
20
-70.335707058866873
30
0
11
254.77742372054161
21
-170.33570705886615
31
0
0
LINE
5
111
100
AcDbEntity
8
0
100
AcDbLine
10
254.77742372054161
20
-170.33570705886615
30
0
11
404.77742372054024
21
-170.33570705886581
31
0
0
ARC
5
112
100
AcDbEntity
8
0
100
AcDbCircle
10
354.77742372054075
20
-170.33570705886592
30
0
40
49.999999999999503
100
AcDbArc
50
0
51
90.000000000000057
0
SPLINE
5
113
100
AcDbEntity
8
0
100
AcDbSpline
70
1064
71
5
72
21
73
15
74
0
42
0.000000001
43
0.0000000001
44
0.0000000001
40
-1
40
-1
40
-1
40
-1
40
-1
40
-1
40
-0.89999999999999991
40
-0.79999999999999993
40
-0.69999999999999996
40
-0.59999999999999998
40
-0.5
40
-0.40000000000000002
40
-0.30000000000000004
40
-0.20000000000000001
40
-0.10000000000000001
40
-0
40
-0
40
-0
40
-0
40
-0
40
-0
10
354.77742372054075
20
-120.3357070588663
30
0
10
353.45130728065209
20
-120.36696448465671
30
0
10
350.80319696535668
20
-120.38198774755679
30
0
10
346.84339931860563
20
-120.26204634663796
30
0
10
341.58881056793967
20
-119.8124971921128
30
0
10
335.06523554186577
20
-118.73607087638231
30
0
10
328.58997662338885
20
-117.10304715181167
30
0
10
322.16645539605304
20
-114.8740096699383
30
0
10
315.79556802574632
20
-112.03863467674879
30
0
10
309.47424737715988
20
-108.63225530754318
30
0
10
303.19831772536645
20
-104.70297555479218
30
0
10
298.21069852878088
20
-101.17796007206421
30
0
10
294.48739967333717
20
-98.333572912421261
30
0
10
292.01281345850498
20
-96.349613445098186
30
0
10
290.77742372054126
20
-95.335707058866589
30
0
0
LINE
5
114
100
AcDbEntity
8
0
100
AcDbLine
10
290.77742372054126
20
-95.335707058866603
30
0
11
290.77742372054126
21
-117.33570705886643
31
0
0
ARC
5
115
100
AcDbEntity
8
0
100
AcDbCircle
10
290.77742372054132
20
-120.33570705886643
30
0
40
3.0000000000000071
100
AcDbArc
50
-180
51
90.000000000001094
0
LINE
5
116
100
AcDbEntity
8
0
100
AcDbLine
10
287.77742372054132
20
-120.33570705886643
30
0
11
277.77742372054144
21
-120.33570705886645
31
0
0
ARC
5
117
100
AcDbEntity
8
0
100
AcDbCircle
10
274.77742372054144
20
-120.33570705886646
30
0
40
2.9999999999999716
100
AcDbArc
50
-270
51
0
0
LINE
5
118
100
AcDbEntity
8
0
100
AcDbLine
10
170.7917398328419
20
-72.255108525598189
30
0
11
170.79173983284196
21
-119.25510852559817
31
0
0
ARC
5
119
100
AcDbEntity
8
0
100
AcDbCircle
10
170.79173983284196
20
-122.25510852559816
30
0
40
3.0000000000000071
100
AcDbArc
50
-180
51
90
0
LINE
5
120
100
AcDbEntity
8
0
100
AcDbLine
10
167.79173983284196
20
-122.25510852559815
30
0
11
157.79173983284187
21
-122.25510852559813
31
0
0
ARC
5
121
100
AcDbEntity
8
0
100
AcDbCircle
10
154.79173983284187
20
-122.25510852559815
30
0
40
3.0000000000000071
100
AcDbArc
50
-270
51
0
0
LINE
5
122
100
AcDbEntity
8
0
100
AcDbLine
10
154.79173983284187
20
-119.25510852559813
30
0
11
154.79173983284181
21
-97.255108525598146
31
0
0
SPLINE
5
123
100
AcDbEntity
8
0
100
AcDbSpline
70
1064
71
5
72
21
73
15
74
0
42
0.000000001
43
0.0000000001
44
0.0000000001
40
0
40
0
40
0
40
0
40
0
40
0
40
0.10000000000000001
40
0.20000000000000001
40
0.30000000000000004
40
0.40000000000000002
40
0.5
40
0.59999999999999998
40
0.69999999999999996
40
0.79999999999999993
40
0.89999999999999991
40
1
40
1
40
1
40
1
40
1
40
1
10
154.79173983284181
20
-97.255108525598146
30
0
10
153.5563500948781
20
-98.269014911829771
30
0
10
151.08176388004591
20
-100.25297437915285
30
0
10
147.35846502460214
20
-103.09736153879581
30
0
10
142.37084582801646
20
-106.62237702152379
30
0
10
136.09491617622297
20
-110.55165677427482
30
0
10
129.77359552763642
20
-113.95803614348047
30
0
10
123.40270815732964
20
-116.79341113667
30
0
10
116.97918692999367
20
-119.02244861854339
30
0
10
110.50392801151666
20
-120.65547234311404
30
0
10
103.98035298544269
20
-121.73189865884456
30
0
10
98.725764234776648
20
-122.18144781336973
30
0
10
94.765966588025549
20
-122.30138921428855
30
0
10
92.117856272730094
20
-122.28636595138846
30
0
10
90.791739832841429
20
-122.25510852559806
30
0
0
ARC
5
124
100
AcDbEntity
8
0
100
AcDbCircle
10
90.791739832840847
20
-172.25510852559773
30
0
40
49.999999999999659
100
AcDbArc
50
89.999999999999318
51
180
0
LINE
5
125
100
AcDbEntity
8
0
100
AcDbLine
10
40.791739832841202
20
-172.25510852559779
30
0
11
190.79173983284215
21
-172.2551085255981
31
0
0
LINE
5
126
100
AcDbEntity
8
0
100
AcDbLine
10
190.79173983284215
20
-172.2551085255981
30
0
11
190.79173983284198
21
-72.255108525598231
31
0
0
LINE
5
127
100
AcDbEntity
8
0
100
AcDbLine
10
190.79173983284198
20
-72.255108525598231
30
0
11
170.7917398328419
21
-72.255108525598189
31
0
0
LWPOLYLINE
5
128
100
AcDbEntity
8
0
100
AcDbPolyline
90
8
70
1
43
0.0
10
-170.63888243060234
20
-217.80234496367723
10
-178.83040287349229
20
-223.5381093271877
42
2.4142135623731042
10
-179.56712969730609
20
-227.71629476910783
10
-114.17941595328688
20
-321.0996278180528
42
2.4142135623731114
10
-110.00123051136683
20
-321.83635464186659
10
-101.80971006847679
20
-316.10059027835609
42
2.4142135623730718
10
-101.07298324466292
20
-311.92240483643604
10
-166.46069698868214
20
-218.53907178749103
42
2.4142135623730994
0
LWPOLYLINE
5
129
100
AcDbEntity
8
0
100
AcDbPolyline
90
8
70
1
43
0.0
10
399.36111756939817
20
-217.80234496367729
10
391.16959712650817
20
-223.53810932718778
42
2.4142135623731158
10
390.43287030269437
20
-227.71629476910786
10
455.82058404671363
20
-321.09962781805285
42
2.4142135623730945
10
459.99876948863368
20
-321.83635464186671
10
468.19028993152381
20
-316.10059027835621
42
2.4142135623731158
10
468.9270167553376
20
-311.92240483643616
10
403.5393030113184
20
-218.5390717874912
42
2.4142135623730647
0
LWPOLYLINE
5
130
100
AcDbEntity
8
0
100
AcDbPolyline
90
8
70
1
43
0.0
10
19.361117569397866
20
-217.80234496367726
10
11.169597126507895
20
-223.53810932718773
42
2.4142135623730945
10
10.432870302694051
20
-227.71629476910783
10
75.820584046713307
20
-321.0996278180528
42
2.4142135623730856
10
79.998769488633343
20
-321.83635464186665
10
88.190289931523367
20
-316.10059027835615
42
2.4142135623730914
10
88.92701675533722
20
-311.9224048364361
10
23.539303011318012
20
-218.53907178749111
42
2.4142135623731007
0
LWPOLYLINE
5
131
100
AcDbEntity
8
0
100
AcDbPolyline
90
8
70
1
43
0.0
10
209.361117569398
20
-217.80234496367729
10
201.16959712650808
20
-223.53810932718775
42
2.4142135623731042
10
200.43287030269425
20
-227.71629476910789
10
265.82058404671352
20
-321.09962781805285
42
2.41421356237309
10
269.99876948863351
20
-321.83635464186671
10
278.19028993152352
20
-316.10059027835621
42
2.4142135623730994
10
278.92701675533738
20
-311.9224048364361
10
213.53930301131817
20
-218.53907178749111
42
2.4142135623731114
0
LWPOLYLINE
5
132
100
AcDbEntity
8
0
100
AcDbPolyline
90
14
70
1
43
0.0
10
449.47760630825212
20
-205.6906622711725
10
501.77055348312388
20
-280.37273054563622
10
501.77055348312388
20
-330.6906622711723
10
-498.22944651687698
20
-330.69066227117241
10
-498.22944651687715
20
-308.1906622711723
10
-451.22944651687646
20
-308.1906622711723
42
2.4142135623730945
10
-448.22944651687646
20
-305.1906622711723
10
-448.22944651687646
20
-295.1906622711723
42
2.4142135623730749
10
-451.22944651687641
20
-292.1906622711723
10
-498.22944651687703
20
-292.1906622711723
10
-498.22944651687686
20
-105.69066227117239
42
-0.4142135623730977
10
-448.22944651687641
20
-155.69066227117241
10
-448.22944651687635
20
-180.69066227117236
42
0.41421356237309881
10
-423.22944651687624
20
-205.69066227117236
0
LWPOLYLINE
5
133
100
AcDbEntity
8
0
100
AcDbPolyline
90
4
70
1
43
0.0
10
5.9981614417067739
20
-121.09005631031363
10
5.998161441706884
20
-171.09005631031326
10
-144.00183855829215
20
-171.0900563103134
10
-144.00183855829226
20
-121.09005631031371
0
LWPOLYLINE
5
134
100
AcDbEntity
8
0
100
AcDbPolyline
90
16
70
1
43
0.0
10
-139.00661415925268
20
244.3747491177669
42
-2.4142135623730843
10
-142.00661415925268
20
241.37474911776692
10
-154.00661415925268
20
241.37474911776695
10
-154.00661415925293
20
122.37474911776698
10
-142.00661415925293
20
122.37474911776695
42
-2.4142135623730945
10
-139.0066141592529
20
119.37474911776697
10
-139.00661415925293
20
111.87474911776697
10
10.993385840747276
20
111.87474911776673
10
10.993385840747292
20
119.37474911776668
42
-2.4142135623730945
10
13.993385840747298
20
122.3747491177667
10
25.993385840747322
20
122.37474911776667
10
25.993385840747536
20
241.37474911776664
10
13.993385840747543
20
241.37474911776667
42
-2.4142135623731087
10
10.993385840747525
20
244.37474911776664
10
10.993385840747543
20
251.87474911776664
10
-139.00661415925265
20
251.8747491177669
0
LWPOLYLINE
5
135
100
AcDbEntity
8
0
100
AcDbPolyline
90
16
70
1
43
0.0
10
-197.82896094452701
20
127.14403952592455
42
-2.4142135623730843
10
-194.82896094452701
20
130.14403952592457
10
-182.82896094452698
20
130.14403952592457
10
-182.82896094452698
20
249.1440395259248
10
-194.82896094452695
20
249.1440395259248
42
-2.4142135623730749
10
-197.82896094452698
20
252.1440395259248
10
-197.82896094452698
20
259.64403952592482
10
-347.8289609445273
20
259.64403952592488
10
-347.82896094452724
20
252.1440395259248
42
-2.4142135623731145
10
-350.8289609445273
20
249.14403952592488
10
-362.8289609445273
20
249.14403952592488
10
-362.82896094452735
20
130.14403952592463
10
-350.82896094452735
20
130.14403952592463
42
-2.4142135623731145
10
-347.8289609445273
20
127.14403952592463
10
-347.8289609445273
20
119.64403952592463
10
-197.82896094452701
20
119.64403952592457
0
LWPOLYLINE
5
136
100
AcDbEntity
8
0
100
AcDbPolyline
90
4
70
1
43
0.0
10
-236.05111709204652
20
-112.5973746883645
10
-236.05111709204652
20
-162.59737468836437
10
-386.05111709204635
20
-162.59737468836448
10
-386.05111709204635
20
-112.59737468836455
0
ENDSEC
0
SECTION
2
OBJECTS
0
DICTIONARY
5
C
100
AcDbDictionary
3
ACAD_GROUP
350
D
3
ACAD_MLINESTYLE
350
17
0
DICTIONARY
5
D
100
AcDbDictionary
0
DICTIONARY
5
1A
330
C
100
AcDbDictionary
0
DICTIONARY
5
17
100
AcDbDictionary
0
ENDSEC
0
EOF
