0
SECTION
2
HEADER
9
$INSUNITS
70
4
9
$ACADVER
1
AC1014
9
$HANDSEED
5
FFFF
0
ENDSEC
0
SECTION
2
TABLES
0
TABLE
2
VPORT
5
8
100
AcDbSymbolTable
0
ENDTAB
0
TABLE
2
LTYPE
5
5
100
AcDbSymbolTable
0
LTYPE
5
14
100
AcDbSymbolTableRecord
100
AcDbLinetypeTableRecord
2
BYBLOCK
70
0
0
LTYPE
5
15
100
AcDbSymbolTableRecord
100
AcDbLinetypeTableRecord
2
BYLAYER
70
0
0
ENDTAB
0
TABLE
2
LAYER
5
2
100
AcDbSymbolTable
70
2
0
LAYER
5
50
100
AcDbSymbolTableRecord
100
AcDbLayerTableRecord
2
0
70
0
6
CONTINUOUS
0
ENDTAB
0
TABLE
2
STYLE
5
3
100
AcDbSymbolTable
70
1
0
STYLE
5
11
100
AcDbSymbolTableRecord
100
AcDbTextStyleTableRecord
2
STANDARD
70
0
0
ENDTAB
0
TABLE
2
VIEW
5
6
100
AcDbSymbolTable
70
0
0
ENDTAB
0
TABLE
2
UCS
5
7
100
AcDbSymbolTable
70
0
0
ENDTAB
0
TABLE
2
APPID
5
9
100
AcDbSymbolTable
70
2
0
APPID
5
12
100
AcDbSymbolTableRecord
100
AcDbRegAppTableRecord
2
ACAD
70
0
0
ENDTAB
0
TABLE
2
DIMSTYLE
5
A
100
AcDbSymbolTable
70
1
0
ENDTAB
0
TABLE
2
BLOCK_RECORD
5
1
100
AcDbSymbolTable
70
1
0
BLOCK_RECORD
5
1F
100
AcDbSymbolTableRecord
100
AcDbBlockTableRecord
2
*MODEL_SPACE
0
BLOCK_RECORD
5
1B
100
AcDbSymbolTableRecord
100
AcDbBlockTableRecord
2
*PAPER_SPACE
0
ENDTAB
0
ENDSEC
0
SECTION
2
BLOCKS
0
BLOCK
5
20
100
AcDbEntity
100
AcDbBlockBegin
2
*MODEL_SPACE
0
ENDBLK
5
21
100
AcDbEntity
100
AcDbBlockEnd
0
BLOCK
5
1C
100
AcDbEntity
100
AcDbBlockBegin
2
*PAPER_SPACE
0
ENDBLK
5
1D
100
AcDbEntity
100
AcDbBlockEnd
0
ENDSEC
0
SECTION
2
ENTITIES
0
LINE
5
100
100
AcDbEntity
8
0
100
AcDbLine
10
-600
20
300
30
0
11
600
21
300
31
0
0
LINE
5
101
100
AcDbEntity
8
0
100
AcDbLine
10
-600
20
-400
30
0
11
-600
21
300
31
0
0
LINE
5
102
100
AcDbEntity
8
0
100
AcDbLine
10
600
20
-400
30
0
11
-600
21
-400
31
0
0
LINE
5
103
100
AcDbEntity
8
0
100
AcDbLine
10
600
20
300
30
0
11
600
21
-400
31
0
0
LINE
5
104
100
AcDbEntity
8
0
100
AcDbLine
10
-129.04787076083414
20
-33.262113560244813
30
0
11
-194.43558450485335
21
60.121219488700234
31
0
0
LINE
5
105
100
AcDbEntity
8
0
100
AcDbLine
10
-181.32915179622941
20
69.298442470316971
30
0
11
-115.94143805221022
21
-24.084890578628073
31
0
0
LINE
5
106
100
AcDbEntity
8
0
100
AcDbLine
10
-116.67816487602407
20
-28.263076020548148
30
0
11
-124.86968531891408
21
-33.998840384058653
31
0
0
LINE
5
107
100
AcDbEntity
8
0
100
AcDbLine
10
-193.69885768103953
20
64.299404930620341
30
0
11
-185.50733723814957
21
70.035169294130824
31
0
0
ARC
5
108
100
AcDbEntity
8
0
100
AcDbCircle
10
-196.15631381390648
20
62.578675621567221
30
0
40
2.9999999999999876
100
AcDbArc
50
34.99999999999995
51
304.99999999999943
0
ARC
5
109
100
AcDbEntity
8
0
100
AcDbCircle
10
-183.04988110528257
20
71.755898603183979
30
0
40
3.0000000000000364
100
AcDbArc
50
-55.000000000000092
51
214.99999999999989
0
ARC
5
110
100
AcDbEntity
8
0
100
AcDbCircle
10
-114.2207087431571
20
-26.542346711495036
30
0
40
2.9999999999999676
100
AcDbArc
50
-145.00000000000031
51
124.99999999999976
0
ARC
5
111
100
AcDbEntity
8
0
100
AcDbCircle
10
-127.32714145178105
20
-35.719569693111772
30
0
40
2.9999999999999725
100
AcDbArc
50
-235.00000000000043
51
34.999999999999815
0
ARC
5
112
100
AcDbEntity
8
0
100
AcDbCircle
10
-6.1563138139065599
20
62.5786756215672
30
0
40
2.9999999999999964
100
AcDbArc
50
35.000000000000064
51
305.00000000000011
0
LINE
5
113
100
AcDbEntity
8
0
100
AcDbLine
10
-3.6988576810395877
20
64.299404930620341
30
0
11
4.4926627618503678
21
70.035169294130824
31
0
0
ARC
5
114
100
AcDbEntity
8
0
100
AcDbCircle
10
6.9501188947173453
20
71.755898603183994
30
0
40
3.000000000000036
100
AcDbArc
50
-54.999999999999943
51
215.00000000000028
0
LINE
5
115
100
AcDbEntity
8
0
100
AcDbLine
10
8.670848203770511
20
69.298442470316985
30
0
11
74.058561947789713
21
-24.084890578628055
31
0
0
LINE
5
116
100
AcDbEntity
8
0
100
AcDbLine
10
60.952129239165785
20
-33.262113560244813
30
0
11
-4.4355845048534182
21
60.121219488700234
31
0
0
ARC
5
117
100
AcDbEntity
8
0
100
AcDbCircle
10
75.779291256842811
20
-26.542346711495025
30
0
40
2.9999999999999756
100
AcDbArc
50
-145
51
124.99999999999945
0
LINE
5
118
100
AcDbEntity
8
0
100
AcDbLine
10
73.321835123975859
20
-28.263076020548148
30
0
11
65.130314681085849
21
-33.998840384058653
31
0
0
ARC
5
119
100
AcDbEntity
8
0
100
AcDbCircle
10
62.672858548218912
20
-35.719569693111765
30
0
40
2.9999999999999694
100
AcDbArc
50
-234.99999999999991
51
35.000000000000121
0
ARC
5
120
100
AcDbEntity
8
0
100
AcDbCircle
10
183.84368618609335
20
62.578675621567221
30
0
40
2.9999999999999876
100
AcDbArc
50
34.999999999999652
51
304.99999999999989
0
LINE
5
121
100
AcDbEntity
8
0
100
AcDbLine
10
186.30114231896033
20
64.299404930620341
30
0
11
194.49266276185028
21
70.035169294130824
31
0
0
ARC
5
122
100
AcDbEntity
8
0
100
AcDbCircle
10
196.95011889471729
20
71.755898603183979
30
0
40
3.0000000000000364
100
AcDbArc
50
-55.000000000000092
51
214.99999999999989
0
LINE
5
123
100
AcDbEntity
8
0
100
AcDbLine
10
198.67084820377045
20
69.298442470316971
30
0
11
264.0585619477896
21
-24.084890578628073
31
0
0
LINE
5
124
100
AcDbEntity
8
0
100
AcDbLine
10
250.95212923916574
20
-33.262113560244821
30
0
11
185.56441549514653
21
60.121219488700234
31
0
0
ARC
5
125
100
AcDbEntity
8
0
100
AcDbCircle
10
252.67285854821887
20
-35.719569693111779
30
0
40
2.9999999999999725
100
AcDbArc
50
-235
51
35.000000000000611
0
LINE
5
126
100
AcDbEntity
8
0
100
AcDbLine
10
263.3218351239758
20
-28.263076020548151
30
0
11
255.13031468108576
21
-33.99884038405866
31
0
0
ARC
5
127
100
AcDbEntity
8
0
100
AcDbCircle
10
265.77929125684278
20
-26.542346711495
30
0
40
3.0000000000000053
100
AcDbArc
50
-144.99999999999986
51
125.00000000000098
0
ARC
5
128
100
AcDbEntity
8
0
100
AcDbCircle
10
373.84368618609329
20
62.578675621567243
30
0
40
2.9999999999999325
100
AcDbArc
50
34.999999999999488
51
304.99999999999949
0
ARC
5
129
100
AcDbEntity
8
0
100
AcDbCircle
10
386.95011889471715
20
71.755898603183979
30
0
40
3.0000000000000777
100
AcDbArc
50
-54.999999999998764
51
215.00000000000108
0
LINE
5
130
100
AcDbEntity
8
0
100
AcDbLine
10
376.30114231896022
20
64.299404930620312
30
0
11
384.49266276185023
21
70.035169294130824
31
0
0
LINE
5
131
100
AcDbEntity
8
0
100
AcDbLine
10
388.67084820377039
20
69.298442470316971
30
0
11
454.05856194778954
21
-24.084890578628109
31
0
0
LINE
5
132
100
AcDbEntity
8
0
100
AcDbLine
10
440.95212923916563
20
-33.262113560244806
30
0
11
375.56441549514648
21
60.121219488700241
31
0
0
ARC
5
133
100
AcDbEntity
8
0
100
AcDbCircle
10
455.77929125684273
20
-26.542346711494979
30
0
40
2.9999999999999889
100
AcDbArc
50
-144.99999999999889
51
125.00000000000128
0
LINE
5
134
100
AcDbEntity
8
0
100
AcDbLine
10
453.3218351239758
20
-28.263076020548151
30
0
11
445.13031468108574
21
-33.99884038405866
31
0
0
ARC
5
135
100
AcDbEntity
8
0
100
AcDbCircle
10
442.67285854821876
20
-35.719569693111758
30
0
40
2.9999999999999893
100
AcDbArc
50
-234.99999999999991
51
34.999999999999652
0
LINE
5
136
100
AcDbEntity
8
0
100
AcDbLine
10
391.16959712650817
20
-223.53810932718778
30
0
11
399.36111756939817
21
-217.80234496367729
31
0
0
ARC
5
137
100
AcDbEntity
8
0
100
AcDbCircle
10
401.81857370226533
20
-216.08161565462416
30
0
40
2.999999999999996
100
AcDbArc
50
-55.000000000001769
51
214.99999999999821
0
ARC
5
138
100
AcDbEntity
8
0
100
AcDbCircle
10
388.71214099364124
20
-225.25883863624088
30
0
40
2.9999999999999378
100
AcDbArc
50
34.99999999999995
51
304.99999999999977
0
LINE
5
139
100
AcDbEntity
8
0
100
AcDbLine
10
403.5393030113184
20
-218.5390717874912
30
0
11
468.9270167553376
21
-311.92240483643616
31
0
0
LINE
5
140
100
AcDbEntity
8
0
100
AcDbLine
10
455.82058404671363
20
-321.09962781805285
30
0
11
390.43287030269437
21
-227.71629476910786
31
0
0
ARC
5
141
100
AcDbEntity
8
0
100
AcDbCircle
10
470.64774606439073
20
-314.37986096930314
30
0
40
2.9999999999999378
100
AcDbArc
50
-145.00000000000051
51
124.9999999999995
0
LINE
5
142
100
AcDbEntity
8
0
100
AcDbLine
10
468.19028993152381
20
-316.10059027835621
30
0
11
459.99876948863368
21
-321.83635464186671
31
0
0
ARC
5
143
100
AcDbEntity
8
0
100
AcDbCircle
10
457.54131335576676
20
-323.55708395091983
30
0
40
2.9999999999999378
100
AcDbArc
50
-235.00000000000026
51
35.000000000000391
0
LINE
5
144
100
AcDbEntity
8
0
100
AcDbLine
10
213.53930301131817
20
-218.53907178749111
30
0
11
278.92701675533738
21
-311.9224048364361
31
0
0
ARC
5
145
100
AcDbEntity
8
0
100
AcDbCircle
10
211.81857370226504
20
-216.0816156546241
30
0
40
3.0000000000000364
100
AcDbArc
50
-55.000000000000547
51
215
0
LINE
5
146
100
AcDbEntity
8
0
100
AcDbLine
10
201.16959712650808
20
-223.53810932718775
30
0
11
209.361117569398
21
-217.80234496367729
31
0
0
ARC
5
147
100
AcDbEntity
8
0
100
AcDbCircle
10
198.7121409936411
20
-225.25883863624085
30
0
40
2.9999999999999671
100
AcDbArc
50
34.999999999999311
51
304.99999999999932
0
LINE
5
148
100
AcDbEntity
8
0
100
AcDbLine
10
265.82058404671352
20
-321.09962781805285
30
0
11
200.43287030269425
21
-227.71629476910789
31
0
0
ARC
5
149
100
AcDbEntity
8
0
100
AcDbCircle
10
267.54131335576665
20
-323.55708395091983
30
0
40
2.9999999999999583
100
AcDbArc
50
-235.00000000000026
51
35.000000000001279
0
LINE
5
150
100
AcDbEntity
8
0
100
AcDbLine
10
278.19028993152352
20
-316.10059027835621
30
0
11
269.99876948863351
21
-321.83635464186671
31
0
0
ARC
5
151
100
AcDbEntity
8
0
100
AcDbCircle
10
280.6477460643905
20
-314.37986096930308
30
0
40
2.9999999999999671
100
AcDbArc
50
-145.00000000000026
51
124.99999999999889
0
ARC
5
152
100
AcDbEntity
8
0
100
AcDbCircle
10
90.647746064390319
20
-314.37986096930302
30
0
40
2.9999999999999725
100
AcDbArc
50
-144.99999999999991
51
125.00000000000016
0
LINE
5
153
100
AcDbEntity
8
0
100
AcDbLine
10
88.190289931523367
20
-316.10059027835615
30
0
11
79.998769488633343
21
-321.83635464186665
31
0
0
ARC
5
154
100
AcDbEntity
8
0
100
AcDbCircle
10
77.54131335576642
20
-323.55708395091972
30
0
40
2.9999999999999534
100
AcDbArc
50
-234.99999999999983
51
34.999999999999346
0
LINE
5
155
100
AcDbEntity
8
0
100
AcDbLine
10
75.820584046713307
20
-321.0996278180528
30
0
11
10.432870302694051
21
-227.71629476910783
31
0
0
LINE
5
156
100
AcDbEntity
8
0
100
AcDbLine
10
23.539303011318012
20
-218.53907178749111
30
0
11
88.92701675533722
21
-311.9224048364361
31
0
0
ARC
5
157
100
AcDbEntity
8
0
100
AcDbCircle
10
21.818573702264864
20
-216.0816156546241
30
0
40
3.0000000000000342
100
AcDbArc
50
-55.000000000000249
51
214.99999999999991
0
LINE
5
158
100
AcDbEntity
8
0
100
AcDbLine
10
11.169597126507895
20
-223.53810932718773
30
0
11
19.361117569397866
21
-217.80234496367726
31
0
0
ARC
5
159
100
AcDbEntity
8
0
100
AcDbCircle
10
8.7121409936409258
20
-225.25883863624085
30
0
40
2.999999999999984
100
AcDbArc
50
34.999999999999879
51
304.99999999999966
0
LINE
5
160
100
AcDbEntity
8
0
100
AcDbLine
10
-166.46069698868214
20
-218.53907178749103
30
0
11
-101.07298324466292
21
-311.92240483643604
31
0
0
LINE
5
161
100
AcDbEntity
8
0
100
AcDbLine
10
-114.17941595328688
20
-321.0996278180528
30
0
11
-179.56712969730609
21
-227.71629476910783
31
0
0
LINE
5
162
100
AcDbEntity
8
0
100
AcDbLine
10
-178.83040287349229
20
-223.5381093271877
30
0
11
-170.63888243060234
21
-217.80234496367723
31
0
0
ARC
5
163
100
AcDbEntity
8
0
100
AcDbCircle
10
-168.1814262977353
20
-216.08161565462404
30
0
40
3.0000000000000364
100
AcDbArc
50
-54.999999999999787
51
214.99999999999946
0
ARC
5
164
100
AcDbEntity
8
0
100
AcDbCircle
10
-181.28785900635927
20
-225.25883863624077
30
0
40
2.9999999999999671
100
AcDbArc
50
34.99999999999887
51
304.99999999999932
0
LINE
5
165
100
AcDbEntity
8
0
100
AcDbLine
10
-101.80971006847679
20
-316.10059027835609
30
0
11
-110.00123051136683
21
-321.83635464186659
31
0
0
ARC
5
166
100
AcDbEntity
8
0
100
AcDbCircle
10
-99.352253935609838
20
-314.37986096930297
30
0
40
2.9999999999999725
100
AcDbArc
50
-144.99999999999991
51
124.99999999999909
0
ARC
5
167
100
AcDbEntity
8
0
100
AcDbCircle
10
-112.45868664423377
20
-323.55708395091972
30
0
40
2.9999999999999583
100
AcDbArc
50
-234.99999999999983
51
34.999999999999488
0
ENDSEC
0
SECTION
2
OBJECTS
0
DICTIONARY
5
C
100
AcDbDictionary
3
ACAD_GROUP
350
D
3
ACAD_MLINESTYLE
350
17
0
DICTIONARY
5
D
100
AcDbDictionary
0
DICTIONARY
5
1A
330
C
100
AcDbDictionary
0
DICTIONARY
5
17
100
AcDbDictionary
0
ENDSEC
0
EOF
