0
SECTION
2
HEADER
9
$INSUNITS
70
4
9
$ACADVER
1
AC1014
9
$HANDSEED
5
FFFF
0
ENDSEC
0
SECTION
2
TABLES
0
TABLE
2
VPORT
5
8
100
AcDbSymbolTable
0
ENDTAB
0
TABLE
2
LTYPE
5
5
100
AcDbSymbolTable
0
LTYPE
5
14
100
AcDbSymbolTableRecord
100
AcDbLinetypeTableRecord
2
BYBLOCK
70
0
0
LTYPE
5
15
100
AcDbSymbolTableRecord
100
AcDbLinetypeTableRecord
2
BYLAYER
70
0
0
ENDTAB
0
TABLE
2
LAYER
5
2
100
AcDbSymbolTable
70
2
0
LAYER
5
50
100
AcDbSymbolTableRecord
100
AcDbLayerTableRecord
2
0
70
0
6
CONTINUOUS
0
ENDTAB
0
TABLE
2
STYLE
5
3
100
AcDbSymbolTable
70
1
0
STYLE
5
11
100
AcDbSymbolTableRecord
100
AcDbTextStyleTableRecord
2
STANDARD
70
0
0
ENDTAB
0
TABLE
2
VIEW
5
6
100
AcDbSymbolTable
70
0
0
ENDTAB
0
TABLE
2
UCS
5
7
100
AcDbSymbolTable
70
0
0
ENDTAB
0
TABLE
2
APPID
5
9
100
AcDbSymbolTable
70
2
0
APPID
5
12
100
AcDbSymbolTableRecord
100
AcDbRegAppTableRecord
2
ACAD
70
0
0
ENDTAB
0
TABLE
2
DIMSTYLE
5
A
100
AcDbSymbolTable
70
1
0
ENDTAB
0
TABLE
2
BLOCK_RECORD
5
1
100
AcDbSymbolTable
70
1
0
BLOCK_RECORD
5
1F
100
AcDbSymbolTableRecord
100
AcDbBlockTableRecord
2
*MODEL_SPACE
0
BLOCK_RECORD
5
1B
100
AcDbSymbolTableRecord
100
AcDbBlockTableRecord
2
*PAPER_SPACE
0
ENDTAB
0
ENDSEC
0
SECTION
2
BLOCKS
0
BLOCK
5
20
100
AcDbEntity
100
AcDbBlockBegin
2
*MODEL_SPACE
0
ENDBLK
5
21
100
AcDbEntity
100
AcDbBlockEnd
0
BLOCK
5
1C
100
AcDbEntity
100
AcDbBlockBegin
2
*PAPER_SPACE
0
ENDBLK
5
1D
100
AcDbEntity
100
AcDbBlockEnd
0
ENDSEC
0
SECTION
2
ENTITIES
0
ARC
5
100
100
AcDbEntity
8
0
100
AcDbCircle
10
286.44926665168259
20
241.10691084530174
30
0
40
3.0000000000000071
100
AcDbArc
50
-180
51
90
0
ARC
5
101
100
AcDbEntity
8
0
100
AcDbCircle
10
224.5436521039025
20
242.14843141401468
30
0
40
3.0000000000000071
100
AcDbArc
50
-270
51
0
0
ARC
5
102
100
AcDbEntity
8
0
100
AcDbCircle
10
436.44926665168236
20
241.10691084530214
30
0
40
3.0000000000000071
100
AcDbArc
50
-270
51
0
0
ARC
5
103
100
AcDbEntity
8
0
100
AcDbCircle
10
74.54365210390263
20
242.14843141401468
30
0
40
2.9999999999999893
100
AcDbArc
50
-180
51
89.99999999999973
0
ARC
5
104
100
AcDbEntity
8
0
100
AcDbCircle
10
10.993385840747536
20
241.37474911776664
30
0
40
3.0000000000000071
100
AcDbArc
50
-269.99999999999983
51
0
0
ARC
5
105
100
AcDbEntity
8
0
100
AcDbCircle
10
-139.00661415925268
20
241.37474911776692
30
0
40
2.9999999999999893
100
AcDbArc
50
-180
51
90
0
ARC
5
106
100
AcDbEntity
8
0
100
AcDbCircle
10
-197.82896094452695
20
249.1440395259248
30
0
40
3.0000000000000071
100
AcDbArc
50
-269.99999999999943
51
0
0
ARC
5
107
100
AcDbEntity
8
0
100
AcDbCircle
10
-347.8289609445273
20
249.14403952592482
30
0
40
2.9999999999999716
100
AcDbArc
50
-180
51
89.99999999999892
0
ARC
5
108
100
AcDbEntity
8
0
100
AcDbCircle
10
-347.8289609445273
20
130.14403952592465
30
0
40
3.0000000000000426
100
AcDbArc
50
-90
51
180
0
ARC
5
109
100
AcDbEntity
8
0
100
AcDbCircle
10
-197.82896094452701
20
130.14403952592457
30
0
40
3.0000000000000071
100
AcDbArc
50
0
51
269.99999999999892
0
ARC
5
110
100
AcDbEntity
8
0
100
AcDbCircle
10
-139.00661415925293
20
122.37474911776698
30
0
40
3.0000000000000071
100
AcDbArc
50
-89.999999999999446
51
180
0
ARC
5
111
100
AcDbEntity
8
0
100
AcDbCircle
10
10.993385840747292
20
122.3747491177667
30
0
40
3.0000000000000049
100
AcDbArc
50
0
51
270
0
ARC
5
112
100
AcDbEntity
8
0
100
AcDbCircle
10
74.543652103902602
20
123.14843141401461
30
0
40
3.0000000000000071
100
AcDbArc
50
-90.000000000000256
51
180
0
ARC
5
113
100
AcDbEntity
8
0
100
AcDbCircle
10
224.54365210390247
20
123.14843141401461
30
0
40
3.0000000000000071
100
AcDbArc
50
0
51
270
0
ARC
5
114
100
AcDbEntity
8
0
100
AcDbCircle
10
286.44926665168282
20
122.10691084530211
30
0
40
3.0000000000000071
100
AcDbArc
50
-90
51
180
0
ARC
5
115
100
AcDbEntity
8
0
100
AcDbCircle
10
436.44926665168248
20
122.10691084530251
30
0
40
3.0000000000000426
100
AcDbArc
50
0
51
270.00000000000222
0
LINE
5
116
100
AcDbEntity
8
0
100
AcDbLine
10
-600
20
300
30
0
11
600
21
300
31
0
0
LINE
5
117
100
AcDbEntity
8
0
100
AcDbLine
10
-600
20
-400
30
0
11
-600
21
300
31
0
0
LINE
5
118
100
AcDbEntity
8
0
100
AcDbLine
10
600
20
300
30
0
11
600
21
-400
31
0
0
LINE
5
119
100
AcDbEntity
8
0
100
AcDbLine
10
600
20
-400
30
0
11
-600
21
-400
31
0
0
ARC
5
120
100
AcDbEntity
8
0
100
AcDbCircle
10
-463.09790132442339
20
-4.3531480133643994
30
0
40
2.9999999999999654
100
AcDbArc
50
-90
51
180
0
ARC
5
121
100
AcDbEntity
8
0
100
AcDbCircle
10
-463.09790132442339
20
-20.353148013364383
30
0
40
2.9999999999999716
100
AcDbArc
50
-180
51
90
0
ARC
5
122
100
AcDbEntity
8
0
100
AcDbCircle
10
-196.15631381390648
20
62.578675621567221
30
0
40
2.9999999999999876
100
AcDbArc
50
34.99999999999995
51
304.99999999999943
0
ARC
5
123
100
AcDbEntity
8
0
100
AcDbCircle
10
-183.04988110528257
20
71.755898603183979
30
0
40
3.0000000000000364
100
AcDbArc
50
-55.000000000000092
51
214.99999999999989
0
ARC
5
124
100
AcDbEntity
8
0
100
AcDbCircle
10
-127.32714145178105
20
-35.719569693111772
30
0
40
2.9999999999999725
100
AcDbArc
50
-235.00000000000043
51
34.999999999999815
0
ARC
5
125
100
AcDbEntity
8
0
100
AcDbCircle
10
-114.2207087431571
20
-26.542346711495036
30
0
40
2.9999999999999676
100
AcDbArc
50
-145.00000000000031
51
124.99999999999976
0
ARC
5
126
100
AcDbEntity
8
0
100
AcDbCircle
10
6.9501188947173453
20
71.755898603183994
30
0
40
3.000000000000036
100
AcDbArc
50
-54.999999999999943
51
215.00000000000028
0
ARC
5
127
100
AcDbEntity
8
0
100
AcDbCircle
10
-6.1563138139065599
20
62.5786756215672
30
0
40
2.9999999999999964
100
AcDbArc
50
35.000000000000064
51
305.00000000000011
0
ARC
5
128
100
AcDbEntity
8
0
100
AcDbCircle
10
75.779291256842811
20
-26.542346711495025
30
0
40
2.9999999999999756
100
AcDbArc
50
-145
51
124.99999999999945
0
ARC
5
129
100
AcDbEntity
8
0
100
AcDbCircle
10
62.672858548218912
20
-35.719569693111765
30
0
40
2.9999999999999694
100
AcDbArc
50
-234.99999999999991
51
35.000000000000121
0
ARC
5
130
100
AcDbEntity
8
0
100
AcDbCircle
10
252.67285854821887
20
-35.719569693111779
30
0
40
2.9999999999999725
100
AcDbArc
50
-235
51
35.000000000000611
0
ARC
5
131
100
AcDbEntity
8
0
100
AcDbCircle
10
265.77929125684278
20
-26.542346711495
30
0
40
3.0000000000000053
100
AcDbArc
50
-144.99999999999986
51
125.00000000000098
0
ARC
5
132
100
AcDbEntity
8
0
100
AcDbCircle
10
183.84368618609335
20
62.578675621567221
30
0
40
2.9999999999999876
100
AcDbArc
50
34.999999999999652
51
304.99999999999989
0
ARC
5
133
100
AcDbEntity
8
0
100
AcDbCircle
10
196.95011889471729
20
71.755898603183979
30
0
40
3.0000000000000364
100
AcDbArc
50
-55.000000000000092
51
214.99999999999989
0
ARC
5
134
100
AcDbEntity
8
0
100
AcDbCircle
10
373.84368618609329
20
62.578675621567243
30
0
40
2.9999999999999325
100
AcDbArc
50
34.999999999999488
51
304.99999999999949
0
ARC
5
135
100
AcDbEntity
8
0
100
AcDbCircle
10
386.95011889471715
20
71.755898603183979
30
0
40
3.0000000000000777
100
AcDbArc
50
-54.999999999998764
51
215.00000000000108
0
ARC
5
136
100
AcDbEntity
8
0
100
AcDbCircle
10
442.67285854821876
20
-35.719569693111758
30
0
40
2.9999999999999893
100
AcDbArc
50
-234.99999999999991
51
34.999999999999652
0
ARC
5
137
100
AcDbEntity
8
0
100
AcDbCircle
10
455.77929125684273
20
-26.542346711494979
30
0
40
2.9999999999999889
100
AcDbArc
50
-144.99999999999889
51
125.00000000000128
0
ARC
5
138
100
AcDbEntity
8
0
100
AcDbCircle
10
274.77742372054144
20
-120.33570705886646
30
0
40
2.9999999999999716
100
AcDbArc
50
-270
51
0
0
ARC
5
139
100
AcDbEntity
8
0
100
AcDbCircle
10
290.77742372054132
20
-120.33570705886643
30
0
40
3.0000000000000071
100
AcDbArc
50
-180
51
90.000000000001094
0
ARC
5
140
100
AcDbEntity
8
0
100
AcDbCircle
10
170.79173983284196
20
-122.25510852559816
30
0
40
3.0000000000000071
100
AcDbArc
50
-180
51
90
0
ARC
5
141
100
AcDbEntity
8
0
100
AcDbCircle
10
154.79173983284187
20
-122.25510852559815
30
0
40
3.0000000000000071
100
AcDbArc
50
-270
51
0
0
ARC
5
142
100
AcDbEntity
8
0
100
AcDbCircle
10
-448.22944651687646
20
-292.19066227117236
30
0
40
2.9999999999999361
100
AcDbArc
50
-90
51
180
0
ARC
5
143
100
AcDbEntity
8
0
100
AcDbCircle
10
-448.22944651687646
20
-308.1906622711723
30
0
40
2.9999999999999716
100
AcDbArc
50
-180
51
90
0
ARC
5
144
100
AcDbEntity
8
0
100
AcDbCircle
10
-168.1814262977353
20
-216.08161565462404
30
0
40
3.0000000000000364
100
AcDbArc
50
-54.999999999999787
51
214.99999999999946
0
ARC
5
145
100
AcDbEntity
8
0
100
AcDbCircle
10
-181.28785900635927
20
-225.25883863624077
30
0
40
2.9999999999999671
100
AcDbArc
50
34.99999999999887
51
304.99999999999932
0
ARC
5
146
100
AcDbEntity
8
0
100
AcDbCircle
10
-112.45868664423377
20
-323.55708395091972
30
0
40
2.9999999999999583
100
AcDbArc
50
-234.99999999999983
51
34.999999999999488
0
ARC
5
147
100
AcDbEntity
8
0
100
AcDbCircle
10
-99.352253935609838
20
-314.37986096930297
30
0
40
2.9999999999999725
100
AcDbArc
50
-144.99999999999991
51
124.99999999999909
0
ARC
5
148
100
AcDbEntity
8
0
100
AcDbCircle
10
8.7121409936409258
20
-225.25883863624085
30
0
40
2.999999999999984
100
AcDbArc
50
34.999999999999879
51
304.99999999999966
0
ARC
5
149
100
AcDbEntity
8
0
100
AcDbCircle
10
21.818573702264864
20
-216.0816156546241
30
0
40
3.0000000000000342
100
AcDbArc
50
-55.000000000000249
51
214.99999999999991
0
ARC
5
150
100
AcDbEntity
8
0
100
AcDbCircle
10
77.54131335576642
20
-323.55708395091972
30
0
40
2.9999999999999534
100
AcDbArc
50
-234.99999999999983
51
34.999999999999346
0
ARC
5
151
100
AcDbEntity
8
0
100
AcDbCircle
10
90.647746064390319
20
-314.37986096930302
30
0
40
2.9999999999999725
100
AcDbArc
50
-144.99999999999991
51
125.00000000000016
0
ARC
5
152
100
AcDbEntity
8
0
100
AcDbCircle
10
198.7121409936411
20
-225.25883863624085
30
0
40
2.9999999999999671
100
AcDbArc
50
34.999999999999311
51
304.99999999999932
0
ARC
5
153
100
AcDbEntity
8
0
100
AcDbCircle
10
211.81857370226504
20
-216.0816156546241
30
0
40
3.0000000000000364
100
AcDbArc
50
-55.000000000000547
51
215
0
ARC
5
154
100
AcDbEntity
8
0
100
AcDbCircle
10
267.54131335576665
20
-323.55708395091983
30
0
40
2.9999999999999583
100
AcDbArc
50
-235.00000000000026
51
35.000000000001279
0
ARC
5
155
100
AcDbEntity
8
0
100
AcDbCircle
10
280.6477460643905
20
-314.37986096930308
30
0
40
2.9999999999999671
100
AcDbArc
50
-145.00000000000026
51
124.99999999999889
0
ARC
5
156
100
AcDbEntity
8
0
100
AcDbCircle
10
470.64774606439073
20
-314.37986096930314
30
0
40
2.9999999999999378
100
AcDbArc
50
-145.00000000000051
51
124.9999999999995
0
ARC
5
157
100
AcDbEntity
8
0
100
AcDbCircle
10
457.54131335576676
20
-323.55708395091983
30
0
40
2.9999999999999378
100
AcDbArc
50
-235.00000000000026
51
35.000000000000391
0
ARC
5
158
100
AcDbEntity
8
0
100
AcDbCircle
10
388.71214099364124
20
-225.25883863624088
30
0
40
2.9999999999999378
100
AcDbArc
50
34.99999999999995
51
304.99999999999977
0
ARC
5
159
100
AcDbEntity
8
0
100
AcDbCircle
10
401.81857370226533
20
-216.08161565462416
30
0
40
2.999999999999996
100
AcDbArc
50
-55.000000000001769
51
214.99999999999821
0
CIRCLE
5
160
100
AcDbEntity
8
0
100
AcDbCircle
10
-347.8289609445273
20
249.14403952592482
30
0
40
2.9999999999999716
0
CIRCLE
5
161
100
AcDbEntity
8
0
100
AcDbCircle
10
-197.82896094452695
20
249.1440395259248
30
0
40
3.0000000000000071
0
CIRCLE
5
162
100
AcDbEntity
8
0
100
AcDbCircle
10
-197.82896094452701
20
130.14403952592457
30
0
40
3.0000000000000071
0
CIRCLE
5
163
100
AcDbEntity
8
0
100
AcDbCircle
10
-347.8289609445273
20
130.14403952592465
30
0
40
3.0000000000000426
0
CIRCLE
5
164
100
AcDbEntity
8
0
100
AcDbCircle
10
-139.00661415925268
20
241.37474911776692
30
0
40
2.9999999999999716
0
CIRCLE
5
165
100
AcDbEntity
8
0
100
AcDbCircle
10
-139.00661415925293
20
122.37474911776698
30
0
40
3.0000000000000071
0
CIRCLE
5
166
100
AcDbEntity
8
0
100
AcDbCircle
10
10.993385840747292
20
122.3747491177667
30
0
40
3.0000000000000049
0
CIRCLE
5
167
100
AcDbEntity
8
0
100
AcDbCircle
10
10.993385840747536
20
241.37474911776664
30
0
40
3.0000000000000071
0
CIRCLE
5
168
100
AcDbEntity
8
0
100
AcDbCircle
10
74.54365210390263
20
242.14843141401468
30
0
40
2.9999999999999893
0
CIRCLE
5
169
100
AcDbEntity
8
0
100
AcDbCircle
10
74.543652103902602
20
123.14843141401461
30
0
40
3.0000000000000071
0
CIRCLE
5
170
100
AcDbEntity
8
0
100
AcDbCircle
10
224.54365210390247
20
123.14843141401461
30
0
40
3.0000000000000071
0
CIRCLE
5
171
100
AcDbEntity
8
0
100
AcDbCircle
10
224.5436521039025
20
242.14843141401468
30
0
40
3.0000000000000071
0
CIRCLE
5
172
100
AcDbEntity
8
0
100
AcDbCircle
10
286.44926665168259
20
241.10691084530174
30
0
40
3.0000000000000071
0
CIRCLE
5
173
100
AcDbEntity
8
0
100
AcDbCircle
10
436.44926665168236
20
241.10691084530214
30
0
40
3.0000000000000426
0
CIRCLE
5
174
100
AcDbEntity
8
0
100
AcDbCircle
10
436.44926665168248
20
122.10691084530251
30
0
40
3.0000000000000426
0
CIRCLE
5
175
100
AcDbEntity
8
0
100
AcDbCircle
10
286.44926665168282
20
122.10691084530211
30
0
40
3.0000000000000071
0
CIRCLE
5
176
100
AcDbEntity
8
0
100
AcDbCircle
10
-463.09790132442339
20
-4.3531480133643994
30
0
40
2.9999999999999654
0
CIRCLE
5
177
100
AcDbEntity
8
0
100
AcDbCircle
10
-463.09790132442339
20
-20.353148013364383
30
0
40
2.9999999999999716
0
CIRCLE
5
178
100
AcDbEntity
8
0
100
AcDbCircle
10
-196.15631381390648
20
62.578675621567221
30
0
40
2.99999999999998
0
CIRCLE
5
179
100
AcDbEntity
8
0
100
AcDbCircle
10
-183.04988110528257
20
71.755898603183979
30
0
40
3.0000000000000364
0
CIRCLE
5
180
100
AcDbEntity
8
0
100
AcDbCircle
10
-127.32714145178105
20
-35.719569693111772
30
0
40
2.9999999999999725
0
CIRCLE
5
181
100
AcDbEntity
8
0
100
AcDbCircle
10
-114.2207087431571
20
-26.542346711495036
30
0
40
2.9999999999999676
0
CIRCLE
5
182
100
AcDbEntity
8
0
100
AcDbCircle
10
-6.1563138139065599
20
62.5786756215672
30
0
40
2.9999999999999987
0
CIRCLE
5
183
100
AcDbEntity
8
0
100
AcDbCircle
10
6.9501188947173453
20
71.755898603183994
30
0
40
3.000000000000036
0
CIRCLE
5
184
100
AcDbEntity
8
0
100
AcDbCircle
10
62.672858548218912
20
-35.719569693111765
30
0
40
2.999999999999968
0
CIRCLE
5
185
100
AcDbEntity
8
0
100
AcDbCircle
10
75.779291256842811
20
-26.542346711495025
30
0
40
2.9999999999999756
0
CIRCLE
5
186
100
AcDbEntity
8
0
100
AcDbCircle
10
183.84368618609335
20
62.578675621567221
30
0
40
2.99999999999998
0
CIRCLE
5
187
100
AcDbEntity
8
0
100
AcDbCircle
10
196.95011889471729
20
71.755898603183979
30
0
40
3.0000000000000364
0
CIRCLE
5
188
100
AcDbEntity
8
0
100
AcDbCircle
10
252.67285854821887
20
-35.719569693111779
30
0
40
2.9999999999999711
0
CIRCLE
5
189
100
AcDbEntity
8
0
100
AcDbCircle
10
265.77929125684278
20
-26.542346711495
30
0
40
3.0000000000000138
0
CIRCLE
5
190
100
AcDbEntity
8
0
100
AcDbCircle
10
373.84368618609329
20
62.578675621567243
30
0
40
2.9999999999999232
0
CIRCLE
5
191
100
AcDbEntity
8
0
100
AcDbCircle
10
386.95011889471715
20
71.755898603183979
30
0
40
3.0000000000000777
0
CIRCLE
5
192
100
AcDbEntity
8
0
100
AcDbCircle
10
442.67285854821876
20
-35.719569693111758
30
0
40
2.9999999999999605
0
CIRCLE
5
193
100
AcDbEntity
8
0
100
AcDbCircle
10
455.77929125684273
20
-26.542346711494979
30
0
40
2.9999999999999889
0
CIRCLE
5
194
100
AcDbEntity
8
0
100
AcDbCircle
10
-448.22944651687646
20
-292.19066227117236
30
0
40
2.9999999999999361
0
CIRCLE
5
195
100
AcDbEntity
8
0
100
AcDbCircle
10
-448.22944651687646
20
-308.1906622711723
30
0
40
2.9999999999999716
0
CIRCLE
5
196
100
AcDbEntity
8
0
100
AcDbCircle
10
-181.28785900635927
20
-225.25883863624077
30
0
40
2.9999999999999671
0
CIRCLE
5
197
100
AcDbEntity
8
0
100
AcDbCircle
10
-168.1814262977353
20
-216.08161565462404
30
0
40
3.0000000000000364
0
CIRCLE
5
198
100
AcDbEntity
8
0
100
AcDbCircle
10
-112.45868664423377
20
-323.55708395091972
30
0
40
2.9999999999999232
0
CIRCLE
5
199
100
AcDbEntity
8
0
100
AcDbCircle
10
-99.352253935609838
20
-314.37986096930297
30
0
40
2.9999999999999725
0
CIRCLE
5
200
100
AcDbEntity
8
0
100
AcDbCircle
10
8.7121409936409258
20
-225.25883863624085
30
0
40
2.9999999999999876
0
CIRCLE
5
201
100
AcDbEntity
8
0
100
AcDbCircle
10
21.818573702264864
20
-216.0816156546241
30
0
40
3.0000000000000342
0
CIRCLE
5
202
100
AcDbEntity
8
0
100
AcDbCircle
10
77.54131335576642
20
-323.55708395091972
30
0
40
2.9999999999999449
0
CIRCLE
5
203
100
AcDbEntity
8
0
100
AcDbCircle
10
90.647746064390319
20
-314.37986096930302
30
0
40
2.9999999999999725
0
CIRCLE
5
204
100
AcDbEntity
8
0
100
AcDbCircle
10
198.7121409936411
20
-225.25883863624085
30
0
40
2.9999999999999671
0
CIRCLE
5
205
100
AcDbEntity
8
0
100
AcDbCircle
10
211.81857370226504
20
-216.0816156546241
30
0
40
3.0000000000000364
0
CIRCLE
5
206
100
AcDbEntity
8
0
100
AcDbCircle
10
267.54131335576665
20
-323.55708395091983
30
0
40
2.9999999999999787
0
CIRCLE
5
207
100
AcDbEntity
8
0
100
AcDbCircle
10
280.6477460643905
20
-314.37986096930308
30
0
40
2.9999999999999671
0
CIRCLE
5
208
100
AcDbEntity
8
0
100
AcDbCircle
10
388.71214099364124
20
-225.25883863624088
30
0
40
2.9999999999999378
0
CIRCLE
5
209
100
AcDbEntity
8
0
100
AcDbCircle
10
401.81857370226533
20
-216.08161565462416
30
0
40
2.999999999999996
0
CIRCLE
5
210
100
AcDbEntity
8
0
100
AcDbCircle
10
457.54131335576676
20
-323.55708395091983
30
0
40
2.9999999999999378
0
CIRCLE
5
211
100
AcDbEntity
8
0
100
AcDbCircle
10
470.64774606439073
20
-314.37986096930314
30
0
40
2.999999999999909
0
CIRCLE
5
212
100
AcDbEntity
8
0
100
AcDbCircle
10
154.79173983284187
20
-122.25510852559815
30
0
40
3.0000000000000071
0
CIRCLE
5
213
100
AcDbEntity
8
0
100
AcDbCircle
10
170.79173983284196
20
-122.25510852559816
30
0
40
3.0000000000000071
0
CIRCLE
5
214
100
AcDbEntity
8
0
100
AcDbCircle
10
274.77742372054144
20
-120.33570705886646
30
0
40
2.9999999999999716
0
CIRCLE
5
215
100
AcDbEntity
8
0
100
AcDbCircle
10
290.77742372054132
20
-120.33570705886643
30
0
40
3.0000000000000071
0
ENDSEC
0
SECTION
2
OBJECTS
0
DICTIONARY
5
C
100
AcDbDictionary
3
ACAD_GROUP
350
D
3
ACAD_MLINESTYLE
350
17
0
DICTIONARY
5
D
100
AcDbDictionary
0
DICTIONARY
5
1A
330
C
100
AcDbDictionary
0
DICTIONARY
5
17
100
AcDbDictionary
0
ENDSEC
0
EOF
