  0
SECTION
  2
HEADER
  9
$ACADVER
  1
AC1014
  9
$HANDSEED
  5
FFFF
  9
$MEASUREMENT
 70
     1
  0
ENDSEC
  0
SECTION
  2
TABLES
  0
TABLE
  2
VPORT
  5
8
330
0
100
AcDbSymbolTable
 70
     4
  0
VPORT
  5
2E
330
8
100
AcDbSymbolTableRecord
100
AcDbViewportTableRecord
  2
*ACTIVE
 70
     0
 10
0.0
 20
0.0
 11
1.0
 21
1.0
 12
210.0
 22
148.5
 13
0.0
 23
0.0
 14
10.0
 24
10.0
 15
10.0
 25
10.0
 16
0.0
 26
0.0
 36
1.0
 17
0.0
 27
0.0
 37
0.0
 40
341.0
 41
1.24
 42
50.0
 43
0.0
 44
0.0
 50
0.0
 51
0.0
 71
     0
 72
   100
 73
     1
 74
     3
 75
     0
 76
     0
 77
     0
 78
     0
  0
ENDTAB
  0
TABLE
  2
LTYPE
  5
5
330
0
100
AcDbSymbolTable
 70
     1
  0
LTYPE
  5
14
330
5
100
AcDbSymbolTableRecord
100
AcDbLinetypeTableRecord
  2
BYBLOCK
 70
     0
  3

 72
    65
 73
     0
 40
0.0
  0
LTYPE
  5
15
330
5
100
AcDbSymbolTableRecord
100
AcDbLinetypeTableRecord
  2
BYLAYER
 70
     0
  3

 72
    65
 73
     0
 40
0.0
  0
LTYPE
  5
16
330
5
100
AcDbSymbolTableRecord
100
AcDbLinetypeTableRecord
  2
CONTINUOUS
 70
     0
  3
Solid line
 72
    65
 73
     0
 40
0.0
  0
ENDTAB
  0
TABLE
  2
LAYER
  5
2
100
AcDbSymbolTable
 70
2
  0
LAYER
  5
50
100
AcDbSymbolTableRecord
100
AcDbLayerTableRecord
  2
0
 70
0
  6
CONTINUOUS
  0
LAYER
  5
51
100
AcDbSymbolTableRecord
100
AcDbLayerTableRecord
  2
Layer_1
 70
0
  6
CONTINUOUS
  0
ENDTAB
  0
TABLE
  2
STYLE
  5
3
330
0
100
AcDbSymbolTable
 70
     1
  0
STYLE
  5
11
330
3
100
AcDbSymbolTableRecord
100
AcDbTextStyleTableRecord
  2
STANDARD
 70
     0
 40
0.0
 41
1.0
 50
0.0
 71
     0
 42
2.5
  3
txt
  4

  0
ENDTAB
  0
TABLE
  2
VIEW
  5
6
330
0
100
AcDbSymbolTable
 70
     0
  0
ENDTAB
  0
TABLE
  2
UCS
  5
7
330
0
100
AcDbSymbolTable
 70
     0
  0
ENDTAB
  0
TABLE
  2
APPID
  5
9
330
0
100
AcDbSymbolTable
 70
     2
  0
APPID
  5
12
330
9
100
AcDbSymbolTableRecord
100
AcDbRegAppTableRecord
  2
ACAD
 70
     0
  0
ENDTAB
  0
TABLE
  2
DIMSTYLE
  5
A
330
0
100
AcDbSymbolTable
 70
     1
  0
DIMSTYLE
105
27
330
A
100
AcDbSymbolTableRecord
100
AcDbDimStyleTableRecord
  2
ISO-25
 70
     0
  3

  4

  5

  6

  7

 40
1.0
 41
2.5
 42
0.625
 43
3.75
 44
1.25
 45
0.0
 46
0.0
 47
0.0
 48
0.0
140
2.5
141
2.5
142
0.0
143
0.03937007874016
144
1.0
145
0.0
146
1.0
147
0.625
 71
     0
 72
     0
 73
     0
 74
     0
 75
     0
 76
     0
 77
     1
 78
     8
170
     0
171
     3
172
     1
173
     0
174
     0
175
     0
176
     0
177
     0
178
     0
270
     2
271
     2
272
     2
273
     2
274
     3
340
11
275
     0
280
     0
281
     0
282
     0
283
     0
284
     8
285
     0
286
     0
287
     3
288
     0
  0
ENDTAB
  0
TABLE
  2
BLOCK_RECORD
  5
1
330
0
100
AcDbSymbolTable
 70
     1
  0
BLOCK_RECORD
  5
1F
330
1
100
AcDbSymbolTableRecord
100
AcDbBlockTableRecord
  2
*MODEL_SPACE
  0
BLOCK_RECORD
  5
1B
330
1
100
AcDbSymbolTableRecord
100
AcDbBlockTableRecord
  2
*PAPER_SPACE
  0
ENDTAB
  0
ENDSEC
  0
SECTION
  2
BLOCKS
  0
BLOCK
  5
20
330
1F
100
AcDbEntity
  8
0
100
AcDbBlockBegin
  2
*MODEL_SPACE
 70
     0
 10
0.0
 20
0.0
 30
0.0
  3
*MODEL_SPACE
  1

  0
ENDBLK
  5
21
330
1F
100
AcDbEntity
  8
0
100
AcDbBlockEnd
  0
BLOCK
  5
1C
330
1B
100
AcDbEntity
 67
     1
  8
0
100
AcDbBlockBegin
  2
*PAPER_SPACE
  1

  0
ENDBLK
  5
1D
330
1B
100
AcDbEntity
 67
     1
  8
0
100
AcDbBlockEnd
  0
ENDSEC
  0
SECTION
  2
ENTITIES
  0
LWPOLYLINE
  5
100
100
AcDbEntity
  8
Layer_1
 62
7
100
AcDbPolyline
 90
5
 70
1
 10
49.228880
 20
94.227918
 30
0.0
 10
248.938810
 20
94.227918
 30
0.0
 10
248.938810
 20
44.517984
 30
0.0
 10
49.228880
 20
44.517984
 30
0.0
 10
49.228880
 20
94.227918
 30
0.0
  0
LWPOLYLINE
  5
101
100
AcDbEntity
  8
Layer_1
 62
7
100
AcDbPolyline
 90
5
 70
1
 10
55.836233
 20
97.498190
 30
0.0
 10
58.636230
 20
97.498190
 30
0.0
 10
58.636230
 20
75.498194
 30
0.0
 10
55.836233
 20
75.498194
 30
0.0
 10
55.836233
 20
97.498190
 30
0.0
  0
LWPOLYLINE
  5
102
100
AcDbEntity
  8
Layer_1
 62
7
100
AcDbPolyline
 90
5
 70
1
 10
69.732700
 20
97.492746
 30
0.0
 10
72.632697
 20
97.492746
 30
0.0
 10
72.632697
 20
75.498199
 30
0.0
 10
69.732700
 20
75.498199
 30
0.0
 10
69.732700
 20
97.492746
 30
0.0
  0
LWPOLYLINE
  5
103
100
AcDbEntity
  8
Layer_1
 62
7
100
AcDbPolyline
 90
5
 70
1
 10
83.629167
 20
97.487390
 30
0.0
 10
86.629164
 20
97.487390
 30
0.0
 10
86.629164
 20
75.498200
 30
0.0
 10
83.629167
 20
75.498200
 30
0.0
 10
83.629167
 20
97.487390
 30
0.0
  0
LWPOLYLINE
  5
104
100
AcDbEntity
  8
Layer_1
 62
7
100
AcDbPolyline
 90
5
 70
1
 10
97.525623
 20
97.482120
 30
0.0
 10
100.625623
 20
97.482120
 30
0.0
 10
100.625623
 20
75.498197
 30
0.0
 10
97.525623
 20
75.498197
 30
0.0
 10
97.525623
 20
97.482120
 30
0.0
  0
LWPOLYLINE
  5
105
100
AcDbEntity
  8
Layer_1
 62
7
100
AcDbPolyline
 90
5
 70
1
 10
111.422087
 20
97.476933
 30
0.0
 10
114.622084
 20
97.476933
 30
0.0
 10
114.622084
 20
75.498191
 30
0.0
 10
111.422087
 20
75.498191
 30
0.0
 10
111.422087
 20
97.476933
 30
0.0
  0
LWPOLYLINE
  5
106
100
AcDbEntity
  8
Layer_1
 62
7
100
AcDbPolyline
 90
5
 70
1
 10
125.318543
 20
97.471836
 30
0.0
 10
128.618540
 20
97.471836
 30
0.0
 10
128.618540
 20
75.498195
 30
0.0
 10
125.318543
 20
75.498195
 30
0.0
 10
125.318543
 20
97.471836
 30
0.0
  0
LWPOLYLINE
  5
107
100
AcDbEntity
  8
Layer_1
 62
7
100
AcDbPolyline
 90
5
 70
1
 10
139.215018
 20
97.466824
 30
0.0
 10
142.615015
 20
97.466824
 30
0.0
 10
142.615015
 20
75.498204
 30
0.0
 10
139.215018
 20
75.498204
 30
0.0
 10
139.215018
 20
97.466824
 30
0.0
  0
LWPOLYLINE
  5
108
100
AcDbEntity
  8
Layer_1
 62
7
100
AcDbPolyline
 90
5
 70
1
 10
153.111465
 20
97.461863
 30
0.0
 10
156.611465
 20
97.461863
 30
0.0
 10
156.611465
 20
75.498192
 30
0.0
 10
153.111465
 20
75.498192
 30
0.0
 10
153.111465
 20
97.461863
 30
0.0
  0
LWPOLYLINE
  5
109
100
AcDbEntity
  8
Layer_1
 62
7
100
AcDbPolyline
 90
5
 70
1
 10
167.007946
 20
97.456986
 30
0.0
 10
170.607946
 20
97.456986
 30
0.0
 10
170.607946
 20
75.498193
 30
0.0
 10
167.007946
 20
75.498193
 30
0.0
 10
167.007946
 20
97.456986
 30
0.0
  0
LWPOLYLINE
  5
10a
100
AcDbEntity
  8
Layer_1
 62
7
100
AcDbPolyline
 90
5
 70
1
 10
180.904394
 20
97.452182
 30
0.0
 10
184.604391
 20
97.452182
 30
0.0
 10
184.604391
 20
75.498199
 30
0.0
 10
180.904394
 20
75.498199
 30
0.0
 10
180.904394
 20
97.452182
 30
0.0
  0
LWPOLYLINE
  5
10b
100
AcDbEntity
  8
Layer_1
 62
7
100
AcDbPolyline
 90
5
 70
1
 10
194.800858
 20
97.447427
 30
0.0
 10
198.600855
 20
97.447427
 30
0.0
 10
198.600855
 20
75.498187
 30
0.0
 10
194.800858
 20
75.498187
 30
0.0
 10
194.800858
 20
97.447427
 30
0.0
  0
LWPOLYLINE
  5
10c
100
AcDbEntity
  8
Layer_1
 62
7
100
AcDbPolyline
 90
5
 70
1
 10
208.697322
 20
97.442759
 30
0.0
 10
212.597319
 20
97.442759
 30
0.0
 10
212.597319
 20
75.498200
 30
0.0
 10
208.697322
 20
75.498200
 30
0.0
 10
208.697322
 20
97.442759
 30
0.0
  0
LWPOLYLINE
  5
10d
100
AcDbEntity
  8
Layer_1
 62
7
100
AcDbPolyline
 90
5
 70
1
 10
222.593786
 20
97.438125
 30
0.0
 10
226.593783
 20
97.438125
 30
0.0
 10
226.593783
 20
75.498187
 30
0.0
 10
222.593786
 20
75.498187
 30
0.0
 10
222.593786
 20
97.438125
 30
0.0
  0
LWPOLYLINE
  5
10e
100
AcDbEntity
  8
Layer_1
 62
7
100
AcDbPolyline
 90
5
 70
1
 10
236.490233
 20
97.433578
 30
0.0
 10
240.590231
 20
97.433578
 30
0.0
 10
240.590231
 20
75.498201
 30
0.0
 10
236.490233
 20
75.498201
 30
0.0
 10
236.490233
 20
97.433578
 30
0.0
  0
LWPOLYLINE
  5
10f
100
AcDbEntity
  8
Layer_1
 62
7
100
AcDbPolyline
 90
5
 70
1
 10
49.803448
 20
157.791395
 30
0.0
 10
249.513378
 20
157.791395
 30
0.0
 10
249.513378
 20
108.081461
 30
0.0
 10
49.803448
 20
108.081461
 30
0.0
 10
49.803448
 20
157.791395
 30
0.0
  0
LWPOLYLINE
  5
110
100
AcDbEntity
  8
Layer_1
 62
7
100
AcDbPolyline
 90
5
 70
1
 10
56.410801
 20
161.061668
 30
0.0
 10
59.210798
 20
161.061668
 30
0.0
 10
59.210798
 20
139.061671
 30
0.0
 10
56.410801
 20
139.061671
 30
0.0
 10
56.410801
 20
161.061668
 30
0.0
  0
LWPOLYLINE
  5
111
100
AcDbEntity
  8
Layer_1
 62
7
100
AcDbPolyline
 90
5
 70
1
 10
70.307268
 20
161.056224
 30
0.0
 10
73.207265
 20
161.056224
 30
0.0
 10
73.207265
 20
139.061677
 30
0.0
 10
70.307268
 20
139.061677
 30
0.0
 10
70.307268
 20
161.056224
 30
0.0
  0
LWPOLYLINE
  5
112
100
AcDbEntity
  8
Layer_1
 62
7
100
AcDbPolyline
 90
5
 70
1
 10
84.203735
 20
161.050867
 30
0.0
 10
87.203732
 20
161.050867
 30
0.0
 10
87.203732
 20
139.061677
 30
0.0
 10
84.203735
 20
139.061677
 30
0.0
 10
84.203735
 20
161.050867
 30
0.0
  0
LWPOLYLINE
  5
113
100
AcDbEntity
  8
Layer_1
 62
7
100
AcDbPolyline
 90
5
 70
1
 10
98.100190
 20
161.045598
 30
0.0
 10
101.200190
 20
161.045598
 30
0.0
 10
101.200190
 20
139.061675
 30
0.0
 10
98.100190
 20
139.061675
 30
0.0
 10
98.100190
 20
161.045598
 30
0.0
  0
LWPOLYLINE
  5
114
100
AcDbEntity
  8
Layer_1
 62
7
100
AcDbPolyline
 90
5
 70
1
 10
111.996655
 20
161.040411
 30
0.0
 10
115.196652
 20
161.040411
 30
0.0
 10
115.196652
 20
139.061668
 30
0.0
 10
111.996655
 20
139.061668
 30
0.0
 10
111.996655
 20
161.040411
 30
0.0
  0
LWPOLYLINE
  5
115
100
AcDbEntity
  8
Layer_1
 62
7
100
AcDbPolyline
 90
5
 70
1
 10
125.893110
 20
161.035314
 30
0.0
 10
129.193107
 20
161.035314
 30
0.0
 10
129.193107
 20
139.061672
 30
0.0
 10
125.893110
 20
139.061672
 30
0.0
 10
125.893110
 20
161.035314
 30
0.0
  0
LWPOLYLINE
  5
116
100
AcDbEntity
  8
Layer_1
 62
7
100
AcDbPolyline
 90
5
 70
1
 10
139.789586
 20
161.030301
 30
0.0
 10
143.189583
 20
161.030301
 30
0.0
 10
143.189583
 20
139.061681
 30
0.0
 10
139.789586
 20
139.061681
 30
0.0
 10
139.789586
 20
161.030301
 30
0.0
  0
LWPOLYLINE
  5
117
100
AcDbEntity
  8
Layer_1
 62
7
100
AcDbPolyline
 90
5
 70
1
 10
153.686033
 20
161.025340
 30
0.0
 10
157.186033
 20
161.025340
 30
0.0
 10
157.186033
 20
139.061670
 30
0.0
 10
153.686033
 20
139.061670
 30
0.0
 10
153.686033
 20
161.025340
 30
0.0
  0
LWPOLYLINE
  5
118
100
AcDbEntity
  8
Layer_1
 62
7
100
AcDbPolyline
 90
5
 70
1
 10
167.582514
 20
161.020463
 30
0.0
 10
171.182514
 20
161.020463
 30
0.0
 10
171.182514
 20
139.061670
 30
0.0
 10
167.582514
 20
139.061670
 30
0.0
 10
167.582514
 20
161.020463
 30
0.0
  0
LWPOLYLINE
  5
119
100
AcDbEntity
  8
Layer_1
 62
7
100
AcDbPolyline
 90
5
 70
1
 10
181.478961
 20
161.015660
 30
0.0
 10
185.178959
 20
161.015660
 30
0.0
 10
185.178959
 20
139.061677
 30
0.0
 10
181.478961
 20
139.061677
 30
0.0
 10
181.478961
 20
161.015660
 30
0.0
  0
LWPOLYLINE
  5
11a
100
AcDbEntity
  8
Layer_1
 62
7
100
AcDbPolyline
 90
5
 70
1
 10
195.375426
 20
161.010904
 30
0.0
 10
199.175423
 20
161.010904
 30
0.0
 10
199.175423
 20
139.061665
 30
0.0
 10
195.375426
 20
139.061665
 30
0.0
 10
195.375426
 20
161.010904
 30
0.0
  0
LWPOLYLINE
  5
11b
100
AcDbEntity
  8
Layer_1
 62
7
100
AcDbPolyline
 90
5
 70
1
 10
209.271890
 20
161.006236
 30
0.0
 10
213.171887
 20
161.006236
 30
0.0
 10
213.171887
 20
139.061678
 30
0.0
 10
209.271890
 20
139.061678
 30
0.0
 10
209.271890
 20
161.006236
 30
0.0
  0
LWPOLYLINE
  5
11c
100
AcDbEntity
  8
Layer_1
 62
7
100
AcDbPolyline
 90
5
 70
1
 10
223.168354
 20
161.001602
 30
0.0
 10
227.168351
 20
161.001602
 30
0.0
 10
227.168351
 20
139.061664
 30
0.0
 10
223.168354
 20
139.061664
 30
0.0
 10
223.168354
 20
161.001602
 30
0.0
  0
LWPOLYLINE
  5
11d
100
AcDbEntity
  8
Layer_1
 62
7
100
AcDbPolyline
 90
5
 70
1
 10
237.064801
 20
160.997056
 30
0.0
 10
241.164798
 20
160.997056
 30
0.0
 10
241.164798
 20
139.061678
 30
0.0
 10
237.064801
 20
139.061678
 30
0.0
 10
237.064801
 20
160.997056
 30
0.0
  0
ENDSEC
  0
SECTION
  2
OBJECTS
  0
DICTIONARY
  5
C
330
0
100
AcDbDictionary
  3
ACAD_GROUP
350
D
  3
ACAD_MLINESTYLE
350
17
  0
DICTIONARY
  5
D
330
C
100
AcDbDictionary
  0
DICTIONARY
  5
1A
330
C
100
AcDbDictionary
  0
DICTIONARY
  5
17
330
C
100
AcDbDictionary
  3
STANDARD
350
18
  0
DICTIONARY
  5
19
330
C
100
AcDbDictionary
  0
ENDSEC
  0
EOF
