0
SECTION
2
HEADER
9
$INSUNITS
70
4
9
$ACADVER
1
AC1014
9
$HANDSEED
5
FFFF
0
ENDSEC
0
SECTION
2
TABLES
0
TABLE
2
VPORT
5
8
100
AcDbSymbolTable
0
ENDTAB
0
TABLE
2
LTYPE
5
5
100
AcDbSymbolTable
0
LTYPE
5
14
100
AcDbSymbolTableRecord
100
AcDbLinetypeTableRecord
2
BYBLOCK
70
0
0
LTYPE
5
15
100
AcDbSymbolTableRecord
100
AcDbLinetypeTableRecord
2
BYLAYER
70
0
0
ENDTAB
0
TABLE
2
LAYER
5
2
100
AcDbSymbolTable
70
2
0
LAYER
5
50
100
AcDbSymbolTableRecord
100
AcDbLayerTableRecord
2
0
70
0
6
CONTINUOUS
0
ENDTAB
0
TABLE
2
STYLE
5
3
100
AcDbSymbolTable
70
1
0
STYLE
5
11
100
AcDbSymbolTableRecord
100
AcDbTextStyleTableRecord
2
STANDARD
70
0
0
ENDTAB
0
TABLE
2
VIEW
5
6
100
AcDbSymbolTable
70
0
0
ENDTAB
0
TABLE
2
UCS
5
7
100
AcDbSymbolTable
70
0
0
ENDTAB
0
TABLE
2
APPID
5
9
100
AcDbSymbolTable
70
2
0
APPID
5
12
100
AcDbSymbolTableRecord
100
AcDbRegAppTableRecord
2
ACAD
70
0
0
ENDTAB
0
TABLE
2
DIMSTYLE
5
A
100
AcDbSymbolTable
70
1
0
ENDTAB
0
TABLE
2
BLOCK_RECORD
5
1
100
AcDbSymbolTable
70
1
0
BLOCK_RECORD
5
1F
100
AcDbSymbolTableRecord
100
AcDbBlockTableRecord
2
*MODEL_SPACE
0
BLOCK_RECORD
5
1B
100
AcDbSymbolTableRecord
100
AcDbBlockTableRecord
2
*PAPER_SPACE
0
ENDTAB
0
ENDSEC
0
SECTION
2
BLOCKS
0
BLOCK
5
20
100
AcDbEntity
100
AcDbBlockBegin
2
*MODEL_SPACE
0
ENDBLK
5
21
100
AcDbEntity
100
AcDbBlockEnd
0
BLOCK
5
1C
100
AcDbEntity
100
AcDbBlockBegin
2
*PAPER_SPACE
0
ENDBLK
5
1D
100
AcDbEntity
100
AcDbBlockEnd
0
ENDSEC
0
SECTION
2
ENTITIES
0
LWPOLYLINE
5
100
100
AcDbEntity
8
0
100
AcDbPolyline
90
12
70
1
43
0.0
10
58.499999999999979
20
-93.500000000000014
42
-0.41421356237309581
10
52.000000000000014
20
-100
10
68.5
20
-100.00000000000001
10
68.5
20
36.446430031324226
10
46.000000685453415
20
26.000000387430191
10
40.500000000000007
20
26.000000387430191
10
40.499999999999986
20
-33.499999999999972
42
-0.4142135623730952
10
17.999999999999989
20
-56
10
-12.923077046871185
20
-56
10
-36.461538523435593
20
-83
10
52.000000000000014
20
-83
42
-0.41421356237309509
10
58.500000000000007
20
-89.5
0
LWPOLYLINE
5
101
100
AcDbEntity
8
0
100
AcDbPolyline
90
4
70
1
43
0.0
10
68.5
20
100.00000000000001
10
-68.5
20
100.00000000000001
10
-68.5
20
-100.00000000000001
10
68.5
20
-100.00000000000001
0
LWPOLYLINE
5
102
100
AcDbEntity
8
0
100
AcDbPolyline
90
20
70
1
43
0.0
10
-58.499999999999972
20
-89.499999999999943
10
-58.500000000000007
20
-93.061843125355125
10
-64.548649567118133
20
-100.00000000000001
10
-68.5
20
-100.00000000000001
10
-68.5
20
100.00000000000001
10
68.5
20
100.00000000000001
10
68.500000000000014
20
53.464287506758609
10
39.500000000000007
20
40
10
38.500000000000014
20
40
42
0.0006397437789068686
10
38.474331700081237
20
40.061382585633083
42
0.2422115740945045
10
24.561382585633073
20
53.974331700081223
42
0.099665570898417516
10
14.500000000000025
20
56
10
-14.499999999999996
20
56
42
0.099665570898418182
10
-24.561382585633037
20
53.974331700081223
42
0.24221157409450611
10
-38.474331700081223
20
40.061382585633076
42
0.099665570898418529
10
-40.499999999999986
20
29.999999999999982
10
-40.500000000000007
20
-30
42
0.3032255475656499
10
-24.460427014593485
20
-54.016450480596767
10
-49.728136785577568
20
-83
10
-51.999999999999986
20
-83
42
0.41421356237309387
0
LINE
5
103
100
AcDbEntity
8
0
100
AcDbLine
10
21.741657416642731
20
40
30
0
11
38.500000000000007
21
40
31
0
0
ARC
5
104
100
AcDbEntity
8
0
100
AcDbCircle
10
14.499999997098234
20
29.99999999878429
30
0
40
26.000000003146148
100
AcDbArc
50
22.61986494805393
51
22.766483402053616
0
ARC
5
105
100
AcDbEntity
8
0
100
AcDbCircle
10
17.999999999999961
20
33.499999999999943
30
0
40
21.500000000000039
100
AcDbArc
50
17.769028681825759
51
72.230971318174781
0
ARC
5
106
100
AcDbEntity
8
0
100
AcDbCircle
10
14.499999999999975
20
29.999999999999819
30
0
40
26.000000000000178
100
AcDbArc
50
67.233516597942653
51
89.999999999999901
0
LINE
5
107
100
AcDbEntity
8
0
100
AcDbLine
10
14.50000000000002
20
56
30
0
11
-14.499999999999996
21
56
31
0
0
ARC
5
108
100
AcDbEntity
8
0
100
AcDbCircle
10
-14.500000000000007
20
29.999999999999972
30
0
40
26.000000000000021
100
AcDbArc
50
89.999999999999972
51
112.76648340205736
0
ARC
5
109
100
AcDbEntity
8
0
100
AcDbCircle
10
-18.000000000000014
20
33.500000000000021
30
0
40
21.499999999999968
100
AcDbArc
50
107.76902868182509
51
162.23097131817488
0
ARC
5
110
100
AcDbEntity
8
0
100
AcDbCircle
10
-14.500000000000007
20
29.999999999999972
30
0
40
25.999999999999993
100
AcDbArc
50
157.2335165979425
51
180
0
LINE
5
111
100
AcDbEntity
8
0
100
AcDbLine
10
-40.499999999999986
20
30
30
0
11
-40.500000000000007
21
-30
31
0
0
ARC
5
112
100
AcDbEntity
8
0
100
AcDbCircle
10
-14.500000000000036
20
-30.000000000000007
30
0
40
25.999999999999972
100
AcDbArc
50
180
51
247.47457620745854
0
LINE
5
113
100
AcDbEntity
8
0
100
AcDbLine
10
-24.460427014593481
20
-54.016450480596745
30
0
11
-22.266598396252419
21
-51.5
31
0
0
LINE
5
114
100
AcDbEntity
8
0
100
AcDbLine
10
-22.266598396252419
20
-51.5
30
0
11
-24.500000000000007
21
-51.5
31
0
0
LINE
5
115
100
AcDbEntity
8
0
100
AcDbLine
10
-24.500000000000007
20
-51.5
30
0
11
-24.500000000000007
21
-33.741657416642724
31
0
0
ARC
5
116
100
AcDbEntity
8
0
100
AcDbCircle
10
-17.999999999999996
20
-30
30
0
40
7.5000000149011754
100
AcDbArc
50
180
51
209.92643506437079
0
LINE
5
117
100
AcDbEntity
8
0
100
AcDbLine
10
-25.500000000000007
20
-30.000000000000014
30
0
11
-25.499999999999989
21
33.5
31
0
0
ARC
5
118
100
AcDbEntity
8
0
100
AcDbCircle
10
-18.000000000000014
20
33.500000000000021
30
0
40
7.5000000149011381
100
AcDbArc
50
89.999999999999844
51
180
0
LINE
5
119
100
AcDbEntity
8
0
100
AcDbLine
10
-17.999999999999993
20
41.000000014901161
30
0
11
18.000000000000004
21
41.000000014901161
31
0
0
ARC
5
120
100
AcDbEntity
8
0
100
AcDbCircle
10
17.999999999999961
20
33.499999999999943
30
0
40
7.5000000149012394
100
AcDbArc
50
60.073564935629079
51
89.999999999999673
0
LINE
5
121
100
AcDbEntity
8
0
100
AcDbLine
10
40.500000000000007
20
26.000000387430191
30
0
11
25.500000000000007
21
26.000000387430191
31
0
0
LINE
5
122
100
AcDbEntity
8
0
100
AcDbLine
10
25.500000000000007
20
26.000000387430191
30
0
11
25.500000014901154
21
-30
31
0
0
ARC
5
123
100
AcDbEntity
8
0
100
AcDbCircle
10
18
20
-30.000000000000014
30
0
40
7.5000000149011559
100
AcDbArc
50
-90.000000000000057
51
0
0
LINE
5
124
100
AcDbEntity
8
0
100
AcDbLine
10
17.999999999999993
20
-37.500000000000007
30
0
11
-9.0000001341104543
21
-37.500000000000014
31
0
0
LINE
5
125
100
AcDbEntity
8
0
100
AcDbLine
10
-9.0000001341104543
20
-37.500000000000014
30
0
11
-9.0000001341104525
21
-51.5
31
0
0
LINE
5
126
100
AcDbEntity
8
0
100
AcDbLine
10
-9.0000001341104525
20
-51.5
30
0
11
-12.923077046871182
21
-56
31
0
0
LINE
5
127
100
AcDbEntity
8
0
100
AcDbLine
10
-12.923077046871182
20
-56
30
0
11
17.999999999999993
21
-56
31
0
0
ARC
5
128
100
AcDbEntity
8
0
100
AcDbCircle
10
17.999999999999993
20
-33.5
30
0
40
22.499999999999996
100
AcDbArc
50
-90
51
0
0
LINE
5
129
100
AcDbEntity
8
0
100
AcDbLine
10
40.499999999999986
20
-33.499999999999986
30
0
11
40.500000000000007
21
26.000000387430191
31
0
0
LWPOLYLINE
5
130
100
AcDbEntity
8
0
100
AcDbPolyline
90
8
70
1
43
0.0
10
-58.499999999999957
20
-89.499999999999957
42
-0.41421356237309465
10
-51.999999999999972
20
-83
10
52.000000000000014
20
-83
42
-0.41421356237309509
10
58.500000000000007
20
-89.5
10
58.499999999999979
20
-93.500000000000014
42
-0.41421356237309581
10
52.000000000000014
20
-100
10
-52.000000000000014
20
-100.00000000000001
42
-0.4142135623730967
10
-58.500000000000014
20
-93.500000000000014
0
LINE
5
131
100
AcDbEntity
8
0
100
AcDbLine
10
-49.728136785577568
20
-83
30
0
11
-36.4615385234356
21
-83
31
0
0
LINE
5
132
100
AcDbEntity
8
0
100
AcDbLine
10
-36.4615385234356
20
-83
30
0
11
-9.0000001341104507
21
-51.5
31
0
0
LINE
5
133
100
AcDbEntity
8
0
100
AcDbLine
10
-9.0000001341104507
20
-51.5
30
0
11
-9.0000001341104596
21
-37.500000000000014
31
0
0
LINE
5
134
100
AcDbEntity
8
0
100
AcDbLine
10
-9.0000001341104596
20
-37.500000000000014
30
0
11
18
21
-37.500000000000007
31
0
0
ARC
5
135
100
AcDbEntity
8
0
100
AcDbCircle
10
17.999999999999989
20
-30.000000000000004
30
0
40
7.5000000149011647
100
AcDbArc
50
-90
51
0
0
LINE
5
136
100
AcDbEntity
8
0
100
AcDbLine
10
25.500000014901154
20
-30
30
0
11
25.5
21
26.000000387430191
31
0
0
LINE
5
137
100
AcDbEntity
8
0
100
AcDbLine
10
25.5
20
26.000000387430191
30
0
11
46.000000685453408
21
26.000000387430191
31
0
0
LINE
5
138
100
AcDbEntity
8
0
100
AcDbLine
10
46.000000685453408
20
26.000000387430191
30
0
11
68.5
21
36.446430031324226
31
0
0
LINE
5
139
100
AcDbEntity
8
0
100
AcDbLine
10
68.5
20
36.446430031324226
30
0
11
68.5
21
53.464287506758609
31
0
0
LINE
5
140
100
AcDbEntity
8
0
100
AcDbLine
10
68.5
20
53.464287506758609
30
0
11
39.5
21
40
31
0
0
LINE
5
141
100
AcDbEntity
8
0
100
AcDbLine
10
39.5
20
40
30
0
11
21.741657416642724
21
40
31
0
0
ARC
5
142
100
AcDbEntity
8
0
100
AcDbCircle
10
18.000000000000011
20
33.500000000000057
30
0
40
7.5000000149011159
100
AcDbArc
50
60.073564935629015
51
90.000000000000057
0
LINE
5
143
100
AcDbEntity
8
0
100
AcDbLine
10
18.000000000000004
20
41.000000014901161
30
0
11
-17.999999999999989
21
41.000000014901161
31
0
0
ARC
5
144
100
AcDbEntity
8
0
100
AcDbCircle
10
-17.999999999999989
20
33.5
30
0
40
7.5000000149011603
100
AcDbArc
50
90
51
180
0
LINE
5
145
100
AcDbEntity
8
0
100
AcDbLine
10
-25.499999999999989
20
33.5
30
0
11
-25.500000000000007
21
-30.000000000000018
31
0
0
ARC
5
146
100
AcDbEntity
8
0
100
AcDbCircle
10
-17.999999999999986
20
-30.000000000000007
30
0
40
7.5000000149011825
100
AcDbArc
50
180
51
209.92643506437068
0
LINE
5
147
100
AcDbEntity
8
0
100
AcDbLine
10
-24.500000000000011
20
-33.741657416642724
30
0
11
-24.5
21
-51.5
31
0
0
LINE
5
148
100
AcDbEntity
8
0
100
AcDbLine
10
-24.5
20
-51.5
30
0
11
-22.266598396252419
21
-51.5
31
0
0
LINE
5
149
100
AcDbEntity
8
0
100
AcDbLine
10
-22.266598396252419
20
-51.5
30
0
11
-49.728136785577568
21
-83
31
0
0
ENDSEC
0
SECTION
2
OBJECTS
0
DICTIONARY
5
C
100
AcDbDictionary
3
ACAD_GROUP
350
D
3
ACAD_MLINESTYLE
350
17
0
DICTIONARY
5
D
100
AcDbDictionary
0
DICTIONARY
5
1A
330
C
100
AcDbDictionary
0
DICTIONARY
5
17
100
AcDbDictionary
0
ENDSEC
0
EOF
