0
SECTION
2
HEADER
9
$INSUNITS
70
4
9
$ACADVER
1
AC1014
9
$HANDSEED
5
FFFF
0
ENDSEC
0
SECTION
2
TABLES
0
TABLE
2
VPORT
5
8
100
AcDbSymbolTable
0
ENDTAB
0
TABLE
2
LTYPE
5
5
100
AcDbSymbolTable
0
LTYPE
5
14
100
AcDbSymbolTableRecord
100
AcDbLinetypeTableRecord
2
BYBLOCK
70
0
0
LTYPE
5
15
100
AcDbSymbolTableRecord
100
AcDbLinetypeTableRecord
2
BYLAYER
70
0
0
ENDTAB
0
TABLE
2
LAYER
5
2
100
AcDbSymbolTable
70
2
0
LAYER
5
50
100
AcDbSymbolTableRecord
100
AcDbLayerTableRecord
2
0
70
0
6
CONTINUOUS
0
ENDTAB
0
TABLE
2
STYLE
5
3
100
AcDbSymbolTable
70
1
0
STYLE
5
11
100
AcDbSymbolTableRecord
100
AcDbTextStyleTableRecord
2
STANDARD
70
0
0
ENDTAB
0
TABLE
2
VIEW
5
6
100
AcDbSymbolTable
70
0
0
ENDTAB
0
TABLE
2
UCS
5
7
100
AcDbSymbolTable
70
0
0
ENDTAB
0
TABLE
2
APPID
5
9
100
AcDbSymbolTable
70
2
0
APPID
5
12
100
AcDbSymbolTableRecord
100
AcDbRegAppTableRecord
2
ACAD
70
0
0
ENDTAB
0
TABLE
2
DIMSTYLE
5
A
100
AcDbSymbolTable
70
1
0
ENDTAB
0
TABLE
2
BLOCK_RECORD
5
1
100
AcDbSymbolTable
70
1
0
BLOCK_RECORD
5
1F
100
AcDbSymbolTableRecord
100
AcDbBlockTableRecord
2
*MODEL_SPACE
0
BLOCK_RECORD
5
1B
100
AcDbSymbolTableRecord
100
AcDbBlockTableRecord
2
*PAPER_SPACE
0
ENDTAB
0
ENDSEC
0
SECTION
2
BLOCKS
0
BLOCK
5
20
100
AcDbEntity
100
AcDbBlockBegin
2
*MODEL_SPACE
0
ENDBLK
5
21
100
AcDbEntity
100
AcDbBlockEnd
0
BLOCK
5
1C
100
AcDbEntity
100
AcDbBlockBegin
2
*PAPER_SPACE
0
ENDBLK
5
1D
100
AcDbEntity
100
AcDbBlockEnd
0
ENDSEC
0
SECTION
2
ENTITIES
0
LWPOLYLINE
5
100
100
AcDbEntity
8
0
100
AcDbPolyline
90
4
70
1
43
0.0
10
-68.5
20
100.00000000000001
10
68.5
20
100.00000000000001
10
68.5
20
-100.00000000000001
10
-68.5
20
-100.00000000000001
0
ARC
5
101
100
AcDbEntity
8
0
100
AcDbCircle
10
-23.5
20
13.5
30
0
40
7.5000000149011603
100
AcDbArc
50
90
51
180
0
LINE
5
102
100
AcDbEntity
8
0
100
AcDbLine
10
-31
20
13.499999999999988
30
0
11
-31.000000014901161
21
-63.5
31
0
0
ARC
5
103
100
AcDbEntity
8
0
100
AcDbCircle
10
-23.499999999999996
20
-63.5
30
0
40
7.5000000149011647
100
AcDbArc
50
180
51
270
0
LINE
5
104
100
AcDbEntity
8
0
100
AcDbLine
10
-23.5
20
-71.000000014901161
30
0
11
23.499999999999993
21
-71.000000014901161
31
0
0
ARC
5
105
100
AcDbEntity
8
0
100
AcDbCircle
10
23.499999999999996
20
-63.5
30
0
40
7.5000000149011647
100
AcDbArc
50
-90
51
0
0
LINE
5
106
100
AcDbEntity
8
0
100
AcDbLine
10
31
20
-63.5
30
0
11
31.000000014901165
21
13.499999999999996
31
0
0
ARC
5
107
100
AcDbEntity
8
0
100
AcDbCircle
10
23.500000000000007
20
13.5
30
0
40
7.5000000149011603
100
AcDbArc
50
0
51
90.000000000000057
0
LINE
5
108
100
AcDbEntity
8
0
100
AcDbLine
10
23.5
20
21
30
0
11
-23.5
21
21.000000014901161
31
0
0
LWPOLYLINE
5
109
100
AcDbEntity
8
0
100
AcDbPolyline
90
8
70
1
43
0.0
10
31.000000014901161
20
36.499999999999986
42
-0.4142135623730952
10
23.499999999999993
20
28.999999985098835
10
-23.5
20
28.999999985098839
42
-0.41421356237309509
10
-31.000000014901161
20
36.500000000000007
10
-31.000000014901161
20
63.5
42
-0.4142135623730952
10
-23.499999999999993
20
71.000000014901161
10
23.5
20
71.000000014901161
42
-0.41421356237309481
10
31.000000014901161
20
63.5
0
LWPOLYLINE
5
110
100
AcDbEntity
8
0
100
AcDbPolyline
90
4
70
1
43
0.0
10
-68.5
20
100.00000000000001
10
68.5
20
100.00000000000001
10
68.5
20
-100.00000000000001
10
-68.5
20
-100.00000000000001
0
ENDSEC
0
SECTION
2
OBJECTS
0
DICTIONARY
5
C
100
AcDbDictionary
3
ACAD_GROUP
350
D
3
ACAD_MLINESTYLE
350
17
0
DICTIONARY
5
D
100
AcDbDictionary
0
DICTIONARY
5
1A
330
C
100
AcDbDictionary
0
DICTIONARY
5
17
100
AcDbDictionary
0
ENDSEC
0
EOF
