  0
SECTION
  2
HEADER
  9
$ACADVER
  1
AC1024
  9
$ACADMAINTVER
 70
     6
  9
$DWGCODEPAGE
  3
ANSI_1252
  9
$INSBASE
 10
0.0
 20
0.0
 30
0.0
  9
$EXTMIN
 10
1.000000000000000E+20
 20
1.000000000000000E+20
 30
1.000000000000000E+20
  9
$EXTMAX
 10
-1.000000000000000E+20
 20
-1.000000000000000E+20
 30
-1.000000000000000E+20
  9
$LIMMIN
 10
0.0
 20
0.0
  9
$LIMMAX
 10
12.0
 20
9.0
  9
$ORTHOMODE
 70
     0
  9
$REGENMODE
 70
     1
  9
$FILLMODE
 70
     1
  9
$QTEXTMODE
 70
     0
  9
$MIRRTEXT
 70
     1
  9
$LTSCALE
 40
1.0
  9
$ATTMODE
 70
     1
  9
$TEXTSIZE
 40
0.2
  9
$TRACEWID
 40
0.05
  9
$TEXTSTYLE
  7
Standard
  9
$CLAYER
  8
0
  9
$CELTYPE
  6
ByLayer
  9
$CECOLOR
 62
   256
  9
$CELTSCALE
 40
1.0
  9
$DISPSILH
 70
     0
  9
$DIMSCALE
 40
1.0
  9
$DIMASZ
 40
0.18
  9
$DIMEXO
 40
0.0625
  9
$DIMDLI
 40
0.38
  9
$DIMRND
 40
0.0
  9
$DIMDLE
 40
0.0
  9
$DIMEXE
 40
0.18
  9
$DIMTP
 40
0.0
  9
$DIMTM
 40
0.0
  9
$DIMTXT
 40
0.18
  9
$DIMCEN
 40
0.09
  9
$DIMTSZ
 40
0.0
  9
$DIMTOL
 70
     0
  9
$DIMLIM
 70
     0
  9
$DIMTIH
 70
     1
  9
$DIMTOH
 70
     1
  9
$DIMSE1
 70
     0
  9
$DIMSE2
 70
     0
  9
$DIMTAD
 70
     0
  9
$DIMZIN
 70
     0
  9
$DIMBLK
  1

  9
$DIMASO
 70
     1
  9
$DIMSHO
 70
     1
  9
$DIMPOST
  1

  9
$DIMAPOST
  1

  9
$DIMALT
 70
     0
  9
$DIMALTD
 70
     2
  9
$DIMALTF
 40
25.4
  9
$DIMLFAC
 40
1.0
  9
$DIMTOFL
 70
     0
  9
$DIMTVP
 40
0.0
  9
$DIMTIX
 70
     0
  9
$DIMSOXD
 70
     0
  9
$DIMSAH
 70
     0
  9
$DIMBLK1
  1

  9
$DIMBLK2
  1

  9
$DIMSTYLE
  2
Standard
  9
$DIMCLRD
 70
     0
  9
$DIMCLRE
 70
     0
  9
$DIMCLRT
 70
     0
  9
$DIMTFAC
 40
1.0
  9
$DIMGAP
 40
0.09
  9
$DIMJUST
 70
     0
  9
$DIMSD1
 70
     0
  9
$DIMSD2
 70
     0
  9
$DIMTOLJ
 70
     1
  9
$DIMTZIN
 70
     0
  9
$DIMALTZ
 70
     0
  9
$DIMALTTZ
 70
     0
  9
$DIMUPT
 70
     0
  9
$DIMDEC
 70
     4
  9
$DIMTDEC
 70
     4
  9
$DIMALTU
 70
     2
  9
$DIMALTTD
 70
     2
  9
$DIMTXSTY
  7
Standard
  9
$DIMAUNIT
 70
     0
  9
$DIMADEC
 70
     0
  9
$DIMALTRND
 40
0.0
  9
$DIMAZIN
 70
     0
  9
$DIMDSEP
 70
    46
  9
$DIMATFIT
 70
     3
  9
$DIMFRAC
 70
     0
  9
$DIMLDRBLK
  1

  9
$DIMLUNIT
 70
     2
  9
$DIMLWD
 70
    -2
  9
$DIMLWE
 70
    -2
  9
$DIMTMOVE
 70
     0
  9
$DIMFXL
 40
1.0
  9
$DIMFXLON
 70
     0
  9
$DIMJOGANG
 40
0.7853981633974483
  9
$DIMTFILL
 70
     0
  9
$DIMTFILLCLR
 70
     0
  9
$DIMARCSYM
 70
     0
  9
$DIMLTYPE
  6

  9
$DIMLTEX1
  6

  9
$DIMLTEX2
  6

  9
$DIMTXTDIRECTION
 70
     0
  9
$LUNITS
 70
     2
  9
$LUPREC
 70
     4
  9
$SKETCHINC
 40
0.1
  9
$FILLETRAD
 40
0.5
  9
$AUNITS
 70
     0
  9
$AUPREC
 70
     0
  9
$MENU
  1
.
  9
$ELEVATION
 40
0.0
  9
$PELEVATION
 40
0.0
  9
$THICKNESS
 40
0.0
  9
$LIMCHECK
 70
     0
  9
$CHAMFERA
 40
0.5
  9
$CHAMFERB
 40
0.5
  9
$CHAMFERC
 40
1.0
  9
$CHAMFERD
 40
0.0
  9
$SKPOLY
 70
     0
  9
$TDCREATE
 40
2457435.773256933
  9
$TDUCREATE
 40
2457435.898256933
  9
$TDUPDATE
 40
2457435.773257523
  9
$TDUUPDATE
 40
2457435.898257523
  9
$TDINDWG
 40
0.0000000116
  9
$TDUSRTIMER
 40
0.0000000116
  9
$USRTIMER
 70
     1
  9
$ANGBASE
 50
0.0
  9
$ANGDIR
 70
     0
  9
$PDMODE
 70
     0
  9
$PDSIZE
 40
0.0
  9
$PLINEWID
 40
0.0
  9
$SPLFRAME
 70
     0
  9
$SPLINETYPE
 70
     6
  9
$SPLINESEGS
 70
     8
  9
$HANDSEED
  5
2D6
  9
$SURFTAB1
 70
     6
  9
$SURFTAB2
 70
     6
  9
$SURFTYPE
 70
     6
  9
$SURFU
 70
     6
  9
$SURFV
 70
     6
  9
$UCSBASE
  2

  9
$UCSNAME
  2

  9
$UCSORG
 10
0.0
 20
0.0
 30
0.0
  9
$UCSXDIR
 10
1.0
 20
0.0
 30
0.0
  9
$UCSYDIR
 10
0.0
 20
1.0
 30
0.0
  9
$UCSORTHOREF
  2

  9
$UCSORTHOVIEW
 70
     0
  9
$UCSORGTOP
 10
0.0
 20
0.0
 30
0.0
  9
$UCSORGBOTTOM
 10
0.0
 20
0.0
 30
0.0
  9
$UCSORGLEFT
 10
0.0
 20
0.0
 30
0.0
  9
$UCSORGRIGHT
 10
0.0
 20
0.0
 30
0.0
  9
$UCSORGFRONT
 10
0.0
 20
0.0
 30
0.0
  9
$UCSORGBACK
 10
0.0
 20
0.0
 30
0.0
  9
$PUCSBASE
  2

  9
$PUCSNAME
  2

  9
$PUCSORG
 10
0.0
 20
0.0
 30
0.0
  9
$PUCSXDIR
 10
1.0
 20
0.0
 30
0.0
  9
$PUCSYDIR
 10
0.0
 20
1.0
 30
0.0
  9
$PUCSORTHOREF
  2

  9
$PUCSORTHOVIEW
 70
     0
  9
$PUCSORGTOP
 10
0.0
 20
0.0
 30
0.0
  9
$PUCSORGBOTTOM
 10
0.0
 20
0.0
 30
0.0
  9
$PUCSORGLEFT
 10
0.0
 20
0.0
 30
0.0
  9
$PUCSORGRIGHT
 10
0.0
 20
0.0
 30
0.0
  9
$PUCSORGFRONT
 10
0.0
 20
0.0
 30
0.0
  9
$PUCSORGBACK
 10
0.0
 20
0.0
 30
0.0
  9
$USERI1
 70
     0
  9
$USERI2
 70
     0
  9
$USERI3
 70
     0
  9
$USERI4
 70
     0
  9
$USERI5
 70
     0
  9
$USERR1
 40
0.0
  9
$USERR2
 40
0.0
  9
$USERR3
 40
0.0
  9
$USERR4
 40
0.0
  9
$USERR5
 40
0.0
  9
$WORLDVIEW
 70
     1
  9
$SHADEDGE
 70
     3
  9
$SHADEDIF
 70
    70
  9
$TILEMODE
 70
     1
  9
$MAXACTVP
 70
    64
  9
$PINSBASE
 10
0.0
 20
0.0
 30
0.0
  9
$PLIMCHECK
 70
     0
  9
$PEXTMIN
 10
1.000000000000000E+20
 20
1.000000000000000E+20
 30
1.000000000000000E+20
  9
$PEXTMAX
 10
-1.000000000000000E+20
 20
-1.000000000000000E+20
 30
-1.000000000000000E+20
  9
$PLIMMIN
 10
0.0
 20
0.0
  9
$PLIMMAX
 10
12.0
 20
9.0
  9
$UNITMODE
 70
     0
  9
$VISRETAIN
 70
     1
  9
$PLINEGEN
 70
     0
  9
$PSLTSCALE
 70
     1
  9
$TREEDEPTH
 70
  3020
  9
$CMLSTYLE
  2
Standard
  9
$CMLJUST
 70
     0
  9
$CMLSCALE
 40
1.0
  9
$PROXYGRAPHICS
 70
     1
  9
$MEASUREMENT
 70
     0
  9
$CELWEIGHT
370
    -1
  9
$ENDCAPS
280
     0
  9
$JOINSTYLE
280
     0
  9
$LWDISPLAY
290
     1
  9
$INSUNITS
 70
     1
  9
$HYPERLINKBASE
  1

  9
$STYLESHEET
  1

  9
$XEDIT
290
     1
  9
$CEPSNTYPE
380
     0
  9
$PSTYLEMODE
290
     1
  9
$FINGERPRINTGUID
  2
{58D97506-DBD7-45C0-9F6E-CFD9B13894C9}
  9
$VERSIONGUID
  2
{FAEB1C32-E019-11D5-929B-00C0DF256EC4}
  9
$EXTNAMES
290
     1
  9
$PSVPSCALE
 40
0.0
  9
$OLESTARTUP
290
     0
  9
$SORTENTS
280
   127
  9
$INDEXCTL
280
     0
  9
$HIDETEXT
280
     1
  9
$XCLIPFRAME
280
     2
  9
$HALOGAP
280
     0
  9
$OBSCOLOR
 70
   257
  9
$OBSLTYPE
280
     0
  9
$INTERSECTIONDISPLAY
280
     0
  9
$INTERSECTIONCOLOR
 70
   257
  9
$DIMASSOC
280
     2
  9
$PROJECTNAME
  1

  9
$CAMERADISPLAY
290
     0
  9
$LENSLENGTH
 40
50.0
  9
$CAMERAHEIGHT
 40
0.0
  9
$STEPSPERSEC
 40
2.0
  9
$STEPSIZE
 40
6.0
  9
$3DDWFPREC
 40
2.0
  9
$PSOLWIDTH
 40
0.25
  9
$PSOLHEIGHT
 40
4.0
  9
$LOFTANG1
 40
1.570796326794897
  9
$LOFTANG2
 40
1.570796326794897
  9
$LOFTMAG1
 40
0.0
  9
$LOFTMAG2
 40
0.0
  9
$LOFTPARAM
 70
     7
  9
$LOFTNORMALS
280
     1
  9
$LATITUDE
 40
37.795
  9
$LONGITUDE
 40
-122.394
  9
$NORTHDIRECTION
 40
0.0
  9
$TIMEZONE
 70
 -8000
  9
$LIGHTGLYPHDISPLAY
280
     1
  9
$TILEMODELIGHTSYNCH
280
     1
  9
$CMATERIAL
347
3C
  9
$SOLIDHIST
280
     1
  9
$SHOWHIST
280
     1
  9
$DWFFRAME
280
     2
  9
$DGNFRAME
280
     2
  9
$REALWORLDSCALE
290
     1
  9
$INTERFERECOLOR
 62
   256
  9
$CSHADOW
280
     0
  9
$SHADOWPLANELOCATION
 40
0.0
  0
ENDSEC
  0
SECTION
  2
CLASSES
  0
CLASS
  1
ACDBDICTIONARYWDFLT
  2
AcDbDictionaryWithDefault
  3
ObjectDBX Classes
 90
        0
 91
        4
280
     0
281
     0
  0
CLASS
  1
VISUALSTYLE
  2
AcDbVisualStyle
  3
ObjectDBX Classes
 90
     4095
 91
        4
280
     0
281
     0
  0
CLASS
  1
MATERIAL
  2
AcDbMaterial
  3
ObjectDBX Classes
 90
     1153
 91
        4
280
     0
281
     0
  0
CLASS
  1
SUN
  2
AcDbSun
  3
SCENEOE
 90
     1024
 91
        4
280
     0
281
     0
  0
ENDSEC
  0
SECTION
  2
TABLES
  0
TABLE
  2
VPORT
  5
8
330
0
100
AcDbSymbolTable
 70
     1
  0
VPORT
  5
29
330
8
100
AcDbSymbolTableRecord
100
AcDbViewportTableRecord
  2
*Active
 70
     0
 10
0.0
 20
0.0
 11
1.0
 21
1.0
 12
0.0
 22
0.0
 13
0.0
 23
0.0
 14
0.5
 24
0.5
 15
0.5
 25
0.5
 16
0.0
 26
0.0
 36
1.0
 17
13.9699999965075
 27
26.34351404135252
 37
0.0
 40
33.67297189570495
 41
0.8297455917925319
 42
50.0
 43
0.0
 44
0.0
 50
0.0
 51
0.0
 71
     0
 72
   100
 73
     1
 74
     3
 75
     0
 76
     0
 77
     0
 78
     0
281
     0
 65
     1
110
0.0
120
0.0
130
0.0
111
1.0
121
0.0
131
0.0
112
0.0
122
1.0
132
0.0
 79
     0
146
0.0
 60
     3
 61
     5
292
     1
282
     1
141
0.0
142
0.0
 63
   250
361
3F
  0
ENDTAB
  0
TABLE
  2
LTYPE
  5
5
330
0
100
AcDbSymbolTable
 70
     5
  0
LTYPE
  5
14
330
5
100
AcDbSymbolTableRecord
100
AcDbLinetypeTableRecord
  2
ByBlock
 70
     0
  3

 72
    65
 73
     0
 40
0.0
  0
LTYPE
  5
15
330
5
100
AcDbSymbolTableRecord
100
AcDbLinetypeTableRecord
  2
ByLayer
 70
     0
  3

 72
    65
 73
     0
 40
0.0
  0
LTYPE
  5
16
330
5
100
AcDbSymbolTableRecord
100
AcDbLinetypeTableRecord
  2
Continuous
 70
     0
  3
Solid line
 72
    65
 73
     0
 40
0.0
  0
LTYPE
  5
5C
330
5
100
AcDbSymbolTableRecord
100
AcDbLinetypeTableRecord
  2
AI-Linetype-1
 70
     0
  3
Adobe Illustrator Linetype No. 1
 72
    65
 73
     2
 40
0.282417926452816
 49
0.141208963226408
 74
     0
 49
-0.141208963226408
 74
     0
  0
LTYPE
  5
121
330
5
100
AcDbSymbolTableRecord
100
AcDbLinetypeTableRecord
  2
AI-Linetype-2
 70
     0
  3
Adobe Illustrator Linetype No. 2
 72
    65
 73
     2
 40
0.2822222221516666
 49
0.1411111110758333
 74
     0
 49
-0.1411111110758333
 74
     0
  0
LTYPE
  5
14E
330
5
100
AcDbSymbolTableRecord
100
AcDbLinetypeTableRecord
  2
AI-Linetype-3
 70
     0
  3
Adobe Illustrator Linetype No. 3
 72
    65
 73
     2
 40
0.2822222221516666
 49
0.1411111110758333
 74
     0
 49
-0.1411111110758333
 74
     0
  0
LTYPE
  5
175
330
5
100
AcDbSymbolTableRecord
100
AcDbLinetypeTableRecord
  2
AI-Linetype-4
 70
     0
  3
Adobe Illustrator Linetype No. 4
 72
    65
 73
     2
 40
0.2822222221516666
 49
0.1411111110758333
 74
     0
 49
-0.1411111110758333
 74
     0
  0
ENDTAB
  0
TABLE
  2
LAYER
  5
2
330
0
100
AcDbSymbolTable
 70
     1
  0
LAYER
  5
10
330
2
100
AcDbSymbolTableRecord
100
AcDbLayerTableRecord
  2
0
 70
     0
 62
     7
  6
Continuous
370
    -3
390
F
347
3E
  0
ENDTAB
  0
TABLE
  2
STYLE
  5
3
330
0
100
AcDbSymbolTable
 70
     1
  0
STYLE
  5
11
330
3
100
AcDbSymbolTableRecord
100
AcDbTextStyleTableRecord
  2
Standard
 70
     0
 40
0.0
 41
1.0
 50
0.0
 71
     0
 42
0.2
  3
txt
  4

  0
ENDTAB
  0
TABLE
  2
VIEW
  5
6
330
0
100
AcDbSymbolTable
 70
     0
  0
ENDTAB
  0
TABLE
  2
UCS
  5
7
330
0
100
AcDbSymbolTable
 70
     0
  0
ENDTAB
  0
TABLE
  2
APPID
  5
9
330
0
100
AcDbSymbolTable
 70
     1
  0
APPID
  5
12
330
9
100
AcDbSymbolTableRecord
100
AcDbRegAppTableRecord
  2
ACAD
 70
     0
  0
ENDTAB
  0
TABLE
  2
DIMSTYLE
  5
A
330
0
100
AcDbSymbolTable
 70
     1
100
AcDbDimStyleTable
  0
DIMSTYLE
105
27
330
A
100
AcDbSymbolTableRecord
100
AcDbDimStyleTableRecord
  2
Standard
 70
     0
178
     0
340
11
  0
ENDTAB
  0
TABLE
  2
BLOCK_RECORD
  5
1
330
0
100
AcDbSymbolTable
 70
    36
  0
BLOCK_RECORD
  5
1F
330
1
100
AcDbSymbolTableRecord
100
AcDbBlockTableRecord
  2
*Model_Space
340
22
 70
     0
280
     1
281
     0
  0
BLOCK_RECORD
  5
1B
330
1
100
AcDbSymbolTableRecord
100
AcDbBlockTableRecord
  2
*Paper_Space
340
1E
 70
     0
280
     1
281
     0
  0
BLOCK_RECORD
  5
23
330
1
100
AcDbSymbolTableRecord
100
AcDbBlockTableRecord
  2
*Paper_Space0
340
26
 70
     0
280
     1
281
     0
  0
BLOCK_RECORD
  5
40
330
1
100
AcDbSymbolTableRecord
100
AcDbBlockTableRecord
  2
block 2
340
0
102
{BLKREFS
331
41
102
}
 70
     0
280
     1
281
     0
  0
BLOCK_RECORD
  5
4D
330
1
100
AcDbSymbolTableRecord
100
AcDbBlockTableRecord
  2
block 3
340
0
102
{BLKREFS
331
4E
102
}
 70
     0
280
     1
281
     0
  0
BLOCK_RECORD
  5
51
330
1
100
AcDbSymbolTableRecord
100
AcDbBlockTableRecord
  2
block 4
340
0
102
{BLKREFS
331
52
102
}
 70
     0
280
     1
281
     0
  0
BLOCK_RECORD
  5
62
330
1
100
AcDbSymbolTableRecord
100
AcDbBlockTableRecord
  2
block 5
340
0
102
{BLKREFS
331
63
102
}
 70
     0
280
     1
281
     0
  0
BLOCK_RECORD
  5
6D
330
1
100
AcDbSymbolTableRecord
100
AcDbBlockTableRecord
  2
block 6
340
0
102
{BLKREFS
331
6E
102
}
 70
     0
280
     1
281
     0
  0
BLOCK_RECORD
  5
80
330
1
100
AcDbSymbolTableRecord
100
AcDbBlockTableRecord
  2
block 7
340
0
102
{BLKREFS
331
81
102
}
 70
     0
280
     1
281
     0
  0
BLOCK_RECORD
  5
8B
330
1
100
AcDbSymbolTableRecord
100
AcDbBlockTableRecord
  2
block 8
340
0
102
{BLKREFS
331
8C
102
}
 70
     0
280
     1
281
     0
  0
BLOCK_RECORD
  5
9E
330
1
100
AcDbSymbolTableRecord
100
AcDbBlockTableRecord
  2
block 9
340
0
102
{BLKREFS
331
9F
102
}
 70
     0
280
     1
281
     0
  0
BLOCK_RECORD
  5
A9
330
1
100
AcDbSymbolTableRecord
100
AcDbBlockTableRecord
  2
block 10
340
0
102
{BLKREFS
331
AA
102
}
 70
     0
280
     1
281
     0
  0
BLOCK_RECORD
  5
BC
330
1
100
AcDbSymbolTableRecord
100
AcDbBlockTableRecord
  2
block 11
340
0
102
{BLKREFS
331
BD
102
}
 70
     0
280
     1
281
     0
  0
BLOCK_RECORD
  5
C7
330
1
100
AcDbSymbolTableRecord
100
AcDbBlockTableRecord
  2
block 12
340
0
102
{BLKREFS
331
C8
102
}
 70
     0
280
     1
281
     0
  0
BLOCK_RECORD
  5
DA
330
1
100
AcDbSymbolTableRecord
100
AcDbBlockTableRecord
  2
block 13
340
0
102
{BLKREFS
331
DB
102
}
 70
     0
280
     1
281
     0
  0
BLOCK_RECORD
  5
E5
330
1
100
AcDbSymbolTableRecord
100
AcDbBlockTableRecord
  2
block 14
340
0
102
{BLKREFS
331
E6
102
}
 70
     0
280
     1
281
     0
  0
BLOCK_RECORD
  5
F8
330
1
100
AcDbSymbolTableRecord
100
AcDbBlockTableRecord
  2
block 15
340
0
102
{BLKREFS
331
F9
102
}
 70
     0
280
     1
281
     0
  0
BLOCK_RECORD
  5
103
330
1
100
AcDbSymbolTableRecord
100
AcDbBlockTableRecord
  2
block 16
340
0
102
{BLKREFS
331
104
102
}
 70
     0
280
     1
281
     0
  0
BLOCK_RECORD
  5
116
330
1
100
AcDbSymbolTableRecord
100
AcDbBlockTableRecord
  2
block 17
340
0
102
{BLKREFS
331
117
102
}
 70
     0
280
     1
281
     0
  0
BLOCK_RECORD
  5
11A
330
1
100
AcDbSymbolTableRecord
100
AcDbBlockTableRecord
  2
block 18
340
0
102
{BLKREFS
331
11B
102
}
 70
     0
280
     1
281
     0
  0
BLOCK_RECORD
  5
123
330
1
100
AcDbSymbolTableRecord
100
AcDbBlockTableRecord
  2
block 19
340
0
102
{BLKREFS
331
124
102
}
 70
     0
280
     1
281
     0
  0
BLOCK_RECORD
  5
129
330
1
100
AcDbSymbolTableRecord
100
AcDbBlockTableRecord
  2
block 20
340
0
102
{BLKREFS
331
12A
102
}
 70
     0
280
     1
281
     0
  0
BLOCK_RECORD
  5
134
330
1
100
AcDbSymbolTableRecord
100
AcDbBlockTableRecord
  2
block 21
340
0
102
{BLKREFS
331
135
102
}
 70
     0
280
     1
281
     0
  0
BLOCK_RECORD
  5
147
330
1
100
AcDbSymbolTableRecord
100
AcDbBlockTableRecord
  2
block 22
340
0
102
{BLKREFS
331
148
102
}
 70
     0
280
     1
281
     0
  0
BLOCK_RECORD
  5
150
330
1
100
AcDbSymbolTableRecord
100
AcDbBlockTableRecord
  2
block 23
340
0
102
{BLKREFS
331
151
102
}
 70
     0
280
     1
281
     0
  0
BLOCK_RECORD
  5
15B
330
1
100
AcDbSymbolTableRecord
100
AcDbBlockTableRecord
  2
block 24
340
0
102
{BLKREFS
331
15C
102
}
 70
     0
280
     1
281
     0
  0
BLOCK_RECORD
  5
16E
330
1
100
AcDbSymbolTableRecord
100
AcDbBlockTableRecord
  2
block 25
340
0
102
{BLKREFS
331
16F
102
}
 70
     0
280
     1
281
     0
  0
BLOCK_RECORD
  5
177
330
1
100
AcDbSymbolTableRecord
100
AcDbBlockTableRecord
  2
block 26
340
0
102
{BLKREFS
331
178
102
}
 70
     0
280
     1
281
     0
  0
BLOCK_RECORD
  5
182
330
1
100
AcDbSymbolTableRecord
100
AcDbBlockTableRecord
  2
block 27
340
0
102
{BLKREFS
331
183
102
}
 70
     0
280
     1
281
     0
  0
BLOCK_RECORD
  5
195
330
1
100
AcDbSymbolTableRecord
100
AcDbBlockTableRecord
  2
block 28
340
0
102
{BLKREFS
331
196
102
}
 70
     0
280
     1
281
     0
  0
BLOCK_RECORD
  5
1A0
330
1
100
AcDbSymbolTableRecord
100
AcDbBlockTableRecord
  2
block 29
340
0
102
{BLKREFS
331
1A1
102
}
 70
     0
280
     1
281
     0
  0
BLOCK_RECORD
  5
1B3
330
1
100
AcDbSymbolTableRecord
100
AcDbBlockTableRecord
  2
block 30
340
0
102
{BLKREFS
331
1B4
102
}
 70
     0
280
     1
281
     0
  0
BLOCK_RECORD
  5
1BE
330
1
100
AcDbSymbolTableRecord
100
AcDbBlockTableRecord
  2
block 31
340
0
102
{BLKREFS
331
1BF
102
}
 70
     0
280
     1
281
     0
  0
BLOCK_RECORD
  5
1D1
330
1
100
AcDbSymbolTableRecord
100
AcDbBlockTableRecord
  2
block 32
340
0
102
{BLKREFS
331
1D2
102
}
 70
     0
280
     1
281
     0
  0
BLOCK_RECORD
  5
2A3
330
1
100
AcDbSymbolTableRecord
100
AcDbBlockTableRecord
  2
block 33
340
0
102
{BLKREFS
331
2A4
102
}
 70
     0
280
     1
281
     0
  0
BLOCK_RECORD
  5
2B0
330
1
100
AcDbSymbolTableRecord
100
AcDbBlockTableRecord
  2
block 34
340
0
102
{BLKREFS
331
2B1
102
}
 70
     0
280
     1
281
     0
  0
BLOCK_RECORD
  5
2B6
330
1
100
AcDbSymbolTableRecord
100
AcDbBlockTableRecord
  2
block 35
340
0
102
{BLKREFS
331
2B7
102
}
 70
     0
280
     1
281
     0
  0
BLOCK_RECORD
  5
2C1
330
1
100
AcDbSymbolTableRecord
100
AcDbBlockTableRecord
  2
block 36
340
0
102
{BLKREFS
331
2C2
102
}
 70
     0
280
     1
281
     0
  0
ENDTAB
  0
ENDSEC
  0
SECTION
  2
BLOCKS
  0
BLOCK
  5
20
330
1F
100
AcDbEntity
  8
0
100
AcDbBlockBegin
  2
*Model_Space
 70
     0
 10
0.0
 20
0.0
 30
0.0
  3
*Model_Space
  1

  0
ENDBLK
  5
21
330
1F
100
AcDbEntity
  8
0
100
AcDbBlockEnd
  0
BLOCK
  5
1C
330
1B
100
AcDbEntity
 67
     1
  8
0
100
AcDbBlockBegin
  2
*Paper_Space
 70
     0
 10
0.0
 20
0.0
 30
0.0
  3
*Paper_Space
  1

  0
ENDBLK
  5
1D
330
1B
100
AcDbEntity
 67
     1
  8
0
100
AcDbBlockEnd
  0
BLOCK
  5
24
330
23
100
AcDbEntity
  8
0
100
AcDbBlockBegin
  2
*Paper_Space0
 70
     0
 10
0.0
 20
0.0
 30
0.0
  3
*Paper_Space0
  1

  0
ENDBLK
  5
25
330
23
100
AcDbEntity
  8
0
100
AcDbBlockEnd
  0
BLOCK
  5
42
330
40
100
AcDbEntity
  8
0
100
AcDbBlockBegin
  2
block 2
 70
     0
 10
0.0
 20
0.0
 30
0.0
  3
block 2
  1

  0
POLYLINE
  5
44
330
40
100
AcDbEntity
  8
0
 62
     7
420
 16777215
370
    25
100
AcDb2dPolyline
 66
     1
 10
0.0
 20
0.0
 30
0.0
  0
VERTEX
  5
45
330
44
100
AcDbEntity
  8
0
 62
     7
420
 16777215
370
    25
100
AcDbVertex
100
AcDb2dVertex
 10
14.29841173815513
 20
40.96050055581259
 30
0.0
  0
VERTEX
  5
46
330
44
100
AcDbEntity
  8
0
 62
     7
420
 16777215
370
    25
100
AcDbVertex
100
AcDb2dVertex
 10
18.6375490961634
 20
38.46050055643759
 30
0.0
  0
VERTEX
  5
47
330
44
100
AcDbEntity
  8
0
 62
     7
420
 16777215
370
    25
100
AcDbVertex
100
AcDb2dVertex
 10
18.63754909616333
 20
33.46050055768757
 30
0.0
  0
VERTEX
  5
48
330
44
100
AcDbEntity
  8
0
 62
     7
420
 16777215
370
    25
100
AcDbVertex
100
AcDb2dVertex
 10
14.29841173815507
 20
30.96050055831262
 30
0.0
  0
VERTEX
  5
49
330
44
100
AcDbEntity
  8
0
 62
     7
420
 16777215
370
    25
100
AcDbVertex
100
AcDb2dVertex
 10
9.959274380146871
 20
33.46050055768763
 30
0.0
  0
VERTEX
  5
4A
330
44
100
AcDbEntity
  8
0
 62
     7
420
 16777215
370
    25
100
AcDbVertex
100
AcDb2dVertex
 10
9.959274380146871
 20
38.46050055643765
 30
0.0
  0
VERTEX
  5
4B
330
44
100
AcDbEntity
  8
0
 62
     7
420
 16777215
370
    25
100
AcDbVertex
100
AcDb2dVertex
 10
14.29841173815513
 20
40.96050055581259
 30
0.0
  0
SEQEND
  5
4C
330
44
100
AcDbEntity
  8
0
 62
     7
420
 16777215
370
    25
  0
ENDBLK
  5
43
330
40
100
AcDbEntity
  8
0
100
AcDbBlockEnd
  0
BLOCK
  5
4F
330
4D
100
AcDbEntity
  8
0
100
AcDbBlockBegin
  2
block 3
 70
     0
 10
0.0
 20
0.0
 30
0.0
  3
block 3
  1

  0
INSERT
  5
52
330
4D
100
AcDbEntity
  8
0
100
AcDbBlockReference
  2
block 4
 10
0.0
 20
0.0
 30
0.0
  0
ENDBLK
  5
50
330
4D
100
AcDbEntity
  8
0
100
AcDbBlockEnd
  0
BLOCK
  5
53
330
51
100
AcDbEntity
  8
0
100
AcDbBlockBegin
  2
block 4
 70
     0
 10
0.0
 20
0.0
 30
0.0
  3
block 4
  1

  0
POLYLINE
  5
55
330
51
100
AcDbEntity
  8
0
 62
     7
420
 16777215
370
     9
100
AcDb2dPolyline
 66
     1
 10
0.0
 20
0.0
 30
0.0
  0
VERTEX
  5
56
330
55
100
AcDbEntity
  8
0
 62
     7
420
 16777215
370
     9
100
AcDbVertex
100
AcDb2dVertex
 10
14.29846508940227
 20
40.89283124113312
 30
0.0
  0
VERTEX
  5
57
330
55
100
AcDbEntity
  8
0
 62
     7
420
 16777215
370
     9
100
AcDbVertex
100
AcDb2dVertex
 10
14.29846508940227
 20
40.82227568559521
 30
0.0
  0
SEQEND
  5
58
330
55
100
AcDbEntity
  8
0
 62
     7
420
 16777215
370
     9
  0
POLYLINE
  5
59
330
51
100
AcDbEntity
  8
0
  6
AI-Linetype-1
 62
     7
420
 16777215
370
     9
100
AcDb2dPolyline
 66
     1
 10
0.0
 20
0.0
 30
0.0
  0
VERTEX
  5
5A
330
59
100
AcDbEntity
  8
0
  6
AI-Linetype-1
 62
     7
420
 16777215
370
     9
100
AcDbVertex
100
AcDb2dVertex
 10
14.29846508940227
 20
40.68106552802418
 30
0.0
  0
VERTEX
  5
5B
330
59
100
AcDbEntity
  8
0
  6
AI-Linetype-1
 62
     7
420
 16777215
370
     9
100
AcDbVertex
100
AcDb2dVertex
 10
14.29846508940227
 20
31.14946171299714
 30
0.0
  0
SEQEND
  5
5D
330
59
100
AcDbEntity
  8
0
  6
AI-Linetype-1
 62
     7
420
 16777215
370
     9
  0
POLYLINE
  5
5E
330
51
100
AcDbEntity
  8
0
 62
     7
420
 16777215
370
     9
100
AcDb2dPolyline
 66
     1
 10
0.0
 20
0.0
 30
0.0
  0
VERTEX
  5
5F
330
5E
100
AcDbEntity
  8
0
 62
     7
420
 16777215
370
     9
100
AcDbVertex
100
AcDb2dVertex
 10
14.29846508940227
 20
31.07885663421162
 30
0.0
  0
VERTEX
  5
60
330
5E
100
AcDbEntity
  8
0
 62
     7
420
 16777215
370
     9
100
AcDbVertex
100
AcDb2dVertex
 10
14.29846508940227
 20
31.0083010786737
 30
0.0
  0
SEQEND
  5
61
330
5E
100
AcDbEntity
  8
0
 62
     7
420
 16777215
370
     9
  0
ENDBLK
  5
54
330
51
100
AcDbEntity
  8
0
100
AcDbBlockEnd
  0
BLOCK
  5
64
330
62
100
AcDbEntity
  8
0
100
AcDbBlockBegin
  2
block 5
 70
     0
 10
0.0
 20
0.0
 30
0.0
  3
block 5
  1

  0
POLYLINE
  5
66
330
62
100
AcDbEntity
  8
0
 62
     7
420
 16777215
370
    25
100
AcDb2dPolyline
 66
     1
 10
0.0
 20
0.0
 30
0.0
  0
VERTEX
  5
67
330
66
100
AcDbEntity
  8
0
 62
     7
420
 16777215
370
    25
100
AcDbVertex
100
AcDb2dVertex
 10
14.49848748524163
 20
40.8450538413846
 30
0.0
  0
VERTEX
  5
68
330
66
100
AcDbEntity
  8
0
 62
     7
420
 16777215
370
    25
100
AcDbVertex
100
AcDb2dVertex
 10
14.09848748524168
 20
40.8450538413846
 30
0.0
  0
VERTEX
  5
69
330
66
100
AcDbEntity
  8
0
 62
     7
420
 16777215
370
    25
100
AcDbVertex
100
AcDb2dVertex
 10
14.09848748524168
 20
39.96052389522248
 30
0.0
  0
VERTEX
  5
6A
330
66
100
AcDbEntity
  8
0
 62
     7
420
 16777215
370
    25
100
AcDbVertex
100
AcDb2dVertex
 10
14.49848748524163
 20
39.96052389522248
 30
0.0
  0
VERTEX
  5
6B
330
66
100
AcDbEntity
  8
0
 62
     7
420
 16777215
370
    25
100
AcDbVertex
100
AcDb2dVertex
 10
14.49848748524163
 20
40.8450538413846
 30
0.0
  0
SEQEND
  5
6C
330
66
100
AcDbEntity
  8
0
 62
     7
420
 16777215
370
    25
  0
INSERT
  5
6E
330
62
100
AcDbEntity
  8
0
100
AcDbBlockReference
  2
block 6
 10
0.0
 20
0.0
 30
0.0
  0
POLYLINE
  5
78
330
62
100
AcDbEntity
  8
0
370
     0
100
AcDb2dPolyline
 66
     1
 10
0.0
 20
0.0
 30
0.0
  0
VERTEX
  5
79
330
78
100
AcDbEntity
  8
0
370
     0
100
AcDbVertex
100
AcDb2dVertex
 10
14.1374836980868
 20
41.02063493505178
 30
0.0
  0
VERTEX
  5
7A
330
78
100
AcDbEntity
  8
0
370
     0
100
AcDbVertex
100
AcDb2dVertex
 10
14.45948369800635
 20
41.02063493505178
 30
0.0
  0
VERTEX
  5
7B
330
78
100
AcDbEntity
  8
0
370
     0
100
AcDbVertex
100
AcDb2dVertex
 10
14.45948369800635
 20
40.40086534391935
 30
0.0
  0
VERTEX
  5
7C
330
78
100
AcDbEntity
  8
0
370
     0
100
AcDbVertex
100
AcDb2dVertex
 10
14.1374836980868
 20
40.40086534391935
 30
0.0
  0
VERTEX
  5
7D
330
78
100
AcDbEntity
  8
0
370
     0
100
AcDbVertex
100
AcDb2dVertex
 10
14.1374836980868
 20
41.02063493505178
 30
0.0
  0
SEQEND
  5
7F
330
78
100
AcDbEntity
  8
0
370
     0
  0
HATCH
  5
7E
330
62
100
AcDbEntity
  8
0
 62
    18
420
        0
100
AcDbHatch
 10
0.0
 20
0.0
 30
0.0
210
0.0
220
0.0
230
1.0
  2
SOLID
 70
     1
 71
     0
 91
        1
 92
        1
 93
        4
 72
     1
 10
14.1374836980868
 20
41.02063493505178
 11
14.45948369800635
 21
41.02063493505178
 72
     1
 10
14.45948369800635
 20
41.02063493505178
 11
14.45948369800635
 21
40.40086534391935
 72
     1
 10
14.45948369800635
 20
40.40086534391935
 11
14.1374836980868
 21
40.40086534391935
 72
     1
 10
14.1374836980868
 20
40.40086534391935
 11
14.1374836980868
 21
41.02063493505178
 97
        0
 75
     2
 76
     1
 98
        0
  0
ENDBLK
  5
65
330
62
100
AcDbEntity
  8
0
100
AcDbBlockEnd
  0
BLOCK
  5
6F
330
6D
100
AcDbEntity
  8
0
100
AcDbBlockBegin
  2
block 6
 70
     0
 10
0.0
 20
0.0
 30
0.0
  3
block 6
  1

  0
POLYLINE
  5
71
330
6D
100
AcDbEntity
  8
0
 62
     7
420
 16777215
370
    18
100
AcDb2dPolyline
 66
     1
 10
0.0
 20
0.0
 30
0.0
  0
VERTEX
  5
72
330
71
100
AcDbEntity
  8
0
 62
     7
420
 16777215
370
    18
100
AcDbVertex
100
AcDb2dVertex
 10
14.12848369811456
 20
40.86691998625992
 30
0.0
  0
VERTEX
  5
73
330
71
100
AcDbEntity
  8
0
 62
     7
420
 16777215
370
    18
100
AcDbVertex
100
AcDb2dVertex
 10
14.12848369824957
 20
39.66691998665735
 30
0.0
  0
VERTEX
  5
74
330
71
100
AcDbEntity
  8
0
 62
     7
420
 16777215
370
    18
100
AcDbVertex
100
AcDb2dVertex
 10
14.46848369802954
 20
39.66691998675476
 30
0.0
  0
VERTEX
  5
75
330
71
100
AcDbEntity
  8
0
 62
     7
420
 16777215
370
    18
100
AcDbVertex
100
AcDb2dVertex
 10
14.46848369789453
 20
40.86691998635733
 30
0.0
  0
SEQEND
  5
77
330
71
100
AcDbEntity
  8
0
 62
     7
420
 16777215
370
    18
  0
HATCH
  5
76
330
6D
100
AcDbEntity
  8
0
 62
    18
420
        0
100
AcDbHatch
 10
0.0
 20
0.0
 30
0.0
210
0.0
220
0.0
230
1.0
  2
SOLID
 70
     1
 71
     0
 91
        1
 92
        1
 93
        4
 72
     1
 10
14.12848369811456
 20
40.86691998625992
 11
14.12848369824957
 21
39.66691998665734
 72
     1
 10
14.12848369824957
 20
39.66691998665735
 11
14.46848369802954
 21
39.66691998675476
 72
     1
 10
14.46848369802954
 20
39.66691998675476
 11
14.46848369789453
 21
40.86691998635733
 72
     1
 10
14.46848369789453
 20
40.86691998635733
 11
14.12848369811456
 21
40.86691998625992
 97
        0
 75
     2
 76
     1
 98
        0
  0
ENDBLK
  5
70
330
6D
100
AcDbEntity
  8
0
100
AcDbBlockEnd
  0
BLOCK
  5
82
330
80
100
AcDbEntity
  8
0
100
AcDbBlockBegin
  2
block 7
 70
     0
 10
0.0
 20
0.0
 30
0.0
  3
block 7
  1

  0
POLYLINE
  5
84
330
80
100
AcDbEntity
  8
0
 62
     7
420
 16777215
370
    25
100
AcDb2dPolyline
 66
     1
 10
0.0
 20
0.0
 30
0.0
  0
VERTEX
  5
85
330
84
100
AcDbEntity
  8
0
 62
     7
420
 16777215
370
    25
100
AcDbVertex
100
AcDb2dVertex
 10
14.09847989767436
 20
31.07804799859266
 30
0.0
  0
VERTEX
  5
86
330
84
100
AcDbEntity
  8
0
 62
     7
420
 16777215
370
    25
100
AcDbVertex
100
AcDb2dVertex
 10
14.49847989767431
 20
31.07804799855672
 30
0.0
  0
VERTEX
  5
87
330
84
100
AcDbEntity
  8
0
 62
     7
420
 16777215
370
    25
100
AcDbVertex
100
AcDb2dVertex
 10
14.49847989775375
 20
31.96257794471884
 30
0.0
  0
VERTEX
  5
88
330
84
100
AcDbEntity
  8
0
 62
     7
420
 16777215
370
    25
100
AcDbVertex
100
AcDb2dVertex
 10
14.0984798977538
 20
31.96257794475478
 30
0.0
  0
VERTEX
  5
89
330
84
100
AcDbEntity
  8
0
 62
     7
420
 16777215
370
    25
100
AcDbVertex
100
AcDb2dVertex
 10
14.09847989767436
 20
31.07804799859266
 30
0.0
  0
SEQEND
  5
8A
330
84
100
AcDbEntity
  8
0
 62
     7
420
 16777215
370
    25
  0
INSERT
  5
8C
330
80
100
AcDbEntity
  8
0
100
AcDbBlockReference
  2
block 8
 10
0.0
 20
0.0
 30
0.0
  0
POLYLINE
  5
96
330
80
100
AcDbEntity
  8
0
370
     0
100
AcDb2dPolyline
 66
     1
 10
0.0
 20
0.0
 30
0.0
  0
VERTEX
  5
97
330
96
100
AcDbEntity
  8
0
370
     0
100
AcDbVertex
100
AcDb2dVertex
 10
14.4594836848134
 20
30.90246690489307
 30
0.0
  0
VERTEX
  5
98
330
96
100
AcDbEntity
  8
0
370
     0
100
AcDbVertex
100
AcDb2dVertex
 10
14.13748368489385
 20
30.90246690492198
 30
0.0
  0
VERTEX
  5
99
330
96
100
AcDbEntity
  8
0
370
     0
100
AcDbVertex
100
AcDb2dVertex
 10
14.13748368494955
 20
31.52223649605441
 30
0.0
  0
VERTEX
  5
9A
330
96
100
AcDbEntity
  8
0
370
     0
100
AcDbVertex
100
AcDb2dVertex
 10
14.4594836848691
 20
31.52223649602551
 30
0.0
  0
VERTEX
  5
9B
330
96
100
AcDbEntity
  8
0
370
     0
100
AcDbVertex
100
AcDb2dVertex
 10
14.4594836848134
 20
30.90246690489307
 30
0.0
  0
SEQEND
  5
9D
330
96
100
AcDbEntity
  8
0
370
     0
  0
HATCH
  5
9C
330
80
100
AcDbEntity
  8
0
 62
    18
420
        0
100
AcDbHatch
 10
0.0
 20
0.0
 30
0.0
210
0.0
220
0.0
230
1.0
  2
SOLID
 70
     1
 71
     0
 91
        1
 92
        1
 93
        4
 72
     1
 10
14.4594836848134
 20
30.90246690489307
 11
14.13748368489385
 21
30.90246690492198
 72
     1
 10
14.13748368489385
 20
30.90246690492198
 11
14.13748368494955
 21
31.52223649605441
 72
     1
 10
14.13748368494955
 20
31.52223649605441
 11
14.4594836848691
 21
31.52223649602551
 72
     1
 10
14.4594836848691
 20
31.52223649602551
 11
14.4594836848134
 21
30.90246690489307
 97
        0
 75
     2
 76
     1
 98
        0
  0
ENDBLK
  5
83
330
80
100
AcDbEntity
  8
0
100
AcDbBlockEnd
  0
BLOCK
  5
8D
330
8B
100
AcDbEntity
  8
0
100
AcDbBlockBegin
  2
block 8
 70
     0
 10
0.0
 20
0.0
 30
0.0
  3
block 8
  1

  0
POLYLINE
  5
8F
330
8B
100
AcDbEntity
  8
0
 62
     7
420
 16777215
370
    18
100
AcDb2dPolyline
 66
     1
 10
0.0
 20
0.0
 30
0.0
  0
VERTEX
  5
90
330
8F
100
AcDbEntity
  8
0
 62
     7
420
 16777215
370
    18
100
AcDbVertex
100
AcDb2dVertex
 10
14.46848368479951
 20
31.0561818536841
 30
0.0
  0
VERTEX
  5
91
330
8F
100
AcDbEntity
  8
0
 62
     7
420
 16777215
370
    18
100
AcDbVertex
100
AcDb2dVertex
 10
14.46848368477223
 20
32.25618185328668
 30
0.0
  0
VERTEX
  5
92
330
8F
100
AcDbEntity
  8
0
 62
     7
420
 16777215
370
    18
100
AcDbVertex
100
AcDb2dVertex
 10
14.12848368499226
 20
32.25618185321981
 30
0.0
  0
VERTEX
  5
93
330
8F
100
AcDbEntity
  8
0
 62
     7
420
 16777215
370
    18
100
AcDbVertex
100
AcDb2dVertex
 10
14.12848368501953
 20
31.05618185361724
 30
0.0
  0
SEQEND
  5
95
330
8F
100
AcDbEntity
  8
0
 62
     7
420
 16777215
370
    18
  0
HATCH
  5
94
330
8B
100
AcDbEntity
  8
0
 62
    18
420
        0
100
AcDbHatch
 10
0.0
 20
0.0
 30
0.0
210
0.0
220
0.0
230
1.0
  2
SOLID
 70
     1
 71
     0
 91
        1
 92
        1
 93
        4
 72
     1
 10
14.46848368479951
 20
31.0561818536841
 11
14.46848368477223
 21
32.25618185328668
 72
     1
 10
14.46848368477223
 20
32.25618185328668
 11
14.12848368499226
 21
32.25618185321981
 72
     1
 10
14.12848368499226
 20
32.25618185321981
 11
14.12848368501953
 21
31.05618185361723
 72
     1
 10
14.12848368501953
 20
31.05618185361724
 11
14.46848368479951
 21
31.0561818536841
 97
        0
 75
     2
 76
     1
 98
        0
  0
ENDBLK
  5
8E
330
8B
100
AcDbEntity
  8
0
100
AcDbBlockEnd
  0
BLOCK
  5
A0
330
9E
100
AcDbEntity
  8
0
100
AcDbBlockBegin
  2
block 9
 70
     0
 10
0.0
 20
0.0
 30
0.0
  3
block 9
  1

  0
POLYLINE
  5
A2
330
9E
100
AcDbEntity
  8
0
 62
     7
420
 16777215
370
    25
100
AcDb2dPolyline
 66
     1
 10
0.0
 20
0.0
 30
0.0
  0
VERTEX
  5
A3
330
A2
100
AcDbEntity
  8
0
 62
     7
420
 16777215
370
    25
100
AcDbVertex
100
AcDb2dVertex
 10
18.6324566049229
 20
38.24772995496276
 30
0.0
  0
VERTEX
  5
A4
330
A2
100
AcDbEntity
  8
0
 62
     7
420
 16777215
370
    25
100
AcDbVertex
100
AcDb2dVertex
 10
18.4324566049125
 20
38.59414011647049
 30
0.0
  0
VERTEX
  5
A5
330
A2
100
AcDbEntity
  8
0
 62
     7
420
 16777215
370
    25
100
AcDbVertex
100
AcDb2dVertex
 10
17.66643120114126
 20
38.15187514336652
 30
0.0
  0
VERTEX
  5
A6
330
A2
100
AcDbEntity
  8
0
 62
     7
420
 16777215
370
    25
100
AcDbVertex
100
AcDb2dVertex
 10
17.86643120115166
 20
37.80546498185875
 30
0.0
  0
VERTEX
  5
A7
330
A2
100
AcDbEntity
  8
0
 62
     7
420
 16777215
370
    25
100
AcDbVertex
100
AcDb2dVertex
 10
18.6324566049229
 20
38.24772995496276
 30
0.0
  0
SEQEND
  5
A8
330
A2
100
AcDbEntity
  8
0
 62
     7
420
 16777215
370
    25
  0
INSERT
  5
AA
330
9E
100
AcDbEntity
  8
0
100
AcDbBlockReference
  2
block 10
 10
0.0
 20
0.0
 30
0.0
  0
POLYLINE
  5
B4
330
9E
100
AcDbEntity
  8
0
370
     0
100
AcDb2dPolyline
 66
     1
 10
0.0
 20
0.0
 30
0.0
  0
VERTEX
  5
B5
330
B4
100
AcDbEntity
  8
0
370
     0
100
AcDbVertex
100
AcDb2dVertex
 10
18.60401239887351
 20
38.64815895233397
 30
0.0
  0
VERTEX
  5
B6
330
B4
100
AcDbEntity
  8
0
370
     0
100
AcDbVertex
100
AcDb2dVertex
 10
18.76501239884162
 20
38.36929877238988
 30
0.0
  0
VERTEX
  5
B7
330
B4
100
AcDbEntity
  8
0
370
     0
100
AcDbVertex
100
AcDb2dVertex
 10
18.22827618843712
 20
38.05941397680758
 30
0.0
  0
VERTEX
  5
B8
330
B4
100
AcDbEntity
  8
0
370
     0
100
AcDbVertex
100
AcDb2dVertex
 10
18.067276188469
 20
38.3382741567517
 30
0.0
  0
VERTEX
  5
B9
330
B4
100
AcDbEntity
  8
0
370
     0
100
AcDbVertex
100
AcDb2dVertex
 10
18.60401239887351
 20
38.64815895233397
 30
0.0
  0
SEQEND
  5
BB
330
B4
100
AcDbEntity
  8
0
370
     0
  0
HATCH
  5
BA
330
9E
100
AcDbEntity
  8
0
 62
    18
420
        0
100
AcDbHatch
 10
0.0
 20
0.0
 30
0.0
210
0.0
220
0.0
230
1.0
  2
SOLID
 70
     1
 71
     0
 91
        1
 92
        1
 93
        4
 72
     1
 10
18.60401239887351
 20
38.64815895233397
 11
18.76501239884162
 21
38.36929877238988
 72
     1
 10
18.76501239884162
 20
38.36929877238988
 11
18.22827618843712
 21
38.05941397680758
 72
     1
 10
18.22827618843712
 20
38.05941397680758
 11
18.067276188469
 21
38.3382741567517
 72
     1
 10
18.067276188469
 20
38.3382741567517
 11
18.60401239887351
 21
38.64815895233397
 97
        0
 75
     2
 76
     1
 98
        0
  0
ENDBLK
  5
A1
330
9E
100
AcDbEntity
  8
0
100
AcDbBlockEnd
  0
BLOCK
  5
AB
330
A9
100
AcDbEntity
  8
0
100
AcDbBlockBegin
  2
block 10
 70
     0
 10
0.0
 20
0.0
 30
0.0
  3
block 10
  1

  0
POLYLINE
  5
AD
330
A9
100
AcDbEntity
  8
0
 62
     7
420
 16777215
370
    18
100
AcDb2dPolyline
 66
     1
 10
0.0
 20
0.0
 30
0.0
  0
VERTEX
  5
AE
330
AD
100
AcDbEntity
  8
0
 62
     7
420
 16777215
370
    18
100
AcDbVertex
100
AcDb2dVertex
 10
18.46639134829429
 20
38.57909570654395
 30
0.0
  0
VERTEX
  5
AF
330
AD
100
AcDbEntity
  8
0
 62
     7
420
 16777215
370
    18
100
AcDbVertex
100
AcDb2dVertex
 10
17.42716086418258
 20
37.97909570659463
 30
0.0
  0
VERTEX
  5
B0
330
AD
100
AcDbEntity
  8
0
 62
     7
420
 16777215
370
    18
100
AcDbVertex
100
AcDb2dVertex
 10
17.59716086416574
 20
37.68464706955225
 30
0.0
  0
VERTEX
  5
B1
330
AD
100
AcDbEntity
  8
0
 62
     7
420
 16777215
370
    18
100
AcDbVertex
100
AcDb2dVertex
 10
18.63639134827746
 20
38.28464706950157
 30
0.0
  0
SEQEND
  5
B3
330
AD
100
AcDbEntity
  8
0
 62
     7
420
 16777215
370
    18
  0
HATCH
  5
B2
330
A9
100
AcDbEntity
  8
0
 62
    18
420
        0
100
AcDbHatch
 10
0.0
 20
0.0
 30
0.0
210
0.0
220
0.0
230
1.0
  2
SOLID
 70
     1
 71
     0
 91
        1
 92
        1
 93
        4
 72
     1
 10
18.46639134829429
 20
38.57909570654395
 11
17.42716086418258
 21
37.97909570659463
 72
     1
 10
17.42716086418258
 20
37.97909570659463
 11
17.59716086416574
 21
37.68464706955225
 72
     1
 10
17.59716086416574
 20
37.68464706955225
 11
18.63639134827746
 21
38.28464706950157
 72
     1
 10
18.63639134827746
 20
38.28464706950157
 11
18.46639134829429
 21
38.57909570654395
 97
        0
 75
     2
 76
     1
 98
        0
  0
ENDBLK
  5
AC
330
A9
100
AcDbEntity
  8
0
100
AcDbBlockEnd
  0
BLOCK
  5
BE
330
BC
100
AcDbEntity
  8
0
100
AcDbBlockBegin
  2
block 11
 70
     0
 10
0.0
 20
0.0
 30
0.0
  3
block 11
  1

  0
POLYLINE
  5
C0
330
BC
100
AcDbEntity
  8
0
 62
     7
420
 16777215
370
    25
100
AcDb2dPolyline
 66
     1
 10
0.0
 20
0.0
 30
0.0
  0
VERTEX
  5
C1
330
C0
100
AcDbEntity
  8
0
 62
     7
420
 16777215
370
    25
100
AcDbVertex
100
AcDb2dVertex
 10
18.42746664872514
 20
33.32810875234164
 30
0.0
  0
VERTEX
  5
C2
330
C0
100
AcDbEntity
  8
0
 62
     7
420
 16777215
370
    25
100
AcDbVertex
100
AcDb2dVertex
 10
18.62746664870436
 20
33.67451891386737
 30
0.0
  0
VERTEX
  5
C3
330
C0
100
AcDbEntity
  8
0
 62
     7
420
 16777215
370
    25
100
AcDbVertex
100
AcDb2dVertex
 10
17.8614412448934
 20
34.11678388690255
 30
0.0
  0
VERTEX
  5
C4
330
C0
100
AcDbEntity
  8
0
 62
     7
420
 16777215
370
    25
100
AcDbVertex
100
AcDb2dVertex
 10
17.66144124491418
 20
33.77037372537685
 30
0.0
  0
VERTEX
  5
C5
330
C0
100
AcDbEntity
  8
0
 62
     7
420
 16777215
370
    25
100
AcDbVertex
100
AcDb2dVertex
 10
18.42746664872514
 20
33.32810875234164
 30
0.0
  0
SEQEND
  5
C6
330
C0
100
AcDbEntity
  8
0
 62
     7
420
 16777215
370
    25
  0
INSERT
  5
C8
330
BC
100
AcDbEntity
  8
0
100
AcDbBlockReference
  2
block 12
 10
0.0
 20
0.0
 30
0.0
  0
POLYLINE
  5
D2
330
BC
100
AcDbEntity
  8
0
370
     0
100
AcDb2dPolyline
 66
     1
 10
0.0
 20
0.0
 30
0.0
  0
VERTEX
  5
D3
330
D2
100
AcDbEntity
  8
0
370
     0
100
AcDbVertex
100
AcDb2dVertex
 10
18.7600262298291
 20
33.55295665606646
 30
0.0
  0
VERTEX
  5
D4
330
D2
100
AcDbEntity
  8
0
370
     0
100
AcDbVertex
100
AcDb2dVertex
 10
18.59902622988601
 20
33.2740964761079
 30
0.0
  0
VERTEX
  5
D5
330
D2
100
AcDbEntity
  8
0
370
     0
100
AcDbVertex
100
AcDb2dVertex
 10
18.06229001945372
 20
33.58398127164197
 30
0.0
  0
VERTEX
  5
D6
330
D2
100
AcDbEntity
  8
0
370
     0
100
AcDbVertex
100
AcDb2dVertex
 10
18.22329001939681
 20
33.86284145160052
 30
0.0
  0
VERTEX
  5
D7
330
D2
100
AcDbEntity
  8
0
370
     0
100
AcDbVertex
100
AcDb2dVertex
 10
18.7600262298291
 20
33.55295665606646
 30
0.0
  0
SEQEND
  5
D9
330
D2
100
AcDbEntity
  8
0
370
     0
  0
HATCH
  5
D8
330
BC
100
AcDbEntity
  8
0
 62
    18
420
        0
100
AcDbHatch
 10
0.0
 20
0.0
 30
0.0
210
0.0
220
0.0
230
1.0
  2
SOLID
 70
     1
 71
     0
 91
        1
 92
        1
 93
        4
 72
     1
 10
18.7600262298291
 20
33.55295665606646
 11
18.59902622988601
 21
33.2740964761079
 72
     1
 10
18.59902622988601
 20
33.2740964761079
 11
18.06229001945372
 21
33.58398127164197
 72
     1
 10
18.06229001945372
 20
33.58398127164197
 11
18.22329001939681
 21
33.86284145160052
 72
     1
 10
18.22329001939681
 20
33.86284145160052
 11
18.7600262298291
 21
33.55295665606646
 97
        0
 75
     2
 76
     1
 98
        0
  0
ENDBLK
  5
BF
330
BC
100
AcDbEntity
  8
0
100
AcDbBlockEnd
  0
BLOCK
  5
C9
330
C7
100
AcDbEntity
  8
0
100
AcDbBlockBegin
  2
block 12
 70
     0
 10
0.0
 20
0.0
 30
0.0
  3
block 12
  1

  0
POLYLINE
  5
CB
330
C7
100
AcDbEntity
  8
0
 62
     7
420
 16777215
370
    18
100
AcDb2dPolyline
 66
     1
 10
0.0
 20
0.0
 30
0.0
  0
VERTEX
  5
CC
330
CB
100
AcDbEntity
  8
0
 62
     7
420
 16777215
370
    18
100
AcDbVertex
100
AcDb2dVertex
 10
18.63140517921501
 20
33.63760835906471
 30
0.0
  0
VERTEX
  5
CD
330
CB
100
AcDbEntity
  8
0
 62
     7
420
 16777215
370
    18
100
AcDbVertex
100
AcDb2dVertex
 10
17.59217469491445
 20
34.23760835868684
 30
0.0
  0
VERTEX
  5
CE
330
CB
100
AcDbEntity
  8
0
 62
     7
420
 16777215
370
    18
100
AcDbVertex
100
AcDb2dVertex
 10
17.42217469512643
 20
33.94315972153181
 30
0.0
  0
VERTEX
  5
CF
330
CB
100
AcDbEntity
  8
0
 62
     7
420
 16777215
370
    18
100
AcDbVertex
100
AcDb2dVertex
 10
18.46140517942699
 20
33.34315972190965
 30
0.0
  0
SEQEND
  5
D1
330
CB
100
AcDbEntity
  8
0
 62
     7
420
 16777215
370
    18
  0
HATCH
  5
D0
330
C7
100
AcDbEntity
  8
0
 62
    18
420
        0
100
AcDbHatch
 10
0.0
 20
0.0
 30
0.0
210
0.0
220
0.0
230
1.0
  2
SOLID
 70
     1
 71
     0
 91
        1
 92
        1
 93
        4
 72
     1
 10
18.63140517921501
 20
33.63760835906471
 11
17.59217469491445
 21
34.23760835868684
 72
     1
 10
17.59217469491445
 20
34.23760835868684
 11
17.42217469512643
 21
33.94315972153181
 72
     1
 10
17.42217469512643
 20
33.94315972153181
 11
18.46140517942699
 21
33.34315972190965
 72
     1
 10
18.46140517942699
 20
33.34315972190965
 11
18.63140517921501
 21
33.63760835906471
 97
        0
 75
     2
 76
     1
 98
        0
  0
ENDBLK
  5
CA
330
C7
100
AcDbEntity
  8
0
100
AcDbBlockEnd
  0
BLOCK
  5
DC
330
DA
100
AcDbEntity
  8
0
100
AcDbBlockBegin
  2
block 13
 70
     0
 10
0.0
 20
0.0
 30
0.0
  3
block 13
  1

  0
POLYLINE
  5
DE
330
DA
100
AcDbEntity
  8
0
 62
     7
420
 16777215
370
    25
100
AcDb2dPolyline
 66
     1
 10
0.0
 20
0.0
 30
0.0
  0
VERTEX
  5
DF
330
DE
100
AcDbEntity
  8
0
 62
     7
420
 16777215
370
    25
100
AcDbVertex
100
AcDb2dVertex
 10
9.96949722122209
 20
38.24772995515409
 30
0.0
  0
VERTEX
  5
E0
330
DE
100
AcDbEntity
  8
0
 62
     7
420
 16777215
370
    25
100
AcDbVertex
100
AcDb2dVertex
 10
10.16949722124799
 20
38.59414011665283
 30
0.0
  0
VERTEX
  5
E1
330
DE
100
AcDbEntity
  8
0
 62
     7
420
 16777215
370
    25
100
AcDbVertex
100
AcDb2dVertex
 10
10.93552262499937
 20
38.15187514351447
 30
0.0
  0
VERTEX
  5
E2
330
DE
100
AcDbEntity
  8
0
 62
     7
420
 16777215
370
    25
100
AcDbVertex
100
AcDb2dVertex
 10
10.73552262497347
 20
37.80546498201569
 30
0.0
  0
VERTEX
  5
E3
330
DE
100
AcDbEntity
  8
0
 62
     7
420
 16777215
370
    25
100
AcDbVertex
100
AcDb2dVertex
 10
9.96949722122209
 20
38.24772995515409
 30
0.0
  0
SEQEND
  5
E4
330
DE
100
AcDbEntity
  8
0
 62
     7
420
 16777215
370
    25
  0
INSERT
  5
E6
330
DA
100
AcDbEntity
  8
0
100
AcDbBlockReference
  2
block 14
 10
0.0
 20
0.0
 30
0.0
  0
POLYLINE
  5
F0
330
DA
100
AcDbEntity
  8
0
370
     0
100
AcDb2dPolyline
 66
     1
 10
0.0
 20
0.0
 30
0.0
  0
VERTEX
  5
F1
330
F0
100
AcDbEntity
  8
0
370
     0
100
AcDbVertex
100
AcDb2dVertex
 10
9.997941427289419
 20
38.648158952524
 30
0.0
  0
VERTEX
  5
F2
330
F0
100
AcDbEntity
  8
0
370
     0
100
AcDbVertex
100
AcDb2dVertex
 10
9.83694142730879
 20
38.36929877258714
 30
0.0
  0
VERTEX
  5
F3
330
F0
100
AcDbEntity
  8
0
370
     0
100
AcDbVertex
100
AcDb2dVertex
 10
10.37367763769937
 20
38.05941397698078
 30
0.0
  0
VERTEX
  5
F4
330
F0
100
AcDbEntity
  8
0
370
     0
100
AcDbVertex
100
AcDb2dVertex
 10
10.53467763768003
 20
38.33827415691765
 30
0.0
  0
VERTEX
  5
F5
330
F0
100
AcDbEntity
  8
0
370
     0
100
AcDbVertex
100
AcDb2dVertex
 10
9.997941427289419
 20
38.648158952524
 30
0.0
  0
SEQEND
  5
F7
330
F0
100
AcDbEntity
  8
0
370
     0
  0
HATCH
  5
F6
330
DA
100
AcDbEntity
  8
0
 62
    18
420
        0
100
AcDbHatch
 10
0.0
 20
0.0
 30
0.0
210
0.0
220
0.0
230
1.0
  2
SOLID
 70
     1
 71
     0
 91
        1
 92
        1
 93
        4
 72
     1
 10
9.997941427289419
 20
38.648158952524
 11
9.83694142730879
 21
38.36929877258714
 72
     1
 10
9.83694142730879
 20
38.36929877258714
 11
10.37367763769937
 21
38.05941397698078
 72
     1
 10
10.37367763769937
 20
38.05941397698078
 11
10.53467763768003
 21
38.33827415691765
 72
     1
 10
10.53467763768003
 20
38.33827415691765
 11
9.997941427289419
 21
38.648158952524
 97
        0
 75
     2
 76
     1
 98
        0
  0
ENDBLK
  5
DD
330
DA
100
AcDbEntity
  8
0
100
AcDbBlockEnd
  0
BLOCK
  5
E7
330
E5
100
AcDbEntity
  8
0
100
AcDbBlockBegin
  2
block 14
 70
     0
 10
0.0
 20
0.0
 30
0.0
  3
block 14
  1

  0
POLYLINE
  5
E9
330
E5
100
AcDbEntity
  8
0
 62
     7
420
 16777215
370
    18
100
AcDb2dPolyline
 66
     1
 10
0.0
 20
0.0
 30
0.0
  0
VERTEX
  5
EA
330
E9
100
AcDbEntity
  8
0
 62
     7
420
 16777215
370
    18
100
AcDbVertex
100
AcDb2dVertex
 10
10.13556247786555
 20
38.5790957067278
 30
0.0
  0
VERTEX
  5
EB
330
E9
100
AcDbEntity
  8
0
 62
     7
420
 16777215
370
    18
100
AcDbVertex
100
AcDb2dVertex
 10
11.17479296195031
 20
37.97909570673182
 30
0.0
  0
VERTEX
  5
EC
330
E9
100
AcDbEntity
  8
0
 62
     7
420
 16777215
370
    18
100
AcDbVertex
100
AcDb2dVertex
 10
11.00479296195393
 20
37.68464706969711
 30
0.0
  0
VERTEX
  5
ED
330
E9
100
AcDbEntity
  8
0
 62
     7
420
 16777215
370
    18
100
AcDbVertex
100
AcDb2dVertex
 10
9.965562477869172
 20
38.28464706969309
 30
0.0
  0
SEQEND
  5
EF
330
E9
100
AcDbEntity
  8
0
 62
     7
420
 16777215
370
    18
  0
HATCH
  5
EE
330
E5
100
AcDbEntity
  8
0
 62
    18
420
        0
100
AcDbHatch
 10
0.0
 20
0.0
 30
0.0
210
0.0
220
0.0
230
1.0
  2
SOLID
 70
     1
 71
     0
 91
        1
 92
        1
 93
        4
 72
     1
 10
10.13556247786555
 20
38.5790957067278
 11
11.17479296195031
 21
37.97909570673182
 72
     1
 10
11.17479296195031
 20
37.97909570673182
 11
11.00479296195393
 21
37.68464706969711
 72
     1
 10
11.00479296195393
 20
37.68464706969711
 11
9.965562477869172
 21
38.28464706969309
 72
     1
 10
9.965562477869172
 20
38.28464706969309
 11
10.13556247786555
 21
38.5790957067278
 97
        0
 75
     2
 76
     1
 98
        0
  0
ENDBLK
  5
E8
330
E5
100
AcDbEntity
  8
0
100
AcDbBlockEnd
  0
BLOCK
  5
FA
330
F8
100
AcDbEntity
  8
0
100
AcDbBlockBegin
  2
block 15
 70
     0
 10
0.0
 20
0.0
 30
0.0
  3
block 15
  1

  0
POLYLINE
  5
FC
330
F8
100
AcDbEntity
  8
0
 62
     7
420
 16777215
370
    25
100
AcDb2dPolyline
 66
     1
 10
0.0
 20
0.0
 30
0.0
  0
VERTEX
  5
FD
330
FC
100
AcDbEntity
  8
0
 62
     7
420
 16777215
370
    25
100
AcDbVertex
100
AcDb2dVertex
 10
10.17448717719894
 20
33.32810875252375
 30
0.0
  0
VERTEX
  5
FE
330
FC
100
AcDbEntity
  8
0
 62
     7
420
 16777215
370
    25
100
AcDbVertex
100
AcDb2dVertex
 10
9.974487177235257
 20
33.67451891405844
 30
0.0
  0
VERTEX
  5
FF
330
FC
100
AcDbEntity
  8
0
 62
     7
420
 16777215
370
    25
100
AcDbVertex
100
AcDb2dVertex
 10
10.74051258106605
 20
34.11678388705926
 30
0.0
  0
VERTEX
  5
100
330
FC
100
AcDbEntity
  8
0
 62
     7
420
 16777215
370
    25
100
AcDbVertex
100
AcDb2dVertex
 10
10.94051258102973
 20
33.77037372552457
 30
0.0
  0
VERTEX
  5
101
330
FC
100
AcDbEntity
  8
0
 62
     7
420
 16777215
370
    25
100
AcDbVertex
100
AcDb2dVertex
 10
10.17448717719894
 20
33.32810875252375
 30
0.0
  0
SEQEND
  5
102
330
FC
100
AcDbEntity
  8
0
 62
     7
420
 16777215
370
    25
  0
INSERT
  5
104
330
F8
100
AcDbEntity
  8
0
100
AcDbBlockReference
  2
block 16
 10
0.0
 20
0.0
 30
0.0
  0
POLYLINE
  5
10E
330
F8
100
AcDbEntity
  8
0
370
     0
100
AcDb2dPolyline
 66
     1
 10
0.0
 20
0.0
 30
0.0
  0
VERTEX
  5
10F
330
10E
100
AcDbEntity
  8
0
370
     0
100
AcDbVertex
100
AcDb2dVertex
 10
9.841927596105027
 20
33.55295665626349
 30
0.0
  0
VERTEX
  5
110
330
10E
100
AcDbEntity
  8
0
370
     0
100
AcDbVertex
100
AcDb2dVertex
 10
10.0029275960356
 20
33.27409647629771
 30
0.0
  0
VERTEX
  5
111
330
10E
100
AcDbEntity
  8
0
370
     0
100
AcDbVertex
100
AcDb2dVertex
 10
10.53966380648185
 20
33.58398127180769
 30
0.0
  0
VERTEX
  5
112
330
10E
100
AcDbEntity
  8
0
370
     0
100
AcDbVertex
100
AcDb2dVertex
 10
10.37866380655128
 20
33.86284145177349
 30
0.0
  0
VERTEX
  5
113
330
10E
100
AcDbEntity
  8
0
370
     0
100
AcDbVertex
100
AcDb2dVertex
 10
9.841927596105027
 20
33.55295665626349
 30
0.0
  0
SEQEND
  5
115
330
10E
100
AcDbEntity
  8
0
370
     0
  0
HATCH
  5
114
330
F8
100
AcDbEntity
  8
0
 62
    18
420
        0
100
AcDbHatch
 10
0.0
 20
0.0
 30
0.0
210
0.0
220
0.0
230
1.0
  2
SOLID
 70
     1
 71
     0
 91
        1
 92
        1
 93
        4
 72
     1
 10
9.841927596105027
 20
33.55295665626349
 11
10.0029275960356
 21
33.27409647629771
 72
     1
 10
10.0029275960356
 20
33.27409647629771
 11
10.53966380648185
 21
33.58398127180769
 72
     1
 10
10.53966380648185
 20
33.58398127180769
 11
10.37866380655128
 21
33.86284145177349
 72
     1
 10
10.37866380655128
 20
33.86284145177349
 11
9.841927596105027
 21
33.55295665626349
 97
        0
 75
     2
 76
     1
 98
        0
  0
ENDBLK
  5
FB
330
F8
100
AcDbEntity
  8
0
100
AcDbBlockEnd
  0
BLOCK
  5
105
330
103
100
AcDbEntity
  8
0
100
AcDbBlockBegin
  2
block 16
 70
     0
 10
0.0
 20
0.0
 30
0.0
  3
block 16
  1

  0
POLYLINE
  5
107
330
103
100
AcDbEntity
  8
0
 62
     7
420
 16777215
370
    18
100
AcDb2dPolyline
 66
     1
 10
0.0
 20
0.0
 30
0.0
  0
VERTEX
  5
108
330
107
100
AcDbEntity
  8
0
 62
     7
420
 16777215
370
    18
100
AcDbVertex
100
AcDb2dVertex
 10
9.970548646722968
 20
33.63760835925597
 30
0.0
  0
VERTEX
  5
109
330
107
100
AcDbEntity
  8
0
 62
     7
420
 16777215
370
    18
100
AcDbVertex
100
AcDb2dVertex
 10
11.00977913105048
 20
34.23760835883148
 30
0.0
  0
VERTEX
  5
10A
330
107
100
AcDbEntity
  8
0
 62
     7
420
 16777215
370
    18
100
AcDbVertex
100
AcDb2dVertex
 10
11.17977913082525
 20
33.94315972166878
 30
0.0
  0
VERTEX
  5
10B
330
107
100
AcDbEntity
  8
0
 62
     7
420
 16777215
370
    18
100
AcDbVertex
100
AcDb2dVertex
 10
10.14054864649774
 20
33.3431597220933
 30
0.0
  0
SEQEND
  5
10D
330
107
100
AcDbEntity
  8
0
 62
     7
420
 16777215
370
    18
  0
HATCH
  5
10C
330
103
100
AcDbEntity
  8
0
 62
    18
420
        0
100
AcDbHatch
 10
0.0
 20
0.0
 30
0.0
210
0.0
220
0.0
230
1.0
  2
SOLID
 70
     1
 71
     0
 91
        1
 92
        1
 93
        4
 72
     1
 10
9.970548646722968
 20
33.63760835925597
 11
11.00977913105048
 21
34.23760835883147
 72
     1
 10
11.00977913105048
 20
34.23760835883148
 11
11.17977913082525
 21
33.94315972166878
 72
     1
 10
11.17977913082525
 20
33.94315972166878
 11
10.14054864649774
 21
33.3431597220933
 72
     1
 10
10.14054864649774
 20
33.3431597220933
 11
9.970548646722968
 21
33.63760835925597
 97
        0
 75
     2
 76
     1
 98
        0
  0
ENDBLK
  5
106
330
103
100
AcDbEntity
  8
0
100
AcDbBlockEnd
  0
BLOCK
  5
118
330
116
100
AcDbEntity
  8
0
100
AcDbBlockBegin
  2
block 17
 70
     0
 10
0.0
 20
0.0
 30
0.0
  3
block 17
  1

  0
INSERT
  5
11B
330
116
100
AcDbEntity
  8
0
100
AcDbBlockReference
  2
block 18
 10
0.0
 20
0.0
 30
0.0
  0
INSERT
  5
124
330
116
100
AcDbEntity
  8
0
100
AcDbBlockReference
  2
block 19
 10
0.0
 20
0.0
 30
0.0
  0
INSERT
  5
12A
330
116
100
AcDbEntity
  8
0
100
AcDbBlockReference
  2
block 20
 10
0.0
 20
0.0
 30
0.0
  0
INSERT
  5
148
330
116
100
AcDbEntity
  8
0
100
AcDbBlockReference
  2
block 22
 10
0.0
 20
0.0
 30
0.0
  0
INSERT
  5
151
330
116
100
AcDbEntity
  8
0
100
AcDbBlockReference
  2
block 23
 10
0.0
 20
0.0
 30
0.0
  0
INSERT
  5
16F
330
116
100
AcDbEntity
  8
0
100
AcDbBlockReference
  2
block 25
 10
0.0
 20
0.0
 30
0.0
  0
INSERT
  5
178
330
116
100
AcDbEntity
  8
0
100
AcDbBlockReference
  2
block 26
 10
0.0
 20
0.0
 30
0.0
  0
INSERT
  5
196
330
116
100
AcDbEntity
  8
0
100
AcDbBlockReference
  2
block 28
 10
0.0
 20
0.0
 30
0.0
  0
INSERT
  5
1B4
330
116
100
AcDbEntity
  8
0
100
AcDbBlockReference
  2
block 30
 10
0.0
 20
0.0
 30
0.0
  0
ENDBLK
  5
119
330
116
100
AcDbEntity
  8
0
100
AcDbBlockEnd
  0
BLOCK
  5
11C
330
11A
100
AcDbEntity
  8
0
100
AcDbBlockBegin
  2
block 18
 70
     0
 10
0.0
 20
0.0
 30
0.0
  3
block 18
  1

  0
POLYLINE
  5
11E
330
11A
100
AcDbEntity
  8
0
  6
AI-Linetype-2
 62
     7
420
 16777215
370
     9
100
AcDb2dPolyline
 66
     1
 10
0.0
 20
0.0
 30
0.0
  0
VERTEX
  5
11F
330
11E
100
AcDbEntity
  8
0
  6
AI-Linetype-2
 62
     7
420
 16777215
370
     9
100
AcDbVertex
100
AcDb2dVertex
 10
7.314548632828179
 20
35.96178659386935
 30
0.0
  0
VERTEX
  5
120
330
11E
100
AcDbEntity
  8
0
  6
AI-Linetype-2
 62
     7
420
 16777215
370
     9
100
AcDbVertex
100
AcDb2dVertex
 10
2.31454863407816
 20
35.96178659386935
 30
0.0
  0
SEQEND
  5
122
330
11E
100
AcDbEntity
  8
0
  6
AI-Linetype-2
 62
     7
420
 16777215
370
     9
  0
ENDBLK
  5
11D
330
11A
100
AcDbEntity
  8
0
100
AcDbBlockEnd
  0
BLOCK
  5
125
330
123
100
AcDbEntity
  8
0
100
AcDbBlockBegin
  2
block 19
 70
     0
 10
0.0
 20
0.0
 30
0.0
  3
block 19
  1

  0
SPLINE
  5
127
330
123
100
AcDbEntity
  8
0
 62
     7
420
 16777215
370
    18
100
AcDbSpline
210
0.0
220
0.0
230
1.0
 70
     8
 71
     3
 72
    17
 73
    13
 74
     0
 42
0.0000000001
 43
0.0000000001
 12
1.0
 22
0.0
 32
0.0
 13
1.0
 23
0.0
 33
0.0
 40
0.0
 40
0.0
 40
0.0
 40
0.0
 40
1.0
 40
1.0
 40
1.0
 40
2.0
 40
2.0
 40
2.0
 40
3.0
 40
3.0
 40
3.0
 40
4.0
 40
4.0
 40
4.0
 40
4.0
 10
7.31454871240457
 20
38.47746406749807
 30
0.0
 10
7.31454871240457
 20
38.47746406749807
 30
0.0
 10
7.31454871240457
 20
40.96176979197465
 30
0.0
 10
7.31454871240457
 20
40.96176979197465
 30
0.0
 10
4.55312381346385
 20
40.96176979197465
 30
0.0
 10
2.314548137211428
 20
38.72319196253755
 30
0.0
 10
2.314548137211428
 20
35.96176921678151
 30
0.0
 10
2.314548137211428
 20
33.20034647102547
 30
0.0
 10
4.55312381346385
 20
30.96176864158837
 30
0.0
 10
7.31454871240457
 20
30.96176864158837
 30
0.0
 10
7.31454871240457
 20
30.96176864158837
 30
0.0
 10
7.31454871240457
 20
33.47808360949227
 30
0.0
 10
7.31454871240457
 20
33.47808360949227
 30
0.0
  0
SPLINE
  5
128
330
123
100
AcDbEntity
  8
0
 62
     7
420
 16777215
370
    18
100
AcDbSpline
210
0.0
220
0.0
230
1.0
 70
     8
 71
     3
 72
    11
 73
     7
 74
     0
 42
0.0000000001
 43
0.0000000001
 12
1.0
 22
0.0
 32
0.0
 13
1.0
 23
0.0
 33
0.0
 40
0.0
 40
0.0
 40
0.0
 40
0.0
 40
1.0
 40
1.0
 40
1.0
 40
2.0
 40
2.0
 40
2.0
 40
2.0
 10
7.31454871240457
 20
38.47746406749807
 30
0.0
 10
5.93949913863809
 20
38.47084302461236
 30
0.0
 10
4.826778513780636
 20
37.35438447115341
 30
0.0
 10
4.826778513780636
 20
35.97777383849517
 30
0.0
 10
4.826778513780636
 20
34.60116535902161
 30
0.0
 10
5.93949913863809
 20
33.48470465237799
 30
0.0
 10
7.31454871240457
 20
33.47808360949227
 30
0.0
  0
ENDBLK
  5
126
330
123
100
AcDbEntity
  8
0
100
AcDbBlockEnd
  0
BLOCK
  5
12B
330
129
100
AcDbEntity
  8
0
100
AcDbBlockBegin
  2
block 20
 70
     0
 10
0.0
 20
0.0
 30
0.0
  3
block 20
  1

  0
POLYLINE
  5
12D
330
129
100
AcDbEntity
  8
0
 62
     7
420
 16777215
370
    25
100
AcDb2dPolyline
 66
     1
 10
0.0
 20
0.0
 30
0.0
  0
VERTEX
  5
12E
330
12D
100
AcDbEntity
  8
0
 62
     7
420
 16777215
370
    25
100
AcDbVertex
100
AcDb2dVertex
 10
2.327047497350512
 20
36.16181852744921
 30
0.0
  0
VERTEX
  5
12F
330
12D
100
AcDbEntity
  8
0
 62
     7
420
 16777215
370
    25
100
AcDbVertex
100
AcDb2dVertex
 10
2.327047497332544
 20
35.76181852744926
 30
0.0
  0
VERTEX
  5
130
330
12D
100
AcDbEntity
  8
0
 62
     7
420
 16777215
370
    25
100
AcDbVertex
100
AcDb2dVertex
 10
3.211577443494668
 20
35.76181852740954
 30
0.0
  0
VERTEX
  5
131
330
12D
100
AcDbEntity
  8
0
 62
     7
420
 16777215
370
    25
100
AcDbVertex
100
AcDb2dVertex
 10
3.211577443512636
 20
36.16181852740949
 30
0.0
  0
VERTEX
  5
132
330
12D
100
AcDbEntity
  8
0
 62
     7
420
 16777215
370
    25
100
AcDbVertex
100
AcDb2dVertex
 10
2.327047497350512
 20
36.16181852744921
 30
0.0
  0
SEQEND
  5
133
330
12D
100
AcDbEntity
  8
0
 62
     7
420
 16777215
370
    25
  0
INSERT
  5
135
330
129
100
AcDbEntity
  8
0
100
AcDbBlockReference
  2
block 21
 10
0.0
 20
0.0
 30
0.0
  0
POLYLINE
  5
13F
330
129
100
AcDbEntity
  8
0
370
     0
100
AcDb2dPolyline
 66
     1
 10
0.0
 20
0.0
 30
0.0
  0
VERTEX
  5
140
330
13F
100
AcDbEntity
  8
0
370
     0
100
AcDbVertex
100
AcDb2dVertex
 10
2.151466403667131
 20
35.80081474030227
 30
0.0
  0
VERTEX
  5
141
330
13F
100
AcDbEntity
  8
0
370
     0
100
AcDbVertex
100
AcDb2dVertex
 10
2.15146640368157
 20
36.12281474022182
 30
0.0
  0
VERTEX
  5
142
330
13F
100
AcDbEntity
  8
0
370
     0
100
AcDbVertex
100
AcDb2dVertex
 10
2.771235994814001
 20
36.12281474019397
 30
0.0
  0
VERTEX
  5
143
330
13F
100
AcDbEntity
  8
0
370
     0
100
AcDbVertex
100
AcDb2dVertex
 10
2.771235994799563
 20
35.80081474027443
 30
0.0
  0
VERTEX
  5
144
330
13F
100
AcDbEntity
  8
0
370
     0
100
AcDbVertex
100
AcDb2dVertex
 10
2.151466403667131
 20
35.80081474030227
 30
0.0
  0
SEQEND
  5
146
330
13F
100
AcDbEntity
  8
0
370
     0
  0
HATCH
  5
145
330
129
100
AcDbEntity
  8
0
 62
    18
420
        0
100
AcDbHatch
 10
0.0
 20
0.0
 30
0.0
210
0.0
220
0.0
230
1.0
  2
SOLID
 70
     1
 71
     0
 91
        1
 92
        1
 93
        4
 72
     1
 10
2.151466403667131
 20
35.80081474030227
 11
2.15146640368157
 21
36.12281474022182
 72
     1
 10
2.15146640368157
 20
36.12281474022182
 11
2.771235994814001
 21
36.12281474019397
 72
     1
 10
2.771235994814001
 20
36.12281474019397
 11
2.771235994799563
 21
35.80081474027443
 72
     1
 10
2.771235994799563
 20
35.80081474027443
 11
2.151466403667131
 21
35.80081474030227
 97
        0
 75
     2
 76
     1
 98
        0
  0
ENDBLK
  5
12C
330
129
100
AcDbEntity
  8
0
100
AcDbBlockEnd
  0
BLOCK
  5
136
330
134
100
AcDbEntity
  8
0
100
AcDbBlockBegin
  2
block 21
 70
     0
 10
0.0
 20
0.0
 30
0.0
  3
block 21
  1

  0
POLYLINE
  5
138
330
134
100
AcDbEntity
  8
0
 62
     7
420
 16777215
370
    18
100
AcDb2dPolyline
 66
     1
 10
0.0
 20
0.0
 30
0.0
  0
VERTEX
  5
139
330
138
100
AcDbEntity
  8
0
 62
     7
420
 16777215
370
    18
100
AcDbVertex
100
AcDb2dVertex
 10
2.305181352458577
 20
35.7918147403231
 30
0.0
  0
VERTEX
  5
13A
330
138
100
AcDbEntity
  8
0
 62
     7
420
 16777215
370
    18
100
AcDbVertex
100
AcDb2dVertex
 10
3.50518135206115
 20
35.79181474040424
 30
0.0
  0
VERTEX
  5
13B
330
138
100
AcDbEntity
  8
0
 62
     7
420
 16777215
370
    18
100
AcDbVertex
100
AcDb2dVertex
 10
3.505181351979013
 20
36.13181474018421
 30
0.0
  0
VERTEX
  5
13C
330
138
100
AcDbEntity
  8
0
 62
     7
420
 16777215
370
    18
100
AcDbVertex
100
AcDb2dVertex
 10
2.305181352376439
 20
36.13181474010307
 30
0.0
  0
SEQEND
  5
13E
330
138
100
AcDbEntity
  8
0
 62
     7
420
 16777215
370
    18
  0
HATCH
  5
13D
330
134
100
AcDbEntity
  8
0
 62
    18
420
        0
100
AcDbHatch
 10
0.0
 20
0.0
 30
0.0
210
0.0
220
0.0
230
1.0
  2
SOLID
 70
     1
 71
     0
 91
        1
 92
        1
 93
        4
 72
     1
 10
2.305181352458577
 20
35.7918147403231
 11
3.50518135206115
 21
35.79181474040424
 72
     1
 10
3.50518135206115
 20
35.79181474040424
 11
3.505181351979013
 21
36.13181474018422
 72
     1
 10
3.505181351979013
 20
36.13181474018421
 11
2.305181352376439
 21
36.13181474010307
 72
     1
 10
2.305181352376439
 20
36.13181474010307
 11
2.305181352458577
 21
35.7918147403231
 97
        0
 75
     2
 76
     1
 98
        0
  0
ENDBLK
  5
137
330
134
100
AcDbEntity
  8
0
100
AcDbBlockEnd
  0
BLOCK
  5
149
330
147
100
AcDbEntity
  8
0
100
AcDbBlockBegin
  2
block 22
 70
     0
 10
0.0
 20
0.0
 30
0.0
  3
block 22
  1

  0
POLYLINE
  5
14B
330
147
100
AcDbEntity
  8
0
  6
AI-Linetype-3
 62
     7
420
 16777215
370
     9
100
AcDb2dPolyline
 66
     1
 10
0.0
 20
0.0
 30
0.0
  0
VERTEX
  5
14C
330
14B
100
AcDbEntity
  8
0
  6
AI-Linetype-3
 62
     7
420
 16777215
370
     9
100
AcDbVertex
100
AcDb2dVertex
 10
7.314548632828179
 20
35.96178659253847
 30
0.0
  0
VERTEX
  5
14D
330
14B
100
AcDbEntity
  8
0
  6
AI-Linetype-3
 62
     7
420
 16777215
370
     9
100
AcDbVertex
100
AcDb2dVertex
 10
3.779014727699916
 20
32.42625268756896
 30
0.0
  0
SEQEND
  5
14F
330
14B
100
AcDbEntity
  8
0
  6
AI-Linetype-3
 62
     7
420
 16777215
370
     9
  0
ENDBLK
  5
14A
330
147
100
AcDbEntity
  8
0
100
AcDbBlockEnd
  0
BLOCK
  5
152
330
150
100
AcDbEntity
  8
0
100
AcDbBlockBegin
  2
block 23
 70
     0
 10
0.0
 20
0.0
 30
0.0
  3
block 23
  1

  0
POLYLINE
  5
154
330
150
100
AcDbEntity
  8
0
 62
     7
420
 16777215
370
    25
100
AcDb2dPolyline
 66
     1
 10
0.0
 20
0.0
 30
0.0
  0
VERTEX
  5
155
330
154
100
AcDbEntity
  8
0
 62
     7
420
 16777215
370
    25
100
AcDbVertex
100
AcDb2dVertex
 10
3.646408836725221
 20
32.57653489284608
 30
0.0
  0
VERTEX
  5
156
330
154
100
AcDbEntity
  8
0
 62
     7
420
 16777215
370
    25
100
AcDbVertex
100
AcDb2dVertex
 10
3.929251549180748
 20
32.29369218035244
 30
0.0
  0
VERTEX
  5
157
330
154
100
AcDbEntity
  8
0
 62
     7
420
 16777215
370
    25
100
AcDbVertex
100
AcDb2dVertex
 10
4.554708672316679
 20
32.91914930340411
 30
0.0
  0
VERTEX
  5
158
330
154
100
AcDbEntity
  8
0
 62
     7
420
 16777215
370
    25
100
AcDbVertex
100
AcDb2dVertex
 10
4.271865959861151
 20
33.20199201589776
 30
0.0
  0
VERTEX
  5
159
330
154
100
AcDbEntity
  8
0
 62
     7
420
 16777215
370
    25
100
AcDbVertex
100
AcDb2dVertex
 10
3.646408836725221
 20
32.57653489284608
 30
0.0
  0
SEQEND
  5
15A
330
154
100
AcDbEntity
  8
0
 62
     7
420
 16777215
370
    25
  0
INSERT
  5
15C
330
150
100
AcDbEntity
  8
0
100
AcDbBlockReference
  2
block 24
 10
0.0
 20
0.0
 30
0.0
  0
POLYLINE
  5
166
330
150
100
AcDbEntity
  8
0
370
     0
100
AcDb2dPolyline
 66
     1
 10
0.0
 20
0.0
 30
0.0
  0
VERTEX
  5
167
330
166
100
AcDbEntity
  8
0
370
     0
100
AcDbVertex
100
AcDb2dVertex
 10
3.777522480650658
 20
32.19711208492583
 30
0.0
  0
VERTEX
  5
168
330
166
100
AcDbEntity
  8
0
370
     0
100
AcDbVertex
100
AcDb2dVertex
 10
3.549834097180829
 20
32.42480046842633
 30
0.0
  0
VERTEX
  5
169
330
166
100
AcDbEntity
  8
0
370
     0
100
AcDbVertex
100
AcDb2dVertex
 10
3.988077377873289
 20
32.86304374905978
 30
0.0
  0
VERTEX
  5
16A
330
166
100
AcDbEntity
  8
0
370
     0
100
AcDbVertex
100
AcDb2dVertex
 10
4.215765761343151
 20
32.63535536555928
 30
0.0
  0
VERTEX
  5
16B
330
166
100
AcDbEntity
  8
0
370
     0
100
AcDbVertex
100
AcDb2dVertex
 10
3.777522480650658
 20
32.19711208492583
 30
0.0
  0
SEQEND
  5
16D
330
166
100
AcDbEntity
  8
0
370
     0
  0
HATCH
  5
16C
330
150
100
AcDbEntity
  8
0
 62
    18
420
        0
100
AcDbHatch
 10
0.0
 20
0.0
 30
0.0
210
0.0
220
0.0
230
1.0
  2
SOLID
 70
     1
 71
     0
 91
        1
 92
        1
 93
        4
 72
     1
 10
3.777522480650658
 20
32.19711208492583
 11
3.549834097180829
 21
32.42480046842633
 72
     1
 10
3.549834097180829
 20
32.42480046842633
 11
3.988077377873289
 21
32.86304374905978
 72
     1
 10
3.988077377873289
 20
32.86304374905978
 11
4.215765761343151
 21
32.63535536555928
 72
     1
 10
4.215765761343151
 20
32.63535536555928
 11
3.777522480650658
 21
32.19711208492583
 97
        0
 75
     2
 76
     1
 98
        0
  0
ENDBLK
  5
153
330
150
100
AcDbEntity
  8
0
100
AcDbBlockEnd
  0
BLOCK
  5
15D
330
15B
100
AcDbEntity
  8
0
100
AcDbBlockBegin
  2
block 24
 70
     0
 10
0.0
 20
0.0
 30
0.0
  3
block 24
  1

  0
POLYLINE
  5
15F
330
15B
100
AcDbEntity
  8
0
 62
     7
420
 16777215
370
    18
100
AcDb2dPolyline
 66
     1
 10
0.0
 20
0.0
 30
0.0
  0
VERTEX
  5
160
330
15F
100
AcDbEntity
  8
0
 62
     7
420
 16777215
370
    18
100
AcDbVertex
100
AcDb2dVertex
 10
3.892579324329083
 20
32.29944100656748
 30
0.0
  0
VERTEX
  5
161
330
15F
100
AcDbEntity
  8
0
 62
     7
420
 16777215
370
    18
100
AcDbVertex
100
AcDb2dVertex
 10
4.741107461433596
 20
33.14796914374865
 30
0.0
  0
VERTEX
  5
162
330
15F
100
AcDbEntity
  8
0
 62
     7
420
 16777215
370
    18
100
AcDbVertex
100
AcDb2dVertex
 10
4.500691155933064
 20
33.38838544914381
 30
0.0
  0
VERTEX
  5
163
330
15F
100
AcDbEntity
  8
0
 62
     7
420
 16777215
370
    18
100
AcDbVertex
100
AcDb2dVertex
 10
3.65216301882855
 20
32.53985731196265
 30
0.0
  0
SEQEND
  5
165
330
15F
100
AcDbEntity
  8
0
 62
     7
420
 16777215
370
    18
  0
HATCH
  5
164
330
15B
100
AcDbEntity
  8
0
 62
    18
420
        0
100
AcDbHatch
 10
0.0
 20
0.0
 30
0.0
210
0.0
220
0.0
230
1.0
  2
SOLID
 70
     1
 71
     0
 91
        1
 92
        1
 93
        4
 72
     1
 10
3.892579324329083
 20
32.29944100656748
 11
4.741107461433596
 21
33.14796914374865
 72
     1
 10
4.741107461433596
 20
33.14796914374865
 11
4.500691155933064
 21
33.38838544914381
 72
     1
 10
4.500691155933064
 20
33.38838544914381
 11
3.65216301882855
 21
32.53985731196265
 72
     1
 10
3.65216301882855
 20
32.53985731196265
 11
3.892579324329082
 21
32.29944100656748
 97
        0
 75
     2
 76
     1
 98
        0
  0
ENDBLK
  5
15E
330
15B
100
AcDbEntity
  8
0
100
AcDbBlockEnd
  0
BLOCK
  5
170
330
16E
100
AcDbEntity
  8
0
100
AcDbBlockBegin
  2
block 25
 70
     0
 10
0.0
 20
0.0
 30
0.0
  3
block 25
  1

  0
POLYLINE
  5
172
330
16E
100
AcDbEntity
  8
0
  6
AI-Linetype-4
 62
     7
420
 16777215
370
     9
100
AcDb2dPolyline
 66
     1
 10
0.0
 20
0.0
 30
0.0
  0
VERTEX
  5
173
330
172
100
AcDbEntity
  8
0
  6
AI-Linetype-4
 62
     7
420
 16777215
370
     9
100
AcDbVertex
100
AcDb2dVertex
 10
7.314548632828179
 20
35.96509591162752
 30
0.0
  0
VERTEX
  5
174
330
172
100
AcDbEntity
  8
0
  6
AI-Linetype-4
 62
     7
420
 16777215
370
     9
100
AcDbVertex
100
AcDb2dVertex
 10
3.779014727699916
 20
39.50062981659703
 30
0.0
  0
SEQEND
  5
176
330
172
100
AcDbEntity
  8
0
  6
AI-Linetype-4
 62
     7
420
 16777215
370
     9
  0
ENDBLK
  5
171
330
16E
100
AcDbEntity
  8
0
100
AcDbBlockEnd
  0
BLOCK
  5
179
330
177
100
AcDbEntity
  8
0
100
AcDbBlockBegin
  2
block 26
 70
     0
 10
0.0
 20
0.0
 30
0.0
  3
block 26
  1

  0
POLYLINE
  5
17B
330
177
100
AcDbEntity
  8
0
 62
     7
420
 16777215
370
    25
100
AcDb2dPolyline
 66
     1
 10
0.0
 20
0.0
 30
0.0
  0
VERTEX
  5
17C
330
17B
100
AcDbEntity
  8
0
 62
     7
420
 16777215
370
    25
100
AcDbVertex
100
AcDb2dVertex
 10
3.64640883675599
 20
39.35034784529307
 30
0.0
  0
VERTEX
  5
17D
330
17B
100
AcDbEntity
  8
0
 62
     7
420
 16777215
370
    25
100
AcDbVertex
100
AcDb2dVertex
 10
3.929251549262308
 20
39.63319055773592
 30
0.0
  0
VERTEX
  5
17E
330
17B
100
AcDbEntity
  8
0
 62
     7
420
 16777215
370
    25
100
AcDbVertex
100
AcDb2dVertex
 10
4.554708672285909
 20
39.00773343457191
 30
0.0
  0
VERTEX
  5
17F
330
17B
100
AcDbEntity
  8
0
 62
     7
420
 16777215
370
    25
100
AcDbVertex
100
AcDb2dVertex
 10
4.271865959779591
 20
38.72489072212906
 30
0.0
  0
VERTEX
  5
180
330
17B
100
AcDbEntity
  8
0
 62
     7
420
 16777215
370
    25
100
AcDbVertex
100
AcDb2dVertex
 10
3.64640883675599
 20
39.35034784529307
 30
0.0
  0
SEQEND
  5
181
330
17B
100
AcDbEntity
  8
0
 62
     7
420
 16777215
370
    25
  0
INSERT
  5
183
330
177
100
AcDbEntity
  8
0
100
AcDbBlockReference
  2
block 27
 10
0.0
 20
0.0
 30
0.0
  0
POLYLINE
  5
18D
330
177
100
AcDbEntity
  8
0
370
     0
100
AcDb2dPolyline
 66
     1
 10
0.0
 20
0.0
 30
0.0
  0
VERTEX
  5
18E
330
18D
100
AcDbEntity
  8
0
370
     0
100
AcDbVertex
100
AcDb2dVertex
 10
3.777522480749576
 20
39.72977065318977
 30
0.0
  0
VERTEX
  5
18F
330
18D
100
AcDbEntity
  8
0
370
     0
100
AcDbVertex
100
AcDb2dVertex
 10
3.549834097238838
 20
39.50208226973015
 30
0.0
  0
VERTEX
  5
190
330
18D
100
AcDbEntity
  8
0
370
     0
100
AcDbVertex
100
AcDb2dVertex
 10
3.988077377852595
 20
39.06383898901802
 30
0.0
  0
VERTEX
  5
191
330
18D
100
AcDbEntity
  8
0
370
     0
100
AcDbVertex
100
AcDb2dVertex
 10
4.215765761363333
 20
39.29152737247764
 30
0.0
  0
VERTEX
  5
192
330
18D
100
AcDbEntity
  8
0
370
     0
100
AcDbVertex
100
AcDb2dVertex
 10
3.777522480749576
 20
39.72977065318977
 30
0.0
  0
SEQEND
  5
194
330
18D
100
AcDbEntity
  8
0
370
     0
  0
HATCH
  5
193
330
177
100
AcDbEntity
  8
0
 62
    18
420
        0
100
AcDbHatch
 10
0.0
 20
0.0
 30
0.0
210
0.0
220
0.0
230
1.0
  2
SOLID
 70
     1
 71
     0
 91
        1
 92
        1
 93
        4
 72
     1
 10
3.777522480749576
 20
39.72977065318977
 11
3.549834097238838
 21
39.50208226973015
 72
     1
 10
3.549834097238838
 20
39.50208226973015
 11
3.988077377852595
 21
39.06383898901802
 72
     1
 10
3.988077377852595
 20
39.06383898901802
 11
4.215765761363333
 21
39.29152737247764
 72
     1
 10
4.215765761363333
 20
39.29152737247764
 11
3.777522480749576
 21
39.72977065318977
 97
        0
 75
     2
 76
     1
 98
        0
  0
ENDBLK
  5
17A
330
177
100
AcDbEntity
  8
0
100
AcDbBlockEnd
  0
BLOCK
  5
184
330
182
100
AcDbEntity
  8
0
100
AcDbBlockBegin
  2
block 27
 70
     0
 10
0.0
 20
0.0
 30
0.0
  3
block 27
  1

  0
POLYLINE
  5
186
330
182
100
AcDbEntity
  8
0
 62
     7
420
 16777215
370
    18
100
AcDb2dPolyline
 66
     1
 10
0.0
 20
0.0
 30
0.0
  0
VERTEX
  5
187
330
186
100
AcDbEntity
  8
0
 62
     7
420
 16777215
370
    18
100
AcDbVertex
100
AcDb2dVertex
 10
3.892579324409616
 20
39.62744173152745
 30
0.0
  0
VERTEX
  5
188
330
186
100
AcDbEntity
  8
0
 62
     7
420
 16777215
370
    18
100
AcDbVertex
100
AcDb2dVertex
 10
4.741107461361725
 20
38.77891359419392
 30
0.0
  0
VERTEX
  5
189
330
186
100
AcDbEntity
  8
0
 62
     7
420
 16777215
370
    18
100
AcDbVertex
100
AcDb2dVertex
 10
4.500691155818007
 20
38.53849728884194
 30
0.0
  0
VERTEX
  5
18A
330
186
100
AcDbEntity
  8
0
 62
     7
420
 16777215
370
    18
100
AcDbVertex
100
AcDb2dVertex
 10
3.652163018865897
 20
39.38702542617547
 30
0.0
  0
SEQEND
  5
18C
330
186
100
AcDbEntity
  8
0
 62
     7
420
 16777215
370
    18
  0
HATCH
  5
18B
330
182
100
AcDbEntity
  8
0
 62
    18
420
        0
100
AcDbHatch
 10
0.0
 20
0.0
 30
0.0
210
0.0
220
0.0
230
1.0
  2
SOLID
 70
     1
 71
     0
 91
        1
 92
        1
 93
        4
 72
     1
 10
3.892579324409616
 20
39.62744173152745
 11
4.741107461361725
 21
38.77891359419391
 72
     1
 10
4.741107461361725
 20
38.77891359419392
 11
4.500691155818006
 21
38.53849728884194
 72
     1
 10
4.500691155818007
 20
38.53849728884194
 11
3.652163018865898
 21
39.38702542617548
 72
     1
 10
3.652163018865897
 20
39.38702542617547
 11
3.892579324409616
 21
39.62744173152745
 97
        0
 75
     2
 76
     1
 98
        0
  0
ENDBLK
  5
185
330
182
100
AcDbEntity
  8
0
100
AcDbBlockEnd
  0
BLOCK
  5
197
330
195
100
AcDbEntity
  8
0
100
AcDbBlockBegin
  2
block 28
 70
     0
 10
0.0
 20
0.0
 30
0.0
  3
block 28
  1

  0
POLYLINE
  5
199
330
195
100
AcDbEntity
  8
0
 62
     7
420
 16777215
370
    25
100
AcDb2dPolyline
 66
     1
 10
0.0
 20
0.0
 30
0.0
  0
VERTEX
  5
19A
330
199
100
AcDbEntity
  8
0
 62
     7
420
 16777215
370
    25
100
AcDbVertex
100
AcDb2dVertex
 10
7.293763097058798
 20
40.16216574815373
 30
0.0
  0
VERTEX
  5
19B
330
199
100
AcDbEntity
  8
0
 62
     7
420
 16777215
370
    25
100
AcDbVertex
100
AcDb2dVertex
 10
7.29376309704083
 20
39.76216574815378
 30
0.0
  0
VERTEX
  5
19C
330
199
100
AcDbEntity
  8
0
 62
     7
420
 16777215
370
    25
100
AcDbVertex
100
AcDb2dVertex
 10
6.409233150878705
 20
39.7621657481935
 30
0.0
  0
VERTEX
  5
19D
330
199
100
AcDbEntity
  8
0
 62
     7
420
 16777215
370
    25
100
AcDbVertex
100
AcDb2dVertex
 10
6.409233150896673
 20
40.16216574819345
 30
0.0
  0
VERTEX
  5
19E
330
199
100
AcDbEntity
  8
0
 62
     7
420
 16777215
370
    25
100
AcDbVertex
100
AcDb2dVertex
 10
7.293763097058798
 20
40.16216574815373
 30
0.0
  0
SEQEND
  5
19F
330
199
100
AcDbEntity
  8
0
 62
     7
420
 16777215
370
    25
  0
INSERT
  5
1A1
330
195
100
AcDbEntity
  8
0
100
AcDbBlockReference
  2
block 29
 10
0.0
 20
0.0
 30
0.0
  0
POLYLINE
  5
1AB
330
195
100
AcDbEntity
  8
0
370
     0
100
AcDb2dPolyline
 66
     1
 10
0.0
 20
0.0
 30
0.0
  0
VERTEX
  5
1AC
330
1AB
100
AcDbEntity
  8
0
370
     0
100
AcDbVertex
100
AcDb2dVertex
 10
7.469344190709772
 20
39.801161960991
 30
0.0
  0
VERTEX
  5
1AD
330
1AB
100
AcDbEntity
  8
0
370
     0
100
AcDbVertex
100
AcDb2dVertex
 10
7.46934419072421
 20
40.12316196091056
 30
0.0
  0
VERTEX
  5
1AE
330
1AB
100
AcDbEntity
  8
0
370
     0
100
AcDbVertex
100
AcDb2dVertex
 10
6.849574599591779
 20
40.1231619609384
 30
0.0
  0
VERTEX
  5
1AF
330
1AB
100
AcDbEntity
  8
0
370
     0
100
AcDbVertex
100
AcDb2dVertex
 10
6.84957459957734
 20
39.80116196101886
 30
0.0
  0
VERTEX
  5
1B0
330
1AB
100
AcDbEntity
  8
0
370
     0
100
AcDbVertex
100
AcDb2dVertex
 10
7.469344190709772
 20
39.801161960991
 30
0.0
  0
SEQEND
  5
1B2
330
1AB
100
AcDbEntity
  8
0
370
     0
  0
HATCH
  5
1B1
330
195
100
AcDbEntity
  8
0
 62
    18
420
        0
100
AcDbHatch
 10
0.0
 20
0.0
 30
0.0
210
0.0
220
0.0
230
1.0
  2
SOLID
 70
     1
 71
     0
 91
        1
 92
        1
 93
        4
 72
     1
 10
7.469344190709772
 20
39.801161960991
 11
7.46934419072421
 21
40.12316196091056
 72
     1
 10
7.46934419072421
 20
40.12316196091056
 11
6.849574599591779
 21
40.1231619609384
 72
     1
 10
6.849574599591779
 20
40.1231619609384
 11
6.84957459957734
 21
39.80116196101886
 72
     1
 10
6.84957459957734
 20
39.80116196101886
 11
7.469344190709772
 21
39.801161960991
 97
        0
 75
     2
 76
     1
 98
        0
  0
ENDBLK
  5
198
330
195
100
AcDbEntity
  8
0
100
AcDbBlockEnd
  0
BLOCK
  5
1A2
330
1A0
100
AcDbEntity
  8
0
100
AcDbBlockBegin
  2
block 29
 70
     0
 10
0.0
 20
0.0
 30
0.0
  3
block 29
  1

  0
POLYLINE
  5
1A4
330
1A0
100
AcDbEntity
  8
0
 62
     7
420
 16777215
370
    18
100
AcDb2dPolyline
 66
     1
 10
0.0
 20
0.0
 30
0.0
  0
VERTEX
  5
1A5
330
1A4
100
AcDbEntity
  8
0
 62
     7
420
 16777215
370
    18
100
AcDbVertex
100
AcDb2dVertex
 10
7.315629241917493
 20
39.79216196102569
 30
0.0
  0
VERTEX
  5
1A6
330
1A4
100
AcDbEntity
  8
0
 62
     7
420
 16777215
370
    18
100
AcDbVertex
100
AcDb2dVertex
 10
6.115629242314919
 20
39.79216196121457
 30
0.0
  0
VERTEX
  5
1A7
330
1A4
100
AcDbEntity
  8
0
 62
     7
420
 16777215
370
    18
100
AcDbVertex
100
AcDb2dVertex
 10
6.115629242427601
 20
40.13216196099455
 30
0.0
  0
VERTEX
  5
1A8
330
1A4
100
AcDbEntity
  8
0
 62
     7
420
 16777215
370
    18
100
AcDbVertex
100
AcDb2dVertex
 10
7.315629242030175
 20
40.13216196080567
 30
0.0
  0
SEQEND
  5
1AA
330
1A4
100
AcDbEntity
  8
0
 62
     7
420
 16777215
370
    18
  0
HATCH
  5
1A9
330
1A0
100
AcDbEntity
  8
0
 62
    18
420
        0
100
AcDbHatch
 10
0.0
 20
0.0
 30
0.0
210
0.0
220
0.0
230
1.0
  2
SOLID
 70
     1
 71
     0
 91
        1
 92
        1
 93
        4
 72
     1
 10
7.315629241917493
 20
39.79216196102569
 11
6.115629242314919
 21
39.79216196121457
 72
     1
 10
6.115629242314919
 20
39.79216196121457
 11
6.115629242427601
 21
40.13216196099455
 72
     1
 10
6.115629242427601
 20
40.13216196099455
 11
7.315629242030175
 21
40.13216196080567
 72
     1
 10
7.315629242030175
 20
40.13216196080567
 11
7.315629241917493
 21
39.79216196102569
 97
        0
 75
     2
 76
     1
 98
        0
  0
ENDBLK
  5
1A3
330
1A0
100
AcDbEntity
  8
0
100
AcDbBlockEnd
  0
BLOCK
  5
1B5
330
1B3
100
AcDbEntity
  8
0
100
AcDbBlockBegin
  2
block 30
 70
     0
 10
0.0
 20
0.0
 30
0.0
  3
block 30
  1

  0
POLYLINE
  5
1B7
330
1B3
100
AcDbEntity
  8
0
 62
     7
420
 16777215
370
    25
100
AcDb2dPolyline
 66
     1
 10
0.0
 20
0.0
 30
0.0
  0
VERTEX
  5
1B8
330
1B7
100
AcDbEntity
  8
0
 62
     7
420
 16777215
370
    25
100
AcDbVertex
100
AcDb2dVertex
 10
7.305212588284459
 20
32.17235534812407
 30
0.0
  0
VERTEX
  5
1B9
330
1B7
100
AcDbEntity
  8
0
 62
     7
420
 16777215
370
    25
100
AcDbVertex
100
AcDb2dVertex
 10
7.305212588266492
 20
31.77235534812412
 30
0.0
  0
VERTEX
  5
1BA
330
1B7
100
AcDbEntity
  8
0
 62
     7
420
 16777215
370
    25
100
AcDbVertex
100
AcDb2dVertex
 10
6.420682642104368
 20
31.77235534816384
 30
0.0
  0
VERTEX
  5
1BB
330
1B7
100
AcDbEntity
  8
0
 62
     7
420
 16777215
370
    25
100
AcDbVertex
100
AcDb2dVertex
 10
6.420682642122335
 20
32.17235534816379
 30
0.0
  0
VERTEX
  5
1BC
330
1B7
100
AcDbEntity
  8
0
 62
     7
420
 16777215
370
    25
100
AcDbVertex
100
AcDb2dVertex
 10
7.305212588284459
 20
32.17235534812407
 30
0.0
  0
SEQEND
  5
1BD
330
1B7
100
AcDbEntity
  8
0
 62
     7
420
 16777215
370
    25
  0
INSERT
  5
1BF
330
1B3
100
AcDbEntity
  8
0
100
AcDbBlockReference
  2
block 31
 10
0.0
 20
0.0
 30
0.0
  0
POLYLINE
  5
1C9
330
1B3
100
AcDbEntity
  8
0
370
     0
100
AcDb2dPolyline
 66
     1
 10
0.0
 20
0.0
 30
0.0
  0
VERTEX
  5
1CA
330
1C9
100
AcDbEntity
  8
0
370
     0
100
AcDbVertex
100
AcDb2dVertex
 10
7.480793681935434
 20
31.81135156096135
 30
0.0
  0
VERTEX
  5
1CB
330
1C9
100
AcDbEntity
  8
0
370
     0
100
AcDbVertex
100
AcDb2dVertex
 10
7.480793681949872
 20
32.1333515608809
 30
0.0
  0
VERTEX
  5
1CC
330
1C9
100
AcDbEntity
  8
0
370
     0
100
AcDbVertex
100
AcDb2dVertex
 10
6.861024090817441
 20
32.13335156090874
 30
0.0
  0
VERTEX
  5
1CD
330
1C9
100
AcDbEntity
  8
0
370
     0
100
AcDbVertex
100
AcDb2dVertex
 10
6.861024090803003
 20
31.8113515609892
 30
0.0
  0
VERTEX
  5
1CE
330
1C9
100
AcDbEntity
  8
0
370
     0
100
AcDbVertex
100
AcDb2dVertex
 10
7.480793681935434
 20
31.81135156096135
 30
0.0
  0
SEQEND
  5
1D0
330
1C9
100
AcDbEntity
  8
0
370
     0
  0
HATCH
  5
1CF
330
1B3
100
AcDbEntity
  8
0
 62
    18
420
        0
100
AcDbHatch
 10
0.0
 20
0.0
 30
0.0
210
0.0
220
0.0
230
1.0
  2
SOLID
 70
     1
 71
     0
 91
        1
 92
        1
 93
        4
 72
     1
 10
7.480793681935434
 20
31.81135156096135
 11
7.480793681949872
 21
32.1333515608809
 72
     1
 10
7.480793681949872
 20
32.1333515608809
 11
6.861024090817441
 21
32.13335156090874
 72
     1
 10
6.861024090817441
 20
32.13335156090874
 11
6.861024090803003
 21
31.8113515609892
 72
     1
 10
6.861024090803003
 20
31.8113515609892
 11
7.480793681935434
 21
31.81135156096135
 97
        0
 75
     2
 76
     1
 98
        0
  0
ENDBLK
  5
1B6
330
1B3
100
AcDbEntity
  8
0
100
AcDbBlockEnd
  0
BLOCK
  5
1C0
330
1BE
100
AcDbEntity
  8
0
100
AcDbBlockBegin
  2
block 31
 70
     0
 10
0.0
 20
0.0
 30
0.0
  3
block 31
  1

  0
POLYLINE
  5
1C2
330
1BE
100
AcDbEntity
  8
0
 62
     7
420
 16777215
370
    18
100
AcDb2dPolyline
 66
     1
 10
0.0
 20
0.0
 30
0.0
  0
VERTEX
  5
1C3
330
1C2
100
AcDbEntity
  8
0
 62
     7
420
 16777215
370
    18
100
AcDbVertex
100
AcDb2dVertex
 10
7.327078733143154
 20
31.80235156099603
 30
0.0
  0
VERTEX
  5
1C4
330
1C2
100
AcDbEntity
  8
0
 62
     7
420
 16777215
370
    18
100
AcDbVertex
100
AcDb2dVertex
 10
6.12707873354058
 20
31.80235156118492
 30
0.0
  0
VERTEX
  5
1C5
330
1C2
100
AcDbEntity
  8
0
 62
     7
420
 16777215
370
    18
100
AcDbVertex
100
AcDb2dVertex
 10
6.127078733653263
 20
32.14235156096489
 30
0.0
  0
VERTEX
  5
1C6
330
1C2
100
AcDbEntity
  8
0
 62
     7
420
 16777215
370
    18
100
AcDbVertex
100
AcDb2dVertex
 10
7.327078733255837
 20
32.14235156077601
 30
0.0
  0
SEQEND
  5
1C8
330
1C2
100
AcDbEntity
  8
0
 62
     7
420
 16777215
370
    18
  0
HATCH
  5
1C7
330
1BE
100
AcDbEntity
  8
0
 62
    18
420
        0
100
AcDbHatch
 10
0.0
 20
0.0
 30
0.0
210
0.0
220
0.0
230
1.0
  2
SOLID
 70
     1
 71
     0
 91
        1
 92
        1
 93
        4
 72
     1
 10
7.327078733143154
 20
31.80235156099603
 11
6.12707873354058
 21
31.80235156118492
 72
     1
 10
6.12707873354058
 20
31.80235156118492
 11
6.127078733653263
 21
32.14235156096489
 72
     1
 10
6.127078733653263
 20
32.14235156096489
 11
7.327078733255838
 21
32.14235156077601
 72
     1
 10
7.327078733255837
 20
32.14235156077601
 11
7.327078733143154
 21
31.80235156099603
 97
        0
 75
     2
 76
     1
 98
        0
  0
ENDBLK
  5
1C1
330
1BE
100
AcDbEntity
  8
0
100
AcDbBlockEnd
  0
BLOCK
  5
1D3
330
1D1
100
AcDbEntity
  8
0
100
AcDbBlockBegin
  2
block 32
 70
     0
 10
0.0
 20
0.0
 30
0.0
  3
block 32
  1

  0
SPLINE
  5
1D5
330
1D1
100
AcDbEntity
  8
0
370
     0
100
AcDbSpline
210
0.0
220
0.0
230
1.0
 70
    11
 71
     3
 72
    53
 73
    49
 74
     0
 42
0.0000000001
 43
0.0000000001
 12
1.0
 22
0.0
 32
0.0
 13
1.0
 23
0.0
 33
0.0
 40
0.0
 40
0.0
 40
0.0
 40
0.0
 40
1.0
 40
1.0
 40
1.0
 40
2.0
 40
2.0
 40
2.0
 40
3.0
 40
3.0
 40
3.0
 40
4.0
 40
4.0
 40
4.0
 40
5.0
 40
5.0
 40
5.0
 40
6.0
 40
6.0
 40
6.0
 40
7.0
 40
7.0
 40
7.0
 40
8.0
 40
8.0
 40
8.0
 40
9.0
 40
9.0
 40
9.0
 40
10.0
 40
10.0
 40
10.0
 40
11.0
 40
11.0
 40
11.0
 40
12.0
 40
12.0
 40
12.0
 40
13.0
 40
13.0
 40
13.0
 40
14.0
 40
14.0
 40
14.0
 40
15.0
 40
15.0
 40
15.0
 40
16.0
 40
16.0
 40
16.0
 40
16.0
 10
2.301444362488875
 20
27.05030408394923
 30
0.0
 10
2.301444362488875
 20
27.05030408394923
 30
0.0
 10
2.301444362488875
 20
28.49901841192906
 30
0.0
 10
2.301444362488875
 20
28.49901841192906
 30
0.0
 10
2.301444362488875
 20
28.49901841192906
 30
0.0
 10
2.505652397377059
 20
28.49901841192906
 30
0.0
 10
2.505652397377059
 20
28.49901841192906
 30
0.0
 10
2.505652397377059
 20
28.49901841192906
 30
0.0
 10
2.969913464969327
 20
27.76605712196474
 30
0.0
 10
2.969913464969327
 20
27.76605712196474
 30
0.0
 10
3.077383218631696
 20
27.59624836549677
 30
0.0
 10
3.16121961726525
 20
27.44364786097763
 30
0.0
 10
3.230000948628263
 20
27.29533650033762
 30
0.0
 10
3.230000948628263
 20
27.29533650033762
 30
0.0
 10
3.2342900925074
 20
27.2974896850159
 30
0.0
 10
3.2342900925074
 20
27.2974896850159
 30
0.0
 10
3.217099066036003
 20
27.49093179651268
 30
0.0
 10
3.212809922156867
 20
27.66718288153806
 30
0.0
 10
3.212809922156867
 20
27.89287108677678
 30
0.0
 10
3.212809922156867
 20
27.89287108677678
 30
0.0
 10
3.212809922156867
 20
28.49901841192906
 30
0.0
 10
3.212809922156867
 20
28.49901841192906
 30
0.0
 10
3.212809922156867
 20
28.49901841192906
 30
0.0
 10
3.389061007182248
 20
28.49901841192906
 30
0.0
 10
3.389061007182248
 20
28.49901841192906
 30
0.0
 10
3.389061007182248
 20
28.49901841192906
 30
0.0
 10
3.389061007182248
 20
27.05030408394923
 30
0.0
 10
3.389061007182248
 20
27.05030408394923
 30
0.0
 10
3.389061007182248
 20
27.05030408394923
 30
0.0
 10
3.199908039564606
 20
27.05030408394923
 30
0.0
 10
3.199908039564606
 20
27.05030408394923
 30
0.0
 10
3.199908039564606
 20
27.05030408394923
 30
0.0
 10
2.739936115851474
 20
27.78540133311441
 30
0.0
 10
2.739936115851474
 20
27.78540133311441
 30
0.0
 10
2.638908690746522
 20
27.94661457634668
 30
0.0
 10
2.542187634998133
 20
28.11211696345808
 30
0.0
 10
2.469099934278558
 20
28.26902383733378
 30
0.0
 10
2.469099934278558
 20
28.26902383733378
 30
0.0
 10
2.462657605721141
 20
28.2668706526555
 30
0.0
 10
2.462657605721141
 20
28.2668706526555
 30
0.0
 10
2.47340630363512
 20
28.08417723907271
 30
0.0
 10
2.477695447514257
 20
27.91006211324818
 30
0.0
 10
2.477695447514257
 20
27.66933606621635
 30
0.0
 10
2.477695447514257
 20
27.66933606621635
 30
0.0
 10
2.477695447514257
 20
27.05030408394923
 30
0.0
 10
2.477695447514257
 20
27.05030408394923
 30
0.0
 10
2.477695447514257
 20
27.05030408394923
 30
0.0
 10
2.301444362488875
 20
27.05030408394923
 30
0.0
 10
2.301444362488875
 20
27.05030408394923
 30
0.0
  0
HATCH
  5
1D6
330
1D1
100
AcDbEntity
  8
0
 62
     7
420
 16777215
100
AcDbHatch
 10
0.0
 20
0.0
 30
0.0
210
0.0
220
0.0
230
1.0
  2
SOLID
 70
     1
 71
     0
 91
        1
 92
        1
 93
        1
 72
     4
 94
        3
 73
     0
 74
     1
 95
       53
 96
       49
 40
0.0
 40
0.0
 40
0.0
 40
0.0
 40
1.0
 40
1.0
 40
1.0
 40
2.0
 40
2.0
 40
2.0
 40
3.0
 40
3.0
 40
3.0
 40
4.0
 40
4.0
 40
4.0
 40
5.0
 40
5.0
 40
5.0
 40
6.0
 40
6.0
 40
6.0
 40
7.0
 40
7.0
 40
7.0
 40
8.0
 40
8.0
 40
8.0
 40
9.0
 40
9.0
 40
9.0
 40
10.0
 40
10.0
 40
10.0
 40
11.0
 40
11.0
 40
11.0
 40
12.0
 40
12.0
 40
12.0
 40
13.0
 40
13.0
 40
13.0
 40
14.0
 40
14.0
 40
14.0
 40
15.0
 40
15.0
 40
15.0
 40
16.0
 40
16.0
 40
16.0
 40
16.0
 10
2.301444362488875
 20
27.05030408394923
 10
2.301444362488875
 20
27.05030408394923
 10
2.301444362488875
 20
28.49901841192906
 10
2.301444362488875
 20
28.49901841192906
 10
2.301444362488875
 20
28.49901841192906
 10
2.505652397377059
 20
28.49901841192906
 10
2.505652397377059
 20
28.49901841192906
 10
2.505652397377059
 20
28.49901841192906
 10
2.969913464969327
 20
27.76605712196474
 10
2.969913464969327
 20
27.76605712196474
 10
3.077383218631696
 20
27.59624836549677
 10
3.16121961726525
 20
27.44364786097763
 10
3.230000948628263
 20
27.29533650033762
 10
3.230000948628263
 20
27.29533650033762
 10
3.2342900925074
 20
27.2974896850159
 10
3.2342900925074
 20
27.2974896850159
 10
3.217099066036003
 20
27.49093179651268
 10
3.212809922156867
 20
27.66718288153806
 10
3.212809922156867
 20
27.89287108677678
 10
3.212809922156867
 20
27.89287108677678
 10
3.212809922156867
 20
28.49901841192906
 10
3.212809922156867
 20
28.49901841192906
 10
3.212809922156867
 20
28.49901841192906
 10
3.389061007182248
 20
28.49901841192906
 10
3.389061007182248
 20
28.49901841192906
 10
3.389061007182248
 20
28.49901841192906
 10
3.389061007182248
 20
27.05030408394923
 10
3.389061007182248
 20
27.05030408394923
 10
3.389061007182248
 20
27.05030408394923
 10
3.199908039564606
 20
27.05030408394923
 10
3.199908039564606
 20
27.05030408394923
 10
3.199908039564606
 20
27.05030408394923
 10
2.739936115851474
 20
27.78540133311441
 10
2.739936115851474
 20
27.78540133311441
 10
2.638908690746522
 20
27.94661457634668
 10
2.542187634998133
 20
28.11211696345808
 10
2.469099934278558
 20
28.26902383733378
 10
2.469099934278558
 20
28.26902383733378
 10
2.462657605721141
 20
28.2668706526555
 10
2.462657605721141
 20
28.2668706526555
 10
2.47340630363512
 20
28.08417723907271
 10
2.477695447514257
 20
27.91006211324818
 10
2.477695447514257
 20
27.66933606621635
 10
2.477695447514257
 20
27.66933606621635
 10
2.477695447514257
 20
27.05030408394923
 10
2.477695447514257
 20
27.05030408394923
 10
2.477695447514257
 20
27.05030408394923
 10
2.301444362488875
 20
27.05030408394923
 10
2.301444362488875
 20
27.05030408394923
 97
        0
 97
        0
 75
     2
 76
     1
 98
        0
  0
SPLINE
  5
1D7
330
1D1
100
AcDbEntity
  8
0
370
     0
100
AcDbSpline
210
0.0
220
0.0
230
1.0
 70
    11
 71
     3
 72
    17
 73
    13
 74
     0
 42
0.0000000001
 43
0.0000000001
 12
1.0
 22
0.0
 32
0.0
 13
1.0
 23
0.0
 33
0.0
 40
0.0
 40
0.0
 40
0.0
 40
0.0
 40
1.0
 40
1.0
 40
1.0
 40
2.0
 40
2.0
 40
2.0
 40
3.0
 40
3.0
 40
3.0
 40
4.0
 40
4.0
 40
4.0
 40
4.0
 10
3.941258137035518
 20
28.38293591955357
 30
0.0
 10
3.943394096236374
 20
28.31846095754712
 30
0.0
 10
3.89611016070132
 20
28.2668706526555
 30
0.0
 10
3.820886500780889
 20
28.2668706526555
 30
0.0
 10
3.754258354096157
 20
28.2668706526555
 30
0.0
 10
3.706957193083677
 20
28.31846095754712
 30
0.0
 10
3.706957193083677
 20
28.38293591955357
 30
0.0
 10
3.706957193083677
 20
28.44958129171573
 30
0.0
 10
3.756394313297012
 20
28.50115437112992
 30
0.0
 10
3.825175644660025
 20
28.50115437112992
 30
0.0
 10
3.89611016070132
 20
28.50115437112992
 30
0.0
 10
3.941258137035518
 20
28.44958129171573
 30
0.0
 10
3.941258137035518
 20
28.38293591955357
 30
0.0
  0
POLYLINE
  5
1D8
330
1D1
100
AcDbEntity
  8
0
370
     0
100
AcDb2dPolyline
 66
     1
 10
0.0
 20
0.0
 30
0.0
  0
VERTEX
  5
1D9
330
1D8
100
AcDbEntity
  8
0
370
     0
100
AcDbVertex
100
AcDb2dVertex
 10
3.730607773589917
 20
27.05030408394923
 30
0.0
  0
VERTEX
  5
1DA
330
1D8
100
AcDbEntity
  8
0
370
     0
100
AcDbVertex
100
AcDb2dVertex
 10
3.730607773589917
 20
28.09061956763012
 30
0.0
  0
VERTEX
  5
1DB
330
1D8
100
AcDbEntity
  8
0
370
     0
100
AcDbVertex
100
AcDb2dVertex
 10
3.919760741207559
 20
28.09061956763012
 30
0.0
  0
VERTEX
  5
1DC
330
1D8
100
AcDbEntity
  8
0
370
     0
100
AcDbVertex
100
AcDb2dVertex
 10
3.919760741207559
 20
27.05030408394923
 30
0.0
  0
VERTEX
  5
1DD
330
1D8
100
AcDbEntity
  8
0
370
     0
100
AcDbVertex
100
AcDb2dVertex
 10
3.730607773589917
 20
27.05030408394923
 30
0.0
  0
SEQEND
  5
1DE
330
1D8
100
AcDbEntity
  8
0
370
     0
  0
HATCH
  5
1DF
330
1D1
100
AcDbEntity
  8
0
 62
     7
420
 16777215
100
AcDbHatch
 10
0.0
 20
0.0
 30
0.0
210
0.0
220
0.0
230
1.0
  2
SOLID
 70
     1
 71
     0
 91
        2
 92
        1
 93
        1
 72
     4
 94
        3
 73
     0
 74
     1
 95
       17
 96
       13
 40
0.0
 40
0.0
 40
0.0
 40
0.0
 40
1.0
 40
1.0
 40
1.0
 40
2.0
 40
2.0
 40
2.0
 40
3.0
 40
3.0
 40
3.0
 40
4.0
 40
4.0
 40
4.0
 40
4.0
 10
3.941258137035518
 20
28.38293591955357
 10
3.943394096236374
 20
28.31846095754712
 10
3.89611016070132
 20
28.2668706526555
 10
3.820886500780889
 20
28.2668706526555
 10
3.754258354096157
 20
28.2668706526555
 10
3.706957193083677
 20
28.31846095754712
 10
3.706957193083677
 20
28.38293591955357
 10
3.706957193083677
 20
28.44958129171573
 10
3.756394313297012
 20
28.50115437112992
 10
3.825175644660025
 20
28.50115437112992
 10
3.89611016070132
 20
28.50115437112992
 10
3.941258137035518
 20
28.44958129171573
 10
3.941258137035518
 20
28.38293591955357
 97
        0
 97
        0
 92
        1
 93
        4
 72
     1
 10
3.730607773589917
 20
27.05030408394923
 11
3.730607773589917
 21
28.09061956763012
 72
     1
 10
3.730607773589917
 20
28.09061956763012
 11
3.919760741207559
 21
28.09061956763012
 72
     1
 10
3.919760741207559
 20
28.09061956763012
 11
3.919760741207559
 21
27.05030408394923
 72
     1
 10
3.919760741207559
 20
27.05030408394923
 11
3.730607773589917
 21
27.05030408394923
 97
        0
 75
     2
 76
     1
 98
        0
  0
SPLINE
  5
1E0
330
1D1
100
AcDbEntity
  8
0
370
     0
100
AcDbSpline
210
0.0
220
0.0
230
1.0
 70
    11
 71
     3
 72
    35
 73
    31
 74
     0
 42
0.0000000001
 43
0.0000000001
 12
1.0
 22
0.0
 32
0.0
 13
1.0
 23
0.0
 33
0.0
 40
0.0
 40
0.0
 40
0.0
 40
0.0
 40
1.0
 40
1.0
 40
1.0
 40
2.0
 40
2.0
 40
2.0
 40
3.0
 40
3.0
 40
3.0
 40
4.0
 40
4.0
 40
4.0
 40
5.0
 40
5.0
 40
5.0
 40
6.0
 40
6.0
 40
6.0
 40
7.0
 40
7.0
 40
7.0
 40
8.0
 40
8.0
 40
8.0
 40
9.0
 40
9.0
 40
9.0
 40
10.0
 40
10.0
 40
10.0
 40
10.0
 10
4.975062390249289
 20
27.08899250624858
 30
0.0
 10
4.925625270035955
 20
27.06320596654149
 30
0.0
 10
4.816002331695304
 20
27.02880668812127
 30
0.0
 10
4.676286484290998
 20
27.02880668812127
 30
0.0
 10
4.36247273653959
 20
27.02880668812127
 30
0.0
 10
4.158281927128832
 20
27.24161023624515
 30
0.0
 10
4.158281927128832
 20
27.5597131278757
 30
0.0
 10
4.158281927128832
 20
27.87998642966195
 30
0.0
 10
4.377510578332705
 20
28.11211696345808
 30
0.0
 10
4.717128091268634
 20
28.11211696345808
 30
0.0
 10
4.828886988810139
 20
28.11211696345808
 30
0.0
 10
4.927761229236809
 20
28.08417723907271
 30
0.0
 10
4.979351534128425
 20
28.05837347388818
 30
0.0
 10
4.979351534128425
 20
28.05837347388818
 30
0.0
 10
4.936373967949934
 20
27.91221529792646
 30
0.0
 10
4.936373967949934
 20
27.91221529792646
 30
0.0
 10
4.891225991615735
 20
27.93801906311098
 30
0.0
 10
4.82029147557444
 20
27.96165241813979
 30
0.0
 10
4.717128091268634
 20
27.96165241813979
 30
0.0
 10
4.478538003437657
 20
27.96165241813979
 30
0.0
 10
4.349570853947329
 20
27.78540133311441
 30
0.0
 10
4.349570853947329
 20
27.56830864111139
 30
0.0
 10
4.349570853947329
 20
27.32758259407956
 30
0.0
 10
4.504324543144752
 20
27.17927123343955
 30
0.0
 10
4.710668537233791
 20
27.17927123343955
 30
0.0
 10
4.818155516373586
 20
27.17927123343955
 30
0.0
 10
4.889072806937453
 20
27.20721095782493
 30
0.0
 10
4.942816296507351
 20
27.23086153833117
 30
0.0
 10
4.942816296507351
 20
27.23086153833117
 30
0.0
 10
4.975062390249289
 20
27.08899250624858
 30
0.0
 10
4.975062390249289
 20
27.08899250624858
 30
0.0
  0
HATCH
  5
1E1
330
1D1
100
AcDbEntity
  8
0
 62
     7
420
 16777215
100
AcDbHatch
 10
0.0
 20
0.0
 30
0.0
210
0.0
220
0.0
230
1.0
  2
SOLID
 70
     1
 71
     0
 91
        1
 92
        1
 93
        1
 72
     4
 94
        3
 73
     0
 74
     1
 95
       35
 96
       31
 40
0.0
 40
0.0
 40
0.0
 40
0.0
 40
1.0
 40
1.0
 40
1.0
 40
2.0
 40
2.0
 40
2.0
 40
3.0
 40
3.0
 40
3.0
 40
4.0
 40
4.0
 40
4.0
 40
5.0
 40
5.0
 40
5.0
 40
6.0
 40
6.0
 40
6.0
 40
7.0
 40
7.0
 40
7.0
 40
8.0
 40
8.0
 40
8.0
 40
9.0
 40
9.0
 40
9.0
 40
10.0
 40
10.0
 40
10.0
 40
10.0
 10
4.975062390249289
 20
27.08899250624858
 10
4.925625270035955
 20
27.06320596654149
 10
4.816002331695304
 20
27.02880668812127
 10
4.676286484290998
 20
27.02880668812127
 10
4.36247273653959
 20
27.02880668812127
 10
4.158281927128832
 20
27.24161023624515
 10
4.158281927128832
 20
27.5597131278757
 10
4.158281927128832
 20
27.87998642966195
 10
4.377510578332705
 20
28.11211696345808
 10
4.717128091268634
 20
28.11211696345808
 10
4.828886988810139
 20
28.11211696345808
 10
4.927761229236809
 20
28.08417723907271
 10
4.979351534128425
 20
28.05837347388818
 10
4.979351534128425
 20
28.05837347388818
 10
4.936373967949934
 20
27.91221529792646
 10
4.936373967949934
 20
27.91221529792646
 10
4.891225991615735
 20
27.93801906311098
 10
4.82029147557444
 20
27.96165241813979
 10
4.717128091268634
 20
27.96165241813979
 10
4.478538003437657
 20
27.96165241813979
 10
4.349570853947329
 20
27.78540133311441
 10
4.349570853947329
 20
27.56830864111139
 10
4.349570853947329
 20
27.32758259407956
 10
4.504324543144752
 20
27.17927123343955
 10
4.710668537233791
 20
27.17927123343955
 10
4.818155516373586
 20
27.17927123343955
 10
4.889072806937453
 20
27.20721095782493
 10
4.942816296507351
 20
27.23086153833117
 10
4.942816296507351
 20
27.23086153833117
 10
4.975062390249289
 20
27.08899250624858
 10
4.975062390249289
 20
27.08899250624858
 97
        0
 97
        0
 75
     2
 76
     1
 98
        0
  0
SPLINE
  5
1E2
330
1D1
100
AcDbEntity
  8
0
370
     0
100
AcDbSpline
210
0.0
220
0.0
230
1.0
 70
    11
 71
     3
 72
    17
 73
    13
 74
     0
 42
0.0000000001
 43
0.0000000001
 12
1.0
 22
0.0
 32
0.0
 13
1.0
 23
0.0
 33
0.0
 40
0.0
 40
0.0
 40
0.0
 40
0.0
 40
1.0
 40
1.0
 40
1.0
 40
2.0
 40
2.0
 40
2.0
 40
3.0
 40
3.0
 40
3.0
 40
4.0
 40
4.0
 40
4.0
 40
4.0
 10
6.124880233928849
 20
27.57905733902537
 30
0.0
 10
6.124880233928849
 20
27.19430907523267
 30
0.0
 10
5.858350421712495
 20
27.02665350344299
 30
0.0
 10
5.606875676766683
 20
27.02665350344299
 30
0.0
 10
5.325308022757214
 20
27.02665350344299
 30
0.0
 10
5.108215330754196
 20
27.23299749753203
 30
0.0
 10
5.108215330754196
 20
27.56186631255398
 30
0.0
 10
5.108215330754196
 20
27.91006211324818
 30
0.0
 10
5.336039495193767
 20
28.11427014813636
 30
0.0
 10
5.62406670323808
 20
28.11427014813636
 30
0.0
 10
5.922842609196373
 20
28.11427014813636
 30
0.0
 10
6.124880233928849
 20
27.89717745613334
 30
0.0
 10
6.124880233928849
 20
27.57905733902537
 30
0.0
  0
SPLINE
  5
1E3
330
1D1
100
AcDbEntity
  8
0
370
     0
100
AcDbSpline
210
0.0
220
0.0
230
1.0
 70
    11
 71
     3
 72
    17
 73
    13
 74
     0
 42
0.0000000001
 43
0.0000000001
 12
1.0
 22
0.0
 32
0.0
 13
1.0
 23
0.0
 33
0.0
 40
0.0
 40
0.0
 40
0.0
 40
0.0
 40
1.0
 40
1.0
 40
1.0
 40
2.0
 40
2.0
 40
2.0
 40
3.0
 40
3.0
 40
3.0
 40
4.0
 40
4.0
 40
4.0
 40
4.0
 10
5.299504257572693
 20
27.56830864111139
 30
0.0
 10
5.299504257572693
 20
27.34046725119439
 30
0.0
 10
5.430624591741302
 20
27.16852253552558
 30
0.0
 10
5.615471190002382
 20
27.16852253552558
 30
0.0
 10
5.796028644384326
 20
27.16852253552558
 30
0.0
 10
5.931438122432071
 20
27.33833129199354
 30
0.0
 10
5.931438122432071
 20
27.57261501046796
 30
0.0
 10
5.931438122432071
 20
27.74886609549334
 30
0.0
 10
5.84331257991938
 20
27.97240111605377
 30
0.0
 10
5.619777559358944
 20
27.97240111605377
 30
0.0
 10
5.396225313321082
 20
27.97240111605377
 30
0.0
 10
5.299504257572693
 20
27.76605712196474
 30
0.0
 10
5.299504257572693
 20
27.56830864111139
 30
0.0
  0
HATCH
  5
1E4
330
1D1
100
AcDbEntity
  8
0
 62
     7
420
 16777215
100
AcDbHatch
 10
0.0
 20
0.0
 30
0.0
210
0.0
220
0.0
230
1.0
  2
SOLID
 70
     1
 71
     0
 91
        2
 92
        1
 93
        1
 72
     4
 94
        3
 73
     0
 74
     1
 95
       17
 96
       13
 40
0.0
 40
0.0
 40
0.0
 40
0.0
 40
1.0
 40
1.0
 40
1.0
 40
2.0
 40
2.0
 40
2.0
 40
3.0
 40
3.0
 40
3.0
 40
4.0
 40
4.0
 40
4.0
 40
4.0
 10
6.124880233928849
 20
27.57905733902537
 10
6.124880233928849
 20
27.19430907523267
 10
5.858350421712495
 20
27.02665350344299
 10
5.606875676766683
 20
27.02665350344299
 10
5.325308022757214
 20
27.02665350344299
 10
5.108215330754196
 20
27.23299749753203
 10
5.108215330754196
 20
27.56186631255398
 10
5.108215330754196
 20
27.91006211324818
 10
5.336039495193767
 20
28.11427014813636
 10
5.62406670323808
 20
28.11427014813636
 10
5.922842609196373
 20
28.11427014813636
 10
6.124880233928849
 20
27.89717745613334
 10
6.124880233928849
 20
27.57905733902537
 97
        0
 97
        0
 92
        1
 93
        1
 72
     4
 94
        3
 73
     0
 74
     1
 95
       17
 96
       13
 40
0.0
 40
0.0
 40
0.0
 40
0.0
 40
1.0
 40
1.0
 40
1.0
 40
2.0
 40
2.0
 40
2.0
 40
3.0
 40
3.0
 40
3.0
 40
4.0
 40
4.0
 40
4.0
 40
4.0
 10
5.299504257572693
 20
27.56830864111139
 10
5.299504257572693
 20
27.34046725119439
 10
5.430624591741302
 20
27.16852253552558
 10
5.615471190002382
 20
27.16852253552558
 10
5.796028644384326
 20
27.16852253552558
 10
5.931438122432071
 20
27.33833129199354
 10
5.931438122432071
 20
27.57261501046796
 10
5.931438122432071
 20
27.74886609549334
 10
5.84331257991938
 20
27.97240111605377
 10
5.619777559358944
 20
27.97240111605377
 10
5.396225313321082
 20
27.97240111605377
 10
5.299504257572693
 20
27.76605712196474
 10
5.299504257572693
 20
27.56830864111139
 97
        0
 97
        0
 75
     2
 76
     1
 98
        0
  0
POLYLINE
  5
1E5
330
1D1
100
AcDbEntity
  8
0
370
     0
100
AcDb2dPolyline
 66
     1
 10
0.0
 20
0.0
 30
0.0
  0
VERTEX
  5
1E6
330
1E5
100
AcDbEntity
  8
0
370
     0
100
AcDbVertex
100
AcDb2dVertex
 10
6.36331529246299
 20
28.57639525652777
 30
0.0
  0
VERTEX
  5
1E7
330
1E5
100
AcDbEntity
  8
0
370
     0
100
AcDbVertex
100
AcDb2dVertex
 10
6.552468260080633
 20
28.57639525652777
 30
0.0
  0
VERTEX
  5
1E8
330
1E5
100
AcDbEntity
  8
0
370
     0
100
AcDbVertex
100
AcDb2dVertex
 10
6.552468260080633
 20
27.05030408394923
 30
0.0
  0
VERTEX
  5
1E9
330
1E5
100
AcDbEntity
  8
0
370
     0
100
AcDbVertex
100
AcDb2dVertex
 10
6.36331529246299
 20
27.05030408394923
 30
0.0
  0
VERTEX
  5
1EA
330
1E5
100
AcDbEntity
  8
0
370
     0
100
AcDbVertex
100
AcDb2dVertex
 10
6.36331529246299
 20
28.57639525652777
 30
0.0
  0
SEQEND
  5
1EB
330
1E5
100
AcDbEntity
  8
0
370
     0
  0
HATCH
  5
1EC
330
1D1
100
AcDbEntity
  8
0
 62
     7
420
 16777215
100
AcDbHatch
 10
0.0
 20
0.0
 30
0.0
210
0.0
220
0.0
230
1.0
  2
SOLID
 70
     1
 71
     0
 91
        1
 92
        1
 93
        4
 72
     1
 10
6.36331529246299
 20
28.57639525652777
 11
6.552468260080633
 21
28.57639525652777
 72
     1
 10
6.552468260080633
 20
28.57639525652777
 11
6.552468260080633
 21
27.05030408394923
 72
     1
 10
6.552468260080633
 20
27.05030408394923
 11
6.36331529246299
 21
27.05030408394923
 72
     1
 10
6.36331529246299
 20
27.05030408394923
 11
6.36331529246299
 21
28.57639525652777
 97
        0
 75
     2
 76
     1
 98
        0
  0
SPLINE
  5
1ED
330
1D1
100
AcDbEntity
  8
0
370
     0
100
AcDbSpline
210
0.0
220
0.0
230
1.0
 70
    11
 71
     3
 72
    47
 73
    43
 74
     0
 42
0.0000000001
 43
0.0000000001
 12
1.0
 22
0.0
 32
0.0
 13
1.0
 23
0.0
 33
0.0
 40
0.0
 40
0.0
 40
0.0
 40
0.0
 40
1.0
 40
1.0
 40
1.0
 40
2.0
 40
2.0
 40
2.0
 40
3.0
 40
3.0
 40
3.0
 40
4.0
 40
4.0
 40
4.0
 40
5.0
 40
5.0
 40
5.0
 40
6.0
 40
6.0
 40
6.0
 40
7.0
 40
7.0
 40
7.0
 40
8.0
 40
8.0
 40
8.0
 40
9.0
 40
9.0
 40
9.0
 40
10.0
 40
10.0
 40
10.0
 40
11.0
 40
11.0
 40
11.0
 40
12.0
 40
12.0
 40
12.0
 40
13.0
 40
13.0
 40
13.0
 40
14.0
 40
14.0
 40
14.0
 40
14.0
 10
7.44653944041267
 20
27.05030408394923
 30
0.0
 10
7.44653944041267
 20
27.05030408394923
 30
0.0
 10
7.431501598619555
 20
27.18142441811784
 30
0.0
 10
7.431501598619555
 20
27.18142441811784
 30
0.0
 10
7.431501598619555
 20
27.18142441811784
 30
0.0
 10
7.425059270062137
 20
27.18142441811784
 30
0.0
 10
7.425059270062137
 20
27.18142441811784
 30
0.0
 10
7.367026636613104
 20
27.09974120416256
 30
0.0
 10
7.255250513594173
 20
27.02665350344299
 30
0.0
 10
7.106939152954167
 20
27.02665350344299
 30
0.0
 10
6.896288789508566
 20
27.02665350344299
 30
0.0
 10
6.788819035846197
 20
27.17496486408299
 30
0.0
 10
6.788819035846197
 20
27.32542940940128
 30
0.0
 10
6.788819035846197
 20
27.57690415434709
 30
0.0
 10
7.012371281884059
 20
27.71446681707312
 30
0.0
 10
7.414310572148158
 20
27.71233085787226
 30
0.0
 10
7.414310572148158
 20
27.71233085787226
 30
0.0
 10
7.414310572148158
 20
27.7338110282228
 30
0.0
 10
7.414310572148158
 20
27.7338110282228
 30
0.0
 10
7.414310572148158
 20
27.81980061153463
 30
0.0
 10
7.390659991641918
 20
27.97455430073205
 30
0.0
 10
7.177873668995462
 20
27.97455430073205
 30
0.0
 10
7.081152613247072
 20
27.97455430073205
 30
0.0
 10
6.980125188142121
 20
27.9444613916684
 30
0.0
 10
6.907037487422546
 20
27.89717745613334
 30
0.0
 10
6.907037487422546
 20
27.89717745613334
 30
0.0
 10
6.864059921244054
 20
28.02183823626711
 30
0.0
 10
6.864059921244054
 20
28.02183823626711
 30
0.0
 10
6.950032279078464
 20
28.07771768503786
 30
0.0
 10
7.074693059212229
 20
28.11427014813636
 30
0.0
 10
7.205813393380838
 20
28.11427014813636
 30
0.0
 10
7.523933510488808
 20
28.11427014813636
 30
0.0
 10
7.601310355087519
 20
27.89717745613334
 30
0.0
 10
7.601310355087519
 20
27.68868027736602
 30
0.0
 10
7.601310355087519
 20
27.68868027736602
 30
0.0
 10
7.601310355087519
 20
27.29964286969419
 30
0.0
 10
7.601310355087519
 20
27.29964286969419
 30
0.0
 10
7.601310355087519
 20
27.20936414250321
 30
0.0
 10
7.605599498966655
 20
27.12123859999052
 30
0.0
 10
7.618501381558916
 20
27.05030408394923
 30
0.0
 10
7.618501381558916
 20
27.05030408394923
 30
0.0
 10
7.44653944041267
 20
27.05030408394923
 30
0.0
 10
7.44653944041267
 20
27.05030408394923
 30
0.0
  0
SPLINE
  5
1EE
330
1D1
100
AcDbEntity
  8
0
370
     0
100
AcDbSpline
210
0.0
220
0.0
230
1.0
 70
    11
 71
     3
 72
    20
 73
    16
 74
     0
 42
0.0000000001
 43
0.0000000001
 12
1.0
 22
0.0
 32
0.0
 13
1.0
 23
0.0
 33
0.0
 40
0.0
 40
0.0
 40
0.0
 40
0.0
 40
1.0
 40
1.0
 40
1.0
 40
2.0
 40
2.0
 40
2.0
 40
3.0
 40
3.0
 40
3.0
 40
4.0
 40
4.0
 40
4.0
 40
5.0
 40
5.0
 40
5.0
 40
5.0
 10
7.418599716027294
 20
27.58121052370365
 30
0.0
 10
7.212255721938255
 20
27.58551689306022
 30
0.0
 10
6.97797200346384
 20
27.54896442996171
 30
0.0
 10
6.97797200346384
 20
27.34692680522924
 30
0.0
 10
6.97797200346384
 20
27.22440198429633
 30
0.0
 10
7.059655217419113
 20
27.16636935084729
 30
0.0
 10
7.156376273167503
 20
27.16636935084729
 30
0.0
 10
7.291785751215247
 20
27.16636935084729
 30
0.0
 10
7.377758109049657
 20
27.2523417086817
 30
0.0
 10
7.407851018113314
 20
27.34046725119439
 30
0.0
 10
7.414310572148158
 20
27.35981146234407
 30
0.0
 10
7.418599716027294
 20
27.38130885817203
 30
0.0
 10
7.418599716027294
 20
27.40065306932171
 30
0.0
 10
7.418599716027294
 20
27.40065306932171
 30
0.0
 10
7.418599716027294
 20
27.58121052370365
 30
0.0
 10
7.418599716027294
 20
27.58121052370365
 30
0.0
  0
HATCH
  5
1EF
330
1D1
100
AcDbEntity
  8
0
 62
     7
420
 16777215
100
AcDbHatch
 10
0.0
 20
0.0
 30
0.0
210
0.0
220
0.0
230
1.0
  2
SOLID
 70
     1
 71
     0
 91
        2
 92
        1
 93
        1
 72
     4
 94
        3
 73
     0
 74
     1
 95
       47
 96
       43
 40
0.0
 40
0.0
 40
0.0
 40
0.0
 40
1.0
 40
1.0
 40
1.0
 40
2.0
 40
2.0
 40
2.0
 40
3.0
 40
3.0
 40
3.0
 40
4.0
 40
4.0
 40
4.0
 40
5.0
 40
5.0
 40
5.0
 40
6.0
 40
6.0
 40
6.0
 40
7.0
 40
7.0
 40
7.0
 40
8.0
 40
8.0
 40
8.0
 40
9.0
 40
9.0
 40
9.0
 40
10.0
 40
10.0
 40
10.0
 40
11.0
 40
11.0
 40
11.0
 40
12.0
 40
12.0
 40
12.0
 40
13.0
 40
13.0
 40
13.0
 40
14.0
 40
14.0
 40
14.0
 40
14.0
 10
7.44653944041267
 20
27.05030408394923
 10
7.44653944041267
 20
27.05030408394923
 10
7.431501598619555
 20
27.18142441811784
 10
7.431501598619555
 20
27.18142441811784
 10
7.431501598619555
 20
27.18142441811784
 10
7.425059270062137
 20
27.18142441811784
 10
7.425059270062137
 20
27.18142441811784
 10
7.367026636613104
 20
27.09974120416256
 10
7.255250513594173
 20
27.02665350344299
 10
7.106939152954167
 20
27.02665350344299
 10
6.896288789508566
 20
27.02665350344299
 10
6.788819035846197
 20
27.17496486408299
 10
6.788819035846197
 20
27.32542940940128
 10
6.788819035846197
 20
27.57690415434709
 10
7.012371281884059
 20
27.71446681707312
 10
7.414310572148158
 20
27.71233085787226
 10
7.414310572148158
 20
27.71233085787226
 10
7.414310572148158
 20
27.7338110282228
 10
7.414310572148158
 20
27.7338110282228
 10
7.414310572148158
 20
27.81980061153463
 10
7.390659991641918
 20
27.97455430073205
 10
7.177873668995462
 20
27.97455430073205
 10
7.081152613247072
 20
27.97455430073205
 10
6.980125188142121
 20
27.9444613916684
 10
6.907037487422546
 20
27.89717745613334
 10
6.907037487422546
 20
27.89717745613334
 10
6.864059921244054
 20
28.02183823626711
 10
6.864059921244054
 20
28.02183823626711
 10
6.950032279078464
 20
28.07771768503786
 10
7.074693059212229
 20
28.11427014813636
 10
7.205813393380838
 20
28.11427014813636
 10
7.523933510488808
 20
28.11427014813636
 10
7.601310355087519
 20
27.89717745613334
 10
7.601310355087519
 20
27.68868027736602
 10
7.601310355087519
 20
27.68868027736602
 10
7.601310355087519
 20
27.29964286969419
 10
7.601310355087519
 20
27.29964286969419
 10
7.601310355087519
 20
27.20936414250321
 10
7.605599498966655
 20
27.12123859999052
 10
7.618501381558916
 20
27.05030408394923
 10
7.618501381558916
 20
27.05030408394923
 10
7.44653944041267
 20
27.05030408394923
 10
7.44653944041267
 20
27.05030408394923
 97
        0
 97
        0
 92
        1
 93
        1
 72
     4
 94
        3
 73
     0
 74
     1
 95
       20
 96
       16
 40
0.0
 40
0.0
 40
0.0
 40
0.0
 40
1.0
 40
1.0
 40
1.0
 40
2.0
 40
2.0
 40
2.0
 40
3.0
 40
3.0
 40
3.0
 40
4.0
 40
4.0
 40
4.0
 40
5.0
 40
5.0
 40
5.0
 40
5.0
 10
7.418599716027294
 20
27.58121052370365
 10
7.212255721938255
 20
27.58551689306022
 10
6.97797200346384
 20
27.54896442996171
 10
6.97797200346384
 20
27.34692680522924
 10
6.97797200346384
 20
27.22440198429633
 10
7.059655217419113
 20
27.16636935084729
 10
7.156376273167503
 20
27.16636935084729
 10
7.291785751215247
 20
27.16636935084729
 10
7.377758109049657
 20
27.2523417086817
 10
7.407851018113314
 20
27.34046725119439
 10
7.414310572148158
 20
27.35981146234407
 10
7.418599716027294
 20
27.38130885817203
 10
7.418599716027294
 20
27.40065306932171
 10
7.418599716027294
 20
27.40065306932171
 10
7.418599716027294
 20
27.58121052370365
 10
7.418599716027294
 20
27.58121052370365
 97
        0
 97
        0
 75
     2
 76
     1
 98
        0
  0
SPLINE
  5
1F0
330
1D1
100
AcDbEntity
  8
0
370
     0
100
AcDbSpline
210
0.0
220
0.0
230
1.0
 70
    11
 71
     3
 72
    47
 73
    43
 74
     0
 42
0.0000000001
 43
0.0000000001
 12
1.0
 22
0.0
 32
0.0
 13
1.0
 23
0.0
 33
0.0
 40
0.0
 40
0.0
 40
0.0
 40
0.0
 40
1.0
 40
1.0
 40
1.0
 40
2.0
 40
2.0
 40
2.0
 40
3.0
 40
3.0
 40
3.0
 40
4.0
 40
4.0
 40
4.0
 40
5.0
 40
5.0
 40
5.0
 40
6.0
 40
6.0
 40
6.0
 40
7.0
 40
7.0
 40
7.0
 40
8.0
 40
8.0
 40
8.0
 40
9.0
 40
9.0
 40
9.0
 40
10.0
 40
10.0
 40
10.0
 40
11.0
 40
11.0
 40
11.0
 40
12.0
 40
12.0
 40
12.0
 40
13.0
 40
13.0
 40
13.0
 40
14.0
 40
14.0
 40
14.0
 40
14.0
 10
7.880604246076723
 20
27.24374619544601
 30
0.0
 10
7.936483694847476
 20
27.20721095782493
 30
0.0
 10
8.035357935274146
 20
27.16852253552558
 30
0.0
 10
8.129925806344254
 20
27.16852253552558
 30
0.0
 10
8.26748846907028
 20
27.16852253552558
 30
0.0
 10
8.331980656554157
 20
27.23730386688859
 30
0.0
 10
8.331980656554157
 20
27.323276224723
 30
0.0
 10
8.331980656554157
 20
27.41355495191397
 30
0.0
 10
8.27823716698426
 20
27.46299207212731
 30
0.0
 10
8.138521319579953
 20
27.51458237701892
 30
0.0
 10
7.951521536640591
 20
27.58121052370365
 30
0.0
 10
7.863395994127901
 20
27.68437390800946
 30
0.0
 10
7.863395994127901
 20
27.80905191362065
 30
0.0
 10
7.863395994127901
 20
27.97670748541033
 30
0.0
 10
7.998822697653072
 20
28.11427014813636
 30
0.0
 10
8.222357718213507
 20
28.11427014813636
 30
0.0
 10
8.327674287197596
 20
28.11427014813636
 30
0.0
 10
8.420106199066847
 20
28.08417723907271
 30
0.0
 10
8.478138832515882
 20
28.04977796065248
 30
0.0
 10
8.478138832515882
 20
28.04977796065248
 30
0.0
 10
8.430854896980827
 20
27.91221529792646
 30
0.0
 10
8.430854896980827
 20
27.91221529792646
 30
0.0
 10
8.390013290003191
 20
27.93801906311098
 30
0.0
 10
8.314772404605334
 20
27.97240111605377
 30
0.0
 10
8.218051348856944
 20
27.97240111605377
 30
0.0
 10
8.10629245131544
 20
27.97240111605377
 30
0.0
 10
8.043953448509845
 20
27.90792615404732
 30
0.0
 10
8.043953448509845
 20
27.83054930944861
 30
0.0
 10
8.043953448509845
 20
27.74455972613677
 30
0.0
 10
8.10629245131544
 20
27.70587130383742
 30
0.0
 10
8.241701929363185
 20
27.65429822442323
 30
0.0
 10
8.422259383745129
 20
27.58551689306022
 30
0.0
 10
8.514674070136955
 20
27.49523816586924
 30
0.0
 10
8.514674070136955
 20
27.34046725119439
 30
0.0
 10
8.514674070136955
 20
27.1577738376116
 30
0.0
 10
8.372822263531793
 20
27.02880668812127
 30
0.0
 10
8.125636662465118
 20
27.02880668812127
 30
0.0
 10
8.011707354767905
 20
27.02880668812127
 30
0.0
 10
7.906390785783818
 20
27.05674641250664
 30
0.0
 10
7.833303085064243
 20
27.09974120416256
 30
0.0
 10
7.833303085064243
 20
27.09974120416256
 30
0.0
 10
7.880604246076723
 20
27.24374619544601
 30
0.0
 10
7.880604246076723
 20
27.24374619544601
 30
0.0
  0
HATCH
  5
1F1
330
1D1
100
AcDbEntity
  8
0
 62
     7
420
 16777215
100
AcDbHatch
 10
0.0
 20
0.0
 30
0.0
210
0.0
220
0.0
230
1.0
  2
SOLID
 70
     1
 71
     0
 91
        1
 92
        1
 93
        1
 72
     4
 94
        3
 73
     0
 74
     1
 95
       47
 96
       43
 40
0.0
 40
0.0
 40
0.0
 40
0.0
 40
1.0
 40
1.0
 40
1.0
 40
2.0
 40
2.0
 40
2.0
 40
3.0
 40
3.0
 40
3.0
 40
4.0
 40
4.0
 40
4.0
 40
5.0
 40
5.0
 40
5.0
 40
6.0
 40
6.0
 40
6.0
 40
7.0
 40
7.0
 40
7.0
 40
8.0
 40
8.0
 40
8.0
 40
9.0
 40
9.0
 40
9.0
 40
10.0
 40
10.0
 40
10.0
 40
11.0
 40
11.0
 40
11.0
 40
12.0
 40
12.0
 40
12.0
 40
13.0
 40
13.0
 40
13.0
 40
14.0
 40
14.0
 40
14.0
 40
14.0
 10
7.880604246076723
 20
27.24374619544601
 10
7.936483694847476
 20
27.20721095782493
 10
8.035357935274146
 20
27.16852253552558
 10
8.129925806344254
 20
27.16852253552558
 10
8.26748846907028
 20
27.16852253552558
 10
8.331980656554157
 20
27.23730386688859
 10
8.331980656554157
 20
27.323276224723
 10
8.331980656554157
 20
27.41355495191397
 10
8.27823716698426
 20
27.46299207212731
 10
8.138521319579953
 20
27.51458237701892
 10
7.951521536640591
 20
27.58121052370365
 10
7.863395994127901
 20
27.68437390800946
 10
7.863395994127901
 20
27.80905191362065
 10
7.863395994127901
 20
27.97670748541033
 10
7.998822697653072
 20
28.11427014813636
 10
8.222357718213507
 20
28.11427014813636
 10
8.327674287197596
 20
28.11427014813636
 10
8.420106199066847
 20
28.08417723907271
 10
8.478138832515882
 20
28.04977796065248
 10
8.478138832515882
 20
28.04977796065248
 10
8.430854896980827
 20
27.91221529792646
 10
8.430854896980827
 20
27.91221529792646
 10
8.390013290003191
 20
27.93801906311098
 10
8.314772404605334
 20
27.97240111605377
 10
8.218051348856944
 20
27.97240111605377
 10
8.10629245131544
 20
27.97240111605377
 10
8.043953448509845
 20
27.90792615404732
 10
8.043953448509845
 20
27.83054930944861
 10
8.043953448509845
 20
27.74455972613677
 10
8.10629245131544
 20
27.70587130383742
 10
8.241701929363185
 20
27.65429822442323
 10
8.422259383745129
 20
27.58551689306022
 10
8.514674070136955
 20
27.49523816586924
 10
8.514674070136955
 20
27.34046725119439
 10
8.514674070136955
 20
27.1577738376116
 10
8.372822263531793
 20
27.02880668812127
 10
8.125636662465118
 20
27.02880668812127
 10
8.011707354767905
 20
27.02880668812127
 10
7.906390785783818
 20
27.05674641250664
 10
7.833303085064243
 20
27.09974120416256
 10
7.833303085064243
 20
27.09974120416256
 10
7.880604246076723
 20
27.24374619544601
 10
7.880604246076723
 20
27.24374619544601
 97
        0
 97
        0
 75
     2
 76
     1
 98
        0
  0
SPLINE
  5
1F2
330
1D1
100
AcDbEntity
  8
0
370
     0
100
AcDbSpline
210
0.0
220
0.0
230
1.0
 70
    11
 71
     3
 72
    26
 73
    22
 74
     0
 42
0.0000000001
 43
0.0000000001
 12
1.0
 22
0.0
 32
0.0
 13
1.0
 23
0.0
 33
0.0
 40
0.0
 40
0.0
 40
0.0
 40
0.0
 40
1.0
 40
1.0
 40
1.0
 40
2.0
 40
2.0
 40
2.0
 40
3.0
 40
3.0
 40
3.0
 40
4.0
 40
4.0
 40
4.0
 40
5.0
 40
5.0
 40
5.0
 40
6.0
 40
6.0
 40
6.0
 40
7.0
 40
7.0
 40
7.0
 40
7.0
 10
9.21950615546422
 20
28.47967420077939
 30
0.0
 10
9.333435463161432
 20
28.49686522725078
 30
0.0
 10
9.468844941209177
 20
28.50974988436561
 30
0.0
 10
9.617156301849182
 20
28.50974988436561
 30
0.0
 10
9.885839298743818
 20
28.50974988436561
 30
0.0
 10
10.07712822556231
 20
28.44742810703745
 30
0.0
 10
10.20394219037436
 20
28.3292096554611
 30
0.0
 10
10.33290933986469
 20
28.21099120388475
 30
0.0
 10
10.40813299978512
 20
28.04333563209507
 30
0.0
 10
10.40813299978512
 20
27.80905191362065
 30
0.0
 10
10.40813299978512
 20
27.57261501046796
 30
0.0
 10
10.33506252454297
 20
27.37917289897118
 30
0.0
 10
10.19965304649523
 20
27.24589938012429
 30
0.0
 10
10.06422634297005
 20
27.11048990207654
 30
0.0
 10
9.840691322409619
 20
27.03740220135697
 30
0.0
 10
9.559123668400149
 20
27.03740220135697
 30
0.0
 10
9.42585014955326
 20
27.03740220135697
 30
0.0
 10
9.314091252011755
 20
27.04386175539181
 30
0.0
 10
9.21950615546422
 20
27.05461045330579
 30
0.0
 10
9.21950615546422
 20
27.05461045330579
 30
0.0
 10
9.21950615546422
 20
28.47967420077939
 30
0.0
 10
9.21950615546422
 20
28.47967420077939
 30
0.0
  0
SPLINE
  5
1F3
330
1D1
100
AcDbEntity
  8
0
370
     0
100
AcDbSpline
210
0.0
220
0.0
230
1.0
 70
    11
 71
     3
 72
    20
 73
    16
 74
     0
 42
0.0000000001
 43
0.0000000001
 12
1.0
 22
0.0
 32
0.0
 13
1.0
 23
0.0
 33
0.0
 40
0.0
 40
0.0
 40
0.0
 40
0.0
 40
1.0
 40
1.0
 40
1.0
 40
2.0
 40
2.0
 40
2.0
 40
3.0
 40
3.0
 40
3.0
 40
4.0
 40
4.0
 40
4.0
 40
5.0
 40
5.0
 40
5.0
 40
5.0
 10
9.406505938403582
 20
27.19861544458923
 30
0.0
 10
9.45380709941606
 20
27.19001993135354
 30
0.0
 10
9.522588430779074
 20
27.18786674667525
 30
0.0
 10
9.595658906021223
 20
27.18786674667525
 30
0.0
 10
9.99544501160704
 20
27.18786674667525
 30
0.0
 10
10.21253770361006
 20
27.41140176723569
 30
0.0
 10
10.21253770361006
 20
27.80259235958581
 30
0.0
 10
10.21469088828834
 20
28.14436305720002
 30
0.0
 10
10.02124877679156
 20
28.36145574920304
 30
0.0
 10
9.62575181508488
 20
28.36145574920304
 30
0.0
 10
9.529030759336491
 20
28.36145574920304
 30
0.0
 10
9.455943058616917
 20
28.35284301048991
 30
0.0
 10
9.406505938403582
 20
28.34211153805336
 30
0.0
 10
9.406505938403582
 20
28.34211153805336
 30
0.0
 10
9.406505938403582
 20
27.19861544458923
 30
0.0
 10
9.406505938403582
 20
27.19861544458923
 30
0.0
  0
HATCH
  5
1F4
330
1D1
100
AcDbEntity
  8
0
 62
     7
420
 16777215
100
AcDbHatch
 10
0.0
 20
0.0
 30
0.0
210
0.0
220
0.0
230
1.0
  2
SOLID
 70
     1
 71
     0
 91
        2
 92
        1
 93
        1
 72
     4
 94
        3
 73
     0
 74
     1
 95
       26
 96
       22
 40
0.0
 40
0.0
 40
0.0
 40
0.0
 40
1.0
 40
1.0
 40
1.0
 40
2.0
 40
2.0
 40
2.0
 40
3.0
 40
3.0
 40
3.0
 40
4.0
 40
4.0
 40
4.0
 40
5.0
 40
5.0
 40
5.0
 40
6.0
 40
6.0
 40
6.0
 40
7.0
 40
7.0
 40
7.0
 40
7.0
 10
9.21950615546422
 20
28.47967420077939
 10
9.333435463161432
 20
28.49686522725078
 10
9.468844941209177
 20
28.50974988436561
 10
9.617156301849182
 20
28.50974988436561
 10
9.885839298743818
 20
28.50974988436561
 10
10.07712822556231
 20
28.44742810703745
 10
10.20394219037436
 20
28.3292096554611
 10
10.33290933986469
 20
28.21099120388475
 10
10.40813299978512
 20
28.04333563209507
 10
10.40813299978512
 20
27.80905191362065
 10
10.40813299978512
 20
27.57261501046796
 10
10.33506252454297
 20
27.37917289897118
 10
10.19965304649523
 20
27.24589938012429
 10
10.06422634297005
 20
27.11048990207654
 10
9.840691322409619
 20
27.03740220135697
 10
9.559123668400149
 20
27.03740220135697
 10
9.42585014955326
 20
27.03740220135697
 10
9.314091252011755
 20
27.04386175539181
 10
9.21950615546422
 20
27.05461045330579
 10
9.21950615546422
 20
27.05461045330579
 10
9.21950615546422
 20
28.47967420077939
 10
9.21950615546422
 20
28.47967420077939
 97
        0
 97
        0
 92
        1
 93
        1
 72
     4
 94
        3
 73
     0
 74
     1
 95
       20
 96
       16
 40
0.0
 40
0.0
 40
0.0
 40
0.0
 40
1.0
 40
1.0
 40
1.0
 40
2.0
 40
2.0
 40
2.0
 40
3.0
 40
3.0
 40
3.0
 40
4.0
 40
4.0
 40
4.0
 40
5.0
 40
5.0
 40
5.0
 40
5.0
 10
9.406505938403582
 20
27.19861544458923
 10
9.45380709941606
 20
27.19001993135354
 10
9.522588430779074
 20
27.18786674667525
 10
9.595658906021223
 20
27.18786674667525
 10
9.99544501160704
 20
27.18786674667525
 10
10.21253770361006
 20
27.41140176723569
 10
10.21253770361006
 20
27.80259235958581
 10
10.21469088828834
 20
28.14436305720002
 10
10.02124877679156
 20
28.36145574920304
 10
9.62575181508488
 20
28.36145574920304
 10
9.529030759336491
 20
28.36145574920304
 10
9.455943058616917
 20
28.35284301048991
 10
9.406505938403582
 20
28.34211153805336
 10
9.406505938403582
 20
28.34211153805336
 10
9.406505938403582
 20
27.19861544458923
 10
9.406505938403582
 20
27.19861544458923
 97
        0
 97
        0
 75
     2
 76
     1
 98
        0
  0
POLYLINE
  5
1F5
330
1D1
100
AcDbEntity
  8
0
370
     0
100
AcDb2dPolyline
 66
     1
 10
0.0
 20
0.0
 30
0.0
  0
VERTEX
  5
1F6
330
1F5
100
AcDbEntity
  8
0
370
     0
100
AcDbVertex
100
AcDb2dVertex
 10
11.02912868647883
 20
28.53984279342927
 30
0.0
  0
VERTEX
  5
1F7
330
1F5
100
AcDbEntity
  8
0
370
     0
100
AcDbVertex
100
AcDb2dVertex
 10
10.76690524361904
 20
28.23248859971271
 30
0.0
  0
VERTEX
  5
1F8
330
1F5
100
AcDbEntity
  8
0
370
     0
100
AcDbVertex
100
AcDb2dVertex
 10
10.63147854009387
 20
28.23248859971271
 30
0.0
  0
VERTEX
  5
1F9
330
1F5
100
AcDbEntity
  8
0
370
     0
100
AcDbVertex
100
AcDb2dVertex
 10
10.82063150771151
 20
28.53984279342927
 30
0.0
  0
VERTEX
  5
1FA
330
1F5
100
AcDbEntity
  8
0
370
     0
100
AcDbVertex
100
AcDb2dVertex
 10
11.02912868647883
 20
28.53984279342927
 30
0.0
  0
SEQEND
  5
1FB
330
1F5
100
AcDbEntity
  8
0
370
     0
  0
POLYLINE
  5
1FC
330
1D1
100
AcDbEntity
  8
0
370
     0
100
AcDb2dPolyline
 66
     1
 10
0.0
 20
0.0
 30
0.0
  0
VERTEX
  5
1FD
330
1FC
100
AcDbEntity
  8
0
370
     0
100
AcDbVertex
100
AcDb2dVertex
 10
10.64438042268613
 20
27.05030408394923
 30
0.0
  0
VERTEX
  5
1FE
330
1FC
100
AcDbEntity
  8
0
370
     0
100
AcDbVertex
100
AcDb2dVertex
 10
10.64438042268613
 20
28.09061956763012
 30
0.0
  0
VERTEX
  5
1FF
330
1FC
100
AcDbEntity
  8
0
370
     0
100
AcDbVertex
100
AcDb2dVertex
 10
10.83353339030377
 20
28.09061956763012
 30
0.0
  0
VERTEX
  5
200
330
1FC
100
AcDbEntity
  8
0
370
     0
100
AcDbVertex
100
AcDb2dVertex
 10
10.83353339030377
 20
27.05030408394923
 30
0.0
  0
VERTEX
  5
201
330
1FC
100
AcDbEntity
  8
0
370
     0
100
AcDbVertex
100
AcDb2dVertex
 10
10.64438042268613
 20
27.05030408394923
 30
0.0
  0
SEQEND
  5
202
330
1FC
100
AcDbEntity
  8
0
370
     0
  0
HATCH
  5
203
330
1D1
100
AcDbEntity
  8
0
 62
     7
420
 16777215
100
AcDbHatch
 10
0.0
 20
0.0
 30
0.0
210
0.0
220
0.0
230
1.0
  2
SOLID
 70
     1
 71
     0
 91
        2
 92
        1
 93
        4
 72
     1
 10
11.02912868647883
 20
28.53984279342927
 11
10.76690524361904
 21
28.23248859971271
 72
     1
 10
10.76690524361904
 20
28.23248859971271
 11
10.63147854009387
 21
28.23248859971271
 72
     1
 10
10.63147854009387
 20
28.23248859971271
 11
10.82063150771151
 21
28.53984279342927
 72
     1
 10
10.82063150771151
 20
28.53984279342927
 11
11.02912868647883
 21
28.53984279342927
 97
        0
 92
        1
 93
        4
 72
     1
 10
10.64438042268613
 20
27.05030408394923
 11
10.64438042268613
 21
28.09061956763012
 72
     1
 10
10.64438042268613
 20
28.09061956763012
 11
10.83353339030377
 21
28.09061956763012
 72
     1
 10
10.83353339030377
 20
28.09061956763012
 11
10.83353339030377
 21
27.05030408394923
 72
     1
 10
10.83353339030377
 20
27.05030408394923
 11
10.64438042268613
 21
27.05030408394923
 97
        0
 75
     2
 76
     1
 98
        0
  0
SPLINE
  5
204
330
1D1
100
AcDbEntity
  8
0
370
     0
100
AcDbSpline
210
0.0
220
0.0
230
1.0
 70
    11
 71
     3
 72
    47
 73
    43
 74
     0
 42
0.0000000001
 43
0.0000000001
 12
1.0
 22
0.0
 32
0.0
 13
1.0
 23
0.0
 33
0.0
 40
0.0
 40
0.0
 40
0.0
 40
0.0
 40
1.0
 40
1.0
 40
1.0
 40
2.0
 40
2.0
 40
2.0
 40
3.0
 40
3.0
 40
3.0
 40
4.0
 40
4.0
 40
4.0
 40
5.0
 40
5.0
 40
5.0
 40
6.0
 40
6.0
 40
6.0
 40
7.0
 40
7.0
 40
7.0
 40
8.0
 40
8.0
 40
8.0
 40
9.0
 40
9.0
 40
9.0
 40
10.0
 40
10.0
 40
10.0
 40
11.0
 40
11.0
 40
11.0
 40
12.0
 40
12.0
 40
12.0
 40
13.0
 40
13.0
 40
13.0
 40
14.0
 40
14.0
 40
14.0
 40
14.0
 10
11.72329820127924
 20
27.05030408394923
 30
0.0
 10
11.72329820127924
 20
27.05030408394923
 30
0.0
 10
11.70826035948613
 20
27.18142441811784
 30
0.0
 10
11.70826035948613
 20
27.18142441811784
 30
0.0
 10
11.70826035948613
 20
27.18142441811784
 30
0.0
 10
11.70181803092871
 20
27.18142441811784
 30
0.0
 10
11.70181803092871
 20
27.18142441811784
 30
0.0
 10
11.64376817200225
 20
27.09974120416256
 30
0.0
 10
11.53200927446075
 20
27.02665350344299
 30
0.0
 10
11.38369791382074
 20
27.02665350344299
 30
0.0
 10
11.17304755037514
 20
27.02665350344299
 30
0.0
 10
11.06557779671277
 20
27.17496486408299
 30
0.0
 10
11.06557779671277
 20
27.32542940940128
 30
0.0
 10
11.06557779671277
 20
27.57690415434709
 30
0.0
 10
11.28913004275063
 20
27.71446681707312
 30
0.0
 10
11.69106933301473
 20
27.71233085787226
 30
0.0
 10
11.69106933301473
 20
27.71233085787226
 30
0.0
 10
11.69106933301473
 20
27.7338110282228
 30
0.0
 10
11.69106933301473
 20
27.7338110282228
 30
0.0
 10
11.69106933301473
 20
27.81980061153463
 30
0.0
 10
11.66741875250849
 20
27.97455430073205
 30
0.0
 10
11.45463242986204
 20
27.97455430073205
 30
0.0
 10
11.35791137411365
 20
27.97455430073205
 30
0.0
 10
11.25688394900869
 20
27.9444613916684
 30
0.0
 10
11.18379624828912
 20
27.89717745613334
 30
0.0
 10
11.18379624828912
 20
27.89717745613334
 30
0.0
 10
11.14081868211063
 20
28.02183823626711
 30
0.0
 10
11.14081868211063
 20
28.02183823626711
 30
0.0
 10
11.22679103994504
 20
28.07771768503786
 30
0.0
 10
11.3514518200788
 20
28.11427014813636
 30
0.0
 10
11.48257215424741
 20
28.11427014813636
 30
0.0
 10
11.80069227135538
 20
28.11427014813636
 30
0.0
 10
11.87806911595409
 20
27.89717745613334
 30
0.0
 10
11.87806911595409
 20
27.68868027736602
 30
0.0
 10
11.87806911595409
 20
27.68868027736602
 30
0.0
 10
11.87806911595409
 20
27.29964286969419
 30
0.0
 10
11.87806911595409
 20
27.29964286969419
 30
0.0
 10
11.87806911595409
 20
27.20936414250321
 30
0.0
 10
11.88235825983323
 20
27.12123859999052
 30
0.0
 10
11.89526014242549
 20
27.05030408394923
 30
0.0
 10
11.89526014242549
 20
27.05030408394923
 30
0.0
 10
11.72329820127924
 20
27.05030408394923
 30
0.0
 10
11.72329820127924
 20
27.05030408394923
 30
0.0
  0
SPLINE
  5
205
330
1D1
100
AcDbEntity
  8
0
370
     0
100
AcDbSpline
210
0.0
220
0.0
230
1.0
 70
    11
 71
     3
 72
    20
 73
    16
 74
     0
 42
0.0000000001
 43
0.0000000001
 12
1.0
 22
0.0
 32
0.0
 13
1.0
 23
0.0
 33
0.0
 40
0.0
 40
0.0
 40
0.0
 40
0.0
 40
1.0
 40
1.0
 40
1.0
 40
2.0
 40
2.0
 40
2.0
 40
3.0
 40
3.0
 40
3.0
 40
4.0
 40
4.0
 40
4.0
 40
5.0
 40
5.0
 40
5.0
 40
5.0
 10
11.69535847689387
 20
27.58121052370365
 30
0.0
 10
11.48901448280483
 20
27.58551689306022
 30
0.0
 10
11.25473076433041
 20
27.54896442996171
 30
0.0
 10
11.25473076433041
 20
27.34692680522924
 30
0.0
 10
11.25473076433041
 20
27.22440198429633
 30
0.0
 10
11.33641397828569
 20
27.16636935084729
 30
0.0
 10
11.43313503403408
 20
27.16636935084729
 30
0.0
 10
11.56854451208182
 20
27.16636935084729
 30
0.0
 10
11.65451686991623
 20
27.2523417086817
 30
0.0
 10
11.68460977897989
 20
27.34046725119439
 30
0.0
 10
11.69106933301473
 20
27.35981146234407
 30
0.0
 10
11.69535847689387
 20
27.38130885817203
 30
0.0
 10
11.69535847689387
 20
27.40065306932171
 30
0.0
 10
11.69535847689387
 20
27.40065306932171
 30
0.0
 10
11.69535847689387
 20
27.58121052370365
 30
0.0
 10
11.69535847689387
 20
27.58121052370365
 30
0.0
  0
HATCH
  5
206
330
1D1
100
AcDbEntity
  8
0
 62
     7
420
 16777215
100
AcDbHatch
 10
0.0
 20
0.0
 30
0.0
210
0.0
220
0.0
230
1.0
  2
SOLID
 70
     1
 71
     0
 91
        2
 92
        1
 93
        1
 72
     4
 94
        3
 73
     0
 74
     1
 95
       47
 96
       43
 40
0.0
 40
0.0
 40
0.0
 40
0.0
 40
1.0
 40
1.0
 40
1.0
 40
2.0
 40
2.0
 40
2.0
 40
3.0
 40
3.0
 40
3.0
 40
4.0
 40
4.0
 40
4.0
 40
5.0
 40
5.0
 40
5.0
 40
6.0
 40
6.0
 40
6.0
 40
7.0
 40
7.0
 40
7.0
 40
8.0
 40
8.0
 40
8.0
 40
9.0
 40
9.0
 40
9.0
 40
10.0
 40
10.0
 40
10.0
 40
11.0
 40
11.0
 40
11.0
 40
12.0
 40
12.0
 40
12.0
 40
13.0
 40
13.0
 40
13.0
 40
14.0
 40
14.0
 40
14.0
 40
14.0
 10
11.72329820127924
 20
27.05030408394923
 10
11.72329820127924
 20
27.05030408394923
 10
11.70826035948613
 20
27.18142441811784
 10
11.70826035948613
 20
27.18142441811784
 10
11.70826035948613
 20
27.18142441811784
 10
11.70181803092871
 20
27.18142441811784
 10
11.70181803092871
 20
27.18142441811784
 10
11.64376817200225
 20
27.09974120416256
 10
11.53200927446075
 20
27.02665350344299
 10
11.38369791382074
 20
27.02665350344299
 10
11.17304755037514
 20
27.02665350344299
 10
11.06557779671277
 20
27.17496486408299
 10
11.06557779671277
 20
27.32542940940128
 10
11.06557779671277
 20
27.57690415434709
 10
11.28913004275063
 20
27.71446681707312
 10
11.69106933301473
 20
27.71233085787226
 10
11.69106933301473
 20
27.71233085787226
 10
11.69106933301473
 20
27.7338110282228
 10
11.69106933301473
 20
27.7338110282228
 10
11.69106933301473
 20
27.81980061153463
 10
11.66741875250849
 20
27.97455430073205
 10
11.45463242986204
 20
27.97455430073205
 10
11.35791137411365
 20
27.97455430073205
 10
11.25688394900869
 20
27.9444613916684
 10
11.18379624828912
 20
27.89717745613334
 10
11.18379624828912
 20
27.89717745613334
 10
11.14081868211063
 20
28.02183823626711
 10
11.14081868211063
 20
28.02183823626711
 10
11.22679103994504
 20
28.07771768503786
 10
11.3514518200788
 20
28.11427014813636
 10
11.48257215424741
 20
28.11427014813636
 10
11.80069227135538
 20
28.11427014813636
 10
11.87806911595409
 20
27.89717745613334
 10
11.87806911595409
 20
27.68868027736602
 10
11.87806911595409
 20
27.68868027736602
 10
11.87806911595409
 20
27.29964286969419
 10
11.87806911595409
 20
27.29964286969419
 10
11.87806911595409
 20
27.20936414250321
 10
11.88235825983323
 20
27.12123859999052
 10
11.89526014242549
 20
27.05030408394923
 10
11.89526014242549
 20
27.05030408394923
 10
11.72329820127924
 20
27.05030408394923
 10
11.72329820127924
 20
27.05030408394923
 97
        0
 97
        0
 92
        1
 93
        1
 72
     4
 94
        3
 73
     0
 74
     1
 95
       20
 96
       16
 40
0.0
 40
0.0
 40
0.0
 40
0.0
 40
1.0
 40
1.0
 40
1.0
 40
2.0
 40
2.0
 40
2.0
 40
3.0
 40
3.0
 40
3.0
 40
4.0
 40
4.0
 40
4.0
 40
5.0
 40
5.0
 40
5.0
 40
5.0
 10
11.69535847689387
 20
27.58121052370365
 10
11.48901448280483
 20
27.58551689306022
 10
11.25473076433041
 20
27.54896442996171
 10
11.25473076433041
 20
27.34692680522924
 10
11.25473076433041
 20
27.22440198429633
 10
11.33641397828569
 20
27.16636935084729
 10
11.43313503403408
 20
27.16636935084729
 10
11.56854451208182
 20
27.16636935084729
 10
11.65451686991623
 20
27.2523417086817
 10
11.68460977897989
 20
27.34046725119439
 10
11.69106933301473
 20
27.35981146234407
 10
11.69535847689387
 20
27.38130885817203
 10
11.69535847689387
 20
27.40065306932171
 10
11.69535847689387
 20
27.40065306932171
 10
11.69535847689387
 20
27.58121052370365
 10
11.69535847689387
 20
27.58121052370365
 97
        0
 97
        0
 75
     2
 76
     1
 98
        0
  0
SPLINE
  5
207
330
1D1
100
AcDbEntity
  8
0
370
     0
100
AcDbSpline
210
0.0
220
0.0
230
1.0
 70
    11
 71
     3
 72
    47
 73
    43
 74
     0
 42
0.0000000001
 43
0.0000000001
 12
1.0
 22
0.0
 32
0.0
 13
1.0
 23
0.0
 33
0.0
 40
0.0
 40
0.0
 40
0.0
 40
0.0
 40
1.0
 40
1.0
 40
1.0
 40
2.0
 40
2.0
 40
2.0
 40
3.0
 40
3.0
 40
3.0
 40
4.0
 40
4.0
 40
4.0
 40
5.0
 40
5.0
 40
5.0
 40
6.0
 40
6.0
 40
6.0
 40
7.0
 40
7.0
 40
7.0
 40
8.0
 40
8.0
 40
8.0
 40
9.0
 40
9.0
 40
9.0
 40
10.0
 40
10.0
 40
10.0
 40
11.0
 40
11.0
 40
11.0
 40
12.0
 40
12.0
 40
12.0
 40
13.0
 40
13.0
 40
13.0
 40
14.0
 40
14.0
 40
14.0
 40
14.0
 10
12.06493109507404
 20
27.15992702228988
 30
0.0
 10
12.06493109507404
 20
27.15992702228988
 30
0.0
 10
12.53565171670115
 20
27.77249945052215
 30
0.0
 10
12.53565171670115
 20
27.77249945052215
 30
0.0
 10
12.58079969303535
 20
27.82839612477033
 30
0.0
 10
12.62377725921385
 20
27.87783324498367
 30
0.0
 10
12.6710611947489
 20
27.93371269375442
 30
0.0
 10
12.6710611947489
 20
27.93371269375442
 30
0.0
 10
12.6710611947489
 20
27.93801906311098
 30
0.0
 10
12.6710611947489
 20
27.93801906311098
 30
0.0
 10
12.6710611947489
 20
27.93801906311098
 30
0.0
 10
12.10792588672996
 20
27.93801906311098
 30
0.0
 10
12.10792588672996
 20
27.93801906311098
 30
0.0
 10
12.10792588672996
 20
27.93801906311098
 30
0.0
 10
12.10792588672996
 20
28.09061956763012
 30
0.0
 10
12.10792588672996
 20
28.09061956763012
 30
0.0
 10
12.10792588672996
 20
28.09061956763012
 30
0.0
 10
12.90105576934418
 20
28.09061956763012
 30
0.0
 10
12.90105576934418
 20
28.09061956763012
 30
0.0
 10
12.90105576934418
 20
28.09061956763012
 30
0.0
 10
12.8989025846659
 20
27.97240111605377
 30
0.0
 10
12.8989025846659
 20
27.97240111605377
 30
0.0
 10
12.8989025846659
 20
27.97240111605377
 30
0.0
 10
12.4346242915962
 20
27.3684242010572
 30
0.0
 10
12.4346242915962
 20
27.3684242010572
 30
0.0
 10
12.39164672541771
 20
27.31039156760816
 30
0.0
 10
12.3486519337618
 20
27.25880126271655
 30
0.0
 10
12.30136799822674
 20
27.20505777314665
 30
0.0
 10
12.30136799822674
 20
27.20505777314665
 30
0.0
 10
12.30136799822674
 20
27.20076862926751
 30
0.0
 10
12.30136799822674
 20
27.20076862926751
 30
0.0
 10
12.30136799822674
 20
27.20076862926751
 30
0.0
 10
12.90965128257988
 20
27.20076862926751
 30
0.0
 10
12.90965128257988
 20
27.20076862926751
 30
0.0
 10
12.90965128257988
 20
27.20076862926751
 30
0.0
 10
12.90965128257988
 20
27.05030408394923
 30
0.0
 10
12.90965128257988
 20
27.05030408394923
 30
0.0
 10
12.90965128257988
 20
27.05030408394923
 30
0.0
 10
12.06493109507404
 20
27.05030408394923
 30
0.0
 10
12.06493109507404
 20
27.05030408394923
 30
0.0
 10
12.06493109507404
 20
27.05030408394923
 30
0.0
 10
12.06493109507404
 20
27.15992702228988
 30
0.0
 10
12.06493109507404
 20
27.15992702228988
 30
0.0
  0
HATCH
  5
208
330
1D1
100
AcDbEntity
  8
0
 62
     7
420
 16777215
100
AcDbHatch
 10
0.0
 20
0.0
 30
0.0
210
0.0
220
0.0
230
1.0
  2
SOLID
 70
     1
 71
     0
 91
        1
 92
        1
 93
        1
 72
     4
 94
        3
 73
     0
 74
     1
 95
       47
 96
       43
 40
0.0
 40
0.0
 40
0.0
 40
0.0
 40
1.0
 40
1.0
 40
1.0
 40
2.0
 40
2.0
 40
2.0
 40
3.0
 40
3.0
 40
3.0
 40
4.0
 40
4.0
 40
4.0
 40
5.0
 40
5.0
 40
5.0
 40
6.0
 40
6.0
 40
6.0
 40
7.0
 40
7.0
 40
7.0
 40
8.0
 40
8.0
 40
8.0
 40
9.0
 40
9.0
 40
9.0
 40
10.0
 40
10.0
 40
10.0
 40
11.0
 40
11.0
 40
11.0
 40
12.0
 40
12.0
 40
12.0
 40
13.0
 40
13.0
 40
13.0
 40
14.0
 40
14.0
 40
14.0
 40
14.0
 10
12.06493109507404
 20
27.15992702228988
 10
12.06493109507404
 20
27.15992702228988
 10
12.53565171670115
 20
27.77249945052215
 10
12.53565171670115
 20
27.77249945052215
 10
12.58079969303535
 20
27.82839612477033
 10
12.62377725921385
 20
27.87783324498367
 10
12.6710611947489
 20
27.93371269375442
 10
12.6710611947489
 20
27.93371269375442
 10
12.6710611947489
 20
27.93801906311098
 10
12.6710611947489
 20
27.93801906311098
 10
12.6710611947489
 20
27.93801906311098
 10
12.10792588672996
 20
27.93801906311098
 10
12.10792588672996
 20
27.93801906311098
 10
12.10792588672996
 20
27.93801906311098
 10
12.10792588672996
 20
28.09061956763012
 10
12.10792588672996
 20
28.09061956763012
 10
12.10792588672996
 20
28.09061956763012
 10
12.90105576934418
 20
28.09061956763012
 10
12.90105576934418
 20
28.09061956763012
 10
12.90105576934418
 20
28.09061956763012
 10
12.8989025846659
 20
27.97240111605377
 10
12.8989025846659
 20
27.97240111605377
 10
12.8989025846659
 20
27.97240111605377
 10
12.4346242915962
 20
27.3684242010572
 10
12.4346242915962
 20
27.3684242010572
 10
12.39164672541771
 20
27.31039156760816
 10
12.3486519337618
 20
27.25880126271655
 10
12.30136799822674
 20
27.20505777314665
 10
12.30136799822674
 20
27.20505777314665
 10
12.30136799822674
 20
27.20076862926751
 10
12.30136799822674
 20
27.20076862926751
 10
12.30136799822674
 20
27.20076862926751
 10
12.90965128257988
 20
27.20076862926751
 10
12.90965128257988
 20
27.20076862926751
 10
12.90965128257988
 20
27.20076862926751
 10
12.90965128257988
 20
27.05030408394923
 10
12.90965128257988
 20
27.05030408394923
 10
12.90965128257988
 20
27.05030408394923
 10
12.06493109507404
 20
27.05030408394923
 10
12.06493109507404
 20
27.05030408394923
 10
12.06493109507404
 20
27.05030408394923
 10
12.06493109507404
 20
27.15992702228988
 10
12.06493109507404
 20
27.15992702228988
 97
        0
 97
        0
 75
     2
 76
     1
 98
        0
  0
SPLINE
  5
209
330
1D1
100
AcDbEntity
  8
0
370
     0
100
AcDbSpline
210
0.0
220
0.0
230
1.0
 70
    11
 71
     3
 72
    35
 73
    31
 74
     0
 42
0.0000000001
 43
0.0000000001
 12
1.0
 22
0.0
 32
0.0
 13
1.0
 23
0.0
 33
0.0
 40
0.0
 40
0.0
 40
0.0
 40
0.0
 40
1.0
 40
1.0
 40
1.0
 40
2.0
 40
2.0
 40
2.0
 40
3.0
 40
3.0
 40
3.0
 40
4.0
 40
4.0
 40
4.0
 40
5.0
 40
5.0
 40
5.0
 40
6.0
 40
6.0
 40
6.0
 40
7.0
 40
7.0
 40
7.0
 40
8.0
 40
8.0
 40
8.0
 40
9.0
 40
9.0
 40
9.0
 40
10.0
 40
10.0
 40
10.0
 40
10.0
 10
13.56502902221638
 20
28.47967420077939
 30
0.0
 10
13.64671223617165
 20
28.49686522725078
 30
0.0
 10
13.77567938566198
 20
28.50974988436561
 30
0.0
 10
13.90679971983059
 20
28.50974988436561
 30
0.0
 10
14.09378227729253
 20
28.50974988436561
 30
0.0
 10
14.21415391354716
 20
28.4775210161011
 30
0.0
 10
14.30444986621555
 20
28.40443331538153
 30
0.0
 10
14.37965630065856
 20
28.34855386661078
 30
0.0
 10
14.42478705151533
 20
28.26258150877637
 30
0.0
 10
14.42478705151533
 20
28.14865220107916
 30
0.0
 10
14.42478705151533
 20
28.00893635367485
 30
0.0
 10
14.33238959060093
 20
27.88642875821936
 30
0.0
 10
14.17977186060436
 20
27.83054930944861
 30
0.0
 10
14.17977186060436
 20
27.83054930944861
 30
0.0
 10
14.17977186060436
 20
27.82624294009205
 30
0.0
 10
14.17977186060436
 20
27.82624294009205
 30
0.0
 10
14.31733452333039
 20
27.79186088714926
 30
0.0
 10
14.47853054108523
 20
27.67793157945204
 30
0.0
 10
14.47853054108523
 20
27.46299207212731
 30
0.0
 10
14.47853054108523
 20
27.33833129199354
 30
0.0
 10
14.42909342087189
 20
27.24374619544601
 30
0.0
 10
14.35602294562974
 20
27.17282890488214
 30
0.0
 10
14.25501274600222
 20
27.08039699301289
 30
0.0
 10
14.09164631809167
 20
27.03740220135697
 30
0.0
 10
13.85520941493897
 20
27.03740220135697
 30
0.0
 10
13.72624226544865
 20
27.03740220135697
 30
0.0
 10
13.62736802502198
 20
27.04599771459267
 30
0.0
 10
13.56502902221638
 20
27.05461045330579
 30
0.0
 10
13.56502902221638
 20
27.05461045330579
 30
0.0
 10
13.56502902221638
 20
28.47967420077939
 30
0.0
 10
13.56502902221638
 20
28.47967420077939
 30
0.0
  0
SPLINE
  5
20A
330
1D1
100
AcDbEntity
  8
0
370
     0
100
AcDbSpline
210
0.0
220
0.0
230
1.0
 70
    11
 71
     3
 72
    20
 73
    16
 74
     0
 42
0.0000000001
 43
0.0000000001
 12
1.0
 22
0.0
 32
0.0
 13
1.0
 23
0.0
 33
0.0
 40
0.0
 40
0.0
 40
0.0
 40
0.0
 40
1.0
 40
1.0
 40
1.0
 40
2.0
 40
2.0
 40
2.0
 40
3.0
 40
3.0
 40
3.0
 40
4.0
 40
4.0
 40
4.0
 40
5.0
 40
5.0
 40
5.0
 40
5.0
 10
13.75202880515574
 20
27.88642875821936
 30
0.0
 10
13.75202880515574
 20
27.88642875821936
 30
0.0
 10
13.92183756162371
 20
27.88642875821936
 30
0.0
 10
13.92183756162371
 20
27.88642875821936
 30
0.0
 10
14.11958604247705
 20
27.88642875821936
 30
0.0
 10
14.23565130937511
 20
27.98959214252517
 30
0.0
 10
14.23565130937511
 20
28.12930798992948
 30
0.0
 10
14.23565130937511
 20
28.29911674639744
 30
0.0
 10
14.10670138536221
 20
28.36574489308217
 30
0.0
 10
13.91753119226714
 20
28.36574489308217
 30
0.0
 10
13.83155883443273
 20
28.36574489308217
 30
0.0
 10
13.7821217142194
 20
28.35930256452476
 30
0.0
 10
13.75202880515574
 20
28.35284301048991
 30
0.0
 10
13.75202880515574
 20
28.35284301048991
 30
0.0
 10
13.75202880515574
 20
27.88642875821936
 30
0.0
 10
13.75202880515574
 20
27.88642875821936
 30
0.0
  0
SPLINE
  5
20B
330
1D1
100
AcDbEntity
  8
0
370
     0
100
AcDbSpline
210
0.0
220
0.0
230
1.0
 70
    11
 71
     3
 72
    20
 73
    16
 74
     0
 42
0.0000000001
 43
0.0000000001
 12
1.0
 22
0.0
 32
0.0
 13
1.0
 23
0.0
 33
0.0
 40
0.0
 40
0.0
 40
0.0
 40
0.0
 40
1.0
 40
1.0
 40
1.0
 40
2.0
 40
2.0
 40
2.0
 40
3.0
 40
3.0
 40
3.0
 40
4.0
 40
4.0
 40
4.0
 40
5.0
 40
5.0
 40
5.0
 40
5.0
 10
13.75202880515574
 20
27.19217311603182
 30
0.0
 10
13.78858126825424
 20
27.18571356199697
 30
0.0
 10
13.84230753234671
 20
27.18356037731869
 30
0.0
 10
13.90893567903145
 20
27.18356037731869
 30
0.0
 10
14.10239501600565
 20
27.18356037731869
 30
0.0
 10
14.28078206023189
 20
27.25449489335999
 30
0.0
 10
14.28078206023189
 20
27.46514525680559
 30
0.0
 10
14.28078206023189
 20
27.66289373765893
 30
0.0
 10
14.11097330376392
 20
27.74455972613677
 30
0.0
 10
13.90679971983059
 20
27.74455972613677
 30
0.0
 10
13.90679971983059
 20
27.74455972613677
 30
0.0
 10
13.75202880515574
 20
27.74455972613677
 30
0.0
 10
13.75202880515574
 20
27.74455972613677
 30
0.0
 10
13.75202880515574
 20
27.74455972613677
 30
0.0
 10
13.75202880515574
 20
27.19217311603182
 30
0.0
 10
13.75202880515574
 20
27.19217311603182
 30
0.0
  0
HATCH
  5
20C
330
1D1
100
AcDbEntity
  8
0
 62
     7
420
 16777215
100
AcDbHatch
 10
0.0
 20
0.0
 30
0.0
210
0.0
220
0.0
230
1.0
  2
SOLID
 70
     1
 71
     0
 91
        3
 92
        1
 93
        1
 72
     4
 94
        3
 73
     0
 74
     1
 95
       35
 96
       31
 40
0.0
 40
0.0
 40
0.0
 40
0.0
 40
1.0
 40
1.0
 40
1.0
 40
2.0
 40
2.0
 40
2.0
 40
3.0
 40
3.0
 40
3.0
 40
4.0
 40
4.0
 40
4.0
 40
5.0
 40
5.0
 40
5.0
 40
6.0
 40
6.0
 40
6.0
 40
7.0
 40
7.0
 40
7.0
 40
8.0
 40
8.0
 40
8.0
 40
9.0
 40
9.0
 40
9.0
 40
10.0
 40
10.0
 40
10.0
 40
10.0
 10
13.56502902221638
 20
28.47967420077939
 10
13.64671223617165
 20
28.49686522725078
 10
13.77567938566198
 20
28.50974988436561
 10
13.90679971983059
 20
28.50974988436561
 10
14.09378227729253
 20
28.50974988436561
 10
14.21415391354716
 20
28.4775210161011
 10
14.30444986621555
 20
28.40443331538153
 10
14.37965630065856
 20
28.34855386661078
 10
14.42478705151533
 20
28.26258150877637
 10
14.42478705151533
 20
28.14865220107916
 10
14.42478705151533
 20
28.00893635367485
 10
14.33238959060093
 20
27.88642875821936
 10
14.17977186060436
 20
27.83054930944861
 10
14.17977186060436
 20
27.83054930944861
 10
14.17977186060436
 20
27.82624294009205
 10
14.17977186060436
 20
27.82624294009205
 10
14.31733452333039
 20
27.79186088714926
 10
14.47853054108523
 20
27.67793157945204
 10
14.47853054108523
 20
27.46299207212731
 10
14.47853054108523
 20
27.33833129199354
 10
14.42909342087189
 20
27.24374619544601
 10
14.35602294562974
 20
27.17282890488214
 10
14.25501274600222
 20
27.08039699301289
 10
14.09164631809167
 20
27.03740220135697
 10
13.85520941493897
 20
27.03740220135697
 10
13.72624226544865
 20
27.03740220135697
 10
13.62736802502198
 20
27.04599771459267
 10
13.56502902221638
 20
27.05461045330579
 10
13.56502902221638
 20
27.05461045330579
 10
13.56502902221638
 20
28.47967420077939
 10
13.56502902221638
 20
28.47967420077939
 97
        0
 97
        0
 92
        1
 93
        1
 72
     4
 94
        3
 73
     0
 74
     1
 95
       20
 96
       16
 40
0.0
 40
0.0
 40
0.0
 40
0.0
 40
1.0
 40
1.0
 40
1.0
 40
2.0
 40
2.0
 40
2.0
 40
3.0
 40
3.0
 40
3.0
 40
4.0
 40
4.0
 40
4.0
 40
5.0
 40
5.0
 40
5.0
 40
5.0
 10
13.75202880515574
 20
27.88642875821936
 10
13.75202880515574
 20
27.88642875821936
 10
13.92183756162371
 20
27.88642875821936
 10
13.92183756162371
 20
27.88642875821936
 10
14.11958604247705
 20
27.88642875821936
 10
14.23565130937511
 20
27.98959214252517
 10
14.23565130937511
 20
28.12930798992948
 10
14.23565130937511
 20
28.29911674639744
 10
14.10670138536221
 20
28.36574489308217
 10
13.91753119226714
 20
28.36574489308217
 10
13.83155883443273
 20
28.36574489308217
 10
13.7821217142194
 20
28.35930256452476
 10
13.75202880515574
 20
28.35284301048991
 10
13.75202880515574
 20
28.35284301048991
 10
13.75202880515574
 20
27.88642875821936
 10
13.75202880515574
 20
27.88642875821936
 97
        0
 97
        0
 92
        1
 93
        1
 72
     4
 94
        3
 73
     0
 74
     1
 95
       20
 96
       16
 40
0.0
 40
0.0
 40
0.0
 40
0.0
 40
1.0
 40
1.0
 40
1.0
 40
2.0
 40
2.0
 40
2.0
 40
3.0
 40
3.0
 40
3.0
 40
4.0
 40
4.0
 40
4.0
 40
5.0
 40
5.0
 40
5.0
 40
5.0
 10
13.75202880515574
 20
27.19217311603182
 10
13.78858126825424
 20
27.18571356199697
 10
13.84230753234671
 20
27.18356037731869
 10
13.90893567903145
 20
27.18356037731869
 10
14.10239501600565
 20
27.18356037731869
 10
14.28078206023189
 20
27.25449489335999
 10
14.28078206023189
 20
27.46514525680559
 10
14.28078206023189
 20
27.66289373765893
 10
14.11097330376392
 20
27.74455972613677
 10
13.90679971983059
 20
27.74455972613677
 10
13.90679971983059
 20
27.74455972613677
 10
13.75202880515574
 20
27.74455972613677
 10
13.75202880515574
 20
27.74455972613677
 10
13.75202880515574
 20
27.74455972613677
 10
13.75202880515574
 20
27.19217311603182
 10
13.75202880515574
 20
27.19217311603182
 97
        0
 97
        0
 75
     2
 76
     1
 98
        0
  0
SPLINE
  5
20D
330
1D1
100
AcDbEntity
  8
0
370
     0
100
AcDbSpline
210
0.0
220
0.0
230
1.0
 70
    11
 71
     3
 72
    32
 73
    28
 74
     0
 42
0.0000000001
 43
0.0000000001
 12
1.0
 22
0.0
 32
0.0
 13
1.0
 23
0.0
 33
0.0
 40
0.0
 40
0.0
 40
0.0
 40
0.0
 40
1.0
 40
1.0
 40
1.0
 40
2.0
 40
2.0
 40
2.0
 40
3.0
 40
3.0
 40
3.0
 40
4.0
 40
4.0
 40
4.0
 40
5.0
 40
5.0
 40
5.0
 40
6.0
 40
6.0
 40
6.0
 40
7.0
 40
7.0
 40
7.0
 40
8.0
 40
8.0
 40
8.0
 40
9.0
 40
9.0
 40
9.0
 40
9.0
 10
14.837337235874
 20
27.53607977284688
 30
0.0
 10
14.84160915427571
 20
27.28029865854451
 30
0.0
 10
15.00497558218625
 20
27.17496486408299
 30
0.0
 10
15.19411132432647
 20
27.17496486408299
 30
0.0
 10
15.32953802785164
 20
27.17496486408299
 30
0.0
 10
15.41122124180692
 20
27.19861544458923
 30
0.0
 10
15.48215575784821
 20
27.22870835365289
 30
0.0
 10
15.48215575784821
 20
27.22870835365289
 30
0.0
 10
15.51440185159015
 20
27.09329887560515
 30
0.0
 10
15.51440185159015
 20
27.09329887560515
 30
0.0
 10
15.44777370490542
 20
27.06320596654149
 30
0.0
 10
15.33384439720821
 20
27.02880668812127
 30
0.0
 10
15.1683420100968
 20
27.02880668812127
 30
0.0
 10
14.84808593378798
 20
27.02880668812127
 30
0.0
 10
14.65677978149205
 20
27.23945705156687
 30
0.0
 10
14.65677978149205
 20
27.55327079931828
 30
0.0
 10
14.65677978149205
 20
27.86708454706968
 30
0.0
 10
14.84160915427571
 20
28.11427014813636
 30
0.0
 10
15.14470865506799
 20
28.11427014813636
 30
0.0
 10
15.48429171704906
 20
28.11427014813636
 30
0.0
 10
15.57458766971746
 20
27.81549424217807
 30
0.0
 10
15.57458766971746
 20
27.62420531535957
 30
0.0
 10
15.57458766971746
 20
27.58551689306022
 30
0.0
 10
15.5702813003609
 20
27.55542398399656
 30
0.0
 10
15.56811089020519
 20
27.53607977284688
 30
0.0
 10
15.56811089020519
 20
27.53607977284688
 30
0.0
 10
14.837337235874
 20
27.53607977284688
 30
0.0
 10
14.837337235874
 20
27.53607977284688
 30
0.0
  0
SPLINE
  5
20E
330
1D1
100
AcDbEntity
  8
0
370
     0
100
AcDbSpline
210
0.0
220
0.0
230
1.0
 70
    11
 71
     3
 72
    14
 73
    10
 74
     0
 42
0.0000000001
 43
0.0000000001
 12
1.0
 22
0.0
 32
0.0
 13
1.0
 23
0.0
 33
0.0
 40
0.0
 40
0.0
 40
0.0
 40
0.0
 40
1.0
 40
1.0
 40
1.0
 40
2.0
 40
2.0
 40
2.0
 40
3.0
 40
3.0
 40
3.0
 40
3.0
 10
15.39185980517981
 20
27.67148925089463
 30
0.0
 10
15.39403021533552
 20
27.79186088714926
 30
0.0
 10
15.34242268496648
 20
27.97886067008861
 30
0.0
 10
15.12965358779745
 20
27.97886067008861
 30
0.0
 10
14.93834743550152
 20
27.97886067008861
 30
0.0
 10
14.8545282623454
 20
27.80259235958581
 30
0.0
 10
14.83947319507485
 20
27.67148925089463
 30
0.0
 10
14.83947319507485
 20
27.67148925089463
 30
0.0
 10
15.39185980517981
 20
27.67148925089463
 30
0.0
 10
15.39185980517981
 20
27.67148925089463
 30
0.0
  0
HATCH
  5
20F
330
1D1
100
AcDbEntity
  8
0
 62
     7
420
 16777215
100
AcDbHatch
 10
0.0
 20
0.0
 30
0.0
210
0.0
220
0.0
230
1.0
  2
SOLID
 70
     1
 71
     0
 91
        2
 92
        1
 93
        1
 72
     4
 94
        3
 73
     0
 74
     1
 95
       32
 96
       28
 40
0.0
 40
0.0
 40
0.0
 40
0.0
 40
1.0
 40
1.0
 40
1.0
 40
2.0
 40
2.0
 40
2.0
 40
3.0
 40
3.0
 40
3.0
 40
4.0
 40
4.0
 40
4.0
 40
5.0
 40
5.0
 40
5.0
 40
6.0
 40
6.0
 40
6.0
 40
7.0
 40
7.0
 40
7.0
 40
8.0
 40
8.0
 40
8.0
 40
9.0
 40
9.0
 40
9.0
 40
9.0
 10
14.837337235874
 20
27.53607977284688
 10
14.84160915427571
 20
27.28029865854451
 10
15.00497558218625
 20
27.17496486408299
 10
15.19411132432647
 20
27.17496486408299
 10
15.32953802785164
 20
27.17496486408299
 10
15.41122124180692
 20
27.19861544458923
 10
15.48215575784821
 20
27.22870835365289
 10
15.48215575784821
 20
27.22870835365289
 10
15.51440185159015
 20
27.09329887560515
 10
15.51440185159015
 20
27.09329887560515
 10
15.44777370490542
 20
27.06320596654149
 10
15.33384439720821
 20
27.02880668812127
 10
15.1683420100968
 20
27.02880668812127
 10
14.84808593378798
 20
27.02880668812127
 10
14.65677978149205
 20
27.23945705156687
 10
14.65677978149205
 20
27.55327079931828
 10
14.65677978149205
 20
27.86708454706968
 10
14.84160915427571
 20
28.11427014813636
 10
15.14470865506799
 20
28.11427014813636
 10
15.48429171704906
 20
28.11427014813636
 10
15.57458766971746
 20
27.81549424217807
 10
15.57458766971746
 20
27.62420531535957
 10
15.57458766971746
 20
27.58551689306022
 10
15.5702813003609
 20
27.55542398399656
 10
15.56811089020519
 20
27.53607977284688
 10
15.56811089020519
 20
27.53607977284688
 10
14.837337235874
 20
27.53607977284688
 10
14.837337235874
 20
27.53607977284688
 97
        0
 97
        0
 92
        1
 93
        1
 72
     4
 94
        3
 73
     0
 74
     1
 95
       14
 96
       10
 40
0.0
 40
0.0
 40
0.0
 40
0.0
 40
1.0
 40
1.0
 40
1.0
 40
2.0
 40
2.0
 40
2.0
 40
3.0
 40
3.0
 40
3.0
 40
3.0
 10
15.39185980517981
 20
27.67148925089463
 10
15.39403021533552
 20
27.79186088714926
 10
15.34242268496648
 20
27.97886067008861
 10
15.12965358779745
 20
27.97886067008861
 10
14.93834743550152
 20
27.97886067008861
 10
14.8545282623454
 20
27.80259235958581
 10
14.83947319507485
 20
27.67148925089463
 10
14.83947319507485
 20
27.67148925089463
 10
15.39185980517981
 20
27.67148925089463
 10
15.39185980517981
 20
27.67148925089463
 97
        0
 97
        0
 75
     2
 76
     1
 98
        0
  0
SPLINE
  5
210
330
1D1
100
AcDbEntity
  8
0
370
     0
100
AcDbSpline
210
0.0
220
0.0
230
1.0
 70
    11
 71
     3
 72
    29
 73
    25
 74
     0
 42
0.0000000001
 43
0.0000000001
 12
1.0
 22
0.0
 32
0.0
 13
1.0
 23
0.0
 33
0.0
 40
0.0
 40
0.0
 40
0.0
 40
0.0
 40
1.0
 40
1.0
 40
1.0
 40
2.0
 40
2.0
 40
2.0
 40
3.0
 40
3.0
 40
3.0
 40
4.0
 40
4.0
 40
4.0
 40
5.0
 40
5.0
 40
5.0
 40
6.0
 40
6.0
 40
6.0
 40
7.0
 40
7.0
 40
7.0
 40
8.0
 40
8.0
 40
8.0
 40
8.0
 10
15.55508842927095
 20
26.74939221879008
 30
0.0
 10
15.64107801258278
 20
26.7558345473475
 30
0.0
 10
15.71631889798064
 20
26.77948512785374
 30
0.0
 10
15.76144964883741
 20
26.82892224806707
 30
0.0
 10
15.8130227282516
 20
26.88909084071696
 30
0.0
 10
15.83238416487871
 20
26.97077405467223
 30
0.0
 10
15.83238416487871
 20
27.22011284041719
 30
0.0
 10
15.83238416487871
 20
27.22011284041719
 30
0.0
 10
15.83238416487871
 20
28.09061956763012
 30
0.0
 10
15.83238416487871
 20
28.09061956763012
 30
0.0
 10
15.83238416487871
 20
28.09061956763012
 30
0.0
 10
16.02151990701892
 20
28.09061956763012
 30
0.0
 10
16.02151990701892
 20
28.09061956763012
 30
0.0
 10
16.02151990701892
 20
28.09061956763012
 30
0.0
 10
16.02151990701892
 20
27.14702513969762
 30
0.0
 10
16.02151990701892
 20
27.14702513969762
 30
0.0
 10
16.02151990701892
 20
26.94498751496514
 30
0.0
 10
15.98927381327699
 20
26.81386718079653
 30
0.0
 10
15.89687635236259
 20
26.71929930972642
 30
0.0
 10
15.8130227282516
 20
26.63546291109287
 30
0.0
 10
15.67546006552558
 20
26.60108085815008
 30
0.0
 10
15.57444986589805
 20
26.60108085815008
 30
0.0
 10
15.57444986589805
 20
26.60108085815008
 30
0.0
 10
15.55508842927095
 20
26.74939221879008
 30
0.0
 10
15.55508842927095
 20
26.74939221879008
 30
0.0
  0
SPLINE
  5
211
330
1D1
100
AcDbEntity
  8
0
370
     0
100
AcDbSpline
210
0.0
220
0.0
230
1.0
 70
    11
 71
     3
 72
    17
 73
    13
 74
     0
 42
0.0000000001
 43
0.0000000001
 12
1.0
 22
0.0
 32
0.0
 13
1.0
 23
0.0
 33
0.0
 40
0.0
 40
0.0
 40
0.0
 40
0.0
 40
1.0
 40
1.0
 40
1.0
 40
2.0
 40
2.0
 40
2.0
 40
3.0
 40
3.0
 40
3.0
 40
4.0
 40
4.0
 40
4.0
 40
4.0
 10
16.04301730284688
 20
28.38293591955357
 30
0.0
 10
16.04515326204774
 20
28.3206141422254
 30
0.0
 10
16.00002251119097
 20
28.2668706526555
 30
0.0
 10
15.92481607674796
 20
28.2668706526555
 30
0.0
 10
15.85388156070667
 20
28.2668706526555
 30
0.0
 10
15.80875080984989
 20
28.3206141422254
 30
0.0
 10
15.80875080984989
 20
28.38293591955357
 30
0.0
 10
15.80875080984989
 20
28.44958129171573
 30
0.0
 10
15.85818793006323
 20
28.50115437112992
 30
0.0
 10
15.92908799514967
 20
28.50115437112992
 30
0.0
 10
15.99788655199011
 20
28.50115437112992
 30
0.0
 10
16.04301730284688
 20
28.44958129171573
 30
0.0
 10
16.04301730284688
 20
28.38293591955357
 30
0.0
  0
HATCH
  5
212
330
1D1
100
AcDbEntity
  8
0
 62
     7
420
 16777215
100
AcDbHatch
 10
0.0
 20
0.0
 30
0.0
210
0.0
220
0.0
230
1.0
  2
SOLID
 70
     1
 71
     0
 91
        2
 92
        1
 93
        1
 72
     4
 94
        3
 73
     0
 74
     1
 95
       29
 96
       25
 40
0.0
 40
0.0
 40
0.0
 40
0.0
 40
1.0
 40
1.0
 40
1.0
 40
2.0
 40
2.0
 40
2.0
 40
3.0
 40
3.0
 40
3.0
 40
4.0
 40
4.0
 40
4.0
 40
5.0
 40
5.0
 40
5.0
 40
6.0
 40
6.0
 40
6.0
 40
7.0
 40
7.0
 40
7.0
 40
8.0
 40
8.0
 40
8.0
 40
8.0
 10
15.55508842927095
 20
26.74939221879008
 10
15.64107801258278
 20
26.7558345473475
 10
15.71631889798064
 20
26.77948512785374
 10
15.76144964883741
 20
26.82892224806707
 10
15.8130227282516
 20
26.88909084071696
 10
15.83238416487871
 20
26.97077405467223
 10
15.83238416487871
 20
27.22011284041719
 10
15.83238416487871
 20
27.22011284041719
 10
15.83238416487871
 20
28.09061956763012
 10
15.83238416487871
 20
28.09061956763012
 10
15.83238416487871
 20
28.09061956763012
 10
16.02151990701892
 20
28.09061956763012
 10
16.02151990701892
 20
28.09061956763012
 10
16.02151990701892
 20
28.09061956763012
 10
16.02151990701892
 20
27.14702513969762
 10
16.02151990701892
 20
27.14702513969762
 10
16.02151990701892
 20
26.94498751496514
 10
15.98927381327699
 20
26.81386718079653
 10
15.89687635236259
 20
26.71929930972642
 10
15.8130227282516
 20
26.63546291109287
 10
15.67546006552558
 20
26.60108085815008
 10
15.57444986589805
 20
26.60108085815008
 10
15.57444986589805
 20
26.60108085815008
 10
15.55508842927095
 20
26.74939221879008
 10
15.55508842927095
 20
26.74939221879008
 97
        0
 97
        0
 92
        1
 93
        1
 72
     4
 94
        3
 73
     0
 74
     1
 95
       17
 96
       13
 40
0.0
 40
0.0
 40
0.0
 40
0.0
 40
1.0
 40
1.0
 40
1.0
 40
2.0
 40
2.0
 40
2.0
 40
3.0
 40
3.0
 40
3.0
 40
4.0
 40
4.0
 40
4.0
 40
4.0
 10
16.04301730284688
 20
28.38293591955357
 10
16.04515326204774
 20
28.3206141422254
 10
16.00002251119097
 20
28.2668706526555
 10
15.92481607674796
 20
28.2668706526555
 10
15.85388156070667
 20
28.2668706526555
 10
15.80875080984989
 20
28.3206141422254
 10
15.80875080984989
 20
28.38293591955357
 10
15.80875080984989
 20
28.44958129171573
 10
15.85818793006323
 20
28.50115437112992
 10
15.92908799514967
 20
28.50115437112992
 10
15.99788655199011
 20
28.50115437112992
 10
16.04301730284688
 20
28.44958129171573
 10
16.04301730284688
 20
28.38293591955357
 97
        0
 97
        0
 75
     2
 76
     1
 98
        0
  0
SPLINE
  5
213
330
1D1
100
AcDbEntity
  8
0
370
     0
100
AcDbSpline
210
0.0
220
0.0
230
1.0
 70
    11
 71
     3
 72
    47
 73
    43
 74
     0
 42
0.0000000001
 43
0.0000000001
 12
1.0
 22
0.0
 32
0.0
 13
1.0
 23
0.0
 33
0.0
 40
0.0
 40
0.0
 40
0.0
 40
0.0
 40
1.0
 40
1.0
 40
1.0
 40
2.0
 40
2.0
 40
2.0
 40
3.0
 40
3.0
 40
3.0
 40
4.0
 40
4.0
 40
4.0
 40
5.0
 40
5.0
 40
5.0
 40
6.0
 40
6.0
 40
6.0
 40
7.0
 40
7.0
 40
7.0
 40
8.0
 40
8.0
 40
8.0
 40
9.0
 40
9.0
 40
9.0
 40
10.0
 40
10.0
 40
10.0
 40
11.0
 40
11.0
 40
11.0
 40
12.0
 40
12.0
 40
12.0
 40
13.0
 40
13.0
 40
13.0
 40
14.0
 40
14.0
 40
14.0
 40
14.0
 10
16.90701279959269
 20
27.05030408394923
 30
0.0
 10
16.90701279959269
 20
27.05030408394923
 30
0.0
 10
16.89195773232215
 20
27.18142441811784
 30
0.0
 10
16.89195773232215
 20
27.18142441811784
 30
0.0
 10
16.89195773232215
 20
27.18142441811784
 30
0.0
 10
16.88551540376473
 20
27.18142441811784
 30
0.0
 10
16.88551540376473
 20
27.18142441811784
 30
0.0
 10
16.82749999579312
 20
27.09974120416256
 30
0.0
 10
16.71570664729677
 20
27.02665350344299
 30
0.0
 10
16.56739528665676
 20
27.02665350344299
 30
0.0
 10
16.35676214868858
 20
27.02665350344299
 30
0.0
 10
16.24930962050365
 20
27.17496486408299
 30
0.0
 10
16.24930962050365
 20
27.32542940940128
 30
0.0
 10
16.24930962050365
 20
27.57690415434709
 30
0.0
 10
16.47282741558665
 20
27.71446681707312
 30
0.0
 10
16.87476670585075
 20
27.71233085787226
 30
0.0
 10
16.87476670585075
 20
27.71233085787226
 30
0.0
 10
16.87476670585075
 20
27.7338110282228
 30
0.0
 10
16.87476670585075
 20
27.7338110282228
 30
0.0
 10
16.87476670585075
 20
27.81980061153463
 30
0.0
 10
16.85113335082194
 20
27.97455430073205
 30
0.0
 10
16.63832980269806
 20
27.97455430073205
 30
0.0
 10
16.54162597242709
 20
27.97455430073205
 30
0.0
 10
16.44058132184471
 20
27.9444613916684
 30
0.0
 10
16.36751084660257
 20
27.89717745613334
 30
0.0
 10
16.36751084660257
 20
27.89717745613334
 30
0.0
 10
16.32451605494665
 20
28.02183823626711
 30
0.0
 10
16.32451605494665
 20
28.02183823626711
 30
0.0
 10
16.41050563825848
 20
28.07771768503786
 30
0.0
 10
16.53518364386968
 20
28.11427014813636
 30
0.0
 10
16.66626952708343
 20
28.11427014813636
 30
0.0
 10
16.9843896441914
 20
28.11427014813636
 30
0.0
 10
17.06176648879011
 20
27.89717745613334
 30
0.0
 10
17.06176648879011
 20
27.68868027736602
 30
0.0
 10
17.06176648879011
 20
27.68868027736602
 30
0.0
 10
17.06176648879011
 20
27.29964286969419
 30
0.0
 10
17.06176648879011
 20
27.29964286969419
 30
0.0
 10
17.06176648879011
 20
27.20936414250321
 30
0.0
 10
17.06607285814668
 20
27.12123859999052
 30
0.0
 10
17.07895751526151
 20
27.05030408394923
 30
0.0
 10
17.07895751526151
 20
27.05030408394923
 30
0.0
 10
16.90701279959269
 20
27.05030408394923
 30
0.0
 10
16.90701279959269
 20
27.05030408394923
 30
0.0
  0
SPLINE
  5
214
330
1D1
100
AcDbEntity
  8
0
370
     0
100
AcDbSpline
210
0.0
220
0.0
230
1.0
 70
    11
 71
     3
 72
    20
 73
    16
 74
     0
 42
0.0000000001
 43
0.0000000001
 12
1.0
 22
0.0
 32
0.0
 13
1.0
 23
0.0
 33
0.0
 40
0.0
 40
0.0
 40
0.0
 40
0.0
 40
1.0
 40
1.0
 40
1.0
 40
2.0
 40
2.0
 40
2.0
 40
3.0
 40
3.0
 40
3.0
 40
4.0
 40
4.0
 40
4.0
 40
5.0
 40
5.0
 40
5.0
 40
5.0
 10
16.87907307520731
 20
27.58121052370365
 30
0.0
 10
16.6727463065957
 20
27.58551689306022
 30
0.0
 10
16.43844536264386
 20
27.54896442996171
 30
0.0
 10
16.43844536264386
 20
27.34692680522924
 30
0.0
 10
16.43844536264386
 20
27.22440198429633
 30
0.0
 10
16.52012857659913
 20
27.16636935084729
 30
0.0
 10
16.6168324068701
 20
27.16636935084729
 30
0.0
 10
16.75225911039527
 20
27.16636935084729
 30
0.0
 10
16.8382486937071
 20
27.2523417086817
 30
0.0
 10
16.86832437729333
 20
27.34046725119439
 30
0.0
 10
16.87476670585075
 20
27.35981146234407
 30
0.0
 10
16.87907307520731
 20
27.38130885817203
 30
0.0
 10
16.87907307520731
 20
27.40065306932171
 30
0.0
 10
16.87907307520731
 20
27.40065306932171
 30
0.0
 10
16.87907307520731
 20
27.58121052370365
 30
0.0
 10
16.87907307520731
 20
27.58121052370365
 30
0.0
  0
HATCH
  5
215
330
1D1
100
AcDbEntity
  8
0
 62
     7
420
 16777215
100
AcDbHatch
 10
0.0
 20
0.0
 30
0.0
210
0.0
220
0.0
230
1.0
  2
SOLID
 70
     1
 71
     0
 91
        2
 92
        1
 93
        1
 72
     4
 94
        3
 73
     0
 74
     1
 95
       47
 96
       43
 40
0.0
 40
0.0
 40
0.0
 40
0.0
 40
1.0
 40
1.0
 40
1.0
 40
2.0
 40
2.0
 40
2.0
 40
3.0
 40
3.0
 40
3.0
 40
4.0
 40
4.0
 40
4.0
 40
5.0
 40
5.0
 40
5.0
 40
6.0
 40
6.0
 40
6.0
 40
7.0
 40
7.0
 40
7.0
 40
8.0
 40
8.0
 40
8.0
 40
9.0
 40
9.0
 40
9.0
 40
10.0
 40
10.0
 40
10.0
 40
11.0
 40
11.0
 40
11.0
 40
12.0
 40
12.0
 40
12.0
 40
13.0
 40
13.0
 40
13.0
 40
14.0
 40
14.0
 40
14.0
 40
14.0
 10
16.90701279959269
 20
27.05030408394923
 10
16.90701279959269
 20
27.05030408394923
 10
16.89195773232215
 20
27.18142441811784
 10
16.89195773232215
 20
27.18142441811784
 10
16.89195773232215
 20
27.18142441811784
 10
16.88551540376473
 20
27.18142441811784
 10
16.88551540376473
 20
27.18142441811784
 10
16.82749999579312
 20
27.09974120416256
 10
16.71570664729677
 20
27.02665350344299
 10
16.56739528665676
 20
27.02665350344299
 10
16.35676214868858
 20
27.02665350344299
 10
16.24930962050365
 20
27.17496486408299
 10
16.24930962050365
 20
27.32542940940128
 10
16.24930962050365
 20
27.57690415434709
 10
16.47282741558665
 20
27.71446681707312
 10
16.87476670585075
 20
27.71233085787226
 10
16.87476670585075
 20
27.71233085787226
 10
16.87476670585075
 20
27.7338110282228
 10
16.87476670585075
 20
27.7338110282228
 10
16.87476670585075
 20
27.81980061153463
 10
16.85113335082194
 20
27.97455430073205
 10
16.63832980269806
 20
27.97455430073205
 10
16.54162597242709
 20
27.97455430073205
 10
16.44058132184471
 20
27.9444613916684
 10
16.36751084660257
 20
27.89717745613334
 10
16.36751084660257
 20
27.89717745613334
 10
16.32451605494665
 20
28.02183823626711
 10
16.32451605494665
 20
28.02183823626711
 10
16.41050563825848
 20
28.07771768503786
 10
16.53518364386968
 20
28.11427014813636
 10
16.66626952708343
 20
28.11427014813636
 10
16.9843896441914
 20
28.11427014813636
 10
17.06176648879011
 20
27.89717745613334
 10
17.06176648879011
 20
27.68868027736602
 10
17.06176648879011
 20
27.68868027736602
 10
17.06176648879011
 20
27.29964286969419
 10
17.06176648879011
 20
27.29964286969419
 10
17.06176648879011
 20
27.20936414250321
 10
17.06607285814668
 20
27.12123859999052
 10
17.07895751526151
 20
27.05030408394923
 10
17.07895751526151
 20
27.05030408394923
 10
16.90701279959269
 20
27.05030408394923
 10
16.90701279959269
 20
27.05030408394923
 97
        0
 97
        0
 92
        1
 93
        1
 72
     4
 94
        3
 73
     0
 74
     1
 95
       20
 96
       16
 40
0.0
 40
0.0
 40
0.0
 40
0.0
 40
1.0
 40
1.0
 40
1.0
 40
2.0
 40
2.0
 40
2.0
 40
3.0
 40
3.0
 40
3.0
 40
4.0
 40
4.0
 40
4.0
 40
5.0
 40
5.0
 40
5.0
 40
5.0
 10
16.87907307520731
 20
27.58121052370365
 10
16.6727463065957
 20
27.58551689306022
 10
16.43844536264386
 20
27.54896442996171
 10
16.43844536264386
 20
27.34692680522924
 10
16.43844536264386
 20
27.22440198429633
 10
16.52012857659913
 20
27.16636935084729
 10
16.6168324068701
 20
27.16636935084729
 10
16.75225911039527
 20
27.16636935084729
 10
16.8382486937071
 20
27.2523417086817
 10
16.86832437729333
 20
27.34046725119439
 10
16.87476670585075
 20
27.35981146234407
 10
16.87907307520731
 20
27.38130885817203
 10
16.87907307520731
 20
27.40065306932171
 10
16.87907307520731
 20
27.40065306932171
 10
16.87907307520731
 20
27.58121052370365
 10
16.87907307520731
 20
27.58121052370365
 97
        0
 97
        0
 75
     2
 76
     1
 98
        0
  0
SPLINE
  5
216
330
1D1
100
AcDbEntity
  8
0
370
     0
100
AcDbSpline
210
0.0
220
0.0
230
1.0
 70
    11
 71
     3
 72
    44
 73
    40
 74
     0
 42
0.0000000001
 43
0.0000000001
 12
1.0
 22
0.0
 32
0.0
 13
1.0
 23
0.0
 33
0.0
 40
0.0
 40
0.0
 40
0.0
 40
0.0
 40
1.0
 40
1.0
 40
1.0
 40
2.0
 40
2.0
 40
2.0
 40
3.0
 40
3.0
 40
3.0
 40
4.0
 40
4.0
 40
4.0
 40
5.0
 40
5.0
 40
5.0
 40
6.0
 40
6.0
 40
6.0
 40
7.0
 40
7.0
 40
7.0
 40
8.0
 40
8.0
 40
8.0
 40
9.0
 40
9.0
 40
9.0
 40
10.0
 40
10.0
 40
10.0
 40
11.0
 40
11.0
 40
11.0
 40
12.0
 40
12.0
 40
12.0
 40
13.0
 40
13.0
 40
13.0
 40
13.0
 10
17.36686414496384
 20
27.76605712196474
 30
0.0
 10
17.36686414496384
 20
27.88858194289764
 30
0.0
 10
17.36469373480813
 20
27.99389851188173
 30
0.0
 10
17.35825140625071
 20
28.09061956763012
 30
0.0
 10
17.35825140625071
 20
28.09061956763012
 30
0.0
 10
17.52375379336211
 20
28.09061956763012
 30
0.0
 10
17.52375379336211
 20
28.09061956763012
 30
0.0
 10
17.52375379336211
 20
28.09061956763012
 30
0.0
 10
17.53019612191953
 20
27.88642875821936
 30
0.0
 10
17.53019612191953
 20
27.88642875821936
 30
0.0
 10
17.53019612191953
 20
27.88642875821936
 30
0.0
 10
17.53880886063266
 20
27.88642875821936
 30
0.0
 10
17.53880886063266
 20
27.88642875821936
 30
0.0
 10
17.58607557069029
 20
28.02614460562367
 30
0.0
 10
17.7000048783875
 20
28.11427014813636
 30
0.0
 10
17.82681884319954
 20
28.11427014813636
 30
0.0
 10
17.8483162390275
 20
28.11427014813636
 30
0.0
 10
17.86337130629805
 20
28.11211696345808
 30
0.0
 10
17.88056233276944
 20
28.10781059410152
 30
0.0
 10
17.88056233276944
 20
28.10781059410152
 30
0.0
 10
17.88056233276944
 20
27.92942354987528
 30
0.0
 10
17.88056233276944
 20
27.92942354987528
 30
0.0
 10
17.86120089614234
 20
27.93371269375442
 30
0.0
 10
17.84187391047008
 20
27.9358658784327
 30
0.0
 10
17.81607014528556
 20
27.9358658784327
 30
0.0
 10
17.6828138519161
 20
27.9358658784327
 30
0.0
 10
17.58824598084599
 20
27.83483845332775
 30
0.0
 10
17.56244221566147
 20
27.69298664672258
 30
0.0
 10
17.55813584630491
 20
27.66718288153806
 30
0.0
 10
17.5538639279032
 20
27.63708997247441
 30
0.0
 10
17.5538639279032
 20
27.6048611042099
 30
0.0
 10
17.5538639279032
 20
27.6048611042099
 30
0.0
 10
17.5538639279032
 20
27.05030408394923
 30
0.0
 10
17.5538639279032
 20
27.05030408394923
 30
0.0
 10
17.5538639279032
 20
27.05030408394923
 30
0.0
 10
17.36686414496384
 20
27.05030408394923
 30
0.0
 10
17.36686414496384
 20
27.05030408394923
 30
0.0
 10
17.36686414496384
 20
27.05030408394923
 30
0.0
 10
17.36686414496384
 20
27.76605712196474
 30
0.0
 10
17.36686414496384
 20
27.76605712196474
 30
0.0
  0
HATCH
  5
217
330
1D1
100
AcDbEntity
  8
0
 62
     7
420
 16777215
100
AcDbHatch
 10
0.0
 20
0.0
 30
0.0
210
0.0
220
0.0
230
1.0
  2
SOLID
 70
     1
 71
     0
 91
        1
 92
        1
 93
        1
 72
     4
 94
        3
 73
     0
 74
     1
 95
       44
 96
       40
 40
0.0
 40
0.0
 40
0.0
 40
0.0
 40
1.0
 40
1.0
 40
1.0
 40
2.0
 40
2.0
 40
2.0
 40
3.0
 40
3.0
 40
3.0
 40
4.0
 40
4.0
 40
4.0
 40
5.0
 40
5.0
 40
5.0
 40
6.0
 40
6.0
 40
6.0
 40
7.0
 40
7.0
 40
7.0
 40
8.0
 40
8.0
 40
8.0
 40
9.0
 40
9.0
 40
9.0
 40
10.0
 40
10.0
 40
10.0
 40
11.0
 40
11.0
 40
11.0
 40
12.0
 40
12.0
 40
12.0
 40
13.0
 40
13.0
 40
13.0
 40
13.0
 10
17.36686414496384
 20
27.76605712196474
 10
17.36686414496384
 20
27.88858194289764
 10
17.36469373480813
 20
27.99389851188173
 10
17.35825140625071
 20
28.09061956763012
 10
17.35825140625071
 20
28.09061956763012
 10
17.52375379336211
 20
28.09061956763012
 10
17.52375379336211
 20
28.09061956763012
 10
17.52375379336211
 20
28.09061956763012
 10
17.53019612191953
 20
27.88642875821936
 10
17.53019612191953
 20
27.88642875821936
 10
17.53019612191953
 20
27.88642875821936
 10
17.53880886063266
 20
27.88642875821936
 10
17.53880886063266
 20
27.88642875821936
 10
17.58607557069029
 20
28.02614460562367
 10
17.7000048783875
 20
28.11427014813636
 10
17.82681884319954
 20
28.11427014813636
 10
17.8483162390275
 20
28.11427014813636
 10
17.86337130629805
 20
28.11211696345808
 10
17.88056233276944
 20
28.10781059410152
 10
17.88056233276944
 20
28.10781059410152
 10
17.88056233276944
 20
27.92942354987528
 10
17.88056233276944
 20
27.92942354987528
 10
17.86120089614234
 20
27.93371269375442
 10
17.84187391047008
 20
27.9358658784327
 10
17.81607014528556
 20
27.9358658784327
 10
17.6828138519161
 20
27.9358658784327
 10
17.58824598084599
 20
27.83483845332775
 10
17.56244221566147
 20
27.69298664672258
 10
17.55813584630491
 20
27.66718288153806
 10
17.5538639279032
 20
27.63708997247441
 10
17.5538639279032
 20
27.6048611042099
 10
17.5538639279032
 20
27.6048611042099
 10
17.5538639279032
 20
27.05030408394923
 10
17.5538639279032
 20
27.05030408394923
 10
17.5538639279032
 20
27.05030408394923
 10
17.36686414496384
 20
27.05030408394923
 10
17.36686414496384
 20
27.05030408394923
 10
17.36686414496384
 20
27.05030408394923
 10
17.36686414496384
 20
27.76605712196474
 10
17.36686414496384
 20
27.76605712196474
 97
        0
 97
        0
 75
     2
 76
     1
 98
        0
  0
SPLINE
  5
218
330
1D1
100
AcDbEntity
  8
0
370
     0
100
AcDbSpline
210
0.0
220
0.0
230
1.0
 70
    11
 71
     3
 72
    47
 73
    43
 74
     0
 42
0.0000000001
 43
0.0000000001
 12
1.0
 22
0.0
 32
0.0
 13
1.0
 23
0.0
 33
0.0
 40
0.0
 40
0.0
 40
0.0
 40
0.0
 40
1.0
 40
1.0
 40
1.0
 40
2.0
 40
2.0
 40
2.0
 40
3.0
 40
3.0
 40
3.0
 40
4.0
 40
4.0
 40
4.0
 40
5.0
 40
5.0
 40
5.0
 40
6.0
 40
6.0
 40
6.0
 40
7.0
 40
7.0
 40
7.0
 40
8.0
 40
8.0
 40
8.0
 40
9.0
 40
9.0
 40
9.0
 40
10.0
 40
10.0
 40
10.0
 40
11.0
 40
11.0
 40
11.0
 40
12.0
 40
12.0
 40
12.0
 40
13.0
 40
13.0
 40
13.0
 40
14.0
 40
14.0
 40
14.0
 40
14.0
 10
18.6349348911746
 20
27.05030408394923
 30
0.0
 10
18.6349348911746
 20
27.05030408394923
 30
0.0
 10
18.61987982390406
 20
27.18142441811784
 30
0.0
 10
18.61987982390406
 20
27.18142441811784
 30
0.0
 10
18.61987982390406
 20
27.18142441811784
 30
0.0
 10
18.61343749534664
 20
27.18142441811784
 30
0.0
 10
18.61343749534664
 20
27.18142441811784
 30
0.0
 10
18.55542208737503
 20
27.09974120416256
 30
0.0
 10
18.44362873887868
 20
27.02665350344299
 30
0.0
 10
18.29531737823867
 20
27.02665350344299
 30
0.0
 10
18.08468424027049
 20
27.02665350344299
 30
0.0
 10
17.97723171208555
 20
27.17496486408299
 30
0.0
 10
17.97723171208555
 20
27.32542940940128
 30
0.0
 10
17.97723171208555
 20
27.57690415434709
 30
0.0
 10
18.20074950716856
 20
27.71446681707312
 30
0.0
 10
18.60268879743266
 20
27.71233085787226
 30
0.0
 10
18.60268879743266
 20
27.71233085787226
 30
0.0
 10
18.60268879743266
 20
27.7338110282228
 30
0.0
 10
18.60268879743266
 20
27.7338110282228
 30
0.0
 10
18.60268879743266
 20
27.81980061153463
 30
0.0
 10
18.57905544240385
 20
27.97455430073205
 30
0.0
 10
18.36625189427996
 20
27.97455430073205
 30
0.0
 10
18.269548064009
 20
27.97455430073205
 30
0.0
 10
18.16850341342662
 20
27.9444613916684
 30
0.0
 10
18.09543293818447
 20
27.89717745613334
 30
0.0
 10
18.09543293818447
 20
27.89717745613334
 30
0.0
 10
18.05243814652856
 20
28.02183823626711
 30
0.0
 10
18.05243814652856
 20
28.02183823626711
 30
0.0
 10
18.13842772984039
 20
28.07771768503786
 30
0.0
 10
18.26310573545158
 20
28.11427014813636
 30
0.0
 10
18.39419161866534
 20
28.11427014813636
 30
0.0
 10
18.71231173577331
 20
28.11427014813636
 30
0.0
 10
18.78968858037202
 20
27.89717745613334
 30
0.0
 10
18.78968858037202
 20
27.68868027736602
 30
0.0
 10
18.78968858037202
 20
27.68868027736602
 30
0.0
 10
18.78968858037202
 20
27.29964286969419
 30
0.0
 10
18.78968858037202
 20
27.29964286969419
 30
0.0
 10
18.78968858037202
 20
27.20936414250321
 30
0.0
 10
18.79399494972858
 20
27.12123859999052
 30
0.0
 10
18.80687960684342
 20
27.05030408394923
 30
0.0
 10
18.80687960684342
 20
27.05030408394923
 30
0.0
 10
18.6349348911746
 20
27.05030408394923
 30
0.0
 10
18.6349348911746
 20
27.05030408394923
 30
0.0
  0
SPLINE
  5
219
330
1D1
100
AcDbEntity
  8
0
370
     0
100
AcDbSpline
210
0.0
220
0.0
230
1.0
 70
    11
 71
     3
 72
    20
 73
    16
 74
     0
 42
0.0000000001
 43
0.0000000001
 12
1.0
 22
0.0
 32
0.0
 13
1.0
 23
0.0
 33
0.0
 40
0.0
 40
0.0
 40
0.0
 40
0.0
 40
1.0
 40
1.0
 40
1.0
 40
2.0
 40
2.0
 40
2.0
 40
3.0
 40
3.0
 40
3.0
 40
4.0
 40
4.0
 40
4.0
 40
5.0
 40
5.0
 40
5.0
 40
5.0
 10
18.60699516678922
 20
27.58121052370365
 30
0.0
 10
18.40066839817761
 20
27.58551689306022
 30
0.0
 10
18.16636745422577
 20
27.54896442996171
 30
0.0
 10
18.16636745422577
 20
27.34692680522924
 30
0.0
 10
18.16636745422577
 20
27.22440198429633
 30
0.0
 10
18.24805066818104
 20
27.16636935084729
 30
0.0
 10
18.34475449845201
 20
27.16636935084729
 30
0.0
 10
18.48018120197717
 20
27.16636935084729
 30
0.0
 10
18.56617078528901
 20
27.2523417086817
 30
0.0
 10
18.59624646887524
 20
27.34046725119439
 30
0.0
 10
18.60268879743266
 20
27.35981146234407
 30
0.0
 10
18.60699516678922
 20
27.38130885817203
 30
0.0
 10
18.60699516678922
 20
27.40065306932171
 30
0.0
 10
18.60699516678922
 20
27.40065306932171
 30
0.0
 10
18.60699516678922
 20
27.58121052370365
 30
0.0
 10
18.60699516678922
 20
27.58121052370365
 30
0.0
  0
HATCH
  5
21A
330
1D1
100
AcDbEntity
  8
0
 62
     7
420
 16777215
100
AcDbHatch
 10
0.0
 20
0.0
 30
0.0
210
0.0
220
0.0
230
1.0
  2
SOLID
 70
     1
 71
     0
 91
        2
 92
        1
 93
        1
 72
     4
 94
        3
 73
     0
 74
     1
 95
       47
 96
       43
 40
0.0
 40
0.0
 40
0.0
 40
0.0
 40
1.0
 40
1.0
 40
1.0
 40
2.0
 40
2.0
 40
2.0
 40
3.0
 40
3.0
 40
3.0
 40
4.0
 40
4.0
 40
4.0
 40
5.0
 40
5.0
 40
5.0
 40
6.0
 40
6.0
 40
6.0
 40
7.0
 40
7.0
 40
7.0
 40
8.0
 40
8.0
 40
8.0
 40
9.0
 40
9.0
 40
9.0
 40
10.0
 40
10.0
 40
10.0
 40
11.0
 40
11.0
 40
11.0
 40
12.0
 40
12.0
 40
12.0
 40
13.0
 40
13.0
 40
13.0
 40
14.0
 40
14.0
 40
14.0
 40
14.0
 10
18.6349348911746
 20
27.05030408394923
 10
18.6349348911746
 20
27.05030408394923
 10
18.61987982390406
 20
27.18142441811784
 10
18.61987982390406
 20
27.18142441811784
 10
18.61987982390406
 20
27.18142441811784
 10
18.61343749534664
 20
27.18142441811784
 10
18.61343749534664
 20
27.18142441811784
 10
18.55542208737503
 20
27.09974120416256
 10
18.44362873887868
 20
27.02665350344299
 10
18.29531737823867
 20
27.02665350344299
 10
18.08468424027049
 20
27.02665350344299
 10
17.97723171208555
 20
27.17496486408299
 10
17.97723171208555
 20
27.32542940940128
 10
17.97723171208555
 20
27.57690415434709
 10
18.20074950716856
 20
27.71446681707312
 10
18.60268879743266
 20
27.71233085787226
 10
18.60268879743266
 20
27.71233085787226
 10
18.60268879743266
 20
27.7338110282228
 10
18.60268879743266
 20
27.7338110282228
 10
18.60268879743266
 20
27.81980061153463
 10
18.57905544240385
 20
27.97455430073205
 10
18.36625189427996
 20
27.97455430073205
 10
18.269548064009
 20
27.97455430073205
 10
18.16850341342662
 20
27.9444613916684
 10
18.09543293818447
 20
27.89717745613334
 10
18.09543293818447
 20
27.89717745613334
 10
18.05243814652856
 20
28.02183823626711
 10
18.05243814652856
 20
28.02183823626711
 10
18.13842772984039
 20
28.07771768503786
 10
18.26310573545158
 20
28.11427014813636
 10
18.39419161866534
 20
28.11427014813636
 10
18.71231173577331
 20
28.11427014813636
 10
18.78968858037202
 20
27.89717745613334
 10
18.78968858037202
 20
27.68868027736602
 10
18.78968858037202
 20
27.68868027736602
 10
18.78968858037202
 20
27.29964286969419
 10
18.78968858037202
 20
27.29964286969419
 10
18.78968858037202
 20
27.20936414250321
 10
18.79399494972858
 20
27.12123859999052
 10
18.80687960684342
 20
27.05030408394923
 10
18.80687960684342
 20
27.05030408394923
 10
18.6349348911746
 20
27.05030408394923
 10
18.6349348911746
 20
27.05030408394923
 97
        0
 97
        0
 92
        1
 93
        1
 72
     4
 94
        3
 73
     0
 74
     1
 95
       20
 96
       16
 40
0.0
 40
0.0
 40
0.0
 40
0.0
 40
1.0
 40
1.0
 40
1.0
 40
2.0
 40
2.0
 40
2.0
 40
3.0
 40
3.0
 40
3.0
 40
4.0
 40
4.0
 40
4.0
 40
5.0
 40
5.0
 40
5.0
 40
5.0
 10
18.60699516678922
 20
27.58121052370365
 10
18.40066839817761
 20
27.58551689306022
 10
18.16636745422577
 20
27.54896442996171
 10
18.16636745422577
 20
27.34692680522924
 10
18.16636745422577
 20
27.22440198429633
 10
18.24805066818104
 20
27.16636935084729
 10
18.34475449845201
 20
27.16636935084729
 10
18.48018120197717
 20
27.16636935084729
 10
18.56617078528901
 20
27.2523417086817
 10
18.59624646887524
 20
27.34046725119439
 10
18.60268879743266
 20
27.35981146234407
 10
18.60699516678922
 20
27.38130885817203
 10
18.60699516678922
 20
27.40065306932171
 10
18.60699516678922
 20
27.40065306932171
 10
18.60699516678922
 20
27.58121052370365
 10
18.60699516678922
 20
27.58121052370365
 97
        0
 97
        0
 75
     2
 76
     1
 98
        0
  0
SPLINE
  5
21B
330
1D1
100
AcDbEntity
  8
0
370
     0
100
AcDbSpline
210
0.0
220
0.0
230
1.0
 70
    11
 71
     3
 72
    50
 73
    46
 74
     0
 42
0.0000000001
 43
0.0000000001
 12
1.0
 22
0.0
 32
0.0
 13
1.0
 23
0.0
 33
0.0
 40
0.0
 40
0.0
 40
0.0
 40
0.0
 40
1.0
 40
1.0
 40
1.0
 40
2.0
 40
2.0
 40
2.0
 40
3.0
 40
3.0
 40
3.0
 40
4.0
 40
4.0
 40
4.0
 40
5.0
 40
5.0
 40
5.0
 40
6.0
 40
6.0
 40
6.0
 40
7.0
 40
7.0
 40
7.0
 40
8.0
 40
8.0
 40
8.0
 40
9.0
 40
9.0
 40
9.0
 40
10.0
 40
10.0
 40
10.0
 40
11.0
 40
11.0
 40
11.0
 40
12.0
 40
12.0
 40
12.0
 40
13.0
 40
13.0
 40
13.0
 40
14.0
 40
14.0
 40
14.0
 40
15.0
 40
15.0
 40
15.0
 40
15.0
 10
19.0948206875006
 20
27.80905191362065
 30
0.0
 10
19.0948206875006
 20
27.91652166728302
 30
0.0
 10
19.09265027734489
 20
28.00464720979571
 30
0.0
 10
19.08620794878748
 20
28.09061956763012
 30
0.0
 10
19.08620794878748
 20
28.09061956763012
 30
0.0
 10
19.25384629509973
 20
28.09061956763012
 30
0.0
 10
19.25384629509973
 20
28.09061956763012
 30
0.0
 10
19.25384629509973
 20
28.09061956763012
 30
0.0
 10
19.26459499301371
 20
27.9186748519613
 30
0.0
 10
19.26459499301371
 20
27.9186748519613
 30
0.0
 10
19.26459499301371
 20
27.9186748519613
 30
0.0
 10
19.26890136237027
 20
27.9186748519613
 30
0.0
 10
19.26890136237027
 20
27.9186748519613
 30
0.0
 10
19.32050889273932
 20
28.01754909238797
 30
0.0
 10
19.44084607803909
 20
28.11427014813636
 30
0.0
 10
19.61282524466277
 20
28.11427014813636
 30
0.0
 10
19.75683023594621
 20
28.11427014813636
 30
0.0
 10
19.98034803102922
 20
28.02828056482452
 30
0.0
 10
19.98034803102922
 20
27.67148925089463
 30
0.0
 10
19.98034803102922
 20
27.67148925089463
 30
0.0
 10
19.98034803102922
 20
27.05030408394923
 30
0.0
 10
19.98034803102922
 20
27.05030408394923
 30
0.0
 10
19.98034803102922
 20
27.05030408394923
 30
0.0
 10
19.791212288889
 20
27.05030408394923
 30
0.0
 10
19.791212288889
 20
27.05030408394923
 30
0.0
 10
19.791212288889
 20
27.05030408394923
 30
0.0
 10
19.791212288889
 20
27.64999185506667
 30
0.0
 10
19.791212288889
 20
27.64999185506667
 30
0.0
 10
19.791212288889
 20
27.81764742685635
 30
0.0
 10
19.72889051156083
 20
27.95736327426066
 30
0.0
 10
19.55046901637974
 20
27.95736327426066
 30
0.0
 10
19.4258254617234
 20
27.95736327426066
 30
0.0
 10
19.32908718049759
 20
27.86923773174797
 30
0.0
 10
19.29684108675565
 20
27.76390393728645
 30
0.0
 10
19.28826279899738
 20
27.74027058225764
 30
0.0
 10
19.28395642964081
 20
27.7080244885157
 30
0.0
 10
19.28395642964081
 20
27.67577839477376
 30
0.0
 10
19.28395642964081
 20
27.67577839477376
 30
0.0
 10
19.28395642964081
 20
27.05030408394923
 30
0.0
 10
19.28395642964081
 20
27.05030408394923
 30
0.0
 10
19.28395642964081
 20
27.05030408394923
 30
0.0
 10
19.0948206875006
 20
27.05030408394923
 30
0.0
 10
19.0948206875006
 20
27.05030408394923
 30
0.0
 10
19.0948206875006
 20
27.05030408394923
 30
0.0
 10
19.0948206875006
 20
27.80905191362065
 30
0.0
 10
19.0948206875006
 20
27.80905191362065
 30
0.0
  0
HATCH
  5
21C
330
1D1
100
AcDbEntity
  8
0
 62
     7
420
 16777215
100
AcDbHatch
 10
0.0
 20
0.0
 30
0.0
210
0.0
220
0.0
230
1.0
  2
SOLID
 70
     1
 71
     0
 91
        1
 92
        1
 93
        1
 72
     4
 94
        3
 73
     0
 74
     1
 95
       50
 96
       46
 40
0.0
 40
0.0
 40
0.0
 40
0.0
 40
1.0
 40
1.0
 40
1.0
 40
2.0
 40
2.0
 40
2.0
 40
3.0
 40
3.0
 40
3.0
 40
4.0
 40
4.0
 40
4.0
 40
5.0
 40
5.0
 40
5.0
 40
6.0
 40
6.0
 40
6.0
 40
7.0
 40
7.0
 40
7.0
 40
8.0
 40
8.0
 40
8.0
 40
9.0
 40
9.0
 40
9.0
 40
10.0
 40
10.0
 40
10.0
 40
11.0
 40
11.0
 40
11.0
 40
12.0
 40
12.0
 40
12.0
 40
13.0
 40
13.0
 40
13.0
 40
14.0
 40
14.0
 40
14.0
 40
15.0
 40
15.0
 40
15.0
 40
15.0
 10
19.0948206875006
 20
27.80905191362065
 10
19.0948206875006
 20
27.91652166728302
 10
19.09265027734489
 20
28.00464720979571
 10
19.08620794878748
 20
28.09061956763012
 10
19.08620794878748
 20
28.09061956763012
 10
19.25384629509973
 20
28.09061956763012
 10
19.25384629509973
 20
28.09061956763012
 10
19.25384629509973
 20
28.09061956763012
 10
19.26459499301371
 20
27.9186748519613
 10
19.26459499301371
 20
27.9186748519613
 10
19.26459499301371
 20
27.9186748519613
 10
19.26890136237027
 20
27.9186748519613
 10
19.26890136237027
 20
27.9186748519613
 10
19.32050889273932
 20
28.01754909238797
 10
19.44084607803909
 20
28.11427014813636
 10
19.61282524466277
 20
28.11427014813636
 10
19.75683023594621
 20
28.11427014813636
 10
19.98034803102922
 20
28.02828056482452
 10
19.98034803102922
 20
27.67148925089463
 10
19.98034803102922
 20
27.67148925089463
 10
19.98034803102922
 20
27.05030408394923
 10
19.98034803102922
 20
27.05030408394923
 10
19.98034803102922
 20
27.05030408394923
 10
19.791212288889
 20
27.05030408394923
 10
19.791212288889
 20
27.05030408394923
 10
19.791212288889
 20
27.05030408394923
 10
19.791212288889
 20
27.64999185506667
 10
19.791212288889
 20
27.64999185506667
 10
19.791212288889
 20
27.81764742685635
 10
19.72889051156083
 20
27.95736327426066
 10
19.55046901637974
 20
27.95736327426066
 10
19.4258254617234
 20
27.95736327426066
 10
19.32908718049759
 20
27.86923773174797
 10
19.29684108675565
 20
27.76390393728645
 10
19.28826279899738
 20
27.74027058225764
 10
19.28395642964081
 20
27.7080244885157
 10
19.28395642964081
 20
27.67577839477376
 10
19.28395642964081
 20
27.67577839477376
 10
19.28395642964081
 20
27.05030408394923
 10
19.28395642964081
 20
27.05030408394923
 10
19.28395642964081
 20
27.05030408394923
 10
19.0948206875006
 20
27.05030408394923
 10
19.0948206875006
 20
27.05030408394923
 10
19.0948206875006
 20
27.05030408394923
 10
19.0948206875006
 20
27.80905191362065
 10
19.0948206875006
 20
27.80905191362065
 97
        0
 97
        0
 75
     2
 76
     1
 98
        0
  0
SPLINE
  5
21D
330
1D1
100
AcDbEntity
  8
0
370
     0
100
AcDbSpline
210
0.0
220
0.0
230
1.0
 70
    11
 71
     3
 72
    17
 73
    13
 74
     0
 42
0.0000000001
 43
0.0000000001
 12
1.0
 22
0.0
 32
0.0
 13
1.0
 23
0.0
 33
0.0
 40
0.0
 40
0.0
 40
0.0
 40
0.0
 40
1.0
 40
1.0
 40
1.0
 40
2.0
 40
2.0
 40
2.0
 40
3.0
 40
3.0
 40
3.0
 40
4.0
 40
4.0
 40
4.0
 40
4.0
 10
21.22902288965802
 20
27.57905733902537
 30
0.0
 10
21.22902288965802
 20
27.19430907523267
 30
0.0
 10
20.96247585196424
 20
27.02665350344299
 30
0.0
 10
20.710983881541
 20
27.02665350344299
 30
0.0
 10
20.42941622753153
 20
27.02665350344299
 30
0.0
 10
20.21234076100594
 20
27.23299749753203
 30
0.0
 10
20.21234076100594
 20
27.56186631255398
 30
0.0
 10
20.21234076100594
 20
27.91006211324818
 30
0.0
 10
20.44016492544551
 20
28.11427014813636
 30
0.0
 10
20.72820935896725
 20
28.11427014813636
 30
0.0
 10
21.02696803944812
 20
28.11427014813636
 30
0.0
 10
21.22902288965802
 20
27.89717745613334
 30
0.0
 10
21.22902288965802
 20
27.57905733902537
 30
0.0
  0
SPLINE
  5
21E
330
1D1
100
AcDbEntity
  8
0
370
     0
100
AcDbSpline
210
0.0
220
0.0
230
1.0
 70
    11
 71
     3
 72
    17
 73
    13
 74
     0
 42
0.0000000001
 43
0.0000000001
 12
1.0
 22
0.0
 32
0.0
 13
1.0
 23
0.0
 33
0.0
 40
0.0
 40
0.0
 40
0.0
 40
0.0
 40
1.0
 40
1.0
 40
1.0
 40
2.0
 40
2.0
 40
2.0
 40
3.0
 40
3.0
 40
3.0
 40
4.0
 40
4.0
 40
4.0
 40
4.0
 10
20.40364691330187
 20
27.56830864111139
 30
0.0
 10
20.40364691330187
 20
27.34046725119439
 30
0.0
 10
20.53473279651562
 20
27.16852253552558
 30
0.0
 10
20.71959662025413
 20
27.16852253552558
 30
0.0
 10
20.90015407463607
 20
27.16852253552558
 30
0.0
 10
21.03554632720639
 20
27.33833129199354
 30
0.0
 10
21.03554632720639
 20
27.57261501046796
 30
0.0
 10
21.03554632720639
 20
27.74886609549334
 30
0.0
 10
20.9474207846937
 20
27.97240111605377
 30
0.0
 10
20.72390298961069
 20
27.97240111605377
 30
0.0
 10
20.50035074357283
 20
27.97240111605377
 30
0.0
 10
20.40364691330187
 20
27.76605712196474
 30
0.0
 10
20.40364691330187
 20
27.56830864111139
 30
0.0
  0
HATCH
  5
21F
330
1D1
100
AcDbEntity
  8
0
 62
     7
420
 16777215
100
AcDbHatch
 10
0.0
 20
0.0
 30
0.0
210
0.0
220
0.0
230
1.0
  2
SOLID
 70
     1
 71
     0
 91
        2
 92
        1
 93
        1
 72
     4
 94
        3
 73
     0
 74
     1
 95
       17
 96
       13
 40
0.0
 40
0.0
 40
0.0
 40
0.0
 40
1.0
 40
1.0
 40
1.0
 40
2.0
 40
2.0
 40
2.0
 40
3.0
 40
3.0
 40
3.0
 40
4.0
 40
4.0
 40
4.0
 40
4.0
 10
21.22902288965802
 20
27.57905733902537
 10
21.22902288965802
 20
27.19430907523267
 10
20.96247585196424
 20
27.02665350344299
 10
20.710983881541
 20
27.02665350344299
 10
20.42941622753153
 20
27.02665350344299
 10
20.21234076100594
 20
27.23299749753203
 10
20.21234076100594
 20
27.56186631255398
 10
20.21234076100594
 20
27.91006211324818
 10
20.44016492544551
 20
28.11427014813636
 10
20.72820935896725
 20
28.11427014813636
 10
21.02696803944812
 20
28.11427014813636
 10
21.22902288965802
 20
27.89717745613334
 10
21.22902288965802
 20
27.57905733902537
 97
        0
 97
        0
 92
        1
 93
        1
 72
     4
 94
        3
 73
     0
 74
     1
 95
       17
 96
       13
 40
0.0
 40
0.0
 40
0.0
 40
0.0
 40
1.0
 40
1.0
 40
1.0
 40
2.0
 40
2.0
 40
2.0
 40
3.0
 40
3.0
 40
3.0
 40
4.0
 40
4.0
 40
4.0
 40
4.0
 10
20.40364691330187
 20
27.56830864111139
 10
20.40364691330187
 20
27.34046725119439
 10
20.53473279651562
 20
27.16852253552558
 10
20.71959662025413
 20
27.16852253552558
 10
20.90015407463607
 20
27.16852253552558
 10
21.03554632720639
 20
27.33833129199354
 10
21.03554632720639
 20
27.57261501046796
 10
21.03554632720639
 20
27.74886609549334
 10
20.9474207846937
 20
27.97240111605377
 10
20.72390298961069
 20
27.97240111605377
 10
20.50035074357283
 20
27.97240111605377
 10
20.40364691330187
 20
27.76605712196474
 10
20.40364691330187
 20
27.56830864111139
 97
        0
 97
        0
 75
     2
 76
     1
 98
        0
  0
POLYLINE
  5
220
330
1D1
100
AcDbEntity
  8
0
370
     0
100
AcDb2dPolyline
 66
     1
 10
0.0
 20
0.0
 30
0.0
  0
VERTEX
  5
221
330
220
100
AcDbEntity
  8
0
370
     0
100
AcDbVertex
100
AcDb2dVertex
 10
2.301444362488875
 20
25.92001993167104
 30
0.0
  0
VERTEX
  5
222
330
220
100
AcDbEntity
  8
0
370
     0
100
AcDbVertex
100
AcDb2dVertex
 10
3.081689587988258
 20
25.92001993167104
 30
0.0
  0
VERTEX
  5
223
330
220
100
AcDbEntity
  8
0
370
     0
100
AcDbVertex
100
AcDb2dVertex
 10
3.081689587988258
 20
25.76311305779533
 30
0.0
  0
VERTEX
  5
224
330
220
100
AcDbEntity
  8
0
370
     0
100
AcDbVertex
100
AcDb2dVertex
 10
2.488444145428236
 20
25.76311305779533
 30
0.0
  0
VERTEX
  5
225
330
220
100
AcDbEntity
  8
0
370
     0
100
AcDbVertex
100
AcDb2dVertex
 10
2.488444145428236
 20
25.28164373825424
 30
0.0
  0
VERTEX
  5
226
330
220
100
AcDbEntity
  8
0
370
     0
100
AcDbVertex
100
AcDb2dVertex
 10
3.036558837131485
 20
25.28164373825424
 30
0.0
  0
VERTEX
  5
227
330
220
100
AcDbEntity
  8
0
370
     0
100
AcDbVertex
100
AcDb2dVertex
 10
3.036558837131485
 20
25.12687282357939
 30
0.0
  0
VERTEX
  5
228
330
220
100
AcDbEntity
  8
0
370
     0
100
AcDbVertex
100
AcDb2dVertex
 10
2.488444145428236
 20
25.12687282357939
 30
0.0
  0
VERTEX
  5
229
330
220
100
AcDbEntity
  8
0
370
     0
100
AcDbVertex
100
AcDb2dVertex
 10
2.488444145428236
 20
24.4713056036912
 30
0.0
  0
VERTEX
  5
22A
330
220
100
AcDbEntity
  8
0
370
     0
100
AcDbVertex
100
AcDb2dVertex
 10
2.301444362488875
 20
24.4713056036912
 30
0.0
  0
VERTEX
  5
22B
330
220
100
AcDbEntity
  8
0
370
     0
100
AcDbVertex
100
AcDb2dVertex
 10
2.301444362488875
 20
25.92001993167104
 30
0.0
  0
SEQEND
  5
22C
330
220
100
AcDbEntity
  8
0
370
     0
  0
HATCH
  5
22D
330
1D1
100
AcDbEntity
  8
0
 62
     7
420
 16777215
100
AcDbHatch
 10
0.0
 20
0.0
 30
0.0
210
0.0
220
0.0
230
1.0
  2
SOLID
 70
     1
 71
     0
 91
        1
 92
        1
 93
       10
 72
     1
 10
2.301444362488875
 20
25.92001993167104
 11
3.081689587988258
 21
25.92001993167104
 72
     1
 10
3.081689587988258
 20
25.92001993167104
 11
3.081689587988258
 21
25.76311305779533
 72
     1
 10
3.081689587988258
 20
25.76311305779533
 11
2.488444145428236
 21
25.76311305779533
 72
     1
 10
2.488444145428236
 20
25.76311305779533
 11
2.488444145428236
 21
25.28164373825424
 72
     1
 10
2.488444145428236
 20
25.28164373825424
 11
3.036558837131485
 21
25.28164373825424
 72
     1
 10
3.036558837131485
 20
25.28164373825424
 11
3.036558837131485
 21
25.12687282357939
 72
     1
 10
3.036558837131485
 20
25.12687282357939
 11
2.488444145428236
 21
25.12687282357939
 72
     1
 10
2.488444145428236
 20
25.12687282357939
 11
2.488444145428236
 21
24.4713056036912
 72
     1
 10
2.488444145428236
 20
24.4713056036912
 11
2.301444362488875
 21
24.4713056036912
 72
     1
 10
2.301444362488875
 20
24.4713056036912
 11
2.301444362488875
 21
25.92001993167104
 97
        0
 75
     2
 76
     1
 98
        0
  0
SPLINE
  5
22E
330
1D1
100
AcDbEntity
  8
0
370
     0
100
AcDbSpline
210
0.0
220
0.0
230
1.0
 70
    11
 71
     3
 72
    47
 73
    43
 74
     0
 42
0.0000000001
 43
0.0000000001
 12
1.0
 22
0.0
 32
0.0
 13
1.0
 23
0.0
 33
0.0
 40
0.0
 40
0.0
 40
0.0
 40
0.0
 40
1.0
 40
1.0
 40
1.0
 40
2.0
 40
2.0
 40
2.0
 40
3.0
 40
3.0
 40
3.0
 40
4.0
 40
4.0
 40
4.0
 40
5.0
 40
5.0
 40
5.0
 40
6.0
 40
6.0
 40
6.0
 40
7.0
 40
7.0
 40
7.0
 40
8.0
 40
8.0
 40
8.0
 40
9.0
 40
9.0
 40
9.0
 40
10.0
 40
10.0
 40
10.0
 40
11.0
 40
11.0
 40
11.0
 40
12.0
 40
12.0
 40
12.0
 40
13.0
 40
13.0
 40
13.0
 40
14.0
 40
14.0
 40
14.0
 40
14.0
 10
3.820972628168021
 20
24.4713056036912
 30
0.0
 10
3.820972628168021
 20
24.4713056036912
 30
0.0
 10
3.805934786374905
 20
24.60242593785981
 30
0.0
 10
3.805934786374905
 20
24.60242593785981
 30
0.0
 10
3.805934786374905
 20
24.60242593785981
 30
0.0
 10
3.799492457817488
 20
24.60242593785981
 30
0.0
 10
3.799492457817488
 20
24.60242593785981
 30
0.0
 10
3.741442598891028
 20
24.52074272390453
 30
0.0
 10
3.629683701349523
 20
24.44765502318496
 30
0.0
 10
3.481372340709518
 20
24.44765502318496
 30
0.0
 10
3.270721977263916
 20
24.44765502318496
 30
0.0
 10
3.163252223601548
 20
24.59596638382497
 30
0.0
 10
3.163252223601548
 20
24.74643092914325
 30
0.0
 10
3.163252223601548
 20
24.99790567408906
 30
0.0
 10
3.38680446963941
 20
25.13546833681509
 30
0.0
 10
3.788743759903508
 20
25.13333237761423
 30
0.0
 10
3.788743759903508
 20
25.13333237761423
 30
0.0
 10
3.788743759903508
 20
25.15481254796477
 30
0.0
 10
3.788743759903508
 20
25.15481254796477
 30
0.0
 10
3.788743759903508
 20
25.2408021312766
 30
0.0
 10
3.765093179397268
 20
25.39555582047403
 30
0.0
 10
3.552306856750812
 20
25.39555582047403
 30
0.0
 10
3.455585801002423
 20
25.39555582047403
 30
0.0
 10
3.354558375897471
 20
25.36546291141037
 30
0.0
 10
3.281470675177896
 20
25.31817897587532
 30
0.0
 10
3.281470675177896
 20
25.31817897587532
 30
0.0
 10
3.238493108999404
 20
25.44283975600908
 30
0.0
 10
3.238493108999404
 20
25.44283975600908
 30
0.0
 10
3.324465466833814
 20
25.49871920477983
 30
0.0
 10
3.449126246967579
 20
25.53527166787833
 30
0.0
 10
3.580246581136188
 20
25.53527166787833
 30
0.0
 10
3.898366698244158
 20
25.53527166787833
 30
0.0
 10
3.975743542842869
 20
25.31817897587532
 30
0.0
 10
3.975743542842869
 20
25.109681797108
 30
0.0
 10
3.975743542842869
 20
25.109681797108
 30
0.0
 10
3.975743542842869
 20
24.72064438943616
 30
0.0
 10
3.975743542842869
 20
24.72064438943616
 30
0.0
 10
3.975743542842869
 20
24.63036566224519
 30
0.0
 10
3.980032686722005
 20
24.54224011973249
 30
0.0
 10
3.992934569314266
 20
24.4713056036912
 30
0.0
 10
3.992934569314266
 20
24.4713056036912
 30
0.0
 10
3.820972628168021
 20
24.4713056036912
 30
0.0
 10
3.820972628168021
 20
24.4713056036912
 30
0.0
  0
SPLINE
  5
22F
330
1D1
100
AcDbEntity
  8
0
370
     0
100
AcDbSpline
210
0.0
220
0.0
230
1.0
 70
    11
 71
     3
 72
    20
 73
    16
 74
     0
 42
0.0000000001
 43
0.0000000001
 12
1.0
 22
0.0
 32
0.0
 13
1.0
 23
0.0
 33
0.0
 40
0.0
 40
0.0
 40
0.0
 40
0.0
 40
1.0
 40
1.0
 40
1.0
 40
2.0
 40
2.0
 40
2.0
 40
3.0
 40
3.0
 40
3.0
 40
4.0
 40
4.0
 40
4.0
 40
5.0
 40
5.0
 40
5.0
 40
5.0
 10
3.793032903782644
 20
25.00221204344562
 30
0.0
 10
3.586688909693605
 20
25.00651841280219
 30
0.0
 10
3.35240519121919
 20
24.96996594970369
 30
0.0
 10
3.35240519121919
 20
24.76792832497121
 30
0.0
 10
3.35240519121919
 20
24.6454035040383
 30
0.0
 10
3.434088405174464
 20
24.58737087058927
 30
0.0
 10
3.530809460922853
 20
24.58737087058927
 30
0.0
 10
3.666218938970598
 20
24.58737087058927
 30
0.0
 10
3.752191296805008
 20
24.67334322842368
 30
0.0
 10
3.782284205868665
 20
24.76146877093637
 30
0.0
 10
3.788743759903508
 20
24.78081298208604
 30
0.0
 10
3.793032903782644
 20
24.802310377914
 30
0.0
 10
3.793032903782644
 20
24.82165458906368
 30
0.0
 10
3.793032903782644
 20
24.82165458906368
 30
0.0
 10
3.793032903782644
 20
25.00221204344562
 30
0.0
 10
3.793032903782644
 20
25.00221204344562
 30
0.0
  0
HATCH
  5
230
330
1D1
100
AcDbEntity
  8
0
 62
     7
420
 16777215
100
AcDbHatch
 10
0.0
 20
0.0
 30
0.0
210
0.0
220
0.0
230
1.0
  2
SOLID
 70
     1
 71
     0
 91
        2
 92
        1
 93
        1
 72
     4
 94
        3
 73
     0
 74
     1
 95
       47
 96
       43
 40
0.0
 40
0.0
 40
0.0
 40
0.0
 40
1.0
 40
1.0
 40
1.0
 40
2.0
 40
2.0
 40
2.0
 40
3.0
 40
3.0
 40
3.0
 40
4.0
 40
4.0
 40
4.0
 40
5.0
 40
5.0
 40
5.0
 40
6.0
 40
6.0
 40
6.0
 40
7.0
 40
7.0
 40
7.0
 40
8.0
 40
8.0
 40
8.0
 40
9.0
 40
9.0
 40
9.0
 40
10.0
 40
10.0
 40
10.0
 40
11.0
 40
11.0
 40
11.0
 40
12.0
 40
12.0
 40
12.0
 40
13.0
 40
13.0
 40
13.0
 40
14.0
 40
14.0
 40
14.0
 40
14.0
 10
3.820972628168021
 20
24.4713056036912
 10
3.820972628168021
 20
24.4713056036912
 10
3.805934786374905
 20
24.60242593785981
 10
3.805934786374905
 20
24.60242593785981
 10
3.805934786374905
 20
24.60242593785981
 10
3.799492457817488
 20
24.60242593785981
 10
3.799492457817488
 20
24.60242593785981
 10
3.741442598891028
 20
24.52074272390453
 10
3.629683701349523
 20
24.44765502318496
 10
3.481372340709518
 20
24.44765502318496
 10
3.270721977263916
 20
24.44765502318496
 10
3.163252223601548
 20
24.59596638382497
 10
3.163252223601548
 20
24.74643092914325
 10
3.163252223601548
 20
24.99790567408906
 10
3.38680446963941
 20
25.13546833681509
 10
3.788743759903508
 20
25.13333237761423
 10
3.788743759903508
 20
25.13333237761423
 10
3.788743759903508
 20
25.15481254796477
 10
3.788743759903508
 20
25.15481254796477
 10
3.788743759903508
 20
25.2408021312766
 10
3.765093179397268
 20
25.39555582047403
 10
3.552306856750812
 20
25.39555582047403
 10
3.455585801002423
 20
25.39555582047403
 10
3.354558375897471
 20
25.36546291141037
 10
3.281470675177896
 20
25.31817897587532
 10
3.281470675177896
 20
25.31817897587532
 10
3.238493108999404
 20
25.44283975600908
 10
3.238493108999404
 20
25.44283975600908
 10
3.324465466833814
 20
25.49871920477983
 10
3.449126246967579
 20
25.53527166787833
 10
3.580246581136188
 20
25.53527166787833
 10
3.898366698244158
 20
25.53527166787833
 10
3.975743542842869
 20
25.31817897587532
 10
3.975743542842869
 20
25.109681797108
 10
3.975743542842869
 20
25.109681797108
 10
3.975743542842869
 20
24.72064438943616
 10
3.975743542842869
 20
24.72064438943616
 10
3.975743542842869
 20
24.63036566224519
 10
3.980032686722005
 20
24.54224011973249
 10
3.992934569314266
 20
24.4713056036912
 10
3.992934569314266
 20
24.4713056036912
 10
3.820972628168021
 20
24.4713056036912
 10
3.820972628168021
 20
24.4713056036912
 97
        0
 97
        0
 92
        1
 93
        1
 72
     4
 94
        3
 73
     0
 74
     1
 95
       20
 96
       16
 40
0.0
 40
0.0
 40
0.0
 40
0.0
 40
1.0
 40
1.0
 40
1.0
 40
2.0
 40
2.0
 40
2.0
 40
3.0
 40
3.0
 40
3.0
 40
4.0
 40
4.0
 40
4.0
 40
5.0
 40
5.0
 40
5.0
 40
5.0
 10
3.793032903782644
 20
25.00221204344562
 10
3.586688909693605
 20
25.00651841280219
 10
3.35240519121919
 20
24.96996594970369
 10
3.35240519121919
 20
24.76792832497121
 10
3.35240519121919
 20
24.6454035040383
 10
3.434088405174464
 20
24.58737087058927
 10
3.530809460922853
 20
24.58737087058927
 10
3.666218938970598
 20
24.58737087058927
 10
3.752191296805008
 20
24.67334322842368
 10
3.782284205868665
 20
24.76146877093637
 10
3.788743759903508
 20
24.78081298208604
 10
3.793032903782644
 20
24.802310377914
 10
3.793032903782644
 20
24.82165458906368
 10
3.793032903782644
 20
24.82165458906368
 10
3.793032903782644
 20
25.00221204344562
 10
3.793032903782644
 20
25.00221204344562
 97
        0
 97
        0
 75
     2
 76
     1
 98
        0
  0
SPLINE
  5
231
330
1D1
100
AcDbEntity
  8
0
370
     0
100
AcDbSpline
210
0.0
220
0.0
230
1.0
 70
    11
 71
     3
 72
    41
 73
    37
 74
     0
 42
0.0000000001
 43
0.0000000001
 12
1.0
 22
0.0
 32
0.0
 13
1.0
 23
0.0
 33
0.0
 40
0.0
 40
0.0
 40
0.0
 40
0.0
 40
1.0
 40
1.0
 40
1.0
 40
2.0
 40
2.0
 40
2.0
 40
3.0
 40
3.0
 40
3.0
 40
4.0
 40
4.0
 40
4.0
 40
5.0
 40
5.0
 40
5.0
 40
6.0
 40
6.0
 40
6.0
 40
7.0
 40
7.0
 40
7.0
 40
8.0
 40
8.0
 40
8.0
 40
9.0
 40
9.0
 40
9.0
 40
10.0
 40
10.0
 40
10.0
 40
11.0
 40
11.0
 40
11.0
 40
12.0
 40
12.0
 40
12.0
 40
12.0
 10
4.27222846030347
 20
24.4713056036912
 30
0.0
 10
4.276517604182606
 20
24.54224011973249
 30
0.0
 10
4.280823973539169
 20
24.64755668871658
 30
0.0
 10
4.280823973539169
 20
24.73998860058584
 30
0.0
 10
4.280823973539169
 20
24.73998860058584
 30
0.0
 10
4.280823973539169
 20
25.99739677626975
 30
0.0
 10
4.280823973539169
 20
25.99739677626975
 30
0.0
 10
4.280823973539169
 20
25.99739677626975
 30
0.0
 10
4.46782375647853
 20
25.99739677626975
 30
0.0
 10
4.46782375647853
 20
25.99739677626975
 30
0.0
 10
4.46782375647853
 20
25.99739677626975
 30
0.0
 10
4.46782375647853
 20
25.34396551558241
 30
0.0
 10
4.46782375647853
 20
25.34396551558241
 30
0.0
 10
4.46782375647853
 20
25.34396551558241
 30
0.0
 10
4.472130125835093
 20
25.34396551558241
 30
0.0
 10
4.472130125835093
 20
25.34396551558241
 30
0.0
 10
4.538758272519824
 20
25.46003078248048
 30
0.0
 10
4.659129908774453
 20
25.53527166787833
 30
0.0
 10
4.82676825508671
 20
25.53527166787833
 30
0.0
 10
5.084702554067365
 20
25.53527166787833
 30
0.0
 10
5.267413193127591
 20
25.32033216055359
 30
0.0
 10
5.265260008449309
 20
25.00436522812391
 30
0.0
 10
5.265260008449309
 20
24.63251884692347
 30
0.0
 10
5.030976289974895
 20
24.44765502318496
 30
0.0
 10
4.798828530701334
 20
24.44765502318496
 30
0.0
 10
4.648381210860474
 20
24.44765502318496
 30
0.0
 10
4.528009574605845
 20
24.50568765663399
 30
0.0
 10
4.450632730007134
 20
24.64325031936002
 30
0.0
 10
4.450632730007134
 20
24.64325031936002
 30
0.0
 10
4.444173175972289
 20
24.64325031936002
 30
0.0
 10
4.444173175972289
 20
24.64325031936002
 30
0.0
 10
4.444173175972289
 20
24.64325031936002
 30
0.0
 10
4.435577662736591
 20
24.4713056036912
 30
0.0
 10
4.435577662736591
 20
24.4713056036912
 30
0.0
 10
4.435577662736591
 20
24.4713056036912
 30
0.0
 10
4.27222846030347
 20
24.4713056036912
 30
0.0
 10
4.27222846030347
 20
24.4713056036912
 30
0.0
  0
SPLINE
  5
232
330
1D1
100
AcDbEntity
  8
0
370
     0
100
AcDbSpline
210
0.0
220
0.0
230
1.0
 70
    11
 71
     3
 72
    26
 73
    22
 74
     0
 42
0.0000000001
 43
0.0000000001
 12
1.0
 22
0.0
 32
0.0
 13
1.0
 23
0.0
 33
0.0
 40
0.0
 40
0.0
 40
0.0
 40
0.0
 40
1.0
 40
1.0
 40
1.0
 40
2.0
 40
2.0
 40
2.0
 40
3.0
 40
3.0
 40
3.0
 40
4.0
 40
4.0
 40
4.0
 40
5.0
 40
5.0
 40
5.0
 40
6.0
 40
6.0
 40
6.0
 40
7.0
 40
7.0
 40
7.0
 40
7.0
 10
4.46782375647853
 20
24.88829996122584
 30
0.0
 10
4.46782375647853
 20
24.8646493807196
 30
0.0
 10
4.472130125835093
 20
24.84099880021336
 30
0.0
 10
4.476419269714228
 20
24.81951862986283
 30
0.0
 10
4.512954507335302
 20
24.68839829569422
 30
0.0
 10
4.622577445675953
 20
24.59811956850325
 30
0.0
 10
4.760140108401979
 20
24.59811956850325
 30
0.0
 10
4.957888589255319
 20
24.59811956850325
 30
0.0
 10
5.076107040831667
 20
24.75933281173551
 30
0.0
 10
5.076107040831667
 20
24.99790567408906
 30
0.0
 10
5.076107040831667
 20
25.20640285285639
 30
0.0
 10
4.968637287169298
 20
25.38480712256005
 30
0.0
 10
4.766599662436822
 20
25.38480712256005
 30
0.0
 10
4.637632512946494
 20
25.38480712256005
 30
0.0
 10
4.517260876691865
 20
25.29668158004736
 30
0.0
 10
4.478572454392509
 20
25.15267658876391
 30
0.0
 10
4.474266085035947
 20
25.13117919293595
 30
0.0
 10
4.46782375647853
 20
25.10537542775143
 30
0.0
 10
4.46782375647853
 20
25.0752997441652
 30
0.0
 10
4.46782375647853
 20
25.0752997441652
 30
0.0
 10
4.46782375647853
 20
24.88829996122584
 30
0.0
 10
4.46782375647853
 20
24.88829996122584
 30
0.0
  0
HATCH
  5
233
330
1D1
100
AcDbEntity
  8
0
 62
     7
420
 16777215
100
AcDbHatch
 10
0.0
 20
0.0
 30
0.0
210
0.0
220
0.0
230
1.0
  2
SOLID
 70
     1
 71
     0
 91
        2
 92
        1
 93
        1
 72
     4
 94
        3
 73
     0
 74
     1
 95
       41
 96
       37
 40
0.0
 40
0.0
 40
0.0
 40
0.0
 40
1.0
 40
1.0
 40
1.0
 40
2.0
 40
2.0
 40
2.0
 40
3.0
 40
3.0
 40
3.0
 40
4.0
 40
4.0
 40
4.0
 40
5.0
 40
5.0
 40
5.0
 40
6.0
 40
6.0
 40
6.0
 40
7.0
 40
7.0
 40
7.0
 40
8.0
 40
8.0
 40
8.0
 40
9.0
 40
9.0
 40
9.0
 40
10.0
 40
10.0
 40
10.0
 40
11.0
 40
11.0
 40
11.0
 40
12.0
 40
12.0
 40
12.0
 40
12.0
 10
4.27222846030347
 20
24.4713056036912
 10
4.276517604182606
 20
24.54224011973249
 10
4.280823973539169
 20
24.64755668871658
 10
4.280823973539169
 20
24.73998860058584
 10
4.280823973539169
 20
24.73998860058584
 10
4.280823973539169
 20
25.99739677626975
 10
4.280823973539169
 20
25.99739677626975
 10
4.280823973539169
 20
25.99739677626975
 10
4.46782375647853
 20
25.99739677626975
 10
4.46782375647853
 20
25.99739677626975
 10
4.46782375647853
 20
25.99739677626975
 10
4.46782375647853
 20
25.34396551558241
 10
4.46782375647853
 20
25.34396551558241
 10
4.46782375647853
 20
25.34396551558241
 10
4.472130125835093
 20
25.34396551558241
 10
4.472130125835093
 20
25.34396551558241
 10
4.538758272519824
 20
25.46003078248048
 10
4.659129908774453
 20
25.53527166787833
 10
4.82676825508671
 20
25.53527166787833
 10
5.084702554067365
 20
25.53527166787833
 10
5.267413193127591
 20
25.32033216055359
 10
5.265260008449309
 20
25.00436522812391
 10
5.265260008449309
 20
24.63251884692347
 10
5.030976289974895
 20
24.44765502318496
 10
4.798828530701334
 20
24.44765502318496
 10
4.648381210860474
 20
24.44765502318496
 10
4.528009574605845
 20
24.50568765663399
 10
4.450632730007134
 20
24.64325031936002
 10
4.450632730007134
 20
24.64325031936002
 10
4.444173175972289
 20
24.64325031936002
 10
4.444173175972289
 20
24.64325031936002
 10
4.444173175972289
 20
24.64325031936002
 10
4.435577662736591
 20
24.4713056036912
 10
4.435577662736591
 20
24.4713056036912
 10
4.435577662736591
 20
24.4713056036912
 10
4.27222846030347
 20
24.4713056036912
 10
4.27222846030347
 20
24.4713056036912
 97
        0
 97
        0
 92
        1
 93
        1
 72
     4
 94
        3
 73
     0
 74
     1
 95
       26
 96
       22
 40
0.0
 40
0.0
 40
0.0
 40
0.0
 40
1.0
 40
1.0
 40
1.0
 40
2.0
 40
2.0
 40
2.0
 40
3.0
 40
3.0
 40
3.0
 40
4.0
 40
4.0
 40
4.0
 40
5.0
 40
5.0
 40
5.0
 40
6.0
 40
6.0
 40
6.0
 40
7.0
 40
7.0
 40
7.0
 40
7.0
 10
4.46782375647853
 20
24.88829996122584
 10
4.46782375647853
 20
24.8646493807196
 10
4.472130125835093
 20
24.84099880021336
 10
4.476419269714228
 20
24.81951862986283
 10
4.512954507335302
 20
24.68839829569422
 10
4.622577445675953
 20
24.59811956850325
 10
4.760140108401979
 20
24.59811956850325
 10
4.957888589255319
 20
24.59811956850325
 10
5.076107040831667
 20
24.75933281173551
 10
5.076107040831667
 20
24.99790567408906
 10
5.076107040831667
 20
25.20640285285639
 10
4.968637287169298
 20
25.38480712256005
 10
4.766599662436822
 20
25.38480712256005
 10
4.637632512946494
 20
25.38480712256005
 10
4.517260876691865
 20
25.29668158004736
 10
4.478572454392509
 20
25.15267658876391
 10
4.474266085035947
 20
25.13117919293595
 10
4.46782375647853
 20
25.10537542775143
 10
4.46782375647853
 20
25.0752997441652
 10
4.46782375647853
 20
25.0752997441652
 10
4.46782375647853
 20
24.88829996122584
 10
4.46782375647853
 20
24.88829996122584
 97
        0
 97
        0
 75
     2
 76
     1
 98
        0
  0
POLYLINE
  5
234
330
1D1
100
AcDbEntity
  8
0
370
     0
100
AcDb2dPolyline
 66
     1
 10
0.0
 20
0.0
 30
0.0
  0
VERTEX
  5
235
330
234
100
AcDbEntity
  8
0
370
     0
100
AcDbVertex
100
AcDb2dVertex
 10
6.200017766462148
 20
24.9269883835252
 30
0.0
  0
VERTEX
  5
236
330
234
100
AcDbEntity
  8
0
370
     0
100
AcDbVertex
100
AcDb2dVertex
 10
6.049553221143861
 20
24.4713056036912
 30
0.0
  0
VERTEX
  5
237
330
234
100
AcDbEntity
  8
0
370
     0
100
AcDbVertex
100
AcDb2dVertex
 10
5.856111109647083
 20
24.4713056036912
 30
0.0
  0
VERTEX
  5
238
330
234
100
AcDbEntity
  8
0
370
     0
100
AcDbVertex
100
AcDb2dVertex
 10
6.348311901624727
 20
25.92001993167104
 30
0.0
  0
VERTEX
  5
239
330
234
100
AcDbEntity
  8
0
370
     0
100
AcDbVertex
100
AcDb2dVertex
 10
6.574000106863444
 20
25.92001993167104
 30
0.0
  0
VERTEX
  5
23A
330
234
100
AcDbEntity
  8
0
370
     0
100
AcDbVertex
100
AcDb2dVertex
 10
7.068371308996795
 20
24.4713056036912
 30
0.0
  0
VERTEX
  5
23B
330
234
100
AcDbEntity
  8
0
370
     0
100
AcDbVertex
100
AcDb2dVertex
 10
6.8684868689426
 20
24.4713056036912
 30
0.0
  0
VERTEX
  5
23C
330
234
100
AcDbEntity
  8
0
370
     0
100
AcDbVertex
100
AcDb2dVertex
 10
6.713715954267751
 20
24.9269883835252
 30
0.0
  0
VERTEX
  5
23D
330
234
100
AcDbEntity
  8
0
370
     0
100
AcDbVertex
100
AcDb2dVertex
 10
6.200017766462148
 20
24.9269883835252
 30
0.0
  0
SEQEND
  5
23E
330
234
100
AcDbEntity
  8
0
370
     0
  0
SPLINE
  5
23F
330
1D1
100
AcDbEntity
  8
0
370
     0
100
AcDbSpline
210
0.0
220
0.0
230
1.0
 70
    11
 71
     3
 72
    23
 73
    19
 74
     0
 42
0.0000000001
 43
0.0000000001
 12
1.0
 22
0.0
 32
0.0
 13
1.0
 23
0.0
 33
0.0
 40
0.0
 40
0.0
 40
0.0
 40
0.0
 40
1.0
 40
1.0
 40
1.0
 40
2.0
 40
2.0
 40
2.0
 40
3.0
 40
3.0
 40
3.0
 40
4.0
 40
4.0
 40
4.0
 40
5.0
 40
5.0
 40
5.0
 40
6.0
 40
6.0
 40
6.0
 40
6.0
 10
6.675027531968396
 20
25.07314655948692
 30
0.0
 10
6.675027531968396
 20
25.07314655948692
 30
0.0
 10
6.533175725363233
 20
25.49012369154413
 30
0.0
 10
6.533175725363233
 20
25.49012369154413
 30
0.0
 10
6.500929631621295
 20
25.58470878809167
 30
0.0
 10
6.479432235793336
 20
25.67068114592608
 30
0.0
 10
6.457934839965377
 20
25.75450031908221
 30
0.0
 10
6.457934839965377
 20
25.75450031908221
 30
0.0
 10
6.453645696086241
 20
25.75450031908221
 30
0.0
 10
6.453645696086241
 20
25.75450031908221
 30
0.0
 10
6.432148300258282
 20
25.6685279612478
 30
0.0
 10
6.408497719752042
 20
25.5804024187351
 30
0.0
 10
6.380557995366666
 20
25.49227687622242
 30
0.0
 10
6.380557995366666
 20
25.49227687622242
 30
0.0
 10
6.238706188761504
 20
25.07314655948692
 30
0.0
 10
6.238706188761504
 20
25.07314655948692
 30
0.0
 10
6.238706188761504
 20
25.07314655948692
 30
0.0
 10
6.675027531968396
 20
25.07314655948692
 30
0.0
 10
6.675027531968396
 20
25.07314655948692
 30
0.0
  0
HATCH
  5
240
330
1D1
100
AcDbEntity
  8
0
 62
     7
420
 16777215
100
AcDbHatch
 10
0.0
 20
0.0
 30
0.0
210
0.0
220
0.0
230
1.0
  2
SOLID
 70
     1
 71
     0
 91
        2
 92
        1
 93
        8
 72
     1
 10
6.200017766462148
 20
24.9269883835252
 11
6.049553221143861
 21
24.4713056036912
 72
     1
 10
6.049553221143861
 20
24.4713056036912
 11
5.856111109647083
 21
24.4713056036912
 72
     1
 10
5.856111109647083
 20
24.4713056036912
 11
6.348311901624727
 21
25.92001993167104
 72
     1
 10
6.348311901624727
 20
25.92001993167104
 11
6.574000106863444
 21
25.92001993167104
 72
     1
 10
6.574000106863444
 20
25.92001993167104
 11
7.068371308996795
 21
24.4713056036912
 72
     1
 10
7.068371308996795
 20
24.4713056036912
 11
6.8684868689426
 21
24.4713056036912
 72
     1
 10
6.8684868689426
 20
24.4713056036912
 11
6.713715954267751
 21
24.9269883835252
 72
     1
 10
6.713715954267751
 20
24.9269883835252
 11
6.200017766462148
 21
24.9269883835252
 97
        0
 92
        1
 93
        1
 72
     4
 94
        3
 73
     0
 74
     1
 95
       23
 96
       19
 40
0.0
 40
0.0
 40
0.0
 40
0.0
 40
1.0
 40
1.0
 40
1.0
 40
2.0
 40
2.0
 40
2.0
 40
3.0
 40
3.0
 40
3.0
 40
4.0
 40
4.0
 40
4.0
 40
5.0
 40
5.0
 40
5.0
 40
6.0
 40
6.0
 40
6.0
 40
6.0
 10
6.675027531968396
 20
25.07314655948692
 10
6.675027531968396
 20
25.07314655948692
 10
6.533175725363233
 20
25.49012369154413
 10
6.533175725363233
 20
25.49012369154413
 10
6.500929631621295
 20
25.58470878809167
 10
6.479432235793336
 20
25.67068114592608
 10
6.457934839965377
 20
25.75450031908221
 10
6.457934839965377
 20
25.75450031908221
 10
6.453645696086241
 20
25.75450031908221
 10
6.453645696086241
 20
25.75450031908221
 10
6.432148300258282
 20
25.6685279612478
 10
6.408497719752042
 20
25.5804024187351
 10
6.380557995366666
 20
25.49227687622242
 10
6.380557995366666
 20
25.49227687622242
 10
6.238706188761504
 20
25.07314655948692
 10
6.238706188761504
 20
25.07314655948692
 10
6.238706188761504
 20
25.07314655948692
 10
6.675027531968396
 20
25.07314655948692
 10
6.675027531968396
 20
25.07314655948692
 97
        0
 97
        0
 75
     2
 76
     1
 98
        0
  0
SPLINE
  5
241
330
1D1
100
AcDbEntity
  8
0
370
     0
100
AcDbSpline
210
0.0
220
0.0
230
1.0
 70
    11
 71
     3
 72
    35
 73
    31
 74
     0
 42
0.0000000001
 43
0.0000000001
 12
1.0
 22
0.0
 32
0.0
 13
1.0
 23
0.0
 33
0.0
 40
0.0
 40
0.0
 40
0.0
 40
0.0
 40
1.0
 40
1.0
 40
1.0
 40
2.0
 40
2.0
 40
2.0
 40
3.0
 40
3.0
 40
3.0
 40
4.0
 40
4.0
 40
4.0
 40
5.0
 40
5.0
 40
5.0
 40
6.0
 40
6.0
 40
6.0
 40
7.0
 40
7.0
 40
7.0
 40
8.0
 40
8.0
 40
8.0
 40
9.0
 40
9.0
 40
9.0
 40
10.0
 40
10.0
 40
10.0
 40
10.0
 10
7.990347762759357
 20
24.50999402599055
 30
0.0
 10
7.940910642546021
 20
24.48420748628346
 30
0.0
 10
7.831287704205372
 20
24.44980820786324
 30
0.0
 10
7.691571856801064
 20
24.44980820786324
 30
0.0
 10
7.377758109049657
 20
24.44980820786324
 30
0.0
 10
7.1735672996389
 20
24.66261175598712
 30
0.0
 10
7.1735672996389
 20
24.98071464761767
 30
0.0
 10
7.1735672996389
 20
25.30098794940392
 30
0.0
 10
7.392795950842773
 20
25.53311848320005
 30
0.0
 10
7.732413463778702
 20
25.53311848320005
 30
0.0
 10
7.844172361320206
 20
25.53311848320005
 30
0.0
 10
7.943046601746877
 20
25.50517875881468
 30
0.0
 10
7.994636906638493
 20
25.47937499363016
 30
0.0
 10
7.994636906638493
 20
25.47937499363016
 30
0.0
 10
7.951659340460001
 20
25.33321681766843
 30
0.0
 10
7.951659340460001
 20
25.33321681766843
 30
0.0
 10
7.906511364125802
 20
25.35902058285295
 30
0.0
 10
7.835576848084508
 20
25.38265393788177
 30
0.0
 10
7.732413463778702
 20
25.38265393788177
 30
0.0
 10
7.493823375947724
 20
25.38265393788177
 30
0.0
 10
7.364856226457396
 20
25.20640285285639
 30
0.0
 10
7.364856226457396
 20
24.98931016085336
 30
0.0
 10
7.364856226457396
 20
24.74858411382153
 30
0.0
 10
7.51960991565482
 20
24.60027275318153
 30
0.0
 10
7.725953909743859
 20
24.60027275318153
 30
0.0
 10
7.833440888883653
 20
24.60027275318153
 30
0.0
 10
7.904358179447521
 20
24.6282124775669
 30
0.0
 10
7.958101669017418
 20
24.65186305807314
 30
0.0
 10
7.958101669017418
 20
24.65186305807314
 30
0.0
 10
7.990347762759357
 20
24.50999402599055
 30
0.0
 10
7.990347762759357
 20
24.50999402599055
 30
0.0
  0
HATCH
  5
242
330
1D1
100
AcDbEntity
  8
0
 62
     7
420
 16777215
100
AcDbHatch
 10
0.0
 20
0.0
 30
0.0
210
0.0
220
0.0
230
1.0
  2
SOLID
 70
     1
 71
     0
 91
        1
 92
        1
 93
        1
 72
     4
 94
        3
 73
     0
 74
     1
 95
       35
 96
       31
 40
0.0
 40
0.0
 40
0.0
 40
0.0
 40
1.0
 40
1.0
 40
1.0
 40
2.0
 40
2.0
 40
2.0
 40
3.0
 40
3.0
 40
3.0
 40
4.0
 40
4.0
 40
4.0
 40
5.0
 40
5.0
 40
5.0
 40
6.0
 40
6.0
 40
6.0
 40
7.0
 40
7.0
 40
7.0
 40
8.0
 40
8.0
 40
8.0
 40
9.0
 40
9.0
 40
9.0
 40
10.0
 40
10.0
 40
10.0
 40
10.0
 10
7.990347762759357
 20
24.50999402599055
 10
7.940910642546021
 20
24.48420748628346
 10
7.831287704205372
 20
24.44980820786324
 10
7.691571856801064
 20
24.44980820786324
 10
7.377758109049657
 20
24.44980820786324
 10
7.1735672996389
 20
24.66261175598712
 10
7.1735672996389
 20
24.98071464761767
 10
7.1735672996389
 20
25.30098794940392
 10
7.392795950842773
 20
25.53311848320005
 10
7.732413463778702
 20
25.53311848320005
 10
7.844172361320206
 20
25.53311848320005
 10
7.943046601746877
 20
25.50517875881468
 10
7.994636906638493
 20
25.47937499363016
 10
7.994636906638493
 20
25.47937499363016
 10
7.951659340460001
 20
25.33321681766843
 10
7.951659340460001
 20
25.33321681766843
 10
7.906511364125802
 20
25.35902058285295
 10
7.835576848084508
 20
25.38265393788177
 10
7.732413463778702
 20
25.38265393788177
 10
7.493823375947724
 20
25.38265393788177
 10
7.364856226457396
 20
25.20640285285639
 10
7.364856226457396
 20
24.98931016085336
 10
7.364856226457396
 20
24.74858411382153
 10
7.51960991565482
 20
24.60027275318153
 10
7.725953909743859
 20
24.60027275318153
 10
7.833440888883653
 20
24.60027275318153
 10
7.904358179447521
 20
24.6282124775669
 10
7.958101669017418
 20
24.65186305807314
 10
7.958101669017418
 20
24.65186305807314
 10
7.990347762759357
 20
24.50999402599055
 10
7.990347762759357
 20
24.50999402599055
 97
        0
 97
        0
 75
     2
 76
     1
 98
        0
  0
SPLINE
  5
243
330
1D1
100
AcDbEntity
  8
0
370
     0
100
AcDbSpline
210
0.0
220
0.0
230
1.0
 70
    11
 71
     3
 72
    47
 73
    43
 74
     0
 42
0.0000000001
 43
0.0000000001
 12
1.0
 22
0.0
 32
0.0
 13
1.0
 23
0.0
 33
0.0
 40
0.0
 40
0.0
 40
0.0
 40
0.0
 40
1.0
 40
1.0
 40
1.0
 40
2.0
 40
2.0
 40
2.0
 40
3.0
 40
3.0
 40
3.0
 40
4.0
 40
4.0
 40
4.0
 40
5.0
 40
5.0
 40
5.0
 40
6.0
 40
6.0
 40
6.0
 40
7.0
 40
7.0
 40
7.0
 40
8.0
 40
8.0
 40
8.0
 40
9.0
 40
9.0
 40
9.0
 40
10.0
 40
10.0
 40
10.0
 40
11.0
 40
11.0
 40
11.0
 40
12.0
 40
12.0
 40
12.0
 40
13.0
 40
13.0
 40
13.0
 40
14.0
 40
14.0
 40
14.0
 40
14.0
 10
8.787646210910726
 20
24.4713056036912
 30
0.0
 10
8.787646210910726
 20
24.4713056036912
 30
0.0
 10
8.772608369117611
 20
24.60242593785981
 30
0.0
 10
8.772608369117611
 20
24.60242593785981
 30
0.0
 10
8.772608369117611
 20
24.60242593785981
 30
0.0
 10
8.766166040560194
 20
24.60242593785981
 30
0.0
 10
8.766166040560194
 20
24.60242593785981
 30
0.0
 10
8.708133407111161
 20
24.52074272390453
 30
0.0
 10
8.59635728409223
 20
24.44765502318496
 30
0.0
 10
8.448045923452224
 20
24.44765502318496
 30
0.0
 10
8.237395560006624
 20
24.44765502318496
 30
0.0
 10
8.129925806344254
 20
24.59596638382497
 30
0.0
 10
8.129925806344254
 20
24.74643092914325
 30
0.0
 10
8.129925806344254
 20
24.99790567408906
 30
0.0
 10
8.353478052382115
 20
25.13546833681509
 30
0.0
 10
8.755417342646215
 20
25.13333237761423
 30
0.0
 10
8.755417342646215
 20
25.13333237761423
 30
0.0
 10
8.755417342646215
 20
25.15481254796477
 30
0.0
 10
8.755417342646215
 20
25.15481254796477
 30
0.0
 10
8.755417342646215
 20
25.2408021312766
 30
0.0
 10
8.731766762139975
 20
25.39555582047403
 30
0.0
 10
8.518980439493518
 20
25.39555582047403
 30
0.0
 10
8.422259383745129
 20
25.39555582047403
 30
0.0
 10
8.321231958640178
 20
25.36546291141037
 30
0.0
 10
8.248144257920602
 20
25.31817897587532
 30
0.0
 10
8.248144257920602
 20
25.31817897587532
 30
0.0
 10
8.20516669174211
 20
25.44283975600908
 30
0.0
 10
8.20516669174211
 20
25.44283975600908
 30
0.0
 10
8.29113904957652
 20
25.49871920477983
 30
0.0
 10
8.415799829710286
 20
25.53527166787833
 30
0.0
 10
8.546920163878895
 20
25.53527166787833
 30
0.0
 10
8.865040280986864
 20
25.53527166787833
 30
0.0
 10
8.942417125585576
 20
25.31817897587532
 30
0.0
 10
8.942417125585576
 20
25.109681797108
 30
0.0
 10
8.942417125585576
 20
25.109681797108
 30
0.0
 10
8.942417125585576
 20
24.72064438943616
 30
0.0
 10
8.942417125585576
 20
24.72064438943616
 30
0.0
 10
8.942417125585576
 20
24.63036566224519
 30
0.0
 10
8.94670626946471
 20
24.54224011973249
 30
0.0
 10
8.959608152056973
 20
24.4713056036912
 30
0.0
 10
8.959608152056973
 20
24.4713056036912
 30
0.0
 10
8.787646210910726
 20
24.4713056036912
 30
0.0
 10
8.787646210910726
 20
24.4713056036912
 30
0.0
  0
SPLINE
  5
244
330
1D1
100
AcDbEntity
  8
0
370
     0
100
AcDbSpline
210
0.0
220
0.0
230
1.0
 70
    11
 71
     3
 72
    20
 73
    16
 74
     0
 42
0.0000000001
 43
0.0000000001
 12
1.0
 22
0.0
 32
0.0
 13
1.0
 23
0.0
 33
0.0
 40
0.0
 40
0.0
 40
0.0
 40
0.0
 40
1.0
 40
1.0
 40
1.0
 40
2.0
 40
2.0
 40
2.0
 40
3.0
 40
3.0
 40
3.0
 40
4.0
 40
4.0
 40
4.0
 40
5.0
 40
5.0
 40
5.0
 40
5.0
 10
8.759706486525351
 20
25.00221204344562
 30
0.0
 10
8.553362492436312
 20
25.00651841280219
 30
0.0
 10
8.319078773961897
 20
24.96996594970369
 30
0.0
 10
8.319078773961897
 20
24.76792832497121
 30
0.0
 10
8.319078773961897
 20
24.6454035040383
 30
0.0
 10
8.40076198791717
 20
24.58737087058927
 30
0.0
 10
8.497483043665559
 20
24.58737087058927
 30
0.0
 10
8.632892521713304
 20
24.58737087058927
 30
0.0
 10
8.718864879547713
 20
24.67334322842368
 30
0.0
 10
8.74895778861137
 20
24.76146877093637
 30
0.0
 10
8.755417342646215
 20
24.78081298208604
 30
0.0
 10
8.759706486525351
 20
24.802310377914
 30
0.0
 10
8.759706486525351
 20
24.82165458906368
 30
0.0
 10
8.759706486525351
 20
24.82165458906368
 30
0.0
 10
8.759706486525351
 20
25.00221204344562
 30
0.0
 10
8.759706486525351
 20
25.00221204344562
 30
0.0
  0
HATCH
  5
245
330
1D1
100
AcDbEntity
  8
0
 62
     7
420
 16777215
100
AcDbHatch
 10
0.0
 20
0.0
 30
0.0
210
0.0
220
0.0
230
1.0
  2
SOLID
 70
     1
 71
     0
 91
        2
 92
        1
 93
        1
 72
     4
 94
        3
 73
     0
 74
     1
 95
       47
 96
       43
 40
0.0
 40
0.0
 40
0.0
 40
0.0
 40
1.0
 40
1.0
 40
1.0
 40
2.0
 40
2.0
 40
2.0
 40
3.0
 40
3.0
 40
3.0
 40
4.0
 40
4.0
 40
4.0
 40
5.0
 40
5.0
 40
5.0
 40
6.0
 40
6.0
 40
6.0
 40
7.0
 40
7.0
 40
7.0
 40
8.0
 40
8.0
 40
8.0
 40
9.0
 40
9.0
 40
9.0
 40
10.0
 40
10.0
 40
10.0
 40
11.0
 40
11.0
 40
11.0
 40
12.0
 40
12.0
 40
12.0
 40
13.0
 40
13.0
 40
13.0
 40
14.0
 40
14.0
 40
14.0
 40
14.0
 10
8.787646210910726
 20
24.4713056036912
 10
8.787646210910726
 20
24.4713056036912
 10
8.772608369117611
 20
24.60242593785981
 10
8.772608369117611
 20
24.60242593785981
 10
8.772608369117611
 20
24.60242593785981
 10
8.766166040560194
 20
24.60242593785981
 10
8.766166040560194
 20
24.60242593785981
 10
8.708133407111161
 20
24.52074272390453
 10
8.59635728409223
 20
24.44765502318496
 10
8.448045923452224
 20
24.44765502318496
 10
8.237395560006624
 20
24.44765502318496
 10
8.129925806344254
 20
24.59596638382497
 10
8.129925806344254
 20
24.74643092914325
 10
8.129925806344254
 20
24.99790567408906
 10
8.353478052382115
 20
25.13546833681509
 10
8.755417342646215
 20
25.13333237761423
 10
8.755417342646215
 20
25.13333237761423
 10
8.755417342646215
 20
25.15481254796477
 10
8.755417342646215
 20
25.15481254796477
 10
8.755417342646215
 20
25.2408021312766
 10
8.731766762139975
 20
25.39555582047403
 10
8.518980439493518
 20
25.39555582047403
 10
8.422259383745129
 20
25.39555582047403
 10
8.321231958640178
 20
25.36546291141037
 10
8.248144257920602
 20
25.31817897587532
 10
8.248144257920602
 20
25.31817897587532
 10
8.20516669174211
 20
25.44283975600908
 10
8.20516669174211
 20
25.44283975600908
 10
8.29113904957652
 20
25.49871920477983
 10
8.415799829710286
 20
25.53527166787833
 10
8.546920163878895
 20
25.53527166787833
 10
8.865040280986864
 20
25.53527166787833
 10
8.942417125585576
 20
25.31817897587532
 10
8.942417125585576
 20
25.109681797108
 10
8.942417125585576
 20
25.109681797108
 10
8.942417125585576
 20
24.72064438943616
 10
8.942417125585576
 20
24.72064438943616
 10
8.942417125585576
 20
24.63036566224519
 10
8.94670626946471
 20
24.54224011973249
 10
8.959608152056973
 20
24.4713056036912
 10
8.959608152056973
 20
24.4713056036912
 10
8.787646210910726
 20
24.4713056036912
 10
8.787646210910726
 20
24.4713056036912
 97
        0
 97
        0
 92
        1
 93
        1
 72
     4
 94
        3
 73
     0
 74
     1
 95
       20
 96
       16
 40
0.0
 40
0.0
 40
0.0
 40
0.0
 40
1.0
 40
1.0
 40
1.0
 40
2.0
 40
2.0
 40
2.0
 40
3.0
 40
3.0
 40
3.0
 40
4.0
 40
4.0
 40
4.0
 40
5.0
 40
5.0
 40
5.0
 40
5.0
 10
8.759706486525351
 20
25.00221204344562
 10
8.553362492436312
 20
25.00651841280219
 10
8.319078773961897
 20
24.96996594970369
 10
8.319078773961897
 20
24.76792832497121
 10
8.319078773961897
 20
24.6454035040383
 10
8.40076198791717
 20
24.58737087058927
 10
8.497483043665559
 20
24.58737087058927
 10
8.632892521713304
 20
24.58737087058927
 10
8.718864879547713
 20
24.67334322842368
 10
8.74895778861137
 20
24.76146877093637
 10
8.755417342646215
 20
24.78081298208604
 10
8.759706486525351
 20
24.802310377914
 10
8.759706486525351
 20
24.82165458906368
 10
8.759706486525351
 20
24.82165458906368
 10
8.759706486525351
 20
25.00221204344562
 10
8.759706486525351
 20
25.00221204344562
 97
        0
 97
        0
 75
     2
 76
     1
 98
        0
  0
SPLINE
  5
246
330
1D1
100
AcDbEntity
  8
0
370
     0
100
AcDbSpline
210
0.0
220
0.0
230
1.0
 70
    11
 71
     3
 72
    41
 73
    37
 74
     0
 42
0.0000000001
 43
0.0000000001
 12
1.0
 22
0.0
 32
0.0
 13
1.0
 23
0.0
 33
0.0
 40
0.0
 40
0.0
 40
0.0
 40
0.0
 40
1.0
 40
1.0
 40
1.0
 40
2.0
 40
2.0
 40
2.0
 40
3.0
 40
3.0
 40
3.0
 40
4.0
 40
4.0
 40
4.0
 40
5.0
 40
5.0
 40
5.0
 40
6.0
 40
6.0
 40
6.0
 40
7.0
 40
7.0
 40
7.0
 40
8.0
 40
8.0
 40
8.0
 40
9.0
 40
9.0
 40
9.0
 40
10.0
 40
10.0
 40
10.0
 40
11.0
 40
11.0
 40
11.0
 40
12.0
 40
12.0
 40
12.0
 40
12.0
 10
10.14596123335761
 20
25.99739677626975
 30
0.0
 10
10.14596123335761
 20
25.99739677626975
 30
0.0
 10
10.14596123335761
 20
24.73998860058584
 30
0.0
 10
10.14596123335761
 20
24.73998860058584
 30
0.0
 10
10.14596123335761
 20
24.64755668871658
 30
0.0
 10
10.14809719255846
 20
24.54224011973249
 30
0.0
 10
10.1545567465933
 20
24.4713056036912
 30
0.0
 10
10.1545567465933
 20
24.4713056036912
 30
0.0
 10
9.98474799012534
 20
24.4713056036912
 30
0.0
 10
9.98474799012534
 20
24.4713056036912
 30
0.0
 10
9.98474799012534
 20
24.4713056036912
 30
0.0
 10
9.976152476889641
 20
24.65186305807314
 30
0.0
 10
9.976152476889641
 20
24.65186305807314
 30
0.0
 10
9.976152476889641
 20
24.65186305807314
 30
0.0
 10
9.971846107533079
 20
24.65186305807314
 30
0.0
 10
9.971846107533079
 20
24.65186305807314
 30
0.0
 10
9.913813474084046
 20
24.53578056569765
 30
0.0
 10
9.786999509271999
 20
24.44765502318496
 30
0.0
 10
9.617190752804035
 20
24.44765502318496
 30
0.0
 10
9.365716007858223
 20
24.44765502318496
 30
0.0
 10
9.172273896361444
 20
24.66045857130884
 30
0.0
 10
9.172273896361444
 20
24.97642550373853
 30
0.0
 10
9.170120711683163
 20
25.32246811975445
 30
0.0
 10
9.3850602190079
 20
25.53527166787833
 30
0.0
 10
9.638688148631994
 20
25.53527166787833
 30
0.0
 10
9.797748207185979
 20
25.53527166787833
 30
0.0
 10
9.905217960848347
 20
25.46003078248048
 30
0.0
 10
9.952501896383401
 20
25.37621160932435
 30
0.0
 10
9.952501896383401
 20
25.37621160932435
 30
0.0
 10
9.956808265739964
 20
25.37621160932435
 30
0.0
 10
9.956808265739964
 20
25.37621160932435
 30
0.0
 10
9.956808265739964
 20
25.37621160932435
 30
0.0
 10
9.956808265739964
 20
25.99739677626975
 30
0.0
 10
9.956808265739964
 20
25.99739677626975
 30
0.0
 10
9.956808265739964
 20
25.99739677626975
 30
0.0
 10
10.14596123335761
 20
25.99739677626975
 30
0.0
 10
10.14596123335761
 20
25.99739677626975
 30
0.0
  0
SPLINE
  5
247
330
1D1
100
AcDbEntity
  8
0
370
     0
100
AcDbSpline
210
0.0
220
0.0
230
1.0
 70
    11
 71
     3
 72
    26
 73
    22
 74
     0
 42
0.0000000001
 43
0.0000000001
 12
1.0
 22
0.0
 32
0.0
 13
1.0
 23
0.0
 33
0.0
 40
0.0
 40
0.0
 40
0.0
 40
0.0
 40
1.0
 40
1.0
 40
1.0
 40
2.0
 40
2.0
 40
2.0
 40
3.0
 40
3.0
 40
3.0
 40
4.0
 40
4.0
 40
4.0
 40
5.0
 40
5.0
 40
5.0
 40
6.0
 40
6.0
 40
6.0
 40
7.0
 40
7.0
 40
7.0
 40
7.0
 10
9.956808265739964
 20
25.08818440128004
 30
0.0
 10
9.956808265739964
 20
25.11183498178628
 30
0.0
 10
9.954655081061683
 20
25.14408107552821
 30
0.0
 10
9.948212752504265
 20
25.16771443055703
 30
0.0
 10
9.92027302811889
 20
25.28808606681166
 30
0.0
 10
9.817092418335656
 20
25.38696030723833
 30
0.0
 10
9.675240611730494
 20
25.38696030723833
 30
0.0
 10
9.479628090078009
 20
25.38696030723833
 30
0.0
 10
9.363562823179942
 20
25.21499836609208
 30
0.0
 10
9.363562823179942
 20
24.98502101697423
 30
0.0
 10
9.363562823179942
 20
24.77437065352863
 30
0.0
 10
9.466743432963174
 20
24.60027275318153
 30
0.0
 10
9.670934242373933
 20
24.60027275318153
 30
0.0
 10
9.797748207185979
 20
24.60027275318153
 30
0.0
 10
9.913813474084046
 20
24.68409192633765
 30
0.0
 10
9.948212752504265
 20
24.82596095842024
 30
0.0
 10
9.954655081061683
 20
24.85174749812734
 30
0.0
 10
9.956808265739964
 20
24.87755126331186
 30
0.0
 10
9.956808265739964
 20
24.90764417237552
 30
0.0
 10
9.956808265739964
 20
24.90764417237552
 30
0.0
 10
9.956808265739964
 20
25.08818440128004
 30
0.0
 10
9.956808265739964
 20
25.08818440128004
 30
0.0
  0
HATCH
  5
248
330
1D1
100
AcDbEntity
  8
0
 62
     7
420
 16777215
100
AcDbHatch
 10
0.0
 20
0.0
 30
0.0
210
0.0
220
0.0
230
1.0
  2
SOLID
 70
     1
 71
     0
 91
        2
 92
        1
 93
        1
 72
     4
 94
        3
 73
     0
 74
     1
 95
       41
 96
       37
 40
0.0
 40
0.0
 40
0.0
 40
0.0
 40
1.0
 40
1.0
 40
1.0
 40
2.0
 40
2.0
 40
2.0
 40
3.0
 40
3.0
 40
3.0
 40
4.0
 40
4.0
 40
4.0
 40
5.0
 40
5.0
 40
5.0
 40
6.0
 40
6.0
 40
6.0
 40
7.0
 40
7.0
 40
7.0
 40
8.0
 40
8.0
 40
8.0
 40
9.0
 40
9.0
 40
9.0
 40
10.0
 40
10.0
 40
10.0
 40
11.0
 40
11.0
 40
11.0
 40
12.0
 40
12.0
 40
12.0
 40
12.0
 10
10.14596123335761
 20
25.99739677626975
 10
10.14596123335761
 20
25.99739677626975
 10
10.14596123335761
 20
24.73998860058584
 10
10.14596123335761
 20
24.73998860058584
 10
10.14596123335761
 20
24.64755668871658
 10
10.14809719255846
 20
24.54224011973249
 10
10.1545567465933
 20
24.4713056036912
 10
10.1545567465933
 20
24.4713056036912
 10
9.98474799012534
 20
24.4713056036912
 10
9.98474799012534
 20
24.4713056036912
 10
9.98474799012534
 20
24.4713056036912
 10
9.976152476889641
 20
24.65186305807314
 10
9.976152476889641
 20
24.65186305807314
 10
9.976152476889641
 20
24.65186305807314
 10
9.971846107533079
 20
24.65186305807314
 10
9.971846107533079
 20
24.65186305807314
 10
9.913813474084046
 20
24.53578056569765
 10
9.786999509271999
 20
24.44765502318496
 10
9.617190752804035
 20
24.44765502318496
 10
9.365716007858223
 20
24.44765502318496
 10
9.172273896361444
 20
24.66045857130884
 10
9.172273896361444
 20
24.97642550373853
 10
9.170120711683163
 20
25.32246811975445
 10
9.3850602190079
 20
25.53527166787833
 10
9.638688148631994
 20
25.53527166787833
 10
9.797748207185979
 20
25.53527166787833
 10
9.905217960848347
 20
25.46003078248048
 10
9.952501896383401
 20
25.37621160932435
 10
9.952501896383401
 20
25.37621160932435
 10
9.956808265739964
 20
25.37621160932435
 10
9.956808265739964
 20
25.37621160932435
 10
9.956808265739964
 20
25.37621160932435
 10
9.956808265739964
 20
25.99739677626975
 10
9.956808265739964
 20
25.99739677626975
 10
9.956808265739964
 20
25.99739677626975
 10
10.14596123335761
 20
25.99739677626975
 10
10.14596123335761
 20
25.99739677626975
 97
        0
 97
        0
 92
        1
 93
        1
 72
     4
 94
        3
 73
     0
 74
     1
 95
       26
 96
       22
 40
0.0
 40
0.0
 40
0.0
 40
0.0
 40
1.0
 40
1.0
 40
1.0
 40
2.0
 40
2.0
 40
2.0
 40
3.0
 40
3.0
 40
3.0
 40
4.0
 40
4.0
 40
4.0
 40
5.0
 40
5.0
 40
5.0
 40
6.0
 40
6.0
 40
6.0
 40
7.0
 40
7.0
 40
7.0
 40
7.0
 10
9.956808265739964
 20
25.08818440128004
 10
9.956808265739964
 20
25.11183498178628
 10
9.954655081061683
 20
25.14408107552821
 10
9.948212752504265
 20
25.16771443055703
 10
9.92027302811889
 20
25.28808606681166
 10
9.817092418335656
 20
25.38696030723833
 10
9.675240611730494
 20
25.38696030723833
 10
9.479628090078009
 20
25.38696030723833
 10
9.363562823179942
 20
25.21499836609208
 10
9.363562823179942
 20
24.98502101697423
 10
9.363562823179942
 20
24.77437065352863
 10
9.466743432963174
 20
24.60027275318153
 10
9.670934242373933
 20
24.60027275318153
 10
9.797748207185979
 20
24.60027275318153
 10
9.913813474084046
 20
24.68409192633765
 10
9.948212752504265
 20
24.82596095842024
 10
9.954655081061683
 20
24.85174749812734
 10
9.956808265739964
 20
24.87755126331186
 10
9.956808265739964
 20
24.90764417237552
 10
9.956808265739964
 20
24.90764417237552
 10
9.956808265739964
 20
25.08818440128004
 10
9.956808265739964
 20
25.08818440128004
 97
        0
 97
        0
 75
     2
 76
     1
 98
        0
  0
SPLINE
  5
249
330
1D1
100
AcDbEntity
  8
0
370
     0
100
AcDbSpline
210
0.0
220
0.0
230
1.0
 70
    11
 71
     3
 72
    32
 73
    28
 74
     0
 42
0.0000000001
 43
0.0000000001
 12
1.0
 22
0.0
 32
0.0
 13
1.0
 23
0.0
 33
0.0
 40
0.0
 40
0.0
 40
0.0
 40
0.0
 40
1.0
 40
1.0
 40
1.0
 40
2.0
 40
2.0
 40
2.0
 40
3.0
 40
3.0
 40
3.0
 40
4.0
 40
4.0
 40
4.0
 40
5.0
 40
5.0
 40
5.0
 40
6.0
 40
6.0
 40
6.0
 40
7.0
 40
7.0
 40
7.0
 40
8.0
 40
8.0
 40
8.0
 40
9.0
 40
9.0
 40
9.0
 40
9.0
 10
10.56493652079626
 20
24.95708129258885
 30
0.0
 10
10.56924289015283
 20
24.70130017828648
 30
0.0
 10
10.73259209258595
 20
24.59596638382497
 30
0.0
 10
10.92174506020359
 20
24.59596638382497
 30
0.0
 10
11.05715453825134
 20
24.59596638382497
 30
0.0
 10
11.13883775220661
 20
24.6196169643312
 30
0.0
 10
11.2097722682479
 20
24.64970987339486
 30
0.0
 10
11.2097722682479
 20
24.64970987339486
 30
0.0
 10
11.24200113651242
 20
24.51430039534712
 30
0.0
 10
11.24200113651242
 20
24.51430039534712
 30
0.0
 10
11.17537298982768
 20
24.48420748628346
 30
0.0
 10
11.0614609076079
 20
24.44980820786324
 30
0.0
 10
10.8959585204965
 20
24.44980820786324
 30
0.0
 10
10.57568521871024
 20
24.44980820786324
 30
0.0
 10
10.38439629189175
 20
24.66045857130884
 30
0.0
 10
10.38439629189175
 20
24.97427231906025
 30
0.0
 10
10.38439629189175
 20
25.28808606681166
 30
0.0
 10
10.56924289015283
 20
25.53527166787833
 30
0.0
 10
10.87230793999026
 20
25.53527166787833
 30
0.0
 10
11.21190822744876
 20
25.53527166787833
 30
0.0
 10
11.30218695463973
 20
25.23649576192004
 30
0.0
 10
11.30218695463973
 20
25.04520683510154
 30
0.0
 10
11.30218695463973
 20
25.00651841280219
 30
0.0
 10
11.29789781076059
 20
24.97642550373853
 30
0.0
 10
11.29574462608231
 20
24.95708129258885
 30
0.0
 10
11.29574462608231
 20
24.95708129258885
 30
0.0
 10
10.56493652079626
 20
24.95708129258885
 30
0.0
 10
10.56493652079626
 20
24.95708129258885
 30
0.0
  0
SPLINE
  5
24A
330
1D1
100
AcDbEntity
  8
0
370
     0
100
AcDbSpline
210
0.0
220
0.0
230
1.0
 70
    11
 71
     3
 72
    14
 73
    10
 74
     0
 42
0.0000000001
 43
0.0000000001
 12
1.0
 22
0.0
 32
0.0
 13
1.0
 23
0.0
 33
0.0
 40
0.0
 40
0.0
 40
0.0
 40
0.0
 40
1.0
 40
1.0
 40
1.0
 40
2.0
 40
2.0
 40
2.0
 40
3.0
 40
3.0
 40
3.0
 40
3.0
 10
11.11949354105693
 20
25.0924907706366
 30
0.0
 10
11.12164672573521
 20
25.21286240689123
 30
0.0
 10
11.0700564208436
 20
25.39986218983059
 30
0.0
 10
10.85727009819714
 20
25.39986218983059
 30
0.0
 10
10.66596394590122
 20
25.39986218983059
 30
0.0
 10
10.58214477274509
 20
25.22359387932778
 30
0.0
 10
10.56708970547455
 20
25.0924907706366
 30
0.0
 10
10.56708970547455
 20
25.0924907706366
 30
0.0
 10
11.11949354105693
 20
25.0924907706366
 30
0.0
 10
11.11949354105693
 20
25.0924907706366
 30
0.0
  0
HATCH
  5
24B
330
1D1
100
AcDbEntity
  8
0
 62
     7
420
 16777215
100
AcDbHatch
 10
0.0
 20
0.0
 30
0.0
210
0.0
220
0.0
230
1.0
  2
SOLID
 70
     1
 71
     0
 91
        2
 92
        1
 93
        1
 72
     4
 94
        3
 73
     0
 74
     1
 95
       32
 96
       28
 40
0.0
 40
0.0
 40
0.0
 40
0.0
 40
1.0
 40
1.0
 40
1.0
 40
2.0
 40
2.0
 40
2.0
 40
3.0
 40
3.0
 40
3.0
 40
4.0
 40
4.0
 40
4.0
 40
5.0
 40
5.0
 40
5.0
 40
6.0
 40
6.0
 40
6.0
 40
7.0
 40
7.0
 40
7.0
 40
8.0
 40
8.0
 40
8.0
 40
9.0
 40
9.0
 40
9.0
 40
9.0
 10
10.56493652079626
 20
24.95708129258885
 10
10.56924289015283
 20
24.70130017828648
 10
10.73259209258595
 20
24.59596638382497
 10
10.92174506020359
 20
24.59596638382497
 10
11.05715453825134
 20
24.59596638382497
 10
11.13883775220661
 20
24.6196169643312
 10
11.2097722682479
 20
24.64970987339486
 10
11.2097722682479
 20
24.64970987339486
 10
11.24200113651242
 20
24.51430039534712
 10
11.24200113651242
 20
24.51430039534712
 10
11.17537298982768
 20
24.48420748628346
 10
11.0614609076079
 20
24.44980820786324
 10
10.8959585204965
 20
24.44980820786324
 10
10.57568521871024
 20
24.44980820786324
 10
10.38439629189175
 20
24.66045857130884
 10
10.38439629189175
 20
24.97427231906025
 10
10.38439629189175
 20
25.28808606681166
 10
10.56924289015283
 20
25.53527166787833
 10
10.87230793999026
 20
25.53527166787833
 10
11.21190822744876
 20
25.53527166787833
 10
11.30218695463973
 20
25.23649576192004
 10
11.30218695463973
 20
25.04520683510154
 10
11.30218695463973
 20
25.00651841280219
 10
11.29789781076059
 20
24.97642550373853
 10
11.29574462608231
 20
24.95708129258885
 10
11.29574462608231
 20
24.95708129258885
 10
10.56493652079626
 20
24.95708129258885
 10
10.56493652079626
 20
24.95708129258885
 97
        0
 97
        0
 92
        1
 93
        1
 72
     4
 94
        3
 73
     0
 74
     1
 95
       14
 96
       10
 40
0.0
 40
0.0
 40
0.0
 40
0.0
 40
1.0
 40
1.0
 40
1.0
 40
2.0
 40
2.0
 40
2.0
 40
3.0
 40
3.0
 40
3.0
 40
3.0
 10
11.11949354105693
 20
25.0924907706366
 10
11.12164672573521
 20
25.21286240689123
 10
11.0700564208436
 20
25.39986218983059
 10
10.85727009819714
 20
25.39986218983059
 10
10.66596394590122
 20
25.39986218983059
 10
10.58214477274509
 20
25.22359387932778
 10
10.56708970547455
 20
25.0924907706366
 10
10.56708970547455
 20
25.0924907706366
 10
11.11949354105693
 20
25.0924907706366
 10
11.11949354105693
 20
25.0924907706366
 97
        0
 97
        0
 75
     2
 76
     1
 98
        0
  0
SPLINE
  5
24C
330
1D1
100
AcDbEntity
  8
0
370
     0
100
AcDbSpline
210
0.0
220
0.0
230
1.0
 70
    11
 71
     3
 72
    80
 73
    76
 74
     0
 42
0.0000000001
 43
0.0000000001
 12
1.0
 22
0.0
 32
0.0
 13
1.0
 23
0.0
 33
0.0
 40
0.0
 40
0.0
 40
0.0
 40
0.0
 40
1.0
 40
1.0
 40
1.0
 40
2.0
 40
2.0
 40
2.0
 40
3.0
 40
3.0
 40
3.0
 40
4.0
 40
4.0
 40
4.0
 40
5.0
 40
5.0
 40
5.0
 40
6.0
 40
6.0
 40
6.0
 40
7.0
 40
7.0
 40
7.0
 40
8.0
 40
8.0
 40
8.0
 40
9.0
 40
9.0
 40
9.0
 40
10.0
 40
10.0
 40
10.0
 40
11.0
 40
11.0
 40
11.0
 40
12.0
 40
12.0
 40
12.0
 40
13.0
 40
13.0
 40
13.0
 40
14.0
 40
14.0
 40
14.0
 40
15.0
 40
15.0
 40
15.0
 40
16.0
 40
16.0
 40
16.0
 40
17.0
 40
17.0
 40
17.0
 40
18.0
 40
18.0
 40
18.0
 40
19.0
 40
19.0
 40
19.0
 40
20.0
 40
20.0
 40
20.0
 40
21.0
 40
21.0
 40
21.0
 40
22.0
 40
22.0
 40
22.0
 40
23.0
 40
23.0
 40
23.0
 40
24.0
 40
24.0
 40
24.0
 40
25.0
 40
25.0
 40
25.0
 40
25.0
 10
11.53633286929474
 20
25.23005343336262
 30
0.0
 10
11.53633286929474
 20
25.33752318702499
 30
0.0
 10
11.53417968461645
 20
25.42564872953768
 30
0.0
 10
11.52773735605904
 20
25.51162108737209
 30
0.0
 10
11.52773735605904
 20
25.51162108737209
 30
0.0
 10
11.69323974317044
 20
25.51162108737209
 30
0.0
 10
11.69323974317044
 20
25.51162108737209
 30
0.0
 10
11.69323974317044
 20
25.51162108737209
 30
0.0
 10
11.70183525640614
 20
25.34396551558241
 30
0.0
 10
11.70183525640614
 20
25.34396551558241
 30
0.0
 10
11.70183525640614
 20
25.34396551558241
 30
0.0
 10
11.70829481044098
 20
25.34396551558241
 30
0.0
 10
11.70829481044098
 20
25.34396551558241
 30
0.0
 10
11.76632744389001
 20
25.44283975600908
 30
0.0
 10
11.8630484996384
 20
25.53527166787833
 30
0.0
 10
12.03499321530722
 20
25.53527166787833
 30
0.0
 10
12.17686224738981
 20
25.53527166787833
 30
0.0
 10
12.28433200105218
 20
25.4492820845665
 30
0.0
 10
12.32946275190895
 20
25.32677448911101
 30
0.0
 10
12.32946275190895
 20
25.32677448911101
 30
0.0
 10
12.33376912126552
 20
25.32677448911101
 30
0.0
 10
12.33376912126552
 20
25.32677448911101
 30
0.0
 10
12.36601521500745
 20
25.38480712256005
 30
0.0
 10
12.40683959650766
 20
25.42993787341682
 30
0.0
 10
12.44983438816358
 20
25.46218396715876
 30
0.0
 10
12.51217339096918
 20
25.50946790269381
 30
0.0
 10
12.58095472233219
 20
25.53527166787833
 30
0.0
 10
12.67982896275886
 20
25.53527166787833
 30
0.0
 10
12.81739162548489
 20
25.53527166787833
 30
0.0
 10
13.02158243489565
 20
25.44499294068736
 30
0.0
 10
13.02158243489565
 20
25.0838952574009
 30
0.0
 10
13.02158243489565
 20
25.0838952574009
 30
0.0
 10
13.02158243489565
 20
24.4713056036912
 30
0.0
 10
13.02158243489565
 20
24.4713056036912
 30
0.0
 10
13.02158243489565
 20
24.4713056036912
 30
0.0
 10
12.83673583663457
 20
24.4713056036912
 30
0.0
 10
12.83673583663457
 20
24.4713056036912
 30
0.0
 10
12.83673583663457
 20
24.4713056036912
 30
0.0
 10
12.83673583663457
 20
25.06024467689466
 30
0.0
 10
12.83673583663457
 20
25.06024467689466
 30
0.0
 10
12.83673583663457
 20
25.26014634242628
 30
0.0
 10
12.76364813591499
 20
25.38050075320348
 30
0.0
 10
12.61104763139585
 20
25.38050075320348
 30
0.0
 10
12.50357787773348
 20
25.38050075320348
 30
0.0
 10
12.41974147909992
 20
25.30098794940392
 30
0.0
 10
12.38749538535799
 20
25.20855603753466
 30
0.0
 10
12.37889987212229
 20
25.18276949782757
 30
0.0
 10
12.37245754356487
 20
25.14837021940735
 30
0.0
 10
12.37245754356487
 20
25.11398816646456
 30
0.0
 10
12.37245754356487
 20
25.11398816646456
 30
0.0
 10
12.37245754356487
 20
24.4713056036912
 30
0.0
 10
12.37245754356487
 20
24.4713056036912
 30
0.0
 10
12.37245754356487
 20
24.4713056036912
 30
0.0
 10
12.18761094530379
 20
24.4713056036912
 30
0.0
 10
12.18761094530379
 20
24.4713056036912
 30
0.0
 10
12.18761094530379
 20
24.4713056036912
 30
0.0
 10
12.18761094530379
 20
25.09464395531488
 30
0.0
 10
12.18761094530379
 20
25.09464395531488
 30
0.0
 10
12.18761094530379
 20
25.26014634242628
 30
0.0
 10
12.11452324458422
 20
25.38050075320348
 30
0.0
 10
11.97051825330077
 20
25.38050075320348
 30
0.0
 10
11.85229980172442
 20
25.38050075320348
 30
0.0
 10
11.76632744389001
 20
25.28593288213338
 30
0.0
 10
11.73623453482636
 20
25.19136501106327
 30
0.0
 10
11.72548583691238
 20
25.16342528667789
 30
0.0
 10
11.72117946755582
 20
25.13117919293595
 30
0.0
 10
11.72117946755582
 20
25.09893309919401
 30
0.0
 10
11.72117946755582
 20
25.09893309919401
 30
0.0
 10
11.72117946755582
 20
24.4713056036912
 30
0.0
 10
11.72117946755582
 20
24.4713056036912
 30
0.0
 10
11.72117946755582
 20
24.4713056036912
 30
0.0
 10
11.53633286929474
 20
24.4713056036912
 30
0.0
 10
11.53633286929474
 20
24.4713056036912
 30
0.0
 10
11.53633286929474
 20
24.4713056036912
 30
0.0
 10
11.53633286929474
 20
25.23005343336262
 30
0.0
 10
11.53633286929474
 20
25.23005343336262
 30
0.0
  0
HATCH
  5
24D
330
1D1
100
AcDbEntity
  8
0
 62
     7
420
 16777215
100
AcDbHatch
 10
0.0
 20
0.0
 30
0.0
210
0.0
220
0.0
230
1.0
  2
SOLID
 70
     1
 71
     0
 91
        1
 92
        1
 93
        1
 72
     4
 94
        3
 73
     0
 74
     1
 95
       80
 96
       76
 40
0.0
 40
0.0
 40
0.0
 40
0.0
 40
1.0
 40
1.0
 40
1.0
 40
2.0
 40
2.0
 40
2.0
 40
3.0
 40
3.0
 40
3.0
 40
4.0
 40
4.0
 40
4.0
 40
5.0
 40
5.0
 40
5.0
 40
6.0
 40
6.0
 40
6.0
 40
7.0
 40
7.0
 40
7.0
 40
8.0
 40
8.0
 40
8.0
 40
9.0
 40
9.0
 40
9.0
 40
10.0
 40
10.0
 40
10.0
 40
11.0
 40
11.0
 40
11.0
 40
12.0
 40
12.0
 40
12.0
 40
13.0
 40
13.0
 40
13.0
 40
14.0
 40
14.0
 40
14.0
 40
15.0
 40
15.0
 40
15.0
 40
16.0
 40
16.0
 40
16.0
 40
17.0
 40
17.0
 40
17.0
 40
18.0
 40
18.0
 40
18.0
 40
19.0
 40
19.0
 40
19.0
 40
20.0
 40
20.0
 40
20.0
 40
21.0
 40
21.0
 40
21.0
 40
22.0
 40
22.0
 40
22.0
 40
23.0
 40
23.0
 40
23.0
 40
24.0
 40
24.0
 40
24.0
 40
25.0
 40
25.0
 40
25.0
 40
25.0
 10
11.53633286929474
 20
25.23005343336262
 10
11.53633286929474
 20
25.33752318702499
 10
11.53417968461645
 20
25.42564872953768
 10
11.52773735605904
 20
25.51162108737209
 10
11.52773735605904
 20
25.51162108737209
 10
11.69323974317044
 20
25.51162108737209
 10
11.69323974317044
 20
25.51162108737209
 10
11.69323974317044
 20
25.51162108737209
 10
11.70183525640614
 20
25.34396551558241
 10
11.70183525640614
 20
25.34396551558241
 10
11.70183525640614
 20
25.34396551558241
 10
11.70829481044098
 20
25.34396551558241
 10
11.70829481044098
 20
25.34396551558241
 10
11.76632744389001
 20
25.44283975600908
 10
11.8630484996384
 20
25.53527166787833
 10
12.03499321530722
 20
25.53527166787833
 10
12.17686224738981
 20
25.53527166787833
 10
12.28433200105218
 20
25.4492820845665
 10
12.32946275190895
 20
25.32677448911101
 10
12.32946275190895
 20
25.32677448911101
 10
12.33376912126552
 20
25.32677448911101
 10
12.33376912126552
 20
25.32677448911101
 10
12.36601521500745
 20
25.38480712256005
 10
12.40683959650766
 20
25.42993787341682
 10
12.44983438816358
 20
25.46218396715876
 10
12.51217339096918
 20
25.50946790269381
 10
12.58095472233219
 20
25.53527166787833
 10
12.67982896275886
 20
25.53527166787833
 10
12.81739162548489
 20
25.53527166787833
 10
13.02158243489565
 20
25.44499294068736
 10
13.02158243489565
 20
25.0838952574009
 10
13.02158243489565
 20
25.0838952574009
 10
13.02158243489565
 20
24.4713056036912
 10
13.02158243489565
 20
24.4713056036912
 10
13.02158243489565
 20
24.4713056036912
 10
12.83673583663457
 20
24.4713056036912
 10
12.83673583663457
 20
24.4713056036912
 10
12.83673583663457
 20
24.4713056036912
 10
12.83673583663457
 20
25.06024467689466
 10
12.83673583663457
 20
25.06024467689466
 10
12.83673583663457
 20
25.26014634242628
 10
12.76364813591499
 20
25.38050075320348
 10
12.61104763139585
 20
25.38050075320348
 10
12.50357787773348
 20
25.38050075320348
 10
12.41974147909992
 20
25.30098794940392
 10
12.38749538535799
 20
25.20855603753466
 10
12.37889987212229
 20
25.18276949782757
 10
12.37245754356487
 20
25.14837021940735
 10
12.37245754356487
 20
25.11398816646456
 10
12.37245754356487
 20
25.11398816646456
 10
12.37245754356487
 20
24.4713056036912
 10
12.37245754356487
 20
24.4713056036912
 10
12.37245754356487
 20
24.4713056036912
 10
12.18761094530379
 20
24.4713056036912
 10
12.18761094530379
 20
24.4713056036912
 10
12.18761094530379
 20
24.4713056036912
 10
12.18761094530379
 20
25.09464395531488
 10
12.18761094530379
 20
25.09464395531488
 10
12.18761094530379
 20
25.26014634242628
 10
12.11452324458422
 20
25.38050075320348
 10
11.97051825330077
 20
25.38050075320348
 10
11.85229980172442
 20
25.38050075320348
 10
11.76632744389001
 20
25.28593288213338
 10
11.73623453482636
 20
25.19136501106327
 10
11.72548583691238
 20
25.16342528667789
 10
11.72117946755582
 20
25.13117919293595
 10
11.72117946755582
 20
25.09893309919401
 10
11.72117946755582
 20
25.09893309919401
 10
11.72117946755582
 20
24.4713056036912
 10
11.72117946755582
 20
24.4713056036912
 10
11.72117946755582
 20
24.4713056036912
 10
11.53633286929474
 20
24.4713056036912
 10
11.53633286929474
 20
24.4713056036912
 10
11.53633286929474
 20
24.4713056036912
 10
11.53633286929474
 20
25.23005343336262
 10
11.53633286929474
 20
25.23005343336262
 97
        0
 97
        0
 75
     2
 76
     1
 98
        0
  0
SPLINE
  5
24E
330
1D1
100
AcDbEntity
  8
0
370
     0
100
AcDbSpline
210
0.0
220
0.0
230
1.0
 70
    11
 71
     3
 72
    53
 73
    49
 74
     0
 42
0.0000000001
 43
0.0000000001
 12
1.0
 22
0.0
 32
0.0
 13
1.0
 23
0.0
 33
0.0
 40
0.0
 40
0.0
 40
0.0
 40
0.0
 40
1.0
 40
1.0
 40
1.0
 40
2.0
 40
2.0
 40
2.0
 40
3.0
 40
3.0
 40
3.0
 40
4.0
 40
4.0
 40
4.0
 40
5.0
 40
5.0
 40
5.0
 40
6.0
 40
6.0
 40
6.0
 40
7.0
 40
7.0
 40
7.0
 40
8.0
 40
8.0
 40
8.0
 40
9.0
 40
9.0
 40
9.0
 40
10.0
 40
10.0
 40
10.0
 40
11.0
 40
11.0
 40
11.0
 40
12.0
 40
12.0
 40
12.0
 40
13.0
 40
13.0
 40
13.0
 40
14.0
 40
14.0
 40
14.0
 40
15.0
 40
15.0
 40
15.0
 40
16.0
 40
16.0
 40
16.0
 40
16.0
 10
13.36960598081558
 20
25.51162108737209
 30
0.0
 10
13.36960598081558
 20
25.51162108737209
 30
0.0
 10
13.59744737073258
 20
24.89689547446154
 30
0.0
 10
13.59744737073258
 20
24.89689547446154
 30
0.0
 10
13.6210807257614
 20
24.82811414309852
 30
0.0
 10
13.64688449094592
 20
24.74643092914325
 30
0.0
 10
13.66407551741731
 20
24.68409192633765
 30
0.0
 10
13.66407551741731
 20
24.68409192633765
 30
0.0
 10
13.66838188677388
 20
24.68409192633765
 30
0.0
 10
13.66838188677388
 20
24.68409192633765
 30
0.0
 10
13.68772609792355
 20
24.74643092914325
 30
0.0
 10
13.70920626827409
 20
24.82596095842024
 30
0.0
 10
13.73501003345861
 20
24.90118461834068
 30
0.0
 10
13.73501003345861
 20
24.90118461834068
 30
0.0
 10
13.94135402754765
 20
25.51162108737209
 30
0.0
 10
13.94135402754765
 20
25.51162108737209
 30
0.0
 10
13.94135402754765
 20
25.51162108737209
 30
0.0
 10
14.14125569307927
 20
25.51162108737209
 30
0.0
 10
14.14125569307927
 20
25.51162108737209
 30
0.0
 10
14.14125569307927
 20
25.51162108737209
 30
0.0
 10
13.85751762891409
 20
24.77008150964949
 30
0.0
 10
13.85751762891409
 20
24.77008150964949
 30
0.0
 10
13.72210815086635
 20
24.41327297024216
 30
0.0
 10
13.62969346447452
 20
24.23056233118194
 30
0.0
 10
13.50072631498419
 20
24.11880343364044
 30
0.0
 10
13.40829440311494
 20
24.03712021968516
 30
0.0
 10
13.31587971672311
 20
24.00487412594322
 30
0.0
 10
13.26857855571063
 20
23.99627861270753
 30
0.0
 10
13.26857855571063
 20
23.99627861270753
 30
0.0
 10
13.22129462017558
 20
24.15533867126151
 30
0.0
 10
13.22129462017558
 20
24.15533867126151
 30
0.0
 10
13.26857855571063
 20
24.17039373853205
 30
0.0
 10
13.33091755851623
 20
24.20048664759571
 30
0.0
 10
13.38679700728698
 20
24.24777058313076
 30
0.0
 10
13.4383873121786
 20
24.2886121901084
 30
0.0
 10
13.50286227418505
 20
24.36168266535055
 30
0.0
 10
13.54585706584096
 20
24.45840372109894
 30
0.0
 10
13.55445257907666
 20
24.47774793224862
 30
0.0
 10
13.56091213311151
 20
24.49280299951916
 30
0.0
 10
13.56091213311151
 20
24.50355169743314
 30
0.0
 10
13.56091213311151
 20
24.51430039534712
 30
0.0
 10
13.55660576375494
 20
24.52933823714023
 30
0.0
 10
13.54801025051925
 20
24.55298881764647
 30
0.0
 10
13.54801025051925
 20
24.55298881764647
 30
0.0
 10
13.16326198672654
 20
25.51162108737209
 30
0.0
 10
13.16326198672654
 20
25.51162108737209
 30
0.0
 10
13.16326198672654
 20
25.51162108737209
 30
0.0
 10
13.36960598081558
 20
25.51162108737209
 30
0.0
 10
13.36960598081558
 20
25.51162108737209
 30
0.0
  0
HATCH
  5
24F
330
1D1
100
AcDbEntity
  8
0
 62
     7
420
 16777215
100
AcDbHatch
 10
0.0
 20
0.0
 30
0.0
210
0.0
220
0.0
230
1.0
  2
SOLID
 70
     1
 71
     0
 91
        1
 92
        1
 93
        1
 72
     4
 94
        3
 73
     0
 74
     1
 95
       53
 96
       49
 40
0.0
 40
0.0
 40
0.0
 40
0.0
 40
1.0
 40
1.0
 40
1.0
 40
2.0
 40
2.0
 40
2.0
 40
3.0
 40
3.0
 40
3.0
 40
4.0
 40
4.0
 40
4.0
 40
5.0
 40
5.0
 40
5.0
 40
6.0
 40
6.0
 40
6.0
 40
7.0
 40
7.0
 40
7.0
 40
8.0
 40
8.0
 40
8.0
 40
9.0
 40
9.0
 40
9.0
 40
10.0
 40
10.0
 40
10.0
 40
11.0
 40
11.0
 40
11.0
 40
12.0
 40
12.0
 40
12.0
 40
13.0
 40
13.0
 40
13.0
 40
14.0
 40
14.0
 40
14.0
 40
15.0
 40
15.0
 40
15.0
 40
16.0
 40
16.0
 40
16.0
 40
16.0
 10
13.36960598081558
 20
25.51162108737209
 10
13.36960598081558
 20
25.51162108737209
 10
13.59744737073258
 20
24.89689547446154
 10
13.59744737073258
 20
24.89689547446154
 10
13.6210807257614
 20
24.82811414309852
 10
13.64688449094592
 20
24.74643092914325
 10
13.66407551741731
 20
24.68409192633765
 10
13.66407551741731
 20
24.68409192633765
 10
13.66838188677388
 20
24.68409192633765
 10
13.66838188677388
 20
24.68409192633765
 10
13.68772609792355
 20
24.74643092914325
 10
13.70920626827409
 20
24.82596095842024
 10
13.73501003345861
 20
24.90118461834068
 10
13.73501003345861
 20
24.90118461834068
 10
13.94135402754765
 20
25.51162108737209
 10
13.94135402754765
 20
25.51162108737209
 10
13.94135402754765
 20
25.51162108737209
 10
14.14125569307927
 20
25.51162108737209
 10
14.14125569307927
 20
25.51162108737209
 10
14.14125569307927
 20
25.51162108737209
 10
13.85751762891409
 20
24.77008150964949
 10
13.85751762891409
 20
24.77008150964949
 10
13.72210815086635
 20
24.41327297024216
 10
13.62969346447452
 20
24.23056233118194
 10
13.50072631498419
 20
24.11880343364044
 10
13.40829440311494
 20
24.03712021968516
 10
13.31587971672311
 20
24.00487412594322
 10
13.26857855571063
 20
23.99627861270753
 10
13.26857855571063
 20
23.99627861270753
 10
13.22129462017558
 20
24.15533867126151
 10
13.22129462017558
 20
24.15533867126151
 10
13.26857855571063
 20
24.17039373853205
 10
13.33091755851623
 20
24.20048664759571
 10
13.38679700728698
 20
24.24777058313076
 10
13.4383873121786
 20
24.2886121901084
 10
13.50286227418505
 20
24.36168266535055
 10
13.54585706584096
 20
24.45840372109894
 10
13.55445257907666
 20
24.47774793224862
 10
13.56091213311151
 20
24.49280299951916
 10
13.56091213311151
 20
24.50355169743314
 10
13.56091213311151
 20
24.51430039534712
 10
13.55660576375494
 20
24.52933823714023
 10
13.54801025051925
 20
24.55298881764647
 10
13.54801025051925
 20
24.55298881764647
 10
13.16326198672654
 20
25.51162108737209
 10
13.16326198672654
 20
25.51162108737209
 10
13.16326198672654
 20
25.51162108737209
 10
13.36960598081558
 20
25.51162108737209
 10
13.36960598081558
 20
25.51162108737209
 97
        0
 97
        0
 75
     2
 76
     1
 98
        0
  0
SPLINE
  5
250
330
1D1
100
AcDbEntity
  8
0
370
     0
100
AcDbSpline
210
0.0
220
0.0
230
1.0
 70
    11
 71
     3
 72
    47
 73
    43
 74
     0
 42
0.0000000001
 43
0.0000000001
 12
1.0
 22
0.0
 32
0.0
 13
1.0
 23
0.0
 33
0.0
 40
0.0
 40
0.0
 40
0.0
 40
0.0
 40
1.0
 40
1.0
 40
1.0
 40
2.0
 40
2.0
 40
2.0
 40
3.0
 40
3.0
 40
3.0
 40
4.0
 40
4.0
 40
4.0
 40
5.0
 40
5.0
 40
5.0
 40
6.0
 40
6.0
 40
6.0
 40
7.0
 40
7.0
 40
7.0
 40
8.0
 40
8.0
 40
8.0
 40
9.0
 40
9.0
 40
9.0
 40
10.0
 40
10.0
 40
10.0
 40
11.0
 40
11.0
 40
11.0
 40
12.0
 40
12.0
 40
12.0
 40
13.0
 40
13.0
 40
13.0
 40
14.0
 40
14.0
 40
14.0
 40
14.0
 10
14.70849066472565
 20
24.4713056036912
 30
0.0
 10
14.70849066472565
 20
24.4713056036912
 30
0.0
 10
14.70849066472565
 20
24.58737087058927
 30
0.0
 10
14.70849066472565
 20
24.58737087058927
 30
0.0
 10
14.70849066472565
 20
24.58737087058927
 30
0.0
 10
14.85680202536566
 20
24.73139308735013
 30
0.0
 10
14.85680202536566
 20
24.73139308735013
 30
0.0
 10
15.21357611381813
 20
25.07099337480864
 30
0.0
 10
15.37480658252782
 20
25.25155082919058
 30
0.0
 10
15.37694254172868
 20
25.46218396715876
 30
0.0
 10
15.37694254172868
 20
25.60405299924135
 30
0.0
 10
15.30817843584309
 20
25.73515610793253
 30
0.0
 10
15.09968125707577
 20
25.73515610793253
 30
0.0
 10
14.97286729226373
 20
25.73515610793253
 30
0.0
 10
14.86751627232479
 20
25.67068114592608
 30
0.0
 10
14.80305853579576
 20
25.61693765635618
 30
0.0
 10
14.80305853579576
 20
25.61693765635618
 30
0.0
 10
14.74287271766845
 20
25.75021117520307
 30
0.0
 10
14.74287271766845
 20
25.75021117520307
 30
0.0
 10
14.83957654793941
 20
25.83189438915834
 30
0.0
 10
14.97713921066544
 20
25.89206298180823
 30
0.0
 10
15.13836967937513
 20
25.89206298180823
 30
0.0
 10
15.43926431905685
 20
25.89206298180823
 30
0.0
 10
15.5660782838689
 20
25.68571898771919
 30
0.0
 10
15.5660782838689
 20
25.485834547665
 30
0.0
 10
15.5660782838689
 20
25.22790024868434
 30
0.0
 10
15.37907850092953
 20
25.01940306991702
 30
0.0
 10
15.08462618980523
 20
24.73568223122927
 30
0.0
 10
15.08462618980523
 20
24.73568223122927
 30
0.0
 10
14.97286729226373
 20
24.63251884692347
 30
0.0
 10
14.97286729226373
 20
24.63251884692347
 30
0.0
 10
14.97286729226373
 20
24.63251884692347
 30
0.0
 10
14.97286729226373
 20
24.6282124775669
 30
0.0
 10
14.97286729226373
 20
24.6282124775669
 30
0.0
 10
14.97286729226373
 20
24.6282124775669
 30
0.0
 10
15.60049478776654
 20
24.6282124775669
 30
0.0
 10
15.60049478776654
 20
24.6282124775669
 30
0.0
 10
15.60049478776654
 20
24.6282124775669
 30
0.0
 10
15.60049478776654
 20
24.4713056036912
 30
0.0
 10
15.60049478776654
 20
24.4713056036912
 30
0.0
 10
15.60049478776654
 20
24.4713056036912
 30
0.0
 10
14.70849066472565
 20
24.4713056036912
 30
0.0
 10
14.70849066472565
 20
24.4713056036912
 30
0.0
  0
HATCH
  5
251
330
1D1
100
AcDbEntity
  8
0
 62
     7
420
 16777215
100
AcDbHatch
 10
0.0
 20
0.0
 30
0.0
210
0.0
220
0.0
230
1.0
  2
SOLID
 70
     1
 71
     0
 91
        1
 92
        1
 93
        1
 72
     4
 94
        3
 73
     0
 74
     1
 95
       47
 96
       43
 40
0.0
 40
0.0
 40
0.0
 40
0.0
 40
1.0
 40
1.0
 40
1.0
 40
2.0
 40
2.0
 40
2.0
 40
3.0
 40
3.0
 40
3.0
 40
4.0
 40
4.0
 40
4.0
 40
5.0
 40
5.0
 40
5.0
 40
6.0
 40
6.0
 40
6.0
 40
7.0
 40
7.0
 40
7.0
 40
8.0
 40
8.0
 40
8.0
 40
9.0
 40
9.0
 40
9.0
 40
10.0
 40
10.0
 40
10.0
 40
11.0
 40
11.0
 40
11.0
 40
12.0
 40
12.0
 40
12.0
 40
13.0
 40
13.0
 40
13.0
 40
14.0
 40
14.0
 40
14.0
 40
14.0
 10
14.70849066472565
 20
24.4713056036912
 10
14.70849066472565
 20
24.4713056036912
 10
14.70849066472565
 20
24.58737087058927
 10
14.70849066472565
 20
24.58737087058927
 10
14.70849066472565
 20
24.58737087058927
 10
14.85680202536566
 20
24.73139308735013
 10
14.85680202536566
 20
24.73139308735013
 10
15.21357611381813
 20
25.07099337480864
 10
15.37480658252782
 20
25.25155082919058
 10
15.37694254172868
 20
25.46218396715876
 10
15.37694254172868
 20
25.60405299924135
 10
15.30817843584309
 20
25.73515610793253
 10
15.09968125707577
 20
25.73515610793253
 10
14.97286729226373
 20
25.73515610793253
 10
14.86751627232479
 20
25.67068114592608
 10
14.80305853579576
 20
25.61693765635618
 10
14.80305853579576
 20
25.61693765635618
 10
14.74287271766845
 20
25.75021117520307
 10
14.74287271766845
 20
25.75021117520307
 10
14.83957654793941
 20
25.83189438915834
 10
14.97713921066544
 20
25.89206298180823
 10
15.13836967937513
 20
25.89206298180823
 10
15.43926431905685
 20
25.89206298180823
 10
15.5660782838689
 20
25.68571898771919
 10
15.5660782838689
 20
25.485834547665
 10
15.5660782838689
 20
25.22790024868434
 10
15.37907850092953
 20
25.01940306991702
 10
15.08462618980523
 20
24.73568223122927
 10
15.08462618980523
 20
24.73568223122927
 10
14.97286729226373
 20
24.63251884692347
 10
14.97286729226373
 20
24.63251884692347
 10
14.97286729226373
 20
24.63251884692347
 10
14.97286729226373
 20
24.6282124775669
 10
14.97286729226373
 20
24.6282124775669
 10
14.97286729226373
 20
24.6282124775669
 10
15.60049478776654
 20
24.6282124775669
 10
15.60049478776654
 20
24.6282124775669
 10
15.60049478776654
 20
24.6282124775669
 10
15.60049478776654
 20
24.4713056036912
 10
15.60049478776654
 20
24.4713056036912
 10
15.60049478776654
 20
24.4713056036912
 10
14.70849066472565
 20
24.4713056036912
 10
14.70849066472565
 20
24.4713056036912
 97
        0
 97
        0
 75
     2
 76
     1
 98
        0
  0
SPLINE
  5
252
330
1D1
100
AcDbEntity
  8
0
370
     0
100
AcDbSpline
210
0.0
220
0.0
230
1.0
 70
    11
 71
     3
 72
    17
 73
    13
 74
     0
 42
0.0000000001
 43
0.0000000001
 12
1.0
 22
0.0
 32
0.0
 13
1.0
 23
0.0
 33
0.0
 40
0.0
 40
0.0
 40
0.0
 40
0.0
 40
1.0
 40
1.0
 40
1.0
 40
2.0
 40
2.0
 40
2.0
 40
3.0
 40
3.0
 40
3.0
 40
4.0
 40
4.0
 40
4.0
 40
4.0
 10
16.73951225709984
 20
25.18490545702842
 30
0.0
 10
16.73951225709984
 20
24.70989569152218
 30
0.0
 10
16.56326117207446
 20
24.44765502318496
 30
0.0
 10
16.25375379367962
 20
24.44765502318496
 30
0.0
 10
15.98076442742842
 20
24.44765502318496
 30
0.0
 10
15.79593505464477
 20
24.70343613748733
 30
0.0
 10
15.7916286852882
 20
25.16556124587875
 30
0.0
 10
15.7916286852882
 20
25.634145908305
 30
0.0
 10
15.99368353549811
 20
25.89206298180823
 30
0.0
 10
16.27738714870843
 20
25.89206298180823
 30
0.0
 10
16.57187391078759
 20
25.89206298180823
 30
0.0
 10
16.73951225709984
 20
25.62983953894844
 30
0.0
 10
16.73951225709984
 20
25.18490545702842
 30
0.0
  0
SPLINE
  5
253
330
1D1
100
AcDbEntity
  8
0
370
     0
100
AcDbSpline
210
0.0
220
0.0
230
1.0
 70
    11
 71
     3
 72
    17
 73
    13
 74
     0
 42
0.0000000001
 43
0.0000000001
 12
1.0
 22
0.0
 32
0.0
 13
1.0
 23
0.0
 33
0.0
 40
0.0
 40
0.0
 40
0.0
 40
0.0
 40
1.0
 40
1.0
 40
1.0
 40
2.0
 40
2.0
 40
2.0
 40
3.0
 40
3.0
 40
3.0
 40
4.0
 40
4.0
 40
4.0
 40
4.0
 10
15.98076442742842
 20
25.16342528667789
 30
0.0
 10
15.98076442742842
 20
24.80017441871315
 30
0.0
 10
16.09255777592477
 20
24.59383042462411
 30
0.0
 10
16.2645024915936
 20
24.59383042462411
 30
0.0
 10
16.45794460309038
 20
24.59383042462411
 30
0.0
 10
16.55037651495963
 20
24.81951862986283
 30
0.0
 10
16.55037651495963
 20
25.17630994379273
 30
0.0
 10
16.55037651495963
 20
25.52021660060779
 30
0.0
 10
16.46225097244693
 20
25.74590480584651
 30
0.0
 10
16.26663845079445
 20
25.74590480584651
 30
0.0
 10
16.10113606368305
 20
25.74590480584651
 30
0.0
 10
15.98076442742842
 20
25.54386718111403
 30
0.0
 10
15.98076442742842
 20
25.16342528667789
 30
0.0
  0
HATCH
  5
254
330
1D1
100
AcDbEntity
  8
0
 62
     7
420
 16777215
100
AcDbHatch
 10
0.0
 20
0.0
 30
0.0
210
0.0
220
0.0
230
1.0
  2
SOLID
 70
     1
 71
     0
 91
        2
 92
        1
 93
        1
 72
     4
 94
        3
 73
     0
 74
     1
 95
       17
 96
       13
 40
0.0
 40
0.0
 40
0.0
 40
0.0
 40
1.0
 40
1.0
 40
1.0
 40
2.0
 40
2.0
 40
2.0
 40
3.0
 40
3.0
 40
3.0
 40
4.0
 40
4.0
 40
4.0
 40
4.0
 10
16.73951225709984
 20
25.18490545702842
 10
16.73951225709984
 20
24.70989569152218
 10
16.56326117207446
 20
24.44765502318496
 10
16.25375379367962
 20
24.44765502318496
 10
15.98076442742842
 20
24.44765502318496
 10
15.79593505464477
 20
24.70343613748733
 10
15.7916286852882
 20
25.16556124587875
 10
15.7916286852882
 20
25.634145908305
 10
15.99368353549811
 20
25.89206298180823
 10
16.27738714870843
 20
25.89206298180823
 10
16.57187391078759
 20
25.89206298180823
 10
16.73951225709984
 20
25.62983953894844
 10
16.73951225709984
 20
25.18490545702842
 97
        0
 97
        0
 92
        1
 93
        1
 72
     4
 94
        3
 73
     0
 74
     1
 95
       17
 96
       13
 40
0.0
 40
0.0
 40
0.0
 40
0.0
 40
1.0
 40
1.0
 40
1.0
 40
2.0
 40
2.0
 40
2.0
 40
3.0
 40
3.0
 40
3.0
 40
4.0
 40
4.0
 40
4.0
 40
4.0
 10
15.98076442742842
 20
25.16342528667789
 10
15.98076442742842
 20
24.80017441871315
 10
16.09255777592477
 20
24.59383042462411
 10
16.2645024915936
 20
24.59383042462411
 10
16.45794460309038
 20
24.59383042462411
 10
16.55037651495963
 20
24.81951862986283
 10
16.55037651495963
 20
25.17630994379273
 10
16.55037651495963
 20
25.52021660060779
 10
16.46225097244693
 20
25.74590480584651
 10
16.26663845079445
 20
25.74590480584651
 10
16.10113606368305
 20
25.74590480584651
 10
15.98076442742842
 20
25.54386718111403
 10
15.98076442742842
 20
25.16342528667789
 97
        0
 97
        0
 75
     2
 76
     1
 98
        0
  0
POLYLINE
  5
255
330
1D1
100
AcDbEntity
  8
0
370
     0
100
AcDb2dPolyline
 66
     1
 10
0.0
 20
0.0
 30
0.0
  0
VERTEX
  5
256
330
255
100
AcDbEntity
  8
0
370
     0
100
AcDbVertex
100
AcDb2dVertex
 10
17.32400715712733
 20
25.69217854175404
 30
0.0
  0
VERTEX
  5
257
330
255
100
AcDbEntity
  8
0
370
     0
100
AcDbVertex
100
AcDb2dVertex
 10
17.31970078777077
 20
25.69217854175404
 30
0.0
  0
VERTEX
  5
258
330
255
100
AcDbEntity
  8
0
370
     0
100
AcDbVertex
100
AcDb2dVertex
 10
17.07682155606065
 20
25.56105820758543
 30
0.0
  0
VERTEX
  5
259
330
255
100
AcDbEntity
  8
0
370
     0
100
AcDbVertex
100
AcDb2dVertex
 10
17.04030354391701
 20
25.70506319886887
 30
0.0
  0
VERTEX
  5
25A
330
255
100
AcDbEntity
  8
0
370
     0
100
AcDbVertex
100
AcDb2dVertex
 10
17.34550455295529
 20
25.86842962677942
 30
0.0
  0
VERTEX
  5
25B
330
255
100
AcDbEntity
  8
0
370
     0
100
AcDbVertex
100
AcDb2dVertex
 10
17.50670057071013
 20
25.86842962677942
 30
0.0
  0
VERTEX
  5
25C
330
255
100
AcDbEntity
  8
0
370
     0
100
AcDbVertex
100
AcDb2dVertex
 10
17.50670057071013
 20
24.4713056036912
 30
0.0
  0
VERTEX
  5
25D
330
255
100
AcDbEntity
  8
0
370
     0
100
AcDbVertex
100
AcDb2dVertex
 10
17.32400715712733
 20
24.4713056036912
 30
0.0
  0
VERTEX
  5
25E
330
255
100
AcDbEntity
  8
0
370
     0
100
AcDbVertex
100
AcDb2dVertex
 10
17.32400715712733
 20
25.69217854175404
 30
0.0
  0
SEQEND
  5
25F
330
255
100
AcDbEntity
  8
0
370
     0
  0
HATCH
  5
260
330
1D1
100
AcDbEntity
  8
0
 62
     7
420
 16777215
100
AcDbHatch
 10
0.0
 20
0.0
 30
0.0
210
0.0
220
0.0
230
1.0
  2
SOLID
 70
     1
 71
     0
 91
        1
 92
        1
 93
        8
 72
     1
 10
17.32400715712733
 20
25.69217854175404
 11
17.31970078777077
 21
25.69217854175404
 72
     1
 10
17.31970078777077
 20
25.69217854175404
 11
17.07682155606065
 21
25.56105820758543
 72
     1
 10
17.07682155606065
 20
25.56105820758543
 11
17.04030354391701
 21
25.70506319886887
 72
     1
 10
17.04030354391701
 20
25.70506319886887
 11
17.34550455295529
 21
25.86842962677942
 72
     1
 10
17.34550455295529
 20
25.86842962677942
 11
17.50670057071013
 21
25.86842962677942
 72
     1
 10
17.50670057071013
 20
25.86842962677942
 11
17.50670057071013
 21
24.4713056036912
 72
     1
 10
17.50670057071013
 20
24.4713056036912
 11
17.32400715712733
 21
24.4713056036912
 72
     1
 10
17.32400715712733
 20
24.4713056036912
 11
17.32400715712733
 21
25.69217854175404
 97
        0
 75
     2
 76
     1
 98
        0
  0
SPLINE
  5
261
330
1D1
100
AcDbEntity
  8
0
370
     0
100
AcDbSpline
210
0.0
220
0.0
230
1.0
 70
    11
 71
     3
 72
    38
 73
    34
 74
     0
 42
0.0000000001
 43
0.0000000001
 12
1.0
 22
0.0
 32
0.0
 13
1.0
 23
0.0
 33
0.0
 40
0.0
 40
0.0
 40
0.0
 40
0.0
 40
1.0
 40
1.0
 40
1.0
 40
2.0
 40
2.0
 40
2.0
 40
3.0
 40
3.0
 40
3.0
 40
4.0
 40
4.0
 40
4.0
 40
5.0
 40
5.0
 40
5.0
 40
6.0
 40
6.0
 40
6.0
 40
7.0
 40
7.0
 40
7.0
 40
8.0
 40
8.0
 40
8.0
 40
9.0
 40
9.0
 40
9.0
 40
10.0
 40
10.0
 40
10.0
 40
11.0
 40
11.0
 40
11.0
 40
11.0
 10
18.81339083731054
 20
25.73515610793253
 30
0.0
 10
18.77470241501118
 20
25.73730929261081
 30
0.0
 10
18.72526529479785
 20
25.73515610793253
 30
0.0
 10
18.6715562561828
 20
25.72656059469683
 30
0.0
 10
18.37493353490279
 20
25.67712347448349
 30
0.0
 10
18.21800943554966
 20
25.46003078248048
 30
0.0
 10
18.18576334180772
 20
25.23005343336262
 30
0.0
 10
18.18576334180772
 20
25.23005343336262
 30
0.0
 10
18.19224012131999
 20
25.23005343336262
 30
0.0
 10
18.19224012131999
 20
25.23005343336262
 30
0.0
 10
18.25886826800473
 20
25.31817897587532
 30
0.0
 10
18.37493353490279
 20
25.39124945111746
 30
0.0
 10
18.52968722410021
 20
25.39124945111746
 30
0.0
 10
18.77687282516689
 20
25.39124945111746
 30
0.0
 10
18.95098795099142
 20
25.21286240689123
 30
0.0
 10
18.95098795099142
 20
24.93987304064003
 30
0.0
 10
18.95098795099142
 20
24.68409192633765
 30
0.0
 10
18.77687282516689
 20
24.44765502318496
 30
0.0
 10
18.4866924324443
 20
24.44765502318496
 30
0.0
 10
18.18793375196343
 20
24.44765502318496
 30
0.0
 10
17.99232123031095
 20
24.67980278245852
 30
0.0
 10
17.99232123031095
 20
25.04305365042326
 30
0.0
 10
17.99232123031095
 20
25.31817897587532
 30
0.0
 10
18.09119547073762
 20
25.53527166787833
 30
0.0
 10
18.22875813346364
 20
25.67283433060436
 30
0.0
 10
18.34482340036171
 20
25.78674641282414
 30
0.0
 10
18.49957708955913
 20
25.85768092886544
 30
0.0
 10
18.67586262553937
 20
25.8791783246934
 30
0.0
 10
18.73174207431012
 20
25.8877738379291
 30
0.0
 10
18.77900878436775
 20
25.88992702260738
 30
0.0
 10
18.81339083731054
 20
25.88992702260738
 30
0.0
 10
18.81339083731054
 20
25.88992702260738
 30
0.0
 10
18.81339083731054
 20
25.73515610793253
 30
0.0
 10
18.81339083731054
 20
25.73515610793253
 30
0.0
  0
SPLINE
  5
262
330
1D1
100
AcDbEntity
  8
0
370
     0
100
AcDbSpline
210
0.0
220
0.0
230
1.0
 70
    11
 71
     3
 72
    20
 73
    16
 74
     0
 42
0.0000000001
 43
0.0000000001
 12
1.0
 22
0.0
 32
0.0
 13
1.0
 23
0.0
 33
0.0
 40
0.0
 40
0.0
 40
0.0
 40
0.0
 40
1.0
 40
1.0
 40
1.0
 40
2.0
 40
2.0
 40
2.0
 40
3.0
 40
3.0
 40
3.0
 40
4.0
 40
4.0
 40
4.0
 40
5.0
 40
5.0
 40
5.0
 40
5.0
 10
18.7596817986955
 20
24.92912434272605
 30
0.0
 10
18.7596817986955
 20
25.12902600825767
 30
0.0
 10
18.64575249099828
 20
25.2493976445123
 30
0.0
 10
18.47163736517376
 20
25.2493976445123
 30
0.0
 10
18.3577425084314
 20
25.2493976445123
 30
0.0
 10
18.25242593944731
 20
25.17846312847101
 30
0.0
 10
18.20081840907827
 20
25.07743570336606
 30
0.0
 10
18.18793375196343
 20
25.0559383075381
 30
0.0
 10
18.17932101325031
 20
25.02799858315272
 30
0.0
 10
18.17932101325031
 20
24.99361653020993
 30
0.0
 10
18.18362738260687
 20
24.76362195561465
 30
0.0
 10
18.28894395159096
 20
24.59383042462411
 30
0.0
 10
18.4866924324443
 20
24.59383042462411
 30
0.0
 10
18.65005886035485
 20
24.59383042462411
 30
0.0
 10
18.7596817986955
 20
24.72923990267185
 30
0.0
 10
18.7596817986955
 20
24.92912434272605
 30
0.0
  0
HATCH
  5
263
330
1D1
100
AcDbEntity
  8
0
 62
     7
420
 16777215
100
AcDbHatch
 10
0.0
 20
0.0
 30
0.0
210
0.0
220
0.0
230
1.0
  2
SOLID
 70
     1
 71
     0
 91
        2
 92
        1
 93
        1
 72
     4
 94
        3
 73
     0
 74
     1
 95
       38
 96
       34
 40
0.0
 40
0.0
 40
0.0
 40
0.0
 40
1.0
 40
1.0
 40
1.0
 40
2.0
 40
2.0
 40
2.0
 40
3.0
 40
3.0
 40
3.0
 40
4.0
 40
4.0
 40
4.0
 40
5.0
 40
5.0
 40
5.0
 40
6.0
 40
6.0
 40
6.0
 40
7.0
 40
7.0
 40
7.0
 40
8.0
 40
8.0
 40
8.0
 40
9.0
 40
9.0
 40
9.0
 40
10.0
 40
10.0
 40
10.0
 40
11.0
 40
11.0
 40
11.0
 40
11.0
 10
18.81339083731054
 20
25.73515610793253
 10
18.77470241501118
 20
25.73730929261081
 10
18.72526529479785
 20
25.73515610793253
 10
18.6715562561828
 20
25.72656059469683
 10
18.37493353490279
 20
25.67712347448349
 10
18.21800943554966
 20
25.46003078248048
 10
18.18576334180772
 20
25.23005343336262
 10
18.18576334180772
 20
25.23005343336262
 10
18.19224012131999
 20
25.23005343336262
 10
18.19224012131999
 20
25.23005343336262
 10
18.25886826800473
 20
25.31817897587532
 10
18.37493353490279
 20
25.39124945111746
 10
18.52968722410021
 20
25.39124945111746
 10
18.77687282516689
 20
25.39124945111746
 10
18.95098795099142
 20
25.21286240689123
 10
18.95098795099142
 20
24.93987304064003
 10
18.95098795099142
 20
24.68409192633765
 10
18.77687282516689
 20
24.44765502318496
 10
18.4866924324443
 20
24.44765502318496
 10
18.18793375196343
 20
24.44765502318496
 10
17.99232123031095
 20
24.67980278245852
 10
17.99232123031095
 20
25.04305365042326
 10
17.99232123031095
 20
25.31817897587532
 10
18.09119547073762
 20
25.53527166787833
 10
18.22875813346364
 20
25.67283433060436
 10
18.34482340036171
 20
25.78674641282414
 10
18.49957708955913
 20
25.85768092886544
 10
18.67586262553937
 20
25.8791783246934
 10
18.73174207431012
 20
25.8877738379291
 10
18.77900878436775
 20
25.88992702260738
 10
18.81339083731054
 20
25.88992702260738
 10
18.81339083731054
 20
25.88992702260738
 10
18.81339083731054
 20
25.73515610793253
 10
18.81339083731054
 20
25.73515610793253
 97
        0
 97
        0
 92
        1
 93
        1
 72
     4
 94
        3
 73
     0
 74
     1
 95
       20
 96
       16
 40
0.0
 40
0.0
 40
0.0
 40
0.0
 40
1.0
 40
1.0
 40
1.0
 40
2.0
 40
2.0
 40
2.0
 40
3.0
 40
3.0
 40
3.0
 40
4.0
 40
4.0
 40
4.0
 40
5.0
 40
5.0
 40
5.0
 40
5.0
 10
18.7596817986955
 20
24.92912434272605
 10
18.7596817986955
 20
25.12902600825767
 10
18.64575249099828
 20
25.2493976445123
 10
18.47163736517376
 20
25.2493976445123
 10
18.3577425084314
 20
25.2493976445123
 10
18.25242593944731
 20
25.17846312847101
 10
18.20081840907827
 20
25.07743570336606
 10
18.18793375196343
 20
25.0559383075381
 10
18.17932101325031
 20
25.02799858315272
 10
18.17932101325031
 20
24.99361653020993
 10
18.18362738260687
 20
24.76362195561465
 10
18.28894395159096
 20
24.59383042462411
 10
18.4866924324443
 20
24.59383042462411
 10
18.65005886035485
 20
24.59383042462411
 10
18.7596817986955
 20
24.72923990267185
 10
18.7596817986955
 20
24.92912434272605
 97
        0
 97
        0
 75
     2
 76
     1
 98
        0
  0
POLYLINE
  5
264
330
1D1
100
AcDbEntity
  8
0
370
     0
100
AcDb2dPolyline
 66
     1
 10
0.0
 20
0.0
 30
0.0
  0
VERTEX
  5
265
330
264
100
AcDbEntity
  8
0
370
     0
100
AcDbVertex
100
AcDb2dVertex
 10
2.301444362488875
 20
23.34102145141301
 30
0.0
  0
VERTEX
  5
266
330
264
100
AcDbEntity
  8
0
370
     0
100
AcDbVertex
100
AcDb2dVertex
 10
3.081689587988258
 20
23.34102145141301
 30
0.0
  0
VERTEX
  5
267
330
264
100
AcDbEntity
  8
0
370
     0
100
AcDbVertex
100
AcDb2dVertex
 10
3.081689587988258
 20
23.1841145775373
 30
0.0
  0
VERTEX
  5
268
330
264
100
AcDbEntity
  8
0
370
     0
100
AcDbVertex
100
AcDb2dVertex
 10
2.488444145428236
 20
23.1841145775373
 30
0.0
  0
VERTEX
  5
269
330
264
100
AcDbEntity
  8
0
370
     0
100
AcDbVertex
100
AcDb2dVertex
 10
2.488444145428236
 20
22.70264525799621
 30
0.0
  0
VERTEX
  5
26A
330
264
100
AcDbEntity
  8
0
370
     0
100
AcDbVertex
100
AcDb2dVertex
 10
3.036558837131485
 20
22.70264525799621
 30
0.0
  0
VERTEX
  5
26B
330
264
100
AcDbEntity
  8
0
370
     0
100
AcDbVertex
100
AcDb2dVertex
 10
3.036558837131485
 20
22.54787434332136
 30
0.0
  0
VERTEX
  5
26C
330
264
100
AcDbEntity
  8
0
370
     0
100
AcDbVertex
100
AcDb2dVertex
 10
2.488444145428236
 20
22.54787434332136
 30
0.0
  0
VERTEX
  5
26D
330
264
100
AcDbEntity
  8
0
370
     0
100
AcDbVertex
100
AcDb2dVertex
 10
2.488444145428236
 20
21.89230712343317
 30
0.0
  0
VERTEX
  5
26E
330
264
100
AcDbEntity
  8
0
370
     0
100
AcDbVertex
100
AcDb2dVertex
 10
2.301444362488875
 20
21.89230712343317
 30
0.0
  0
VERTEX
  5
26F
330
264
100
AcDbEntity
  8
0
370
     0
100
AcDbVertex
100
AcDb2dVertex
 10
2.301444362488875
 20
23.34102145141301
 30
0.0
  0
SEQEND
  5
270
330
264
100
AcDbEntity
  8
0
370
     0
  0
HATCH
  5
271
330
1D1
100
AcDbEntity
  8
0
 62
     7
420
 16777215
100
AcDbHatch
 10
0.0
 20
0.0
 30
0.0
210
0.0
220
0.0
230
1.0
  2
SOLID
 70
     1
 71
     0
 91
        1
 92
        1
 93
       10
 72
     1
 10
2.301444362488875
 20
23.34102145141301
 11
3.081689587988258
 21
23.34102145141301
 72
     1
 10
3.081689587988258
 20
23.34102145141301
 11
3.081689587988258
 21
23.1841145775373
 72
     1
 10
3.081689587988258
 20
23.1841145775373
 11
2.488444145428236
 21
23.1841145775373
 72
     1
 10
2.488444145428236
 20
23.1841145775373
 11
2.488444145428236
 21
22.70264525799621
 72
     1
 10
2.488444145428236
 20
22.70264525799621
 11
3.036558837131485
 21
22.70264525799621
 72
     1
 10
3.036558837131485
 20
22.70264525799621
 11
3.036558837131485
 21
22.54787434332136
 72
     1
 10
3.036558837131485
 20
22.54787434332136
 11
2.488444145428236
 21
22.54787434332136
 72
     1
 10
2.488444145428236
 20
22.54787434332136
 11
2.488444145428236
 21
21.89230712343317
 72
     1
 10
2.488444145428236
 20
21.89230712343317
 11
2.301444362488875
 21
21.89230712343317
 72
     1
 10
2.301444362488875
 20
21.89230712343317
 11
2.301444362488875
 21
23.34102145141301
 97
        0
 75
     2
 76
     1
 98
        0
  0
SPLINE
  5
272
330
1D1
100
AcDbEntity
  8
0
370
     0
100
AcDbSpline
210
0.0
220
0.0
230
1.0
 70
    11
 71
     3
 72
    47
 73
    43
 74
     0
 42
0.0000000001
 43
0.0000000001
 12
1.0
 22
0.0
 32
0.0
 13
1.0
 23
0.0
 33
0.0
 40
0.0
 40
0.0
 40
0.0
 40
0.0
 40
1.0
 40
1.0
 40
1.0
 40
2.0
 40
2.0
 40
2.0
 40
3.0
 40
3.0
 40
3.0
 40
4.0
 40
4.0
 40
4.0
 40
5.0
 40
5.0
 40
5.0
 40
6.0
 40
6.0
 40
6.0
 40
7.0
 40
7.0
 40
7.0
 40
8.0
 40
8.0
 40
8.0
 40
9.0
 40
9.0
 40
9.0
 40
10.0
 40
10.0
 40
10.0
 40
11.0
 40
11.0
 40
11.0
 40
12.0
 40
12.0
 40
12.0
 40
13.0
 40
13.0
 40
13.0
 40
14.0
 40
14.0
 40
14.0
 40
14.0
 10
3.820972628168021
 20
21.89230712343317
 30
0.0
 10
3.820972628168021
 20
21.89230712343317
 30
0.0
 10
3.805934786374905
 20
22.02342745760178
 30
0.0
 10
3.805934786374905
 20
22.02342745760178
 30
0.0
 10
3.805934786374905
 20
22.02342745760178
 30
0.0
 10
3.799492457817488
 20
22.02342745760178
 30
0.0
 10
3.799492457817488
 20
22.02342745760178
 30
0.0
 10
3.741442598891028
 20
21.94174424364651
 30
0.0
 10
3.629683701349523
 20
21.86865654292693
 30
0.0
 10
3.481372340709518
 20
21.86865654292693
 30
0.0
 10
3.270721977263916
 20
21.86865654292693
 30
0.0
 10
3.163252223601548
 20
22.01696790356694
 30
0.0
 10
3.163252223601548
 20
22.16743244888522
 30
0.0
 10
3.163252223601548
 20
22.41890719383104
 30
0.0
 10
3.38680446963941
 20
22.55646985655706
 30
0.0
 10
3.788743759903508
 20
22.55433389735621
 30
0.0
 10
3.788743759903508
 20
22.55433389735621
 30
0.0
 10
3.788743759903508
 20
22.57581406770674
 30
0.0
 10
3.788743759903508
 20
22.57581406770674
 30
0.0
 10
3.788743759903508
 20
22.66180365101858
 30
0.0
 10
3.765093179397268
 20
22.816557340216
 30
0.0
 10
3.552306856750812
 20
22.816557340216
 30
0.0
 10
3.455585801002423
 20
22.816557340216
 30
0.0
 10
3.354558375897471
 20
22.78646443115234
 30
0.0
 10
3.281470675177896
 20
22.73918049561729
 30
0.0
 10
3.281470675177896
 20
22.73918049561729
 30
0.0
 10
3.238493108999404
 20
22.86384127575105
 30
0.0
 10
3.238493108999404
 20
22.86384127575105
 30
0.0
 10
3.324465466833814
 20
22.91972072452181
 30
0.0
 10
3.449126246967579
 20
22.9562731876203
 30
0.0
 10
3.580246581136188
 20
22.9562731876203
 30
0.0
 10
3.898366698244158
 20
22.9562731876203
 30
0.0
 10
3.975743542842869
 20
22.73918049561729
 30
0.0
 10
3.975743542842869
 20
22.53068331684997
 30
0.0
 10
3.975743542842869
 20
22.53068331684997
 30
0.0
 10
3.975743542842869
 20
22.14164590917813
 30
0.0
 10
3.975743542842869
 20
22.14164590917813
 30
0.0
 10
3.975743542842869
 20
22.05136718198716
 30
0.0
 10
3.980032686722005
 20
21.96324163947446
 30
0.0
 10
3.992934569314266
 20
21.89230712343317
 30
0.0
 10
3.992934569314266
 20
21.89230712343317
 30
0.0
 10
3.820972628168021
 20
21.89230712343317
 30
0.0
 10
3.820972628168021
 20
21.89230712343317
 30
0.0
  0
SPLINE
  5
273
330
1D1
100
AcDbEntity
  8
0
370
     0
100
AcDbSpline
210
0.0
220
0.0
230
1.0
 70
    11
 71
     3
 72
    20
 73
    16
 74
     0
 42
0.0000000001
 43
0.0000000001
 12
1.0
 22
0.0
 32
0.0
 13
1.0
 23
0.0
 33
0.0
 40
0.0
 40
0.0
 40
0.0
 40
0.0
 40
1.0
 40
1.0
 40
1.0
 40
2.0
 40
2.0
 40
2.0
 40
3.0
 40
3.0
 40
3.0
 40
4.0
 40
4.0
 40
4.0
 40
5.0
 40
5.0
 40
5.0
 40
5.0
 10
3.793032903782644
 20
22.4232135631876
 30
0.0
 10
3.586688909693605
 20
22.42751993254416
 30
0.0
 10
3.35240519121919
 20
22.39096746944566
 30
0.0
 10
3.35240519121919
 20
22.18892984471318
 30
0.0
 10
3.35240519121919
 20
22.06640502378027
 30
0.0
 10
3.434088405174464
 20
22.00837239033124
 30
0.0
 10
3.530809460922853
 20
22.00837239033124
 30
0.0
 10
3.666218938970598
 20
22.00837239033124
 30
0.0
 10
3.752191296805008
 20
22.09434474816565
 30
0.0
 10
3.782284205868665
 20
22.18247029067834
 30
0.0
 10
3.788743759903508
 20
22.20181450182802
 30
0.0
 10
3.793032903782644
 20
22.22331189765598
 30
0.0
 10
3.793032903782644
 20
22.24265610880565
 30
0.0
 10
3.793032903782644
 20
22.24265610880565
 30
0.0
 10
3.793032903782644
 20
22.4232135631876
 30
0.0
 10
3.793032903782644
 20
22.4232135631876
 30
0.0
  0
HATCH
  5
274
330
1D1
100
AcDbEntity
  8
0
 62
     7
420
 16777215
100
AcDbHatch
 10
0.0
 20
0.0
 30
0.0
210
0.0
220
0.0
230
1.0
  2
SOLID
 70
     1
 71
     0
 91
        2
 92
        1
 93
        1
 72
     4
 94
        3
 73
     0
 74
     1
 95
       47
 96
       43
 40
0.0
 40
0.0
 40
0.0
 40
0.0
 40
1.0
 40
1.0
 40
1.0
 40
2.0
 40
2.0
 40
2.0
 40
3.0
 40
3.0
 40
3.0
 40
4.0
 40
4.0
 40
4.0
 40
5.0
 40
5.0
 40
5.0
 40
6.0
 40
6.0
 40
6.0
 40
7.0
 40
7.0
 40
7.0
 40
8.0
 40
8.0
 40
8.0
 40
9.0
 40
9.0
 40
9.0
 40
10.0
 40
10.0
 40
10.0
 40
11.0
 40
11.0
 40
11.0
 40
12.0
 40
12.0
 40
12.0
 40
13.0
 40
13.0
 40
13.0
 40
14.0
 40
14.0
 40
14.0
 40
14.0
 10
3.820972628168021
 20
21.89230712343317
 10
3.820972628168021
 20
21.89230712343317
 10
3.805934786374905
 20
22.02342745760178
 10
3.805934786374905
 20
22.02342745760178
 10
3.805934786374905
 20
22.02342745760178
 10
3.799492457817488
 20
22.02342745760178
 10
3.799492457817488
 20
22.02342745760178
 10
3.741442598891028
 20
21.94174424364651
 10
3.629683701349523
 20
21.86865654292693
 10
3.481372340709518
 20
21.86865654292693
 10
3.270721977263916
 20
21.86865654292693
 10
3.163252223601548
 20
22.01696790356694
 10
3.163252223601548
 20
22.16743244888522
 10
3.163252223601548
 20
22.41890719383104
 10
3.38680446963941
 20
22.55646985655706
 10
3.788743759903508
 20
22.55433389735621
 10
3.788743759903508
 20
22.55433389735621
 10
3.788743759903508
 20
22.57581406770674
 10
3.788743759903508
 20
22.57581406770674
 10
3.788743759903508
 20
22.66180365101858
 10
3.765093179397268
 20
22.816557340216
 10
3.552306856750812
 20
22.816557340216
 10
3.455585801002423
 20
22.816557340216
 10
3.354558375897471
 20
22.78646443115234
 10
3.281470675177896
 20
22.73918049561729
 10
3.281470675177896
 20
22.73918049561729
 10
3.238493108999404
 20
22.86384127575105
 10
3.238493108999404
 20
22.86384127575105
 10
3.324465466833814
 20
22.91972072452181
 10
3.449126246967579
 20
22.9562731876203
 10
3.580246581136188
 20
22.9562731876203
 10
3.898366698244158
 20
22.9562731876203
 10
3.975743542842869
 20
22.73918049561729
 10
3.975743542842869
 20
22.53068331684997
 10
3.975743542842869
 20
22.53068331684997
 10
3.975743542842869
 20
22.14164590917813
 10
3.975743542842869
 20
22.14164590917813
 10
3.975743542842869
 20
22.05136718198716
 10
3.980032686722005
 20
21.96324163947446
 10
3.992934569314266
 20
21.89230712343317
 10
3.992934569314266
 20
21.89230712343317
 10
3.820972628168021
 20
21.89230712343317
 10
3.820972628168021
 20
21.89230712343317
 97
        0
 97
        0
 92
        1
 93
        1
 72
     4
 94
        3
 73
     0
 74
     1
 95
       20
 96
       16
 40
0.0
 40
0.0
 40
0.0
 40
0.0
 40
1.0
 40
1.0
 40
1.0
 40
2.0
 40
2.0
 40
2.0
 40
3.0
 40
3.0
 40
3.0
 40
4.0
 40
4.0
 40
4.0
 40
5.0
 40
5.0
 40
5.0
 40
5.0
 10
3.793032903782644
 20
22.4232135631876
 10
3.586688909693605
 20
22.42751993254416
 10
3.35240519121919
 20
22.39096746944566
 10
3.35240519121919
 20
22.18892984471318
 10
3.35240519121919
 20
22.06640502378027
 10
3.434088405174464
 20
22.00837239033124
 10
3.530809460922853
 20
22.00837239033124
 10
3.666218938970598
 20
22.00837239033124
 10
3.752191296805008
 20
22.09434474816565
 10
3.782284205868665
 20
22.18247029067834
 10
3.788743759903508
 20
22.20181450182802
 10
3.793032903782644
 20
22.22331189765598
 10
3.793032903782644
 20
22.24265610880565
 10
3.793032903782644
 20
22.24265610880565
 10
3.793032903782644
 20
22.4232135631876
 10
3.793032903782644
 20
22.4232135631876
 97
        0
 97
        0
 75
     2
 76
     1
 98
        0
  0
SPLINE
  5
275
330
1D1
100
AcDbEntity
  8
0
370
     0
100
AcDbSpline
210
0.0
220
0.0
230
1.0
 70
    11
 71
     3
 72
    41
 73
    37
 74
     0
 42
0.0000000001
 43
0.0000000001
 12
1.0
 22
0.0
 32
0.0
 13
1.0
 23
0.0
 33
0.0
 40
0.0
 40
0.0
 40
0.0
 40
0.0
 40
1.0
 40
1.0
 40
1.0
 40
2.0
 40
2.0
 40
2.0
 40
3.0
 40
3.0
 40
3.0
 40
4.0
 40
4.0
 40
4.0
 40
5.0
 40
5.0
 40
5.0
 40
6.0
 40
6.0
 40
6.0
 40
7.0
 40
7.0
 40
7.0
 40
8.0
 40
8.0
 40
8.0
 40
9.0
 40
9.0
 40
9.0
 40
10.0
 40
10.0
 40
10.0
 40
11.0
 40
11.0
 40
11.0
 40
12.0
 40
12.0
 40
12.0
 40
12.0
 10
4.27222846030347
 20
21.89230712343317
 30
0.0
 10
4.276517604182606
 20
21.96324163947446
 30
0.0
 10
4.280823973539169
 20
22.06855820845855
 30
0.0
 10
4.280823973539169
 20
22.16099012032781
 30
0.0
 10
4.280823973539169
 20
22.16099012032781
 30
0.0
 10
4.280823973539169
 20
23.41839829601172
 30
0.0
 10
4.280823973539169
 20
23.41839829601172
 30
0.0
 10
4.280823973539169
 20
23.41839829601172
 30
0.0
 10
4.46782375647853
 20
23.41839829601172
 30
0.0
 10
4.46782375647853
 20
23.41839829601172
 30
0.0
 10
4.46782375647853
 20
23.41839829601172
 30
0.0
 10
4.46782375647853
 20
22.76496703532438
 30
0.0
 10
4.46782375647853
 20
22.76496703532438
 30
0.0
 10
4.46782375647853
 20
22.76496703532438
 30
0.0
 10
4.472130125835093
 20
22.76496703532438
 30
0.0
 10
4.472130125835093
 20
22.76496703532438
 30
0.0
 10
4.538758272519824
 20
22.88103230222245
 30
0.0
 10
4.659129908774453
 20
22.9562731876203
 30
0.0
 10
4.82676825508671
 20
22.9562731876203
 30
0.0
 10
5.084702554067365
 20
22.9562731876203
 30
0.0
 10
5.267413193127591
 20
22.74133368029557
 30
0.0
 10
5.265260008449309
 20
22.42536674786588
 30
0.0
 10
5.265260008449309
 20
22.05352036666544
 30
0.0
 10
5.030976289974895
 20
21.86865654292693
 30
0.0
 10
4.798828530701334
 20
21.86865654292693
 30
0.0
 10
4.648381210860474
 20
21.86865654292693
 30
0.0
 10
4.528009574605845
 20
21.92668917637597
 30
0.0
 10
4.450632730007134
 20
22.06425183910199
 30
0.0
 10
4.450632730007134
 20
22.06425183910199
 30
0.0
 10
4.444173175972289
 20
22.06425183910199
 30
0.0
 10
4.444173175972289
 20
22.06425183910199
 30
0.0
 10
4.444173175972289
 20
22.06425183910199
 30
0.0
 10
4.435577662736591
 20
21.89230712343317
 30
0.0
 10
4.435577662736591
 20
21.89230712343317
 30
0.0
 10
4.435577662736591
 20
21.89230712343317
 30
0.0
 10
4.27222846030347
 20
21.89230712343317
 30
0.0
 10
4.27222846030347
 20
21.89230712343317
 30
0.0
  0
SPLINE
  5
276
330
1D1
100
AcDbEntity
  8
0
370
     0
100
AcDbSpline
210
0.0
220
0.0
230
1.0
 70
    11
 71
     3
 72
    26
 73
    22
 74
     0
 42
0.0000000001
 43
0.0000000001
 12
1.0
 22
0.0
 32
0.0
 13
1.0
 23
0.0
 33
0.0
 40
0.0
 40
0.0
 40
0.0
 40
0.0
 40
1.0
 40
1.0
 40
1.0
 40
2.0
 40
2.0
 40
2.0
 40
3.0
 40
3.0
 40
3.0
 40
4.0
 40
4.0
 40
4.0
 40
5.0
 40
5.0
 40
5.0
 40
6.0
 40
6.0
 40
6.0
 40
7.0
 40
7.0
 40
7.0
 40
7.0
 10
4.46782375647853
 20
22.30930148096781
 30
0.0
 10
4.46782375647853
 20
22.28565090046157
 30
0.0
 10
4.472130125835093
 20
22.26200031995533
 30
0.0
 10
4.476419269714228
 20
22.2405201496048
 30
0.0
 10
4.512954507335302
 20
22.10939981543619
 30
0.0
 10
4.622577445675953
 20
22.01912108824522
 30
0.0
 10
4.760140108401979
 20
22.01912108824522
 30
0.0
 10
4.957888589255319
 20
22.01912108824522
 30
0.0
 10
5.076107040831667
 20
22.18033433147749
 30
0.0
 10
5.076107040831667
 20
22.41890719383104
 30
0.0
 10
5.076107040831667
 20
22.62740437259836
 30
0.0
 10
4.968637287169298
 20
22.80580864230202
 30
0.0
 10
4.766599662436822
 20
22.80580864230202
 30
0.0
 10
4.637632512946494
 20
22.80580864230202
 30
0.0
 10
4.517260876691865
 20
22.71768309978933
 30
0.0
 10
4.478572454392509
 20
22.57367810850588
 30
0.0
 10
4.474266085035947
 20
22.55218071267792
 30
0.0
 10
4.46782375647853
 20
22.5263769474934
 30
0.0
 10
4.46782375647853
 20
22.49630126390717
 30
0.0
 10
4.46782375647853
 20
22.49630126390717
 30
0.0
 10
4.46782375647853
 20
22.30930148096781
 30
0.0
 10
4.46782375647853
 20
22.30930148096781
 30
0.0
  0
HATCH
  5
277
330
1D1
100
AcDbEntity
  8
0
 62
     7
420
 16777215
100
AcDbHatch
 10
0.0
 20
0.0
 30
0.0
210
0.0
220
0.0
230
1.0
  2
SOLID
 70
     1
 71
     0
 91
        2
 92
        1
 93
        1
 72
     4
 94
        3
 73
     0
 74
     1
 95
       41
 96
       37
 40
0.0
 40
0.0
 40
0.0
 40
0.0
 40
1.0
 40
1.0
 40
1.0
 40
2.0
 40
2.0
 40
2.0
 40
3.0
 40
3.0
 40
3.0
 40
4.0
 40
4.0
 40
4.0
 40
5.0
 40
5.0
 40
5.0
 40
6.0
 40
6.0
 40
6.0
 40
7.0
 40
7.0
 40
7.0
 40
8.0
 40
8.0
 40
8.0
 40
9.0
 40
9.0
 40
9.0
 40
10.0
 40
10.0
 40
10.0
 40
11.0
 40
11.0
 40
11.0
 40
12.0
 40
12.0
 40
12.0
 40
12.0
 10
4.27222846030347
 20
21.89230712343317
 10
4.276517604182606
 20
21.96324163947446
 10
4.280823973539169
 20
22.06855820845855
 10
4.280823973539169
 20
22.16099012032781
 10
4.280823973539169
 20
22.16099012032781
 10
4.280823973539169
 20
23.41839829601172
 10
4.280823973539169
 20
23.41839829601172
 10
4.280823973539169
 20
23.41839829601172
 10
4.46782375647853
 20
23.41839829601172
 10
4.46782375647853
 20
23.41839829601172
 10
4.46782375647853
 20
23.41839829601172
 10
4.46782375647853
 20
22.76496703532438
 10
4.46782375647853
 20
22.76496703532438
 10
4.46782375647853
 20
22.76496703532438
 10
4.472130125835093
 20
22.76496703532438
 10
4.472130125835093
 20
22.76496703532438
 10
4.538758272519824
 20
22.88103230222245
 10
4.659129908774453
 20
22.9562731876203
 10
4.82676825508671
 20
22.9562731876203
 10
5.084702554067365
 20
22.9562731876203
 10
5.267413193127591
 20
22.74133368029557
 10
5.265260008449309
 20
22.42536674786588
 10
5.265260008449309
 20
22.05352036666544
 10
5.030976289974895
 20
21.86865654292693
 10
4.798828530701334
 20
21.86865654292693
 10
4.648381210860474
 20
21.86865654292693
 10
4.528009574605845
 20
21.92668917637597
 10
4.450632730007134
 20
22.06425183910199
 10
4.450632730007134
 20
22.06425183910199
 10
4.444173175972289
 20
22.06425183910199
 10
4.444173175972289
 20
22.06425183910199
 10
4.444173175972289
 20
22.06425183910199
 10
4.435577662736591
 20
21.89230712343317
 10
4.435577662736591
 20
21.89230712343317
 10
4.435577662736591
 20
21.89230712343317
 10
4.27222846030347
 20
21.89230712343317
 10
4.27222846030347
 20
21.89230712343317
 97
        0
 97
        0
 92
        1
 93
        1
 72
     4
 94
        3
 73
     0
 74
     1
 95
       26
 96
       22
 40
0.0
 40
0.0
 40
0.0
 40
0.0
 40
1.0
 40
1.0
 40
1.0
 40
2.0
 40
2.0
 40
2.0
 40
3.0
 40
3.0
 40
3.0
 40
4.0
 40
4.0
 40
4.0
 40
5.0
 40
5.0
 40
5.0
 40
6.0
 40
6.0
 40
6.0
 40
7.0
 40
7.0
 40
7.0
 40
7.0
 10
4.46782375647853
 20
22.30930148096781
 10
4.46782375647853
 20
22.28565090046157
 10
4.472130125835093
 20
22.26200031995533
 10
4.476419269714228
 20
22.2405201496048
 10
4.512954507335302
 20
22.10939981543619
 10
4.622577445675953
 20
22.01912108824522
 10
4.760140108401979
 20
22.01912108824522
 10
4.957888589255319
 20
22.01912108824522
 10
5.076107040831667
 20
22.18033433147749
 10
5.076107040831667
 20
22.41890719383104
 10
5.076107040831667
 20
22.62740437259836
 10
4.968637287169298
 20
22.80580864230202
 10
4.766599662436822
 20
22.80580864230202
 10
4.637632512946494
 20
22.80580864230202
 10
4.517260876691865
 20
22.71768309978933
 10
4.478572454392509
 20
22.57367810850588
 10
4.474266085035947
 20
22.55218071267792
 10
4.46782375647853
 20
22.5263769474934
 10
4.46782375647853
 20
22.49630126390717
 10
4.46782375647853
 20
22.49630126390717
 10
4.46782375647853
 20
22.30930148096781
 10
4.46782375647853
 20
22.30930148096781
 97
        0
 97
        0
 75
     2
 76
     1
 98
        0
  0
POLYLINE
  5
278
330
1D1
100
AcDbEntity
  8
0
370
     0
100
AcDb2dPolyline
 66
     1
 10
0.0
 20
0.0
 30
0.0
  0
VERTEX
  5
279
330
278
100
AcDbEntity
  8
0
370
     0
100
AcDbVertex
100
AcDb2dVertex
 10
5.965716822510307
 20
23.34102145141301
 30
0.0
  0
VERTEX
  5
27A
330
278
100
AcDbEntity
  8
0
370
     0
100
AcDbVertex
100
AcDb2dVertex
 10
6.152716605449668
 20
23.34102145141301
 30
0.0
  0
VERTEX
  5
27B
330
278
100
AcDbEntity
  8
0
370
     0
100
AcDbVertex
100
AcDb2dVertex
 10
6.152716605449668
 20
22.04921399730888
 30
0.0
  0
VERTEX
  5
27C
330
278
100
AcDbEntity
  8
0
370
     0
100
AcDbVertex
100
AcDb2dVertex
 10
6.771748587716784
 20
22.04921399730888
 30
0.0
  0
VERTEX
  5
27D
330
278
100
AcDbEntity
  8
0
370
     0
100
AcDbVertex
100
AcDb2dVertex
 10
6.771748587716784
 20
21.89230712343317
 30
0.0
  0
VERTEX
  5
27E
330
278
100
AcDbEntity
  8
0
370
     0
100
AcDbVertex
100
AcDb2dVertex
 10
5.965716822510307
 20
21.89230712343317
 30
0.0
  0
VERTEX
  5
27F
330
278
100
AcDbEntity
  8
0
370
     0
100
AcDbVertex
100
AcDb2dVertex
 10
5.965716822510307
 20
23.34102145141301
 30
0.0
  0
SEQEND
  5
280
330
278
100
AcDbEntity
  8
0
370
     0
  0
HATCH
  5
281
330
1D1
100
AcDbEntity
  8
0
 62
     7
420
 16777215
100
AcDbHatch
 10
0.0
 20
0.0
 30
0.0
210
0.0
220
0.0
230
1.0
  2
SOLID
 70
     1
 71
     0
 91
        1
 92
        1
 93
        6
 72
     1
 10
5.965716822510307
 20
23.34102145141301
 11
6.152716605449668
 21
23.34102145141301
 72
     1
 10
6.152716605449668
 20
23.34102145141301
 11
6.152716605449668
 21
22.04921399730888
 72
     1
 10
6.152716605449668
 20
22.04921399730888
 11
6.771748587716784
 21
22.04921399730888
 72
     1
 10
6.771748587716784
 20
22.04921399730888
 11
6.771748587716784
 21
21.89230712343317
 72
     1
 10
6.771748587716784
 20
21.89230712343317
 11
5.965716822510307
 21
21.89230712343317
 72
     1
 10
5.965716822510307
 20
21.89230712343317
 11
5.965716822510307
 21
23.34102145141301
 97
        0
 75
     2
 76
     1
 98
        0
  0
SPLINE
  5
282
330
1D1
100
AcDbEntity
  8
0
370
     0
100
AcDbSpline
210
0.0
220
0.0
230
1.0
 70
    11
 71
     3
 72
    47
 73
    43
 74
     0
 42
0.0000000001
 43
0.0000000001
 12
1.0
 22
0.0
 32
0.0
 13
1.0
 23
0.0
 33
0.0
 40
0.0
 40
0.0
 40
0.0
 40
0.0
 40
1.0
 40
1.0
 40
1.0
 40
2.0
 40
2.0
 40
2.0
 40
3.0
 40
3.0
 40
3.0
 40
4.0
 40
4.0
 40
4.0
 40
5.0
 40
5.0
 40
5.0
 40
6.0
 40
6.0
 40
6.0
 40
7.0
 40
7.0
 40
7.0
 40
8.0
 40
8.0
 40
8.0
 40
9.0
 40
9.0
 40
9.0
 40
10.0
 40
10.0
 40
10.0
 40
11.0
 40
11.0
 40
11.0
 40
12.0
 40
12.0
 40
12.0
 40
13.0
 40
13.0
 40
13.0
 40
14.0
 40
14.0
 40
14.0
 40
14.0
 10
7.54968559924105
 20
21.89230712343317
 30
0.0
 10
7.54968559924105
 20
21.89230712343317
 30
0.0
 10
7.534647757447935
 20
22.02342745760178
 30
0.0
 10
7.534647757447935
 20
22.02342745760178
 30
0.0
 10
7.534647757447935
 20
22.02342745760178
 30
0.0
 10
7.528205428890518
 20
22.02342745760178
 30
0.0
 10
7.528205428890518
 20
22.02342745760178
 30
0.0
 10
7.470172795441484
 20
21.94174424364651
 30
0.0
 10
7.358396672422553
 20
21.86865654292693
 30
0.0
 10
7.210085311782548
 20
21.86865654292693
 30
0.0
 10
6.999434948336947
 20
21.86865654292693
 30
0.0
 10
6.891965194674578
 20
22.01696790356694
 30
0.0
 10
6.891965194674578
 20
22.16743244888522
 30
0.0
 10
6.891965194674578
 20
22.41890719383104
 30
0.0
 10
7.11551744071244
 20
22.55646985655706
 30
0.0
 10
7.517456730976538
 20
22.55433389735621
 30
0.0
 10
7.517456730976538
 20
22.55433389735621
 30
0.0
 10
7.517456730976538
 20
22.57581406770674
 30
0.0
 10
7.517456730976538
 20
22.57581406770674
 30
0.0
 10
7.517456730976538
 20
22.66180365101858
 30
0.0
 10
7.493806150470298
 20
22.816557340216
 30
0.0
 10
7.281019827823842
 20
22.816557340216
 30
0.0
 10
7.184298772075453
 20
22.816557340216
 30
0.0
 10
7.083271346970501
 20
22.78646443115234
 30
0.0
 10
7.010183646250926
 20
22.73918049561729
 30
0.0
 10
7.010183646250926
 20
22.73918049561729
 30
0.0
 10
6.967206080072434
 20
22.86384127575105
 30
0.0
 10
6.967206080072434
 20
22.86384127575105
 30
0.0
 10
7.053178437906844
 20
22.91972072452181
 30
0.0
 10
7.177839218040609
 20
22.9562731876203
 30
0.0
 10
7.308959552209218
 20
22.9562731876203
 30
0.0
 10
7.627079669317188
 20
22.9562731876203
 30
0.0
 10
7.7044565139159
 20
22.73918049561729
 30
0.0
 10
7.7044565139159
 20
22.53068331684997
 30
0.0
 10
7.7044565139159
 20
22.53068331684997
 30
0.0
 10
7.7044565139159
 20
22.14164590917813
 30
0.0
 10
7.7044565139159
 20
22.14164590917813
 30
0.0
 10
7.7044565139159
 20
22.05136718198716
 30
0.0
 10
7.708745657795035
 20
21.96324163947446
 30
0.0
 10
7.721647540387296
 20
21.89230712343317
 30
0.0
 10
7.721647540387296
 20
21.89230712343317
 30
0.0
 10
7.54968559924105
 20
21.89230712343317
 30
0.0
 10
7.54968559924105
 20
21.89230712343317
 30
0.0
  0
SPLINE
  5
283
330
1D1
100
AcDbEntity
  8
0
370
     0
100
AcDbSpline
210
0.0
220
0.0
230
1.0
 70
    11
 71
     3
 72
    20
 73
    16
 74
     0
 42
0.0000000001
 43
0.0000000001
 12
1.0
 22
0.0
 32
0.0
 13
1.0
 23
0.0
 33
0.0
 40
0.0
 40
0.0
 40
0.0
 40
0.0
 40
1.0
 40
1.0
 40
1.0
 40
2.0
 40
2.0
 40
2.0
 40
3.0
 40
3.0
 40
3.0
 40
4.0
 40
4.0
 40
4.0
 40
5.0
 40
5.0
 40
5.0
 40
5.0
 10
7.521745874855674
 20
22.4232135631876
 30
0.0
 10
7.315401880766635
 20
22.42751993254416
 30
0.0
 10
7.08111816229222
 20
22.39096746944566
 30
0.0
 10
7.08111816229222
 20
22.18892984471318
 30
0.0
 10
7.08111816229222
 20
22.06640502378027
 30
0.0
 10
7.162801376247494
 20
22.00837239033124
 30
0.0
 10
7.259522431995883
 20
22.00837239033124
 30
0.0
 10
7.394931910043628
 20
22.00837239033124
 30
0.0
 10
7.480904267878037
 20
22.09434474816565
 30
0.0
 10
7.510997176941695
 20
22.18247029067834
 30
0.0
 10
7.517456730976538
 20
22.20181450182802
 30
0.0
 10
7.521745874855674
 20
22.22331189765598
 30
0.0
 10
7.521745874855674
 20
22.24265610880565
 30
0.0
 10
7.521745874855674
 20
22.24265610880565
 30
0.0
 10
7.521745874855674
 20
22.4232135631876
 30
0.0
 10
7.521745874855674
 20
22.4232135631876
 30
0.0
  0
HATCH
  5
284
330
1D1
100
AcDbEntity
  8
0
 62
     7
420
 16777215
100
AcDbHatch
 10
0.0
 20
0.0
 30
0.0
210
0.0
220
0.0
230
1.0
  2
SOLID
 70
     1
 71
     0
 91
        2
 92
        1
 93
        1
 72
     4
 94
        3
 73
     0
 74
     1
 95
       47
 96
       43
 40
0.0
 40
0.0
 40
0.0
 40
0.0
 40
1.0
 40
1.0
 40
1.0
 40
2.0
 40
2.0
 40
2.0
 40
3.0
 40
3.0
 40
3.0
 40
4.0
 40
4.0
 40
4.0
 40
5.0
 40
5.0
 40
5.0
 40
6.0
 40
6.0
 40
6.0
 40
7.0
 40
7.0
 40
7.0
 40
8.0
 40
8.0
 40
8.0
 40
9.0
 40
9.0
 40
9.0
 40
10.0
 40
10.0
 40
10.0
 40
11.0
 40
11.0
 40
11.0
 40
12.0
 40
12.0
 40
12.0
 40
13.0
 40
13.0
 40
13.0
 40
14.0
 40
14.0
 40
14.0
 40
14.0
 10
7.54968559924105
 20
21.89230712343317
 10
7.54968559924105
 20
21.89230712343317
 10
7.534647757447935
 20
22.02342745760178
 10
7.534647757447935
 20
22.02342745760178
 10
7.534647757447935
 20
22.02342745760178
 10
7.528205428890518
 20
22.02342745760178
 10
7.528205428890518
 20
22.02342745760178
 10
7.470172795441484
 20
21.94174424364651
 10
7.358396672422553
 20
21.86865654292693
 10
7.210085311782548
 20
21.86865654292693
 10
6.999434948336947
 20
21.86865654292693
 10
6.891965194674578
 20
22.01696790356694
 10
6.891965194674578
 20
22.16743244888522
 10
6.891965194674578
 20
22.41890719383104
 10
7.11551744071244
 20
22.55646985655706
 10
7.517456730976538
 20
22.55433389735621
 10
7.517456730976538
 20
22.55433389735621
 10
7.517456730976538
 20
22.57581406770674
 10
7.517456730976538
 20
22.57581406770674
 10
7.517456730976538
 20
22.66180365101858
 10
7.493806150470298
 20
22.816557340216
 10
7.281019827823842
 20
22.816557340216
 10
7.184298772075453
 20
22.816557340216
 10
7.083271346970501
 20
22.78646443115234
 10
7.010183646250926
 20
22.73918049561729
 10
7.010183646250926
 20
22.73918049561729
 10
6.967206080072434
 20
22.86384127575105
 10
6.967206080072434
 20
22.86384127575105
 10
7.053178437906844
 20
22.91972072452181
 10
7.177839218040609
 20
22.9562731876203
 10
7.308959552209218
 20
22.9562731876203
 10
7.627079669317188
 20
22.9562731876203
 10
7.7044565139159
 20
22.73918049561729
 10
7.7044565139159
 20
22.53068331684997
 10
7.7044565139159
 20
22.53068331684997
 10
7.7044565139159
 20
22.14164590917813
 10
7.7044565139159
 20
22.14164590917813
 10
7.7044565139159
 20
22.05136718198716
 10
7.708745657795035
 20
21.96324163947446
 10
7.721647540387296
 20
21.89230712343317
 10
7.721647540387296
 20
21.89230712343317
 10
7.54968559924105
 20
21.89230712343317
 10
7.54968559924105
 20
21.89230712343317
 97
        0
 97
        0
 92
        1
 93
        1
 72
     4
 94
        3
 73
     0
 74
     1
 95
       20
 96
       16
 40
0.0
 40
0.0
 40
0.0
 40
0.0
 40
1.0
 40
1.0
 40
1.0
 40
2.0
 40
2.0
 40
2.0
 40
3.0
 40
3.0
 40
3.0
 40
4.0
 40
4.0
 40
4.0
 40
5.0
 40
5.0
 40
5.0
 40
5.0
 10
7.521745874855674
 20
22.4232135631876
 10
7.315401880766635
 20
22.42751993254416
 10
7.08111816229222
 20
22.39096746944566
 10
7.08111816229222
 20
22.18892984471318
 10
7.08111816229222
 20
22.06640502378027
 10
7.162801376247494
 20
22.00837239033124
 10
7.259522431995883
 20
22.00837239033124
 10
7.394931910043628
 20
22.00837239033124
 10
7.480904267878037
 20
22.09434474816565
 10
7.510997176941695
 20
22.18247029067834
 10
7.517456730976538
 20
22.20181450182802
 10
7.521745874855674
 20
22.22331189765598
 10
7.521745874855674
 20
22.24265610880565
 10
7.521745874855674
 20
22.24265610880565
 10
7.521745874855674
 20
22.4232135631876
 10
7.521745874855674
 20
22.4232135631876
 97
        0
 97
        0
 75
     2
 76
     1
 98
        0
  0
SPLINE
  5
285
330
1D1
100
AcDbEntity
  8
0
370
     0
100
AcDbSpline
210
0.0
220
0.0
230
1.0
 70
    11
 71
     3
 72
    41
 73
    37
 74
     0
 42
0.0000000001
 43
0.0000000001
 12
1.0
 22
0.0
 32
0.0
 13
1.0
 23
0.0
 33
0.0
 40
0.0
 40
0.0
 40
0.0
 40
0.0
 40
1.0
 40
1.0
 40
1.0
 40
2.0
 40
2.0
 40
2.0
 40
3.0
 40
3.0
 40
3.0
 40
4.0
 40
4.0
 40
4.0
 40
5.0
 40
5.0
 40
5.0
 40
6.0
 40
6.0
 40
6.0
 40
7.0
 40
7.0
 40
7.0
 40
8.0
 40
8.0
 40
8.0
 40
9.0
 40
9.0
 40
9.0
 40
10.0
 40
10.0
 40
10.0
 40
11.0
 40
11.0
 40
11.0
 40
12.0
 40
12.0
 40
12.0
 40
12.0
 10
8.0009414313765
 20
21.89230712343317
 30
0.0
 10
8.005230575255636
 20
21.96324163947446
 30
0.0
 10
8.009536944612199
 20
22.06855820845855
 30
0.0
 10
8.009536944612199
 20
22.16099012032781
 30
0.0
 10
8.009536944612199
 20
22.16099012032781
 30
0.0
 10
8.009536944612199
 20
23.41839829601172
 30
0.0
 10
8.009536944612199
 20
23.41839829601172
 30
0.0
 10
8.009536944612199
 20
23.41839829601172
 30
0.0
 10
8.19653672755156
 20
23.41839829601172
 30
0.0
 10
8.19653672755156
 20
23.41839829601172
 30
0.0
 10
8.19653672755156
 20
23.41839829601172
 30
0.0
 10
8.19653672755156
 20
22.76496703532438
 30
0.0
 10
8.19653672755156
 20
22.76496703532438
 30
0.0
 10
8.19653672755156
 20
22.76496703532438
 30
0.0
 10
8.200843096908121
 20
22.76496703532438
 30
0.0
 10
8.200843096908121
 20
22.76496703532438
 30
0.0
 10
8.267471243592853
 20
22.88103230222245
 30
0.0
 10
8.387842879847483
 20
22.9562731876203
 30
0.0
 10
8.55548122615974
 20
22.9562731876203
 30
0.0
 10
8.813415525140396
 20
22.9562731876203
 30
0.0
 10
8.996126164200621
 20
22.74133368029557
 30
0.0
 10
8.99397297952234
 20
22.42536674786588
 30
0.0
 10
8.99397297952234
 20
22.05352036666544
 30
0.0
 10
8.759689261047924
 20
21.86865654292693
 30
0.0
 10
8.527541501774364
 20
21.86865654292693
 30
0.0
 10
8.377094181933504
 20
21.86865654292693
 30
0.0
 10
8.256722545678874
 20
21.92668917637597
 30
0.0
 10
8.179345701080162
 20
22.06425183910199
 30
0.0
 10
8.179345701080162
 20
22.06425183910199
 30
0.0
 10
8.17288614704532
 20
22.06425183910199
 30
0.0
 10
8.17288614704532
 20
22.06425183910199
 30
0.0
 10
8.17288614704532
 20
22.06425183910199
 30
0.0
 10
8.164290633809621
 20
21.89230712343317
 30
0.0
 10
8.164290633809621
 20
21.89230712343317
 30
0.0
 10
8.164290633809621
 20
21.89230712343317
 30
0.0
 10
8.0009414313765
 20
21.89230712343317
 30
0.0
 10
8.0009414313765
 20
21.89230712343317
 30
0.0
  0
SPLINE
  5
286
330
1D1
100
AcDbEntity
  8
0
370
     0
100
AcDbSpline
210
0.0
220
0.0
230
1.0
 70
    11
 71
     3
 72
    26
 73
    22
 74
     0
 42
0.0000000001
 43
0.0000000001
 12
1.0
 22
0.0
 32
0.0
 13
1.0
 23
0.0
 33
0.0
 40
0.0
 40
0.0
 40
0.0
 40
0.0
 40
1.0
 40
1.0
 40
1.0
 40
2.0
 40
2.0
 40
2.0
 40
3.0
 40
3.0
 40
3.0
 40
4.0
 40
4.0
 40
4.0
 40
5.0
 40
5.0
 40
5.0
 40
6.0
 40
6.0
 40
6.0
 40
7.0
 40
7.0
 40
7.0
 40
7.0
 10
8.19653672755156
 20
22.30930148096781
 30
0.0
 10
8.19653672755156
 20
22.28565090046157
 30
0.0
 10
8.200843096908121
 20
22.26200031995533
 30
0.0
 10
8.205132240787258
 20
22.2405201496048
 30
0.0
 10
8.241667478408333
 20
22.10939981543619
 30
0.0
 10
8.351290416748983
 20
22.01912108824522
 30
0.0
 10
8.488853079475009
 20
22.01912108824522
 30
0.0
 10
8.686601560328349
 20
22.01912108824522
 30
0.0
 10
8.804820011904697
 20
22.18033433147749
 30
0.0
 10
8.804820011904697
 20
22.41890719383104
 30
0.0
 10
8.804820011904697
 20
22.62740437259836
 30
0.0
 10
8.697350258242329
 20
22.80580864230202
 30
0.0
 10
8.495312633509851
 20
22.80580864230202
 30
0.0
 10
8.366345484019524
 20
22.80580864230202
 30
0.0
 10
8.245973847764894
 20
22.71768309978933
 30
0.0
 10
8.207285425465539
 20
22.57367810850588
 30
0.0
 10
8.202979056108976
 20
22.55218071267792
 30
0.0
 10
8.19653672755156
 20
22.5263769474934
 30
0.0
 10
8.19653672755156
 20
22.49630126390717
 30
0.0
 10
8.19653672755156
 20
22.49630126390717
 30
0.0
 10
8.19653672755156
 20
22.30930148096781
 30
0.0
 10
8.19653672755156
 20
22.30930148096781
 30
0.0
  0
HATCH
  5
287
330
1D1
100
AcDbEntity
  8
0
 62
     7
420
 16777215
100
AcDbHatch
 10
0.0
 20
0.0
 30
0.0
210
0.0
220
0.0
230
1.0
  2
SOLID
 70
     1
 71
     0
 91
        2
 92
        1
 93
        1
 72
     4
 94
        3
 73
     0
 74
     1
 95
       41
 96
       37
 40
0.0
 40
0.0
 40
0.0
 40
0.0
 40
1.0
 40
1.0
 40
1.0
 40
2.0
 40
2.0
 40
2.0
 40
3.0
 40
3.0
 40
3.0
 40
4.0
 40
4.0
 40
4.0
 40
5.0
 40
5.0
 40
5.0
 40
6.0
 40
6.0
 40
6.0
 40
7.0
 40
7.0
 40
7.0
 40
8.0
 40
8.0
 40
8.0
 40
9.0
 40
9.0
 40
9.0
 40
10.0
 40
10.0
 40
10.0
 40
11.0
 40
11.0
 40
11.0
 40
12.0
 40
12.0
 40
12.0
 40
12.0
 10
8.0009414313765
 20
21.89230712343317
 10
8.005230575255636
 20
21.96324163947446
 10
8.009536944612199
 20
22.06855820845855
 10
8.009536944612199
 20
22.16099012032781
 10
8.009536944612199
 20
22.16099012032781
 10
8.009536944612199
 20
23.41839829601172
 10
8.009536944612199
 20
23.41839829601172
 10
8.009536944612199
 20
23.41839829601172
 10
8.19653672755156
 20
23.41839829601172
 10
8.19653672755156
 20
23.41839829601172
 10
8.19653672755156
 20
23.41839829601172
 10
8.19653672755156
 20
22.76496703532438
 10
8.19653672755156
 20
22.76496703532438
 10
8.19653672755156
 20
22.76496703532438
 10
8.200843096908121
 20
22.76496703532438
 10
8.200843096908121
 20
22.76496703532438
 10
8.267471243592853
 20
22.88103230222245
 10
8.387842879847483
 20
22.9562731876203
 10
8.55548122615974
 20
22.9562731876203
 10
8.813415525140396
 20
22.9562731876203
 10
8.996126164200621
 20
22.74133368029557
 10
8.99397297952234
 20
22.42536674786588
 10
8.99397297952234
 20
22.05352036666544
 10
8.759689261047924
 20
21.86865654292693
 10
8.527541501774364
 20
21.86865654292693
 10
8.377094181933504
 20
21.86865654292693
 10
8.256722545678874
 20
21.92668917637597
 10
8.179345701080162
 20
22.06425183910199
 10
8.179345701080162
 20
22.06425183910199
 10
8.17288614704532
 20
22.06425183910199
 10
8.17288614704532
 20
22.06425183910199
 10
8.17288614704532
 20
22.06425183910199
 10
8.164290633809621
 20
21.89230712343317
 10
8.164290633809621
 20
21.89230712343317
 10
8.164290633809621
 20
21.89230712343317
 10
8.0009414313765
 20
21.89230712343317
 10
8.0009414313765
 20
21.89230712343317
 97
        0
 97
        0
 92
        1
 93
        1
 72
     4
 94
        3
 73
     0
 74
     1
 95
       26
 96
       22
 40
0.0
 40
0.0
 40
0.0
 40
0.0
 40
1.0
 40
1.0
 40
1.0
 40
2.0
 40
2.0
 40
2.0
 40
3.0
 40
3.0
 40
3.0
 40
4.0
 40
4.0
 40
4.0
 40
5.0
 40
5.0
 40
5.0
 40
6.0
 40
6.0
 40
6.0
 40
7.0
 40
7.0
 40
7.0
 40
7.0
 10
8.19653672755156
 20
22.30930148096781
 10
8.19653672755156
 20
22.28565090046157
 10
8.200843096908121
 20
22.26200031995533
 10
8.205132240787258
 20
22.2405201496048
 10
8.241667478408333
 20
22.10939981543619
 10
8.351290416748983
 20
22.01912108824522
 10
8.488853079475009
 20
22.01912108824522
 10
8.686601560328349
 20
22.01912108824522
 10
8.804820011904697
 20
22.18033433147749
 10
8.804820011904697
 20
22.41890719383104
 10
8.804820011904697
 20
22.62740437259836
 10
8.697350258242329
 20
22.80580864230202
 10
8.495312633509851
 20
22.80580864230202
 10
8.366345484019524
 20
22.80580864230202
 10
8.245973847764894
 20
22.71768309978933
 10
8.207285425465539
 20
22.57367810850588
 10
8.202979056108976
 20
22.55218071267792
 10
8.19653672755156
 20
22.5263769474934
 10
8.19653672755156
 20
22.49630126390717
 10
8.19653672755156
 20
22.49630126390717
 10
8.19653672755156
 20
22.30930148096781
 10
8.19653672755156
 20
22.30930148096781
 97
        0
 97
        0
 75
     2
 76
     1
 98
        0
  0
SPLINE
  5
288
330
1D1
100
AcDbEntity
  8
0
370
     0
100
AcDbSpline
210
0.0
220
0.0
230
1.0
 70
    11
 71
     3
 72
    47
 73
    43
 74
     0
 42
0.0000000001
 43
0.0000000001
 12
1.0
 22
0.0
 32
0.0
 13
1.0
 23
0.0
 33
0.0
 40
0.0
 40
0.0
 40
0.0
 40
0.0
 40
1.0
 40
1.0
 40
1.0
 40
2.0
 40
2.0
 40
2.0
 40
3.0
 40
3.0
 40
3.0
 40
4.0
 40
4.0
 40
4.0
 40
5.0
 40
5.0
 40
5.0
 40
6.0
 40
6.0
 40
6.0
 40
7.0
 40
7.0
 40
7.0
 40
8.0
 40
8.0
 40
8.0
 40
9.0
 40
9.0
 40
9.0
 40
10.0
 40
10.0
 40
10.0
 40
11.0
 40
11.0
 40
11.0
 40
12.0
 40
12.0
 40
12.0
 40
13.0
 40
13.0
 40
13.0
 40
14.0
 40
14.0
 40
14.0
 40
14.0
 10
9.668643253876242
 20
22.12014851335017
 30
0.0
 10
9.75246242703237
 20
22.06855820845855
 30
0.0
 10
9.87498724796528
 20
22.02556341680264
 30
0.0
 10
10.00395439745561
 20
22.02556341680264
 30
0.0
 10
10.19524332427411
 20
22.02556341680264
 30
0.0
 10
10.30701944729304
 20
22.12659084190759
 30
0.0
 10
10.30701944729304
 20
22.27274901786931
 30
0.0
 10
10.30701944729304
 20
22.40817572139448
 30
0.0
 10
10.22964260269432
 20
22.48555256599319
 30
0.0
 10
10.03404730651926
 20
22.56077622591362
 30
0.0
 10
9.79761040336657
 20
22.64459539906975
 30
0.0
 10
9.651452227404844
 20
22.76712022000266
 30
0.0
 10
9.651452227404844
 20
22.97131102941342
 30
0.0
 10
9.651452227404844
 20
23.19699923465214
 30
0.0
 10
9.838452010344206
 20
23.36465480644182
 30
0.0
 10
10.12001966435368
 20
23.36465480644182
 30
0.0
 10
10.26833102499368
 20
23.36465480644182
 30
0.0
 10
10.37580077865605
 20
23.33027275349903
 30
0.0
 10
10.4402757406625
 20
23.29372029040053
 30
0.0
 10
10.4402757406625
 20
23.29372029040053
 30
0.0
 10
10.38870266124831
 20
23.14111978588139
 30
0.0
 10
10.38870266124831
 20
23.14111978588139
 30
0.0
 10
10.34141872571326
 20
23.16690632558848
 30
0.0
 10
10.24468044448744
 20
23.2099011172444
 30
0.0
 10
10.11357733579626
 20
23.2099011172444
 30
0.0
 10
9.915828854942918
 20
23.2099011172444
 30
0.0
 10
9.840605195022487
 20
23.09168266566805
 30
0.0
 10
9.840605195022487
 20
22.99280842524138
 30
0.0
 10
9.840605195022487
 20
22.85739894719363
 30
0.0
 10
9.928730737535178
 20
22.7907708005089
 30
0.0
 10
10.12861517758937
 20
22.71337673043277
 30
0.0
 10
10.37364759397777
 20
22.61880885936266
 30
0.0
 10
10.49832559958896
 20
22.50059040778631
 30
0.0
 10
10.49832559958896
 20
22.28780408513985
 30
0.0
 10
10.49832559958896
 20
22.06425183910199
 30
0.0
 10
10.33280598700013
 20
21.87080972760521
 30
0.0
 10
9.991052514863346
 20
21.87080972760521
 30
0.0
 10
9.85133666745904
 20
21.87080972760521
 30
0.0
 10
9.698736162939898
 20
21.91165133458285
 30
0.0
 10
9.621359318341188
 20
21.96324163947446
 30
0.0
 10
9.621359318341188
 20
21.96324163947446
 30
0.0
 10
9.668643253876242
 20
22.12014851335017
 30
0.0
 10
9.668643253876242
 20
22.12014851335017
 30
0.0
  0
HATCH
  5
289
330
1D1
100
AcDbEntity
  8
0
 62
     7
420
 16777215
100
AcDbHatch
 10
0.0
 20
0.0
 30
0.0
210
0.0
220
0.0
230
1.0
  2
SOLID
 70
     1
 71
     0
 91
        1
 92
        1
 93
        1
 72
     4
 94
        3
 73
     0
 74
     1
 95
       47
 96
       43
 40
0.0
 40
0.0
 40
0.0
 40
0.0
 40
1.0
 40
1.0
 40
1.0
 40
2.0
 40
2.0
 40
2.0
 40
3.0
 40
3.0
 40
3.0
 40
4.0
 40
4.0
 40
4.0
 40
5.0
 40
5.0
 40
5.0
 40
6.0
 40
6.0
 40
6.0
 40
7.0
 40
7.0
 40
7.0
 40
8.0
 40
8.0
 40
8.0
 40
9.0
 40
9.0
 40
9.0
 40
10.0
 40
10.0
 40
10.0
 40
11.0
 40
11.0
 40
11.0
 40
12.0
 40
12.0
 40
12.0
 40
13.0
 40
13.0
 40
13.0
 40
14.0
 40
14.0
 40
14.0
 40
14.0
 10
9.668643253876242
 20
22.12014851335017
 10
9.75246242703237
 20
22.06855820845855
 10
9.87498724796528
 20
22.02556341680264
 10
10.00395439745561
 20
22.02556341680264
 10
10.19524332427411
 20
22.02556341680264
 10
10.30701944729304
 20
22.12659084190759
 10
10.30701944729304
 20
22.27274901786931
 10
10.30701944729304
 20
22.40817572139448
 10
10.22964260269432
 20
22.48555256599319
 10
10.03404730651926
 20
22.56077622591362
 10
9.79761040336657
 20
22.64459539906975
 10
9.651452227404844
 20
22.76712022000266
 10
9.651452227404844
 20
22.97131102941342
 10
9.651452227404844
 20
23.19699923465214
 10
9.838452010344206
 20
23.36465480644182
 10
10.12001966435368
 20
23.36465480644182
 10
10.26833102499368
 20
23.36465480644182
 10
10.37580077865605
 20
23.33027275349903
 10
10.4402757406625
 20
23.29372029040053
 10
10.4402757406625
 20
23.29372029040053
 10
10.38870266124831
 20
23.14111978588139
 10
10.38870266124831
 20
23.14111978588139
 10
10.34141872571326
 20
23.16690632558848
 10
10.24468044448744
 20
23.2099011172444
 10
10.11357733579626
 20
23.2099011172444
 10
9.915828854942918
 20
23.2099011172444
 10
9.840605195022487
 20
23.09168266566805
 10
9.840605195022487
 20
22.99280842524138
 10
9.840605195022487
 20
22.85739894719363
 10
9.928730737535178
 20
22.7907708005089
 10
10.12861517758937
 20
22.71337673043277
 10
10.37364759397777
 20
22.61880885936266
 10
10.49832559958896
 20
22.50059040778631
 10
10.49832559958896
 20
22.28780408513985
 10
10.49832559958896
 20
22.06425183910199
 10
10.33280598700013
 20
21.87080972760521
 10
9.991052514863346
 20
21.87080972760521
 10
9.85133666745904
 20
21.87080972760521
 10
9.698736162939898
 20
21.91165133458285
 10
9.621359318341188
 20
21.96324163947446
 10
9.621359318341188
 20
21.96324163947446
 10
9.668643253876242
 20
22.12014851335017
 10
9.668643253876242
 20
22.12014851335017
 97
        0
 97
        0
 75
     2
 76
     1
 98
        0
  0
SPLINE
  5
28A
330
1D1
100
AcDbEntity
  8
0
370
     0
100
AcDbSpline
210
0.0
220
0.0
230
1.0
 70
    11
 71
     3
 72
    47
 73
    43
 74
     0
 42
0.0000000001
 43
0.0000000001
 12
1.0
 22
0.0
 32
0.0
 13
1.0
 23
0.0
 33
0.0
 40
0.0
 40
0.0
 40
0.0
 40
0.0
 40
1.0
 40
1.0
 40
1.0
 40
2.0
 40
2.0
 40
2.0
 40
3.0
 40
3.0
 40
3.0
 40
4.0
 40
4.0
 40
4.0
 40
5.0
 40
5.0
 40
5.0
 40
6.0
 40
6.0
 40
6.0
 40
7.0
 40
7.0
 40
7.0
 40
8.0
 40
8.0
 40
8.0
 40
9.0
 40
9.0
 40
9.0
 40
10.0
 40
10.0
 40
10.0
 40
11.0
 40
11.0
 40
11.0
 40
12.0
 40
12.0
 40
12.0
 40
13.0
 40
13.0
 40
13.0
 40
14.0
 40
14.0
 40
14.0
 40
14.0
 10
11.32997164972827
 20
21.89230712343317
 30
0.0
 10
11.32997164972827
 20
21.89230712343317
 30
0.0
 10
11.31493380793516
 20
22.02342745760178
 30
0.0
 10
11.31493380793516
 20
22.02342745760178
 30
0.0
 10
11.31493380793516
 20
22.02342745760178
 30
0.0
 10
11.30849147937774
 20
22.02342745760178
 30
0.0
 10
11.30849147937774
 20
22.02342745760178
 30
0.0
 10
11.25044162045128
 20
21.94174424364651
 30
0.0
 10
11.13868272290977
 20
21.86865654292693
 30
0.0
 10
10.99037136226977
 20
21.86865654292693
 30
0.0
 10
10.77972099882417
 20
21.86865654292693
 30
0.0
 10
10.6722512451618
 20
22.01696790356694
 30
0.0
 10
10.6722512451618
 20
22.16743244888522
 30
0.0
 10
10.6722512451618
 20
22.41890719383104
 30
0.0
 10
10.89580349119966
 20
22.55646985655706
 30
0.0
 10
11.29774278146376
 20
22.55433389735621
 30
0.0
 10
11.29774278146376
 20
22.55433389735621
 30
0.0
 10
11.29774278146376
 20
22.57581406770674
 30
0.0
 10
11.29774278146376
 20
22.57581406770674
 30
0.0
 10
11.29774278146376
 20
22.66180365101858
 30
0.0
 10
11.27409220095752
 20
22.816557340216
 30
0.0
 10
11.06130587831106
 20
22.816557340216
 30
0.0
 10
10.96458482256267
 20
22.816557340216
 30
0.0
 10
10.86355739745772
 20
22.78646443115234
 30
0.0
 10
10.79046969673815
 20
22.73918049561729
 30
0.0
 10
10.79046969673815
 20
22.73918049561729
 30
0.0
 10
10.74749213055965
 20
22.86384127575105
 30
0.0
 10
10.74749213055965
 20
22.86384127575105
 30
0.0
 10
10.83346448839406
 20
22.91972072452181
 30
0.0
 10
10.95812526852783
 20
22.9562731876203
 30
0.0
 10
11.08924560269644
 20
22.9562731876203
 30
0.0
 10
11.40736571980441
 20
22.9562731876203
 30
0.0
 10
11.48474256440312
 20
22.73918049561729
 30
0.0
 10
11.48474256440312
 20
22.53068331684997
 30
0.0
 10
11.48474256440312
 20
22.53068331684997
 30
0.0
 10
11.48474256440312
 20
22.14164590917813
 30
0.0
 10
11.48474256440312
 20
22.14164590917813
 30
0.0
 10
11.48474256440312
 20
22.05136718198716
 30
0.0
 10
11.48903170828225
 20
21.96324163947446
 30
0.0
 10
11.50193359087452
 20
21.89230712343317
 30
0.0
 10
11.50193359087452
 20
21.89230712343317
 30
0.0
 10
11.32997164972827
 20
21.89230712343317
 30
0.0
 10
11.32997164972827
 20
21.89230712343317
 30
0.0
  0
SPLINE
  5
28B
330
1D1
100
AcDbEntity
  8
0
370
     0
100
AcDbSpline
210
0.0
220
0.0
230
1.0
 70
    11
 71
     3
 72
    20
 73
    16
 74
     0
 42
0.0000000001
 43
0.0000000001
 12
1.0
 22
0.0
 32
0.0
 13
1.0
 23
0.0
 33
0.0
 40
0.0
 40
0.0
 40
0.0
 40
0.0
 40
1.0
 40
1.0
 40
1.0
 40
2.0
 40
2.0
 40
2.0
 40
3.0
 40
3.0
 40
3.0
 40
4.0
 40
4.0
 40
4.0
 40
5.0
 40
5.0
 40
5.0
 40
5.0
 10
11.30203192534289
 20
22.4232135631876
 30
0.0
 10
11.09568793125385
 20
22.42751993254416
 30
0.0
 10
10.86140421277944
 20
22.39096746944566
 30
0.0
 10
10.86140421277944
 20
22.18892984471318
 30
0.0
 10
10.86140421277944
 20
22.06640502378027
 30
0.0
 10
10.94308742673471
 20
22.00837239033124
 30
0.0
 10
11.0398084824831
 20
22.00837239033124
 30
0.0
 10
11.17521796053085
 20
22.00837239033124
 30
0.0
 10
11.26119031836526
 20
22.09434474816565
 30
0.0
 10
11.29128322742891
 20
22.18247029067834
 30
0.0
 10
11.29774278146376
 20
22.20181450182802
 30
0.0
 10
11.30203192534289
 20
22.22331189765598
 30
0.0
 10
11.30203192534289
 20
22.24265610880565
 30
0.0
 10
11.30203192534289
 20
22.24265610880565
 30
0.0
 10
11.30203192534289
 20
22.4232135631876
 30
0.0
 10
11.30203192534289
 20
22.4232135631876
 30
0.0
  0
HATCH
  5
28C
330
1D1
100
AcDbEntity
  8
0
 62
     7
420
 16777215
100
AcDbHatch
 10
0.0
 20
0.0
 30
0.0
210
0.0
220
0.0
230
1.0
  2
SOLID
 70
     1
 71
     0
 91
        2
 92
        1
 93
        1
 72
     4
 94
        3
 73
     0
 74
     1
 95
       47
 96
       43
 40
0.0
 40
0.0
 40
0.0
 40
0.0
 40
1.0
 40
1.0
 40
1.0
 40
2.0
 40
2.0
 40
2.0
 40
3.0
 40
3.0
 40
3.0
 40
4.0
 40
4.0
 40
4.0
 40
5.0
 40
5.0
 40
5.0
 40
6.0
 40
6.0
 40
6.0
 40
7.0
 40
7.0
 40
7.0
 40
8.0
 40
8.0
 40
8.0
 40
9.0
 40
9.0
 40
9.0
 40
10.0
 40
10.0
 40
10.0
 40
11.0
 40
11.0
 40
11.0
 40
12.0
 40
12.0
 40
12.0
 40
13.0
 40
13.0
 40
13.0
 40
14.0
 40
14.0
 40
14.0
 40
14.0
 10
11.32997164972827
 20
21.89230712343317
 10
11.32997164972827
 20
21.89230712343317
 10
11.31493380793516
 20
22.02342745760178
 10
11.31493380793516
 20
22.02342745760178
 10
11.31493380793516
 20
22.02342745760178
 10
11.30849147937774
 20
22.02342745760178
 10
11.30849147937774
 20
22.02342745760178
 10
11.25044162045128
 20
21.94174424364651
 10
11.13868272290977
 20
21.86865654292693
 10
10.99037136226977
 20
21.86865654292693
 10
10.77972099882417
 20
21.86865654292693
 10
10.6722512451618
 20
22.01696790356694
 10
10.6722512451618
 20
22.16743244888522
 10
10.6722512451618
 20
22.41890719383104
 10
10.89580349119966
 20
22.55646985655706
 10
11.29774278146376
 20
22.55433389735621
 10
11.29774278146376
 20
22.55433389735621
 10
11.29774278146376
 20
22.57581406770674
 10
11.29774278146376
 20
22.57581406770674
 10
11.29774278146376
 20
22.66180365101858
 10
11.27409220095752
 20
22.816557340216
 10
11.06130587831106
 20
22.816557340216
 10
10.96458482256267
 20
22.816557340216
 10
10.86355739745772
 20
22.78646443115234
 10
10.79046969673815
 20
22.73918049561729
 10
10.79046969673815
 20
22.73918049561729
 10
10.74749213055965
 20
22.86384127575105
 10
10.74749213055965
 20
22.86384127575105
 10
10.83346448839406
 20
22.91972072452181
 10
10.95812526852783
 20
22.9562731876203
 10
11.08924560269644
 20
22.9562731876203
 10
11.40736571980441
 20
22.9562731876203
 10
11.48474256440312
 20
22.73918049561729
 10
11.48474256440312
 20
22.53068331684997
 10
11.48474256440312
 20
22.53068331684997
 10
11.48474256440312
 20
22.14164590917813
 10
11.48474256440312
 20
22.14164590917813
 10
11.48474256440312
 20
22.05136718198716
 10
11.48903170828225
 20
21.96324163947446
 10
11.50193359087452
 20
21.89230712343317
 10
11.50193359087452
 20
21.89230712343317
 10
11.32997164972827
 20
21.89230712343317
 10
11.32997164972827
 20
21.89230712343317
 97
        0
 97
        0
 92
        1
 93
        1
 72
     4
 94
        3
 73
     0
 74
     1
 95
       20
 96
       16
 40
0.0
 40
0.0
 40
0.0
 40
0.0
 40
1.0
 40
1.0
 40
1.0
 40
2.0
 40
2.0
 40
2.0
 40
3.0
 40
3.0
 40
3.0
 40
4.0
 40
4.0
 40
4.0
 40
5.0
 40
5.0
 40
5.0
 40
5.0
 10
11.30203192534289
 20
22.4232135631876
 10
11.09568793125385
 20
22.42751993254416
 10
10.86140421277944
 20
22.39096746944566
 10
10.86140421277944
 20
22.18892984471318
 10
10.86140421277944
 20
22.06640502378027
 10
10.94308742673471
 20
22.00837239033124
 10
11.0398084824831
 20
22.00837239033124
 10
11.17521796053085
 20
22.00837239033124
 10
11.26119031836526
 20
22.09434474816565
 10
11.29128322742891
 20
22.18247029067834
 10
11.29774278146376
 20
22.20181450182802
 10
11.30203192534289
 20
22.22331189765598
 10
11.30203192534289
 20
22.24265610880565
 10
11.30203192534289
 20
22.24265610880565
 10
11.30203192534289
 20
22.4232135631876
 10
11.30203192534289
 20
22.4232135631876
 97
        0
 97
        0
 75
     2
 76
     1
 98
        0
  0
SPLINE
  5
28D
330
1D1
100
AcDbEntity
  8
0
370
     0
100
AcDbSpline
210
0.0
220
0.0
230
1.0
 70
    11
 71
     3
 72
    50
 73
    46
 74
     0
 42
0.0000000001
 43
0.0000000001
 12
1.0
 22
0.0
 32
0.0
 13
1.0
 23
0.0
 33
0.0
 40
0.0
 40
0.0
 40
0.0
 40
0.0
 40
1.0
 40
1.0
 40
1.0
 40
2.0
 40
2.0
 40
2.0
 40
3.0
 40
3.0
 40
3.0
 40
4.0
 40
4.0
 40
4.0
 40
5.0
 40
5.0
 40
5.0
 40
6.0
 40
6.0
 40
6.0
 40
7.0
 40
7.0
 40
7.0
 40
8.0
 40
8.0
 40
8.0
 40
9.0
 40
9.0
 40
9.0
 40
10.0
 40
10.0
 40
10.0
 40
11.0
 40
11.0
 40
11.0
 40
12.0
 40
12.0
 40
12.0
 40
13.0
 40
13.0
 40
13.0
 40
14.0
 40
14.0
 40
14.0
 40
15.0
 40
15.0
 40
15.0
 40
15.0
 10
11.78982299509942
 20
22.65105495310459
 30
0.0
 10
11.78982299509942
 20
22.75852470676696
 30
0.0
 10
11.78766981042114
 20
22.84665024927966
 30
0.0
 10
11.78122748186372
 20
22.93262260711407
 30
0.0
 10
11.78122748186372
 20
22.93262260711407
 30
0.0
 10
11.9488830536534
 20
22.93262260711407
 30
0.0
 10
11.9488830536534
 20
22.93262260711407
 30
0.0
 10
11.9488830536534
 20
22.93262260711407
 30
0.0
 10
11.95963175156738
 20
22.76067789144524
 30
0.0
 10
11.95963175156738
 20
22.76067789144524
 30
0.0
 10
11.95963175156738
 20
22.76067789144524
 30
0.0
 10
11.96392089544652
 20
22.76067789144524
 30
0.0
 10
11.96392089544652
 20
22.76067789144524
 30
0.0
 10
12.01551120033814
 20
22.85955213187192
 30
0.0
 10
12.13588283659277
 20
22.9562731876203
 30
0.0
 10
12.30782755226158
 20
22.9562731876203
 30
0.0
 10
12.45184976902245
 20
22.9562731876203
 30
0.0
 10
12.67538478958289
 20
22.87028360430847
 30
0.0
 10
12.67538478958289
 20
22.51349229037857
 30
0.0
 10
12.67538478958289
 20
22.51349229037857
 30
0.0
 10
12.67538478958289
 20
21.89230712343317
 30
0.0
 10
12.67538478958289
 20
21.89230712343317
 30
0.0
 10
12.67538478958289
 20
21.89230712343317
 30
0.0
 10
12.48623182196525
 20
21.89230712343317
 30
0.0
 10
12.48623182196525
 20
21.89230712343317
 30
0.0
 10
12.48623182196525
 20
21.89230712343317
 30
0.0
 10
12.48623182196525
 20
22.49199489455061
 30
0.0
 10
12.48623182196525
 20
22.49199489455061
 30
0.0
 10
12.48623182196525
 20
22.6596504663403
 30
0.0
 10
12.42391004463708
 20
22.7993663137446
 30
0.0
 10
12.24550577493341
 20
22.7993663137446
 30
0.0
 10
12.12082776932222
 20
22.7993663137446
 30
0.0
 10
12.02410671357383
 20
22.71124077123191
 30
0.0
 10
11.9918606198319
 20
22.6059069767704
 30
0.0
 10
11.9832651065962
 20
22.58227362174158
 30
0.0
 10
11.97897596271706
 20
22.55002752799965
 30
0.0
 10
11.97897596271706
 20
22.51778143425771
 30
0.0
 10
11.97897596271706
 20
22.51778143425771
 30
0.0
 10
11.97897596271706
 20
21.89230712343317
 30
0.0
 10
11.97897596271706
 20
21.89230712343317
 30
0.0
 10
11.97897596271706
 20
21.89230712343317
 30
0.0
 10
11.78982299509942
 20
21.89230712343317
 30
0.0
 10
11.78982299509942
 20
21.89230712343317
 30
0.0
 10
11.78982299509942
 20
21.89230712343317
 30
0.0
 10
11.78982299509942
 20
22.65105495310459
 30
0.0
 10
11.78982299509942
 20
22.65105495310459
 30
0.0
  0
HATCH
  5
28E
330
1D1
100
AcDbEntity
  8
0
 62
     7
420
 16777215
100
AcDbHatch
 10
0.0
 20
0.0
 30
0.0
210
0.0
220
0.0
230
1.0
  2
SOLID
 70
     1
 71
     0
 91
        1
 92
        1
 93
        1
 72
     4
 94
        3
 73
     0
 74
     1
 95
       50
 96
       46
 40
0.0
 40
0.0
 40
0.0
 40
0.0
 40
1.0
 40
1.0
 40
1.0
 40
2.0
 40
2.0
 40
2.0
 40
3.0
 40
3.0
 40
3.0
 40
4.0
 40
4.0
 40
4.0
 40
5.0
 40
5.0
 40
5.0
 40
6.0
 40
6.0
 40
6.0
 40
7.0
 40
7.0
 40
7.0
 40
8.0
 40
8.0
 40
8.0
 40
9.0
 40
9.0
 40
9.0
 40
10.0
 40
10.0
 40
10.0
 40
11.0
 40
11.0
 40
11.0
 40
12.0
 40
12.0
 40
12.0
 40
13.0
 40
13.0
 40
13.0
 40
14.0
 40
14.0
 40
14.0
 40
15.0
 40
15.0
 40
15.0
 40
15.0
 10
11.78982299509942
 20
22.65105495310459
 10
11.78982299509942
 20
22.75852470676696
 10
11.78766981042114
 20
22.84665024927966
 10
11.78122748186372
 20
22.93262260711407
 10
11.78122748186372
 20
22.93262260711407
 10
11.9488830536534
 20
22.93262260711407
 10
11.9488830536534
 20
22.93262260711407
 10
11.9488830536534
 20
22.93262260711407
 10
11.95963175156738
 20
22.76067789144524
 10
11.95963175156738
 20
22.76067789144524
 10
11.95963175156738
 20
22.76067789144524
 10
11.96392089544652
 20
22.76067789144524
 10
11.96392089544652
 20
22.76067789144524
 10
12.01551120033814
 20
22.85955213187192
 10
12.13588283659277
 20
22.9562731876203
 10
12.30782755226158
 20
22.9562731876203
 10
12.45184976902245
 20
22.9562731876203
 10
12.67538478958289
 20
22.87028360430847
 10
12.67538478958289
 20
22.51349229037857
 10
12.67538478958289
 20
22.51349229037857
 10
12.67538478958289
 20
21.89230712343317
 10
12.67538478958289
 20
21.89230712343317
 10
12.67538478958289
 20
21.89230712343317
 10
12.48623182196525
 20
21.89230712343317
 10
12.48623182196525
 20
21.89230712343317
 10
12.48623182196525
 20
21.89230712343317
 10
12.48623182196525
 20
22.49199489455061
 10
12.48623182196525
 20
22.49199489455061
 10
12.48623182196525
 20
22.6596504663403
 10
12.42391004463708
 20
22.7993663137446
 10
12.24550577493341
 20
22.7993663137446
 10
12.12082776932222
 20
22.7993663137446
 10
12.02410671357383
 20
22.71124077123191
 10
11.9918606198319
 20
22.6059069767704
 10
11.9832651065962
 20
22.58227362174158
 10
11.97897596271706
 20
22.55002752799965
 10
11.97897596271706
 20
22.51778143425771
 10
11.97897596271706
 20
22.51778143425771
 10
11.97897596271706
 20
21.89230712343317
 10
11.97897596271706
 20
21.89230712343317
 10
11.97897596271706
 20
21.89230712343317
 10
11.78982299509942
 20
21.89230712343317
 10
11.78982299509942
 20
21.89230712343317
 10
11.78982299509942
 20
21.89230712343317
 10
11.78982299509942
 20
22.65105495310459
 10
11.78982299509942
 20
22.65105495310459
 97
        0
 97
        0
 75
     2
 76
     1
 98
        0
  0
SPLINE
  5
28F
330
1D1
100
AcDbEntity
  8
0
370
     0
100
AcDbSpline
210
0.0
220
0.0
230
1.0
 70
    11
 71
     3
 72
    56
 73
    52
 74
     0
 42
0.0000000001
 43
0.0000000001
 12
1.0
 22
0.0
 32
0.0
 13
1.0
 23
0.0
 33
0.0
 40
0.0
 40
0.0
 40
0.0
 40
0.0
 40
1.0
 40
1.0
 40
1.0
 40
2.0
 40
2.0
 40
2.0
 40
3.0
 40
3.0
 40
3.0
 40
4.0
 40
4.0
 40
4.0
 40
5.0
 40
5.0
 40
5.0
 40
6.0
 40
6.0
 40
6.0
 40
7.0
 40
7.0
 40
7.0
 40
8.0
 40
8.0
 40
8.0
 40
9.0
 40
9.0
 40
9.0
 40
10.0
 40
10.0
 40
10.0
 40
11.0
 40
11.0
 40
11.0
 40
12.0
 40
12.0
 40
12.0
 40
13.0
 40
13.0
 40
13.0
 40
14.0
 40
14.0
 40
14.0
 40
15.0
 40
15.0
 40
15.0
 40
16.0
 40
16.0
 40
16.0
 40
17.0
 40
17.0
 40
17.0
 40
17.0
 10
13.20184705616134
 20
23.23139851307236
 30
0.0
 10
13.20184705616134
 20
23.23139851307236
 30
0.0
 10
13.20184705616134
 20
22.93262260711407
 30
0.0
 10
13.20184705616134
 20
22.93262260711407
 30
0.0
 10
13.20184705616134
 20
22.93262260711407
 30
0.0
 10
13.47266601225683
 20
22.93262260711407
 30
0.0
 10
13.47266601225683
 20
22.93262260711407
 30
0.0
 10
13.47266601225683
 20
22.93262260711407
 30
0.0
 10
13.47266601225683
 20
22.78861761583062
 30
0.0
 10
13.47266601225683
 20
22.78861761583062
 30
0.0
 10
13.47266601225683
 20
22.78861761583062
 30
0.0
 10
13.20184705616134
 20
22.78861761583062
 30
0.0
 10
13.20184705616134
 20
22.78861761583062
 30
0.0
 10
13.20184705616134
 20
22.78861761583062
 30
0.0
 10
13.20184705616134
 20
22.22761826701254
 30
0.0
 10
13.20184705616134
 20
22.22761826701254
 30
0.0
 10
13.20184705616134
 20
22.09865111752221
 30
0.0
 10
13.23838229378242
 20
22.02556341680264
 30
0.0
 10
13.34369886276651
 20
22.02556341680264
 30
0.0
 10
13.39313598297984
 20
22.02556341680264
 30
0.0
 10
13.42968844607834
 20
22.03202297083748
 30
0.0
 10
13.45332180110715
 20
22.0384652993949
 30
0.0
 10
13.45332180110715
 20
22.0384652993949
 30
0.0
 10
13.46191731434285
 20
21.89661349278973
 30
0.0
 10
13.46191731434285
 20
21.89661349278973
 30
0.0
 10
13.42538207672178
 20
21.88155842551919
 30
0.0
 10
13.36734944327275
 20
21.87080972760521
 30
0.0
 10
13.29426174255317
 20
21.87080972760521
 30
0.0
 10
13.20613620004048
 20
21.87080972760521
 30
0.0
 10
13.13521890947661
 20
21.89874945199059
 30
0.0
 10
13.09007093314241
 20
21.9503397568822
 30
0.0
 10
13.03634466904994
 20
22.00621920565296
 30
0.0
 10
13.01700045790026
 20
22.09865111752221
 30
0.0
 10
13.01700045790026
 20
22.22117593845512
 30
0.0
 10
13.01700045790026
 20
22.22117593845512
 30
0.0
 10
13.01700045790026
 20
22.78861761583062
 30
0.0
 10
13.01700045790026
 20
22.78861761583062
 30
0.0
 10
13.01700045790026
 20
22.78861761583062
 30
0.0
 10
12.855787214668
 20
22.78861761583062
 30
0.0
 10
12.855787214668
 20
22.78861761583062
 30
0.0
 10
12.855787214668
 20
22.78861761583062
 30
0.0
 10
12.855787214668
 20
22.93262260711407
 30
0.0
 10
12.855787214668
 20
22.93262260711407
 30
0.0
 10
12.855787214668
 20
22.93262260711407
 30
0.0
 10
13.01700045790026
 20
22.93262260711407
 30
0.0
 10
13.01700045790026
 20
22.93262260711407
 30
0.0
 10
13.01700045790026
 20
22.93262260711407
 30
0.0
 10
13.01700045790026
 20
23.18196139285902
 30
0.0
 10
13.01700045790026
 20
23.18196139285902
 30
0.0
 10
13.01700045790026
 20
23.18196139285902
 30
0.0
 10
13.20184705616134
 20
23.23139851307236
 30
0.0
 10
13.20184705616134
 20
23.23139851307236
 30
0.0
  0
HATCH
  5
290
330
1D1
100
AcDbEntity
  8
0
 62
     7
420
 16777215
100
AcDbHatch
 10
0.0
 20
0.0
 30
0.0
210
0.0
220
0.0
230
1.0
  2
SOLID
 70
     1
 71
     0
 91
        1
 92
        1
 93
        1
 72
     4
 94
        3
 73
     0
 74
     1
 95
       56
 96
       52
 40
0.0
 40
0.0
 40
0.0
 40
0.0
 40
1.0
 40
1.0
 40
1.0
 40
2.0
 40
2.0
 40
2.0
 40
3.0
 40
3.0
 40
3.0
 40
4.0
 40
4.0
 40
4.0
 40
5.0
 40
5.0
 40
5.0
 40
6.0
 40
6.0
 40
6.0
 40
7.0
 40
7.0
 40
7.0
 40
8.0
 40
8.0
 40
8.0
 40
9.0
 40
9.0
 40
9.0
 40
10.0
 40
10.0
 40
10.0
 40
11.0
 40
11.0
 40
11.0
 40
12.0
 40
12.0
 40
12.0
 40
13.0
 40
13.0
 40
13.0
 40
14.0
 40
14.0
 40
14.0
 40
15.0
 40
15.0
 40
15.0
 40
16.0
 40
16.0
 40
16.0
 40
17.0
 40
17.0
 40
17.0
 40
17.0
 10
13.20184705616134
 20
23.23139851307236
 10
13.20184705616134
 20
23.23139851307236
 10
13.20184705616134
 20
22.93262260711407
 10
13.20184705616134
 20
22.93262260711407
 10
13.20184705616134
 20
22.93262260711407
 10
13.47266601225683
 20
22.93262260711407
 10
13.47266601225683
 20
22.93262260711407
 10
13.47266601225683
 20
22.93262260711407
 10
13.47266601225683
 20
22.78861761583062
 10
13.47266601225683
 20
22.78861761583062
 10
13.47266601225683
 20
22.78861761583062
 10
13.20184705616134
 20
22.78861761583062
 10
13.20184705616134
 20
22.78861761583062
 10
13.20184705616134
 20
22.78861761583062
 10
13.20184705616134
 20
22.22761826701254
 10
13.20184705616134
 20
22.22761826701254
 10
13.20184705616134
 20
22.09865111752221
 10
13.23838229378242
 20
22.02556341680264
 10
13.34369886276651
 20
22.02556341680264
 10
13.39313598297984
 20
22.02556341680264
 10
13.42968844607834
 20
22.03202297083748
 10
13.45332180110715
 20
22.0384652993949
 10
13.45332180110715
 20
22.0384652993949
 10
13.46191731434285
 20
21.89661349278973
 10
13.46191731434285
 20
21.89661349278973
 10
13.42538207672178
 20
21.88155842551919
 10
13.36734944327275
 20
21.87080972760521
 10
13.29426174255317
 20
21.87080972760521
 10
13.20613620004048
 20
21.87080972760521
 10
13.13521890947661
 20
21.89874945199059
 10
13.09007093314241
 20
21.9503397568822
 10
13.03634466904994
 20
22.00621920565296
 10
13.01700045790026
 20
22.09865111752221
 10
13.01700045790026
 20
22.22117593845512
 10
13.01700045790026
 20
22.22117593845512
 10
13.01700045790026
 20
22.78861761583062
 10
13.01700045790026
 20
22.78861761583062
 10
13.01700045790026
 20
22.78861761583062
 10
12.855787214668
 20
22.78861761583062
 10
12.855787214668
 20
22.78861761583062
 10
12.855787214668
 20
22.78861761583062
 10
12.855787214668
 20
22.93262260711407
 10
12.855787214668
 20
22.93262260711407
 10
12.855787214668
 20
22.93262260711407
 10
13.01700045790026
 20
22.93262260711407
 10
13.01700045790026
 20
22.93262260711407
 10
13.01700045790026
 20
22.93262260711407
 10
13.01700045790026
 20
23.18196139285902
 10
13.01700045790026
 20
23.18196139285902
 10
13.01700045790026
 20
23.18196139285902
 10
13.20184705616134
 20
23.23139851307236
 10
13.20184705616134
 20
23.23139851307236
 97
        0
 97
        0
 75
     2
 76
     1
 98
        0
  0
SPLINE
  5
291
330
1D1
100
AcDbEntity
  8
0
370
     0
100
AcDbSpline
210
0.0
220
0.0
230
1.0
 70
    11
 71
     3
 72
    17
 73
    13
 74
     0
 42
0.0000000001
 43
0.0000000001
 12
1.0
 22
0.0
 32
0.0
 13
1.0
 23
0.0
 33
0.0
 40
0.0
 40
0.0
 40
0.0
 40
0.0
 40
1.0
 40
1.0
 40
1.0
 40
2.0
 40
2.0
 40
2.0
 40
3.0
 40
3.0
 40
3.0
 40
4.0
 40
4.0
 40
4.0
 40
4.0
 10
13.89601657096176
 20
23.22493895903751
 30
0.0
 10
13.89815253016261
 20
23.16046399703106
 30
0.0
 10
13.85086859462756
 20
23.10887369213945
 30
0.0
 10
13.77564493470713
 20
23.10887369213945
 30
0.0
 10
13.7090167880224
 20
23.10887369213945
 30
0.0
 10
13.66171562700992
 20
23.16046399703106
 30
0.0
 10
13.66171562700992
 20
23.22493895903751
 30
0.0
 10
13.66171562700992
 20
23.29158433119967
 30
0.0
 10
13.71115274722325
 20
23.34315741061386
 30
0.0
 10
13.77993407858627
 20
23.34315741061386
 30
0.0
 10
13.85086859462756
 20
23.34315741061386
 30
0.0
 10
13.89601657096176
 20
23.29158433119967
 30
0.0
 10
13.89601657096176
 20
23.22493895903751
 30
0.0
  0
POLYLINE
  5
292
330
1D1
100
AcDbEntity
  8
0
370
     0
100
AcDb2dPolyline
 66
     1
 10
0.0
 20
0.0
 30
0.0
  0
VERTEX
  5
293
330
292
100
AcDbEntity
  8
0
370
     0
100
AcDbVertex
100
AcDb2dVertex
 10
13.68536620751616
 20
21.89230712343317
 30
0.0
  0
VERTEX
  5
294
330
292
100
AcDbEntity
  8
0
370
     0
100
AcDbVertex
100
AcDb2dVertex
 10
13.68536620751616
 20
22.93262260711407
 30
0.0
  0
VERTEX
  5
295
330
292
100
AcDbEntity
  8
0
370
     0
100
AcDbVertex
100
AcDb2dVertex
 10
13.8745191751338
 20
22.93262260711407
 30
0.0
  0
VERTEX
  5
296
330
292
100
AcDbEntity
  8
0
370
     0
100
AcDbVertex
100
AcDb2dVertex
 10
13.8745191751338
 20
21.89230712343317
 30
0.0
  0
VERTEX
  5
297
330
292
100
AcDbEntity
  8
0
370
     0
100
AcDbVertex
100
AcDb2dVertex
 10
13.68536620751616
 20
21.89230712343317
 30
0.0
  0
SEQEND
  5
298
330
292
100
AcDbEntity
  8
0
370
     0
  0
HATCH
  5
299
330
1D1
100
AcDbEntity
  8
0
 62
     7
420
 16777215
100
AcDbHatch
 10
0.0
 20
0.0
 30
0.0
210
0.0
220
0.0
230
1.0
  2
SOLID
 70
     1
 71
     0
 91
        2
 92
        1
 93
        1
 72
     4
 94
        3
 73
     0
 74
     1
 95
       17
 96
       13
 40
0.0
 40
0.0
 40
0.0
 40
0.0
 40
1.0
 40
1.0
 40
1.0
 40
2.0
 40
2.0
 40
2.0
 40
3.0
 40
3.0
 40
3.0
 40
4.0
 40
4.0
 40
4.0
 40
4.0
 10
13.89601657096176
 20
23.22493895903751
 10
13.89815253016261
 20
23.16046399703106
 10
13.85086859462756
 20
23.10887369213945
 10
13.77564493470713
 20
23.10887369213945
 10
13.7090167880224
 20
23.10887369213945
 10
13.66171562700992
 20
23.16046399703106
 10
13.66171562700992
 20
23.22493895903751
 10
13.66171562700992
 20
23.29158433119967
 10
13.71115274722325
 20
23.34315741061386
 10
13.77993407858627
 20
23.34315741061386
 10
13.85086859462756
 20
23.34315741061386
 10
13.89601657096176
 20
23.29158433119967
 10
13.89601657096176
 20
23.22493895903751
 97
        0
 97
        0
 92
        1
 93
        4
 72
     1
 10
13.68536620751616
 20
21.89230712343317
 11
13.68536620751616
 21
22.93262260711407
 72
     1
 10
13.68536620751616
 20
22.93262260711407
 11
13.8745191751338
 21
22.93262260711407
 72
     1
 10
13.8745191751338
 20
22.93262260711407
 11
13.8745191751338
 21
21.89230712343317
 72
     1
 10
13.8745191751338
 20
21.89230712343317
 11
13.68536620751616
 21
21.89230712343317
 97
        0
 75
     2
 76
     1
 98
        0
  0
SPLINE
  5
29A
330
1D1
100
AcDbEntity
  8
0
370
     0
100
AcDbSpline
210
0.0
220
0.0
230
1.0
 70
    11
 71
     3
 72
    47
 73
    43
 74
     0
 42
0.0000000001
 43
0.0000000001
 12
1.0
 22
0.0
 32
0.0
 13
1.0
 23
0.0
 33
0.0
 40
0.0
 40
0.0
 40
0.0
 40
0.0
 40
1.0
 40
1.0
 40
1.0
 40
2.0
 40
2.0
 40
2.0
 40
3.0
 40
3.0
 40
3.0
 40
4.0
 40
4.0
 40
4.0
 40
5.0
 40
5.0
 40
5.0
 40
6.0
 40
6.0
 40
6.0
 40
7.0
 40
7.0
 40
7.0
 40
8.0
 40
8.0
 40
8.0
 40
9.0
 40
9.0
 40
9.0
 40
10.0
 40
10.0
 40
10.0
 40
11.0
 40
11.0
 40
11.0
 40
12.0
 40
12.0
 40
12.0
 40
13.0
 40
13.0
 40
13.0
 40
14.0
 40
14.0
 40
14.0
 40
14.0
 10
14.7643012115867
 20
21.89230712343317
 30
0.0
 10
14.7643012115867
 20
21.89230712343317
 30
0.0
 10
14.74924614431616
 20
22.02342745760178
 30
0.0
 10
14.74924614431616
 20
22.02342745760178
 30
0.0
 10
14.74924614431616
 20
22.02342745760178
 30
0.0
 10
14.74280381575874
 20
22.02342745760178
 30
0.0
 10
14.74280381575874
 20
22.02342745760178
 30
0.0
 10
14.68478840778713
 20
21.94174424364651
 30
0.0
 10
14.57299505929078
 20
21.86865654292693
 30
0.0
 10
14.42468369865077
 20
21.86865654292693
 30
0.0
 10
14.2140505606826
 20
21.86865654292693
 30
0.0
 10
14.10659803249765
 20
22.01696790356694
 30
0.0
 10
14.10659803249765
 20
22.16743244888522
 30
0.0
 10
14.10659803249765
 20
22.41890719383104
 30
0.0
 10
14.33011582758066
 20
22.55646985655706
 30
0.0
 10
14.73205511784476
 20
22.55433389735621
 30
0.0
 10
14.73205511784476
 20
22.55433389735621
 30
0.0
 10
14.73205511784476
 20
22.57581406770674
 30
0.0
 10
14.73205511784476
 20
22.57581406770674
 30
0.0
 10
14.73205511784476
 20
22.66180365101858
 30
0.0
 10
14.70842176281595
 20
22.816557340216
 30
0.0
 10
14.49561821469207
 20
22.816557340216
 30
0.0
 10
14.3989143844211
 20
22.816557340216
 30
0.0
 10
14.29786973383873
 20
22.78646443115234
 30
0.0
 10
14.22479925859658
 20
22.73918049561729
 30
0.0
 10
14.22479925859658
 20
22.73918049561729
 30
0.0
 10
14.18180446694066
 20
22.86384127575105
 30
0.0
 10
14.18180446694066
 20
22.86384127575105
 30
0.0
 10
14.26779405025249
 20
22.91972072452181
 30
0.0
 10
14.39247205586369
 20
22.9562731876203
 30
0.0
 10
14.52355793907744
 20
22.9562731876203
 30
0.0
 10
14.84167805618541
 20
22.9562731876203
 30
0.0
 10
14.91905490078412
 20
22.73918049561729
 30
0.0
 10
14.91905490078412
 20
22.53068331684997
 30
0.0
 10
14.91905490078412
 20
22.53068331684997
 30
0.0
 10
14.91905490078412
 20
22.14164590917813
 30
0.0
 10
14.91905490078412
 20
22.14164590917813
 30
0.0
 10
14.91905490078412
 20
22.05136718198716
 30
0.0
 10
14.92336127014069
 20
21.96324163947446
 30
0.0
 10
14.93624592725552
 20
21.89230712343317
 30
0.0
 10
14.93624592725552
 20
21.89230712343317
 30
0.0
 10
14.7643012115867
 20
21.89230712343317
 30
0.0
 10
14.7643012115867
 20
21.89230712343317
 30
0.0
  0
SPLINE
  5
29B
330
1D1
100
AcDbEntity
  8
0
370
     0
100
AcDbSpline
210
0.0
220
0.0
230
1.0
 70
    11
 71
     3
 72
    20
 73
    16
 74
     0
 42
0.0000000001
 43
0.0000000001
 12
1.0
 22
0.0
 32
0.0
 13
1.0
 23
0.0
 33
0.0
 40
0.0
 40
0.0
 40
0.0
 40
0.0
 40
1.0
 40
1.0
 40
1.0
 40
2.0
 40
2.0
 40
2.0
 40
3.0
 40
3.0
 40
3.0
 40
4.0
 40
4.0
 40
4.0
 40
5.0
 40
5.0
 40
5.0
 40
5.0
 10
14.73636148720133
 20
22.4232135631876
 30
0.0
 10
14.53003471858971
 20
22.42751993254416
 30
0.0
 10
14.29573377463787
 20
22.39096746944566
 30
0.0
 10
14.29573377463787
 20
22.18892984471318
 30
0.0
 10
14.29573377463787
 20
22.06640502378027
 30
0.0
 10
14.37741698859315
 20
22.00837239033124
 30
0.0
 10
14.47412081886411
 20
22.00837239033124
 30
0.0
 10
14.60954752238928
 20
22.00837239033124
 30
0.0
 10
14.69553710570112
 20
22.09434474816565
 30
0.0
 10
14.72561278928735
 20
22.18247029067834
 30
0.0
 10
14.73205511784476
 20
22.20181450182802
 30
0.0
 10
14.73636148720133
 20
22.22331189765598
 30
0.0
 10
14.73636148720133
 20
22.24265610880565
 30
0.0
 10
14.73636148720133
 20
22.24265610880565
 30
0.0
 10
14.73636148720133
 20
22.4232135631876
 30
0.0
 10
14.73636148720133
 20
22.4232135631876
 30
0.0
  0
HATCH
  5
29C
330
1D1
100
AcDbEntity
  8
0
 62
     7
420
 16777215
100
AcDbHatch
 10
0.0
 20
0.0
 30
0.0
210
0.0
220
0.0
230
1.0
  2
SOLID
 70
     1
 71
     0
 91
        2
 92
        1
 93
        1
 72
     4
 94
        3
 73
     0
 74
     1
 95
       47
 96
       43
 40
0.0
 40
0.0
 40
0.0
 40
0.0
 40
1.0
 40
1.0
 40
1.0
 40
2.0
 40
2.0
 40
2.0
 40
3.0
 40
3.0
 40
3.0
 40
4.0
 40
4.0
 40
4.0
 40
5.0
 40
5.0
 40
5.0
 40
6.0
 40
6.0
 40
6.0
 40
7.0
 40
7.0
 40
7.0
 40
8.0
 40
8.0
 40
8.0
 40
9.0
 40
9.0
 40
9.0
 40
10.0
 40
10.0
 40
10.0
 40
11.0
 40
11.0
 40
11.0
 40
12.0
 40
12.0
 40
12.0
 40
13.0
 40
13.0
 40
13.0
 40
14.0
 40
14.0
 40
14.0
 40
14.0
 10
14.7643012115867
 20
21.89230712343317
 10
14.7643012115867
 20
21.89230712343317
 10
14.74924614431616
 20
22.02342745760178
 10
14.74924614431616
 20
22.02342745760178
 10
14.74924614431616
 20
22.02342745760178
 10
14.74280381575874
 20
22.02342745760178
 10
14.74280381575874
 20
22.02342745760178
 10
14.68478840778713
 20
21.94174424364651
 10
14.57299505929078
 20
21.86865654292693
 10
14.42468369865077
 20
21.86865654292693
 10
14.2140505606826
 20
21.86865654292693
 10
14.10659803249765
 20
22.01696790356694
 10
14.10659803249765
 20
22.16743244888522
 10
14.10659803249765
 20
22.41890719383104
 10
14.33011582758066
 20
22.55646985655706
 10
14.73205511784476
 20
22.55433389735621
 10
14.73205511784476
 20
22.55433389735621
 10
14.73205511784476
 20
22.57581406770674
 10
14.73205511784476
 20
22.57581406770674
 10
14.73205511784476
 20
22.66180365101858
 10
14.70842176281595
 20
22.816557340216
 10
14.49561821469207
 20
22.816557340216
 10
14.3989143844211
 20
22.816557340216
 10
14.29786973383873
 20
22.78646443115234
 10
14.22479925859658
 20
22.73918049561729
 10
14.22479925859658
 20
22.73918049561729
 10
14.18180446694066
 20
22.86384127575105
 10
14.18180446694066
 20
22.86384127575105
 10
14.26779405025249
 20
22.91972072452181
 10
14.39247205586369
 20
22.9562731876203
 10
14.52355793907744
 20
22.9562731876203
 10
14.84167805618541
 20
22.9562731876203
 10
14.91905490078412
 20
22.73918049561729
 10
14.91905490078412
 20
22.53068331684997
 10
14.91905490078412
 20
22.53068331684997
 10
14.91905490078412
 20
22.14164590917813
 10
14.91905490078412
 20
22.14164590917813
 10
14.91905490078412
 20
22.05136718198716
 10
14.92336127014069
 20
21.96324163947446
 10
14.93624592725552
 20
21.89230712343317
 10
14.93624592725552
 20
21.89230712343317
 10
14.7643012115867
 20
21.89230712343317
 10
14.7643012115867
 20
21.89230712343317
 97
        0
 97
        0
 92
        1
 93
        1
 72
     4
 94
        3
 73
     0
 74
     1
 95
       20
 96
       16
 40
0.0
 40
0.0
 40
0.0
 40
0.0
 40
1.0
 40
1.0
 40
1.0
 40
2.0
 40
2.0
 40
2.0
 40
3.0
 40
3.0
 40
3.0
 40
4.0
 40
4.0
 40
4.0
 40
5.0
 40
5.0
 40
5.0
 40
5.0
 10
14.73636148720133
 20
22.4232135631876
 10
14.53003471858971
 20
22.42751993254416
 10
14.29573377463787
 20
22.39096746944566
 10
14.29573377463787
 20
22.18892984471318
 10
14.29573377463787
 20
22.06640502378027
 10
14.37741698859315
 20
22.00837239033124
 10
14.47412081886411
 20
22.00837239033124
 10
14.60954752238928
 20
22.00837239033124
 10
14.69553710570112
 20
22.09434474816565
 10
14.72561278928735
 20
22.18247029067834
 10
14.73205511784476
 20
22.20181450182802
 10
14.73636148720133
 20
22.22331189765598
 10
14.73636148720133
 20
22.24265610880565
 10
14.73636148720133
 20
22.24265610880565
 10
14.73636148720133
 20
22.4232135631876
 10
14.73636148720133
 20
22.4232135631876
 97
        0
 97
        0
 75
     2
 76
     1
 98
        0
  0
SPLINE
  5
29D
330
1D1
100
AcDbEntity
  8
0
370
     0
100
AcDbSpline
210
0.0
220
0.0
230
1.0
 70
    11
 71
     3
 72
    56
 73
    52
 74
     0
 42
0.0000000001
 43
0.0000000001
 12
1.0
 22
0.0
 32
0.0
 13
1.0
 23
0.0
 33
0.0
 40
0.0
 40
0.0
 40
0.0
 40
0.0
 40
1.0
 40
1.0
 40
1.0
 40
2.0
 40
2.0
 40
2.0
 40
3.0
 40
3.0
 40
3.0
 40
4.0
 40
4.0
 40
4.0
 40
5.0
 40
5.0
 40
5.0
 40
6.0
 40
6.0
 40
6.0
 40
7.0
 40
7.0
 40
7.0
 40
8.0
 40
8.0
 40
8.0
 40
9.0
 40
9.0
 40
9.0
 40
10.0
 40
10.0
 40
10.0
 40
11.0
 40
11.0
 40
11.0
 40
12.0
 40
12.0
 40
12.0
 40
13.0
 40
13.0
 40
13.0
 40
14.0
 40
14.0
 40
14.0
 40
15.0
 40
15.0
 40
15.0
 40
16.0
 40
16.0
 40
16.0
 40
17.0
 40
17.0
 40
17.0
 40
17.0
 10
16.12042859840045
 20
22.93262260711407
 30
0.0
 10
16.11615667999874
 20
22.85739894719363
 30
0.0
 10
16.11185031064218
 20
22.77356254856008
 30
0.0
 10
16.11185031064218
 20
22.64674858374803
 30
0.0
 10
16.11185031064218
 20
22.64674858374803
 30
0.0
 10
16.11185031064218
 20
22.04277166875146
 30
0.0
 10
16.11185031064218
 20
22.04277166875146
 30
0.0
 10
16.11185031064218
 20
21.80418158092048
 30
0.0
 10
16.06454914962969
 20
21.65802340495876
 30
0.0
 10
15.96353895000217
 20
21.56774467776778
 30
0.0
 10
15.86252875037465
 20
21.47317680669768
 30
0.0
 10
15.71635334893549
 20
21.44306667215659
 30
0.0
 10
15.58523301476689
 20
21.44306667215659
 30
0.0
 10
15.46055500915569
 20
21.44306667215659
 30
0.0
 10
15.32299234642967
 20
21.47317680669768
 30
0.0
 10
15.23917317327354
 20
21.52905625546843
 30
0.0
 10
15.23917317327354
 20
21.52905625546843
 30
0.0
 10
15.28647433428602
 20
21.67306124675187
 30
0.0
 10
15.28647433428602
 20
21.67306124675187
 30
0.0
 10
15.35523844017161
 20
21.63008368057338
 30
0.0
 10
15.4627254193114
 20
21.59139525827402
 30
0.0
 10
15.5916753433243
 20
21.59139525827402
 30
0.0
 10
15.78511745482108
 20
21.59139525827402
 30
0.0
 10
15.92698648690367
 20
21.69240545790155
 30
0.0
 10
15.92698648690367
 20
21.95464612623877
 30
0.0
 10
15.92698648690367
 20
21.95464612623877
 30
0.0
 10
15.92698648690367
 20
22.07071139313684
 30
0.0
 10
15.92698648690367
 20
22.07071139313684
 30
0.0
 10
15.92698648690367
 20
22.07071139313684
 30
0.0
 10
15.92268011754711
 20
22.07071139313684
 30
0.0
 10
15.92268011754711
 20
22.07071139313684
 30
0.0
 10
15.8646647095755
 20
21.97399033738845
 30
0.0
 10
15.75290581203399
 20
21.89661349278973
 30
0.0
 10
15.5916753433243
 20
21.89661349278973
 30
0.0
 10
15.33374104434365
 20
21.89661349278973
 30
0.0
 10
15.14891167155999
 20
22.11584214399361
 30
0.0
 10
15.14891167155999
 20
22.40386935203792
 30
0.0
 10
15.14891167155999
 20
22.75637152208868
 30
0.0
 10
15.37890624615527
 20
22.9562731876203
 30
0.0
 10
15.61747910850882
 20
22.9562731876203
 30
0.0
 10
15.79803656289077
 20
22.9562731876203
 30
0.0
 10
15.89691080331744
 20
22.86168809107277
 30
0.0
 10
15.94204155417421
 20
22.77571573323836
 30
0.0
 10
15.94204155417421
 20
22.77571573323836
 30
0.0
 10
15.94634792353077
 20
22.77571573323836
 30
0.0
 10
15.94634792353077
 20
22.77571573323836
 30
0.0
 10
15.94634792353077
 20
22.77571573323836
 30
0.0
 10
15.95492621128905
 20
22.93262260711407
 30
0.0
 10
15.95492621128905
 20
22.93262260711407
 30
0.0
 10
15.95492621128905
 20
22.93262260711407
 30
0.0
 10
16.12042859840045
 20
22.93262260711407
 30
0.0
 10
16.12042859840045
 20
22.93262260711407
 30
0.0
  0
SPLINE
  5
29E
330
1D1
100
AcDbEntity
  8
0
370
     0
100
AcDbSpline
210
0.0
220
0.0
230
1.0
 70
    11
 71
     3
 72
    26
 73
    22
 74
     0
 42
0.0000000001
 43
0.0000000001
 12
1.0
 22
0.0
 32
0.0
 13
1.0
 23
0.0
 33
0.0
 40
0.0
 40
0.0
 40
0.0
 40
0.0
 40
1.0
 40
1.0
 40
1.0
 40
2.0
 40
2.0
 40
2.0
 40
3.0
 40
3.0
 40
3.0
 40
4.0
 40
4.0
 40
4.0
 40
5.0
 40
5.0
 40
5.0
 40
6.0
 40
6.0
 40
6.0
 40
7.0
 40
7.0
 40
7.0
 40
7.0
 10
15.92485052770281
 20
22.52208780361427
 30
0.0
 10
15.92485052770281
 20
22.55433389735621
 30
0.0
 10
15.92268011754711
 20
22.58227362174158
 30
0.0
 10
15.91410182978883
 20
22.60806016144868
 30
0.0
 10
15.87971977684604
 20
22.71768309978933
 30
0.0
 10
15.78728786497679
 20
22.8079618269803
 30
0.0
 10
15.64972520225076
 20
22.8079618269803
 30
0.0
 10
15.46916774786882
 20
22.8079618269803
 30
0.0
 10
15.34021782385592
 20
22.65534409698373
 30
0.0
 10
15.34021782385592
 20
22.4146180499519
 30
0.0
 10
15.34021782385592
 20
22.21042724054114
 30
0.0
 10
15.4433639826843
 20
22.04061848407318
 30
0.0
 10
15.64755479209505
 20
22.04061848407318
 30
0.0
 10
15.76365450994797
 20
22.04061848407318
 30
0.0
 10
15.86897107893206
 20
22.11368895931533
 30
0.0
 10
15.90979546043227
 20
22.23406059556995
 30
0.0
 10
15.92054415834625
 20
22.26630668931189
 30
0.0
 10
15.92485052770281
 20
22.30284192693297
 30
0.0
 10
15.92485052770281
 20
22.33508802067491
 30
0.0
 10
15.92485052770281
 20
22.33508802067491
 30
0.0
 10
15.92485052770281
 20
22.52208780361427
 30
0.0
 10
15.92485052770281
 20
22.52208780361427
 30
0.0
  0
HATCH
  5
29F
330
1D1
100
AcDbEntity
  8
0
 62
     7
420
 16777215
100
AcDbHatch
 10
0.0
 20
0.0
 30
0.0
210
0.0
220
0.0
230
1.0
  2
SOLID
 70
     1
 71
     0
 91
        2
 92
        1
 93
        1
 72
     4
 94
        3
 73
     0
 74
     1
 95
       56
 96
       52
 40
0.0
 40
0.0
 40
0.0
 40
0.0
 40
1.0
 40
1.0
 40
1.0
 40
2.0
 40
2.0
 40
2.0
 40
3.0
 40
3.0
 40
3.0
 40
4.0
 40
4.0
 40
4.0
 40
5.0
 40
5.0
 40
5.0
 40
6.0
 40
6.0
 40
6.0
 40
7.0
 40
7.0
 40
7.0
 40
8.0
 40
8.0
 40
8.0
 40
9.0
 40
9.0
 40
9.0
 40
10.0
 40
10.0
 40
10.0
 40
11.0
 40
11.0
 40
11.0
 40
12.0
 40
12.0
 40
12.0
 40
13.0
 40
13.0
 40
13.0
 40
14.0
 40
14.0
 40
14.0
 40
15.0
 40
15.0
 40
15.0
 40
16.0
 40
16.0
 40
16.0
 40
17.0
 40
17.0
 40
17.0
 40
17.0
 10
16.12042859840045
 20
22.93262260711407
 10
16.11615667999874
 20
22.85739894719363
 10
16.11185031064218
 20
22.77356254856008
 10
16.11185031064218
 20
22.64674858374803
 10
16.11185031064218
 20
22.64674858374803
 10
16.11185031064218
 20
22.04277166875146
 10
16.11185031064218
 20
22.04277166875146
 10
16.11185031064218
 20
21.80418158092048
 10
16.06454914962969
 20
21.65802340495876
 10
15.96353895000217
 20
21.56774467776778
 10
15.86252875037465
 20
21.47317680669768
 10
15.71635334893549
 20
21.44306667215659
 10
15.58523301476689
 20
21.44306667215659
 10
15.46055500915569
 20
21.44306667215659
 10
15.32299234642967
 20
21.47317680669768
 10
15.23917317327354
 20
21.52905625546843
 10
15.23917317327354
 20
21.52905625546843
 10
15.28647433428602
 20
21.67306124675187
 10
15.28647433428602
 20
21.67306124675187
 10
15.35523844017161
 20
21.63008368057338
 10
15.4627254193114
 20
21.59139525827402
 10
15.5916753433243
 20
21.59139525827402
 10
15.78511745482108
 20
21.59139525827402
 10
15.92698648690367
 20
21.69240545790155
 10
15.92698648690367
 20
21.95464612623877
 10
15.92698648690367
 20
21.95464612623877
 10
15.92698648690367
 20
22.07071139313684
 10
15.92698648690367
 20
22.07071139313684
 10
15.92698648690367
 20
22.07071139313684
 10
15.92268011754711
 20
22.07071139313684
 10
15.92268011754711
 20
22.07071139313684
 10
15.8646647095755
 20
21.97399033738845
 10
15.75290581203399
 20
21.89661349278973
 10
15.5916753433243
 20
21.89661349278973
 10
15.33374104434365
 20
21.89661349278973
 10
15.14891167155999
 20
22.11584214399361
 10
15.14891167155999
 20
22.40386935203792
 10
15.14891167155999
 20
22.75637152208868
 10
15.37890624615527
 20
22.9562731876203
 10
15.61747910850882
 20
22.9562731876203
 10
15.79803656289077
 20
22.9562731876203
 10
15.89691080331744
 20
22.86168809107277
 10
15.94204155417421
 20
22.77571573323836
 10
15.94204155417421
 20
22.77571573323836
 10
15.94634792353077
 20
22.77571573323836
 10
15.94634792353077
 20
22.77571573323836
 10
15.94634792353077
 20
22.77571573323836
 10
15.95492621128905
 20
22.93262260711407
 10
15.95492621128905
 20
22.93262260711407
 10
15.95492621128905
 20
22.93262260711407
 10
16.12042859840045
 20
22.93262260711407
 10
16.12042859840045
 20
22.93262260711407
 97
        0
 97
        0
 92
        1
 93
        1
 72
     4
 94
        3
 73
     0
 74
     1
 95
       26
 96
       22
 40
0.0
 40
0.0
 40
0.0
 40
0.0
 40
1.0
 40
1.0
 40
1.0
 40
2.0
 40
2.0
 40
2.0
 40
3.0
 40
3.0
 40
3.0
 40
4.0
 40
4.0
 40
4.0
 40
5.0
 40
5.0
 40
5.0
 40
6.0
 40
6.0
 40
6.0
 40
7.0
 40
7.0
 40
7.0
 40
7.0
 10
15.92485052770281
 20
22.52208780361427
 10
15.92485052770281
 20
22.55433389735621
 10
15.92268011754711
 20
22.58227362174158
 10
15.91410182978883
 20
22.60806016144868
 10
15.87971977684604
 20
22.71768309978933
 10
15.78728786497679
 20
22.8079618269803
 10
15.64972520225076
 20
22.8079618269803
 10
15.46916774786882
 20
22.8079618269803
 10
15.34021782385592
 20
22.65534409698373
 10
15.34021782385592
 20
22.4146180499519
 10
15.34021782385592
 20
22.21042724054114
 10
15.4433639826843
 20
22.04061848407318
 10
15.64755479209505
 20
22.04061848407318
 10
15.76365450994797
 20
22.04061848407318
 10
15.86897107893206
 20
22.11368895931533
 10
15.90979546043227
 20
22.23406059556995
 10
15.92054415834625
 20
22.26630668931189
 10
15.92485052770281
 20
22.30284192693297
 10
15.92485052770281
 20
22.33508802067491
 10
15.92485052770281
 20
22.33508802067491
 10
15.92485052770281
 20
22.52208780361427
 10
15.92485052770281
 20
22.52208780361427
 97
        0
 97
        0
 75
     2
 76
     1
 98
        0
  0
SPLINE
  5
2A0
330
1D1
100
AcDbEntity
  8
0
370
     0
100
AcDbSpline
210
0.0
220
0.0
230
1.0
 70
    11
 71
     3
 72
    17
 73
    13
 74
     0
 42
0.0000000001
 43
0.0000000001
 12
1.0
 22
0.0
 32
0.0
 13
1.0
 23
0.0
 33
0.0
 40
0.0
 40
0.0
 40
0.0
 40
0.0
 40
1.0
 40
1.0
 40
1.0
 40
2.0
 40
2.0
 40
2.0
 40
3.0
 40
3.0
 40
3.0
 40
4.0
 40
4.0
 40
4.0
 40
4.0
 10
17.36696749782839
 20
22.42106037850932
 30
0.0
 10
17.36696749782839
 20
22.03631211471662
 30
0.0
 10
17.10042046013461
 20
21.86865654292693
 30
0.0
 10
16.84892848971138
 20
21.86865654292693
 30
0.0
 10
16.56736083570191
 20
21.86865654292693
 30
0.0
 10
16.35028536917632
 20
22.07500053701597
 30
0.0
 10
16.35028536917632
 20
22.40386935203792
 30
0.0
 10
16.35028536917632
 20
22.75206515273212
 30
0.0
 10
16.57810953361589
 20
22.9562731876203
 30
0.0
 10
16.86615396713763
 20
22.9562731876203
 30
0.0
 10
17.16491264761849
 20
22.9562731876203
 30
0.0
 10
17.36696749782839
 20
22.73918049561729
 30
0.0
 10
17.36696749782839
 20
22.42106037850932
 30
0.0
  0
SPLINE
  5
2A1
330
1D1
100
AcDbEntity
  8
0
370
     0
100
AcDbSpline
210
0.0
220
0.0
230
1.0
 70
    11
 71
     3
 72
    17
 73
    13
 74
     0
 42
0.0000000001
 43
0.0000000001
 12
1.0
 22
0.0
 32
0.0
 13
1.0
 23
0.0
 33
0.0
 40
0.0
 40
0.0
 40
0.0
 40
0.0
 40
1.0
 40
1.0
 40
1.0
 40
2.0
 40
2.0
 40
2.0
 40
3.0
 40
3.0
 40
3.0
 40
4.0
 40
4.0
 40
4.0
 40
4.0
 10
16.54159152147224
 20
22.41031168059534
 30
0.0
 10
16.54159152147224
 20
22.18247029067834
 30
0.0
 10
16.672677404686
 20
22.01052557500952
 30
0.0
 10
16.8575412284245
 20
22.01052557500952
 30
0.0
 10
17.03809868280645
 20
22.01052557500952
 30
0.0
 10
17.17349093537677
 20
22.18033433147749
 30
0.0
 10
17.17349093537677
 20
22.4146180499519
 30
0.0
 10
17.17349093537677
 20
22.59086913497728
 30
0.0
 10
17.08536539286407
 20
22.81440415553772
 30
0.0
 10
16.86184759778106
 20
22.81440415553772
 30
0.0
 10
16.6382953517432
 20
22.81440415553772
 30
0.0
 10
16.54159152147224
 20
22.60806016144868
 30
0.0
 10
16.54159152147224
 20
22.41031168059534
 30
0.0
  0
HATCH
  5
2A2
330
1D1
100
AcDbEntity
  8
0
 62
     7
420
 16777215
100
AcDbHatch
 10
0.0
 20
0.0
 30
0.0
210
0.0
220
0.0
230
1.0
  2
SOLID
 70
     1
 71
     0
 91
        2
 92
        1
 93
        1
 72
     4
 94
        3
 73
     0
 74
     1
 95
       17
 96
       13
 40
0.0
 40
0.0
 40
0.0
 40
0.0
 40
1.0
 40
1.0
 40
1.0
 40
2.0
 40
2.0
 40
2.0
 40
3.0
 40
3.0
 40
3.0
 40
4.0
 40
4.0
 40
4.0
 40
4.0
 10
17.36696749782839
 20
22.42106037850932
 10
17.36696749782839
 20
22.03631211471662
 10
17.10042046013461
 20
21.86865654292693
 10
16.84892848971138
 20
21.86865654292693
 10
16.56736083570191
 20
21.86865654292693
 10
16.35028536917632
 20
22.07500053701597
 10
16.35028536917632
 20
22.40386935203792
 10
16.35028536917632
 20
22.75206515273212
 10
16.57810953361589
 20
22.9562731876203
 10
16.86615396713763
 20
22.9562731876203
 10
17.16491264761849
 20
22.9562731876203
 10
17.36696749782839
 20
22.73918049561729
 10
17.36696749782839
 20
22.42106037850932
 97
        0
 97
        0
 92
        1
 93
        1
 72
     4
 94
        3
 73
     0
 74
     1
 95
       17
 96
       13
 40
0.0
 40
0.0
 40
0.0
 40
0.0
 40
1.0
 40
1.0
 40
1.0
 40
2.0
 40
2.0
 40
2.0
 40
3.0
 40
3.0
 40
3.0
 40
4.0
 40
4.0
 40
4.0
 40
4.0
 10
16.54159152147224
 20
22.41031168059534
 10
16.54159152147224
 20
22.18247029067834
 10
16.672677404686
 20
22.01052557500952
 10
16.8575412284245
 20
22.01052557500952
 10
17.03809868280645
 20
22.01052557500952
 10
17.17349093537677
 20
22.18033433147749
 10
17.17349093537677
 20
22.4146180499519
 10
17.17349093537677
 20
22.59086913497728
 10
17.08536539286407
 20
22.81440415553772
 10
16.86184759778106
 20
22.81440415553772
 10
16.6382953517432
 20
22.81440415553772
 10
16.54159152147224
 20
22.60806016144868
 10
16.54159152147224
 20
22.41031168059534
 97
        0
 97
        0
 75
     2
 76
     1
 98
        0
  0
ENDBLK
  5
1D4
330
1D1
100
AcDbEntity
  8
0
100
AcDbBlockEnd
  0
BLOCK
  5
2A5
330
2A3
100
AcDbEntity
  8
0
100
AcDbBlockBegin
  2
block 33
 70
     0
 10
0.0
 20
0.0
 30
0.0
  3
block 33
  1

  0
POLYLINE
  5
2A7
330
2A3
100
AcDbEntity
  8
0
 62
     7
420
 16777215
370
    25
100
AcDb2dPolyline
 66
     1
 10
0.0
 20
0.0
 30
0.0
  0
VERTEX
  5
2A8
330
2A7
100
AcDbEntity
  8
0
 62
     7
420
 16777215
370
    25
100
AcDbVertex
100
AcDb2dVertex
 10
6.10594022327617
 20
20.89436964720066
 30
0.0
  0
VERTEX
  5
2A9
330
2A7
100
AcDbEntity
  8
0
 62
     7
420
 16777215
370
    25
100
AcDbVertex
100
AcDb2dVertex
 10
10.44507758128443
 20
18.39436964782565
 30
0.0
  0
VERTEX
  5
2AA
330
2A7
100
AcDbEntity
  8
0
 62
     7
420
 16777215
370
    25
100
AcDbVertex
100
AcDb2dVertex
 10
10.44507758128437
 20
13.39436964907563
 30
0.0
  0
VERTEX
  5
2AB
330
2A7
100
AcDbEntity
  8
0
 62
     7
420
 16777215
370
    25
100
AcDbVertex
100
AcDb2dVertex
 10
6.105940223276106
 20
10.89436964970069
 30
0.0
  0
VERTEX
  5
2AC
330
2A7
100
AcDbEntity
  8
0
 62
     7
420
 16777215
370
    25
100
AcDbVertex
100
AcDb2dVertex
 10
1.766802865267906
 20
13.39436964907569
 30
0.0
  0
VERTEX
  5
2AD
330
2A7
100
AcDbEntity
  8
0
 62
     7
420
 16777215
370
    25
100
AcDbVertex
100
AcDb2dVertex
 10
1.766802865267906
 20
18.39436964782571
 30
0.0
  0
VERTEX
  5
2AE
330
2A7
100
AcDbEntity
  8
0
 62
     7
420
 16777215
370
    25
100
AcDbVertex
100
AcDb2dVertex
 10
6.10594022327617
 20
20.89436964720066
 30
0.0
  0
SEQEND
  5
2AF
330
2A7
100
AcDbEntity
  8
0
 62
     7
420
 16777215
370
    25
  0
ENDBLK
  5
2A6
330
2A3
100
AcDbEntity
  8
0
100
AcDbBlockEnd
  0
BLOCK
  5
2B2
330
2B0
100
AcDbEntity
  8
0
100
AcDbBlockBegin
  2
block 34
 70
     0
 10
0.0
 20
0.0
 30
0.0
  3
block 34
  1

  0
SPLINE
  5
2B4
330
2B0
100
AcDbEntity
  8
0
 62
     7
420
 16777215
370
    18
100
AcDbSpline
210
0.0
220
0.0
230
1.0
 70
     8
 71
     3
 72
    17
 73
    13
 74
     0
 42
0.0000000001
 43
0.0000000001
 12
1.0
 22
0.0
 32
0.0
 13
1.0
 23
0.0
 33
0.0
 40
0.0
 40
0.0
 40
0.0
 40
0.0
 40
1.0
 40
1.0
 40
1.0
 40
2.0
 40
2.0
 40
2.0
 40
3.0
 40
3.0
 40
3.0
 40
4.0
 40
4.0
 40
4.0
 40
4.0
 10
16.9984709647579
 20
18.75362062082316
 30
0.0
 10
16.9984709647579
 20
18.75362062082316
 30
0.0
 10
16.9984709647579
 20
21.23792634529974
 30
0.0
 10
16.9984709647579
 20
21.23792634529974
 30
0.0
 10
14.23704606581718
 20
21.23792634529974
 30
0.0
 10
11.99847038956475
 20
18.99934851586264
 30
0.0
 10
11.99847038956475
 20
16.2379257701066
 30
0.0
 10
11.99847038956475
 20
13.47650302435056
 30
0.0
 10
14.23704606581718
 20
11.23792519491346
 30
0.0
 10
16.9984709647579
 20
11.23792519491346
 30
0.0
 10
16.9984709647579
 20
11.23792519491346
 30
0.0
 10
16.9984709647579
 20
13.75424016281737
 30
0.0
 10
16.9984709647579
 20
13.75424016281737
 30
0.0
  0
SPLINE
  5
2B5
330
2B0
100
AcDbEntity
  8
0
 62
     7
420
 16777215
370
    18
100
AcDbSpline
210
0.0
220
0.0
230
1.0
 70
     8
 71
     3
 72
    11
 73
     7
 74
     0
 42
0.0000000001
 43
0.0000000001
 12
1.0
 22
0.0
 32
0.0
 13
1.0
 23
0.0
 33
0.0
 40
0.0
 40
0.0
 40
0.0
 40
0.0
 40
1.0
 40
1.0
 40
1.0
 40
2.0
 40
2.0
 40
2.0
 40
2.0
 10
16.9984709647579
 20
18.75362062082316
 30
0.0
 10
15.62342139099141
 20
18.74699957793745
 30
0.0
 10
14.51070076613396
 20
17.6305410244785
 30
0.0
 10
14.51070076613396
 20
16.25393039182027
 30
0.0
 10
14.51070076613396
 20
14.87732191234671
 30
0.0
 10
15.62342139099141
 20
13.76086120570308
 30
0.0
 10
16.9984709647579
 20
13.75424016281737
 30
0.0
  0
ENDBLK
  5
2B3
330
2B0
100
AcDbEntity
  8
0
100
AcDbBlockEnd
  0
BLOCK
  5
2B8
330
2B6
100
AcDbEntity
  8
0
100
AcDbBlockBegin
  2
block 35
 70
     0
 10
0.0
 20
0.0
 30
0.0
  3
block 35
  1

  0
POLYLINE
  5
2BA
330
2B6
100
AcDbEntity
  8
0
 62
     7
420
 16777215
370
    25
100
AcDb2dPolyline
 66
     1
 10
0.0
 20
0.0
 30
0.0
  0
VERTEX
  5
2BB
330
2BA
100
AcDbEntity
  8
0
 62
     7
420
 16777215
370
    25
100
AcDbVertex
100
AcDb2dVertex
 10
21.84811638965422
 20
16.67614149391121
 30
0.0
  0
VERTEX
  5
2BC
330
2BA
100
AcDbEntity
  8
0
 62
     7
420
 16777215
370
    25
100
AcDbVertex
100
AcDb2dVertex
 10
21.44811638965427
 20
16.67614149391121
 30
0.0
  0
VERTEX
  5
2BD
330
2BA
100
AcDbEntity
  8
0
 62
     7
420
 16777215
370
    25
100
AcDbVertex
100
AcDb2dVertex
 10
21.44811638965427
 20
15.79161154774908
 30
0.0
  0
VERTEX
  5
2BE
330
2BA
100
AcDbEntity
  8
0
 62
     7
420
 16777215
370
    25
100
AcDbVertex
100
AcDb2dVertex
 10
21.84811638965422
 20
15.79161154774908
 30
0.0
  0
VERTEX
  5
2BF
330
2BA
100
AcDbEntity
  8
0
 62
     7
420
 16777215
370
    25
100
AcDbVertex
100
AcDb2dVertex
 10
21.84811638965422
 20
16.67614149391121
 30
0.0
  0
SEQEND
  5
2C0
330
2BA
100
AcDbEntity
  8
0
 62
     7
420
 16777215
370
    25
  0
INSERT
  5
2C2
330
2B6
100
AcDbEntity
  8
0
100
AcDbBlockReference
  2
block 36
 10
0.0
 20
0.0
 30
0.0
  0
POLYLINE
  5
2CC
330
2B6
100
AcDbEntity
  8
0
370
     0
100
AcDb2dPolyline
 66
     1
 10
0.0
 20
0.0
 30
0.0
  0
VERTEX
  5
2CD
330
2CC
100
AcDbEntity
  8
0
370
     0
100
AcDbVertex
100
AcDb2dVertex
 10
21.48711260249939
 20
16.85172258757839
 30
0.0
  0
VERTEX
  5
2CE
330
2CC
100
AcDbEntity
  8
0
370
     0
100
AcDbVertex
100
AcDb2dVertex
 10
21.80911260241894
 20
16.85172258757839
 30
0.0
  0
VERTEX
  5
2CF
330
2CC
100
AcDbEntity
  8
0
370
     0
100
AcDbVertex
100
AcDb2dVertex
 10
21.80911260241894
 20
16.23195299644595
 30
0.0
  0
VERTEX
  5
2D0
330
2CC
100
AcDbEntity
  8
0
370
     0
100
AcDbVertex
100
AcDb2dVertex
 10
21.48711260249939
 20
16.23195299644595
 30
0.0
  0
VERTEX
  5
2D1
330
2CC
100
AcDbEntity
  8
0
370
     0
100
AcDbVertex
100
AcDb2dVertex
 10
21.48711260249939
 20
16.85172258757839
 30
0.0
  0
SEQEND
  5
2D3
330
2CC
100
AcDbEntity
  8
0
370
     0
  0
HATCH
  5
2D2
330
2B6
100
AcDbEntity
  8
0
 62
    18
420
        0
100
AcDbHatch
 10
0.0
 20
0.0
 30
0.0
210
0.0
220
0.0
230
1.0
  2
SOLID
 70
     1
 71
     0
 91
        1
 92
        1
 93
        4
 72
     1
 10
21.48711260249939
 20
16.85172258757839
 11
21.80911260241894
 21
16.85172258757839
 72
     1
 10
21.80911260241894
 20
16.85172258757839
 11
21.80911260241894
 21
16.23195299644595
 72
     1
 10
21.80911260241894
 20
16.23195299644595
 11
21.48711260249939
 21
16.23195299644595
 72
     1
 10
21.48711260249939
 20
16.23195299644595
 11
21.48711260249939
 21
16.85172258757839
 97
        0
 75
     2
 76
     1
 98
        0
  0
ENDBLK
  5
2B9
330
2B6
100
AcDbEntity
  8
0
100
AcDbBlockEnd
  0
BLOCK
  5
2C3
330
2C1
100
AcDbEntity
  8
0
100
AcDbBlockBegin
  2
block 36
 70
     0
 10
0.0
 20
0.0
 30
0.0
  3
block 36
  1

  0
POLYLINE
  5
2C5
330
2C1
100
AcDbEntity
  8
0
 62
     7
420
 16777215
370
    18
100
AcDb2dPolyline
 66
     1
 10
0.0
 20
0.0
 30
0.0
  0
VERTEX
  5
2C6
330
2C5
100
AcDbEntity
  8
0
 62
     7
420
 16777215
370
    18
100
AcDbVertex
100
AcDb2dVertex
 10
21.47811260252715
 20
16.69800763878652
 30
0.0
  0
VERTEX
  5
2C7
330
2C5
100
AcDbEntity
  8
0
 62
     7
420
 16777215
370
    18
100
AcDbVertex
100
AcDb2dVertex
 10
21.47811260266216
 20
15.49800763918395
 30
0.0
  0
VERTEX
  5
2C8
330
2C5
100
AcDbEntity
  8
0
 62
     7
420
 16777215
370
    18
100
AcDbVertex
100
AcDb2dVertex
 10
21.81811260244214
 20
15.49800763928136
 30
0.0
  0
VERTEX
  5
2C9
330
2C5
100
AcDbEntity
  8
0
 62
     7
420
 16777215
370
    18
100
AcDbVertex
100
AcDb2dVertex
 10
21.81811260230712
 20
16.69800763888393
 30
0.0
  0
SEQEND
  5
2CB
330
2C5
100
AcDbEntity
  8
0
 62
     7
420
 16777215
370
    18
  0
HATCH
  5
2CA
330
2C1
100
AcDbEntity
  8
0
 62
    18
420
        0
100
AcDbHatch
 10
0.0
 20
0.0
 30
0.0
210
0.0
220
0.0
230
1.0
  2
SOLID
 70
     1
 71
     0
 91
        1
 92
        1
 93
        4
 72
     1
 10
21.47811260252715
 20
16.69800763878652
 11
21.47811260266216
 21
15.49800763918395
 72
     1
 10
21.47811260266216
 20
15.49800763918395
 11
21.81811260244214
 21
15.49800763928136
 72
     1
 10
21.81811260244214
 20
15.49800763928136
 11
21.81811260230712
 21
16.69800763888393
 72
     1
 10
21.81811260230712
 20
16.69800763888393
 11
21.47811260252715
 21
16.69800763878652
 97
        0
 75
     2
 76
     1
 98
        0
  0
ENDBLK
  5
2C4
330
2C1
100
AcDbEntity
  8
0
100
AcDbBlockEnd
  0
ENDSEC
  0
SECTION
  2
ENTITIES
  0
INSERT
  5
41
330
1F
100
AcDbEntity
  8
0
100
AcDbBlockReference
  2
block 2
 10
0.0
 20
0.0
 30
0.0
  0
INSERT
  5
4E
330
1F
100
AcDbEntity
  8
0
100
AcDbBlockReference
  2
block 3
 10
0.0
 20
0.0
 30
0.0
  0
INSERT
  5
63
330
1F
100
AcDbEntity
  8
0
100
AcDbBlockReference
  2
block 5
 10
0.0
 20
0.0
 30
0.0
  0
INSERT
  5
81
330
1F
100
AcDbEntity
  8
0
100
AcDbBlockReference
  2
block 7
 10
0.0
 20
0.0
 30
0.0
  0
INSERT
  5
9F
330
1F
100
AcDbEntity
  8
0
100
AcDbBlockReference
  2
block 9
 10
0.0
 20
0.0
 30
0.0
  0
INSERT
  5
BD
330
1F
100
AcDbEntity
  8
0
100
AcDbBlockReference
  2
block 11
 10
0.0
 20
0.0
 30
0.0
  0
INSERT
  5
DB
330
1F
100
AcDbEntity
  8
0
100
AcDbBlockReference
  2
block 13
 10
0.0
 20
0.0
 30
0.0
  0
INSERT
  5
F9
330
1F
100
AcDbEntity
  8
0
100
AcDbBlockReference
  2
block 15
 10
0.0
 20
0.0
 30
0.0
  0
INSERT
  5
117
330
1F
100
AcDbEntity
  8
0
100
AcDbBlockReference
  2
block 17
 10
0.0
 20
0.0
 30
0.0
  0
INSERT
  5
1D2
330
1F
100
AcDbEntity
  8
0
100
AcDbBlockReference
  2
block 32
 10
0.0
 20
0.0
 30
0.0
  0
INSERT
  5
2A4
330
1F
100
AcDbEntity
  8
0
100
AcDbBlockReference
  2
block 33
 10
0.0
 20
0.0
 30
0.0
  0
INSERT
  5
2B1
330
1F
100
AcDbEntity
  8
0
100
AcDbBlockReference
  2
block 34
 10
0.0
 20
0.0
 30
0.0
  0
INSERT
  5
2B7
330
1F
100
AcDbEntity
  8
0
100
AcDbBlockReference
  2
block 35
 10
0.0
 20
0.0
 30
0.0
  0
ENDSEC
  0
SECTION
  2
OBJECTS
  0
DICTIONARY
  5
C
330
0
100
AcDbDictionary
281
     1
  3
ACAD_GROUP
350
D
  3
ACAD_LAYOUT
350
1A
  3
ACAD_MATERIAL
350
3B
  3
ACAD_MLEADERSTYLE
350
2D5
  3
ACAD_MLINESTYLE
350
17
  3
ACAD_PLOTSETTINGS
350
19
  3
ACAD_PLOTSTYLENAME
350
E
  3
ACAD_TABLESTYLE
350
2D4
  3
ACAD_VISUALSTYLE
350
2A
  0
SUN
  5
3F
330
29
100
AcDbSun
 90
        1
290
     0
 63
     7
421
 16777215
 40
1.0
291
     1
 91
  2455826
 92
 54000000
292
     0
 70
     2
 71
   256
280
     1
  0
DICTIONARY
  5
D
102
{ACAD_REACTORS
330
C
102
}
330
C
100
AcDbDictionary
281
     1
  0
DICTIONARY
  5
1A
102
{ACAD_REACTORS
330
C
102
}
330
C
100
AcDbDictionary
281
     1
  3
Layout1
350
1E
  3
Layout2
350
26
  3
Model
350
22
  0
DICTIONARY
  5
3B
102
{ACAD_REACTORS
330
C
102
}
330
C
100
AcDbDictionary
281
     1
  3
ByBlock
350
3D
  3
ByLayer
350
3C
  3
Global
350
3E
  0
DICTIONARY
  5
2D5
102
{ACAD_REACTORS
330
C
102
}
330
C
100
AcDbDictionary
281
     1
  0
DICTIONARY
  5
17
102
{ACAD_REACTORS
330
C
102
}
330
C
100
AcDbDictionary
281
     1
  3
Standard
350
18
  0
DICTIONARY
  5
19
102
{ACAD_REACTORS
330
C
102
}
330
C
100
AcDbDictionary
281
     1
  0
ACDBDICTIONARYWDFLT
  5
E
102
{ACAD_REACTORS
330
C
102
}
330
C
100
AcDbDictionary
281
     1
  3
Normal
350
F
100
AcDbDictionaryWithDefault
340
F
  0
DICTIONARY
  5
2D4
102
{ACAD_REACTORS
330
C
102
}
330
C
100
AcDbDictionary
281
     1
  0
DICTIONARY
  5
2A
102
{ACAD_REACTORS
330
C
102
}
330
C
100
AcDbDictionary
281
     1
  3
2dWireframe
350
2F
  3
3D Hidden
350
31
  3
3dWireframe
350
30
  3
Basic
350
32
  3
Brighten
350
36
  3
ColorChange
350
3A
  3
Conceptual
350
34
  3
Dim
350
35
  3
Facepattern
350
39
  3
Flat
350
2B
  3
FlatWithEdges
350
2C
  3
Gouraud
350
2D
  3
GouraudWithEdges
350
2E
  3
Linepattern
350
38
  3
Realistic
350
33
  3
Thicken
350
37
  0
LAYOUT
  5
1E
102
{ACAD_REACTORS
330
1A
102
}
330
1A
100
AcDbPlotSettings
  1

  2
none_device
  4

  6

 40
0.0
 41
0.0
 42
0.0
 43
0.0
 44
0.0
 45
0.0
 46
0.0
 47
0.0
 48
0.0
 49
0.0
140
0.0
141
0.0
142
1.0
143
1.0
 70
   688
 72
     0
 73
     0
 74
     5
  7

 75
    16
 76
     0
 77
     2
 78
   300
147
1.0
148
0.0
149
0.0
100
AcDbLayout
  1
Layout1
 70
     1
 71
     1
 10
0.0
 20
0.0
 11
12.0
 21
9.0
 12
0.0
 22
0.0
 32
0.0
 14
1.000000000000000E+20
 24
1.000000000000000E+20
 34
1.000000000000000E+20
 15
-1.000000000000000E+20
 25
-1.000000000000000E+20
 35
-1.000000000000000E+20
146
0.0
 13
0.0
 23
0.0
 33
0.0
 16
1.0
 26
0.0
 36
0.0
 17
0.0
 27
1.0
 37
0.0
 76
     0
330
1B
  0
LAYOUT
  5
26
102
{ACAD_REACTORS
330
1A
102
}
330
1A
100
AcDbPlotSettings
  1

  2
none_device
  4

  6

 40
0.0
 41
0.0
 42
0.0
 43
0.0
 44
0.0
 45
0.0
 46
0.0
 47
0.0
 48
0.0
 49
0.0
140
0.0
141
0.0
142
1.0
143
1.0
 70
   688
 72
     0
 73
     0
 74
     5
  7

 75
    16
 76
     0
 77
     2
 78
   300
147
1.0
148
0.0
149
0.0
100
AcDbLayout
  1
Layout2
 70
     1
 71
     2
 10
0.0
 20
0.0
 11
0.0
 21
0.0
 12
0.0
 22
0.0
 32
0.0
 14
0.0
 24
0.0
 34
0.0
 15
0.0
 25
0.0
 35
0.0
146
0.0
 13
0.0
 23
0.0
 33
0.0
 16
1.0
 26
0.0
 36
0.0
 17
0.0
 27
1.0
 37
0.0
 76
     0
330
23
  0
LAYOUT
  5
22
102
{ACAD_REACTORS
330
1A
102
}
330
1A
100
AcDbPlotSettings
  1

  2
none_device
  4

  6

 40
0.0
 41
0.0
 42
0.0
 43
0.0
 44
0.0
 45
0.0
 46
0.0
 47
0.0
 48
0.0
 49
0.0
140
0.0
141
0.0
142
1.0
143
1.0
 70
  1712
 72
     0
 73
     0
 74
     0
  7

 75
     0
 76
     0
 77
     2
 78
   300
147
1.0
148
0.0
149
0.0
100
AcDbLayout
  1
Model
 70
     1
 71
     0
 10
0.0
 20
0.0
 11
12.0
 21
9.0
 12
0.0
 22
0.0
 32
0.0
 14
1.000000000000000E+20
 24
1.000000000000000E+20
 34
1.000000000000000E+20
 15
-1.000000000000000E+20
 25
-1.000000000000000E+20
 35
-1.000000000000000E+20
146
0.0
 13
0.0
 23
0.0
 33
0.0
 16
1.0
 26
0.0
 36
0.0
 17
0.0
 27
1.0
 37
0.0
 76
     0
330
1F
331
29
  0
MATERIAL
  5
3D
102
{ACAD_REACTORS
330
3B
102
}
330
3B
100
AcDbMaterial
  1
ByBlock
 72
     1
 94
      127
  0
MATERIAL
  5
3C
102
{ACAD_REACTORS
330
3B
102
}
330
3B
100
AcDbMaterial
  1
ByLayer
 72
     1
 94
      127
  0
MATERIAL
  5
3E
102
{ACAD_REACTORS
330
3B
102
}
330
3B
100
AcDbMaterial
  1
Global
 72
     1
 94
      127
  0
MLINESTYLE
  5
18
102
{ACAD_REACTORS
330
17
102
}
330
17
100
AcDbMlineStyle
  2
Standard
 70
     0
  3

 62
   256
 51
90.0
 52
90.0
 71
     2
 49
0.5
 62
   256
  6
BYLAYER
 49
-0.5
 62
   256
  6
BYLAYER
  0
ACDBPLACEHOLDER
  5
F
102
{ACAD_REACTORS
330
E
102
}
330
E
  0
VISUALSTYLE
  5
2F
102
{ACAD_REACTORS
330
2A
102
}
330
2A
100
AcDbVisualStyle
  2
2dWireframe
 70
     4
177
     2
291
     0
 71
     0
176
     1
 72
     2
176
     1
 73
     0
176
     1
 90
        0
176
     1
 40
-0.6
176
     1
 41
-30.0
176
     1
 62
     5
 63
     7
421
 16777215
176
     1
 74
     1
176
     1
 91
        4
176
     1
 64
     7
176
     1
 65
   257
176
     1
 75
     1
176
     1
175
     1
176
     1
 42
1.0
176
     1
 92
        0
176
     1
 66
   257
176
     1
 43
1.0
176
     1
 76
     1
176
     1
 77
     6
176
     1
 78
     2
176
     1
 67
     7
176
     1
 79
     5
176
     1
170
     0
176
     1
171
     0
176
     1
290
     0
176
     1
 93
        1
176
     1
 44
0.0
176
     1
173
     0
176
     1
  0
VISUALSTYLE
  5
31
102
{ACAD_REACTORS
330
2A
102
}
330
2A
100
AcDbVisualStyle
  2
3D Hidden
 70
     6
177
     2
291
     0
 71
     1
176
     1
 72
     2
176
     1
 73
     2
176
     1
 90
        0
176
     1
 40
-0.6
176
     1
 41
-30.0
176
     1
 62
     5
 63
     7
421
 16777215
176
     1
 74
     2
176
     1
 91
        2
176
     1
 64
     7
176
     1
 65
   257
176
     1
 75
     2
176
     1
175
     1
176
     1
 42
40.0
176
     1
 92
        0
176
     1
 66
   257
176
     1
 43
1.0
176
     1
 76
     1
176
     1
 77
     6
176
     1
 78
     2
176
     1
 67
     7
176
     1
 79
     3
176
     1
170
     0
176
     1
171
     0
176
     1
290
     0
176
     1
 93
        1
176
     1
 44
0.0
176
     1
173
     0
176
     1
  0
VISUALSTYLE
  5
30
102
{ACAD_REACTORS
330
2A
102
}
330
2A
100
AcDbVisualStyle
  2
3dWireframe
 70
     5
177
     2
291
     0
 71
     0
176
     1
 72
     2
176
     1
 73
     0
176
     1
 90
        0
176
     1
 40
-0.6
176
     1
 41
-30.0
176
     1
 62
     5
 63
     7
421
 16777215
176
     1
 74
     1
176
     1
 91
        4
176
     1
 64
     7
176
     1
 65
   257
176
     1
 75
     1
176
     1
175
     1
176
     1
 42
1.0
176
     1
 92
        0
176
     1
 66
   257
176
     1
 43
1.0
176
     1
 76
     1
176
     1
 77
     6
176
     1
 78
     2
176
     1
 67
     7
176
     1
 79
     5
176
     1
170
     0
176
     1
171
     0
176
     1
290
     0
176
     1
 93
        1
176
     1
 44
0.0
176
     1
173
     0
176
     1
  0
VISUALSTYLE
  5
32
102
{ACAD_REACTORS
330
2A
102
}
330
2A
100
AcDbVisualStyle
  2
Basic
 70
     7
177
     2
291
     1
 71
     1
176
     1
 72
     0
176
     1
 73
     1
176
     1
 90
        0
176
     1
 40
-0.6
176
     1
 41
-30.0
176
     1
 62
     5
 63
     7
421
 16777215
176
     1
 74
     0
176
     1
 91
        4
176
     1
 64
     7
176
     1
 65
   257
176
     1
 75
     1
176
     1
175
     1
176
     1
 42
1.0
176
     1
 92
        8
176
     1
 66
     7
176
     1
 43
1.0
176
     1
 76
     1
176
     1
 77
     6
176
     1
 78
     2
176
     1
 67
     7
176
     1
 79
     5
176
     1
170
     0
176
     1
171
     0
176
     1
290
     0
176
     1
 93
        1
176
     1
 44
0.0
176
     1
173
     0
176
     1
  0
VISUALSTYLE
  5
36
102
{ACAD_REACTORS
330
2A
102
}
330
2A
100
AcDbVisualStyle
  2
Brighten
 70
    12
177
     2
291
     1
 71
     2
176
     1
 72
     2
176
     1
 73
     0
176
     1
 90
        0
176
     1
 40
-0.6
176
     1
 41
-30.0
176
     1
 62
     5
 63
     7
421
 16777215
176
     1
 74
     1
176
     1
 91
        4
176
     1
 64
     7
176
     1
 65
   257
176
     1
 75
     1
176
     1
175
     1
176
     1
 42
1.0
176
     1
 92
        8
176
     1
 66
     7
176
     1
 43
1.0
176
     1
 76
     1
176
     1
 77
     6
176
     1
 78
     2
176
     1
 67
     7
176
     1
 79
     5
176
     1
170
     0
176
     1
171
     0
176
     1
290
     0
176
     1
 93
        1
176
     1
 44
50.0
176
     1
173
     0
176
     1
  0
VISUALSTYLE
  5
3A
102
{ACAD_REACTORS
330
2A
102
}
330
2A
100
AcDbVisualStyle
  2
ColorChange
 70
    16
177
     2
291
     1
 71
     2
176
     1
 72
     2
176
     1
 73
     3
176
     1
 90
        0
176
     1
 40
-0.6
176
     1
 41
-30.0
176
     1
 62
     5
 63
     8
421
  8421504
176
     1
 74
     1
176
     1
 91
        4
176
     1
 64
     7
176
     1
 65
   257
176
     1
 75
     1
176
     1
175
     1
176
     1
 42
1.0
176
     1
 92
        8
176
     1
 66
     8
424
  8421504
176
     1
 43
1.0
176
     1
 76
     1
176
     1
 77
     6
176
     1
 78
     2
176
     1
 67
     7
176
     1
 79
     5
176
     1
170
     0
176
     1
171
     0
176
     1
290
     0
176
     1
 93
        1
176
     1
 44
0.0
176
     1
173
     0
176
     1
  0
VISUALSTYLE
  5
34
102
{ACAD_REACTORS
330
2A
102
}
330
2A
100
AcDbVisualStyle
  2
Conceptual
 70
     9
177
     2
291
     0
 71
     3
176
     1
 72
     2
176
     1
 73
     0
176
     1
 90
        0
176
     1
 40
-0.6
176
     1
 41
-30.0
176
     1
 62
     5
 63
     7
421
 16777215
176
     1
 74
     2
176
     1
 91
        2
176
     1
 64
     7
176
     1
 65
   257
176
     1
 75
     1
176
     1
175
     1
176
     1
 42
40.0
176
     1
 92
        8
176
     1
 66
     7
176
     1
 43
1.0
176
     1
 76
     1
176
     1
 77
     6
176
     1
 78
     2
176
     1
 67
     7
176
     1
 79
     3
176
     1
170
     0
176
     1
171
     0
176
     1
290
     0
176
     1
 93
        1
176
     1
 44
0.0
176
     1
173
     0
176
     1
  0
VISUALSTYLE
  5
35
102
{ACAD_REACTORS
330
2A
102
}
330
2A
100
AcDbVisualStyle
  2
Dim
 70
    11
177
     2
291
     1
 71
     2
176
     1
 72
     2
176
     1
 73
     0
176
     1
 90
        0
176
     1
 40
-0.6
176
     1
 41
-30.0
176
     1
 62
     5
 63
     7
421
 16777215
176
     1
 74
     1
176
     1
 91
        4
176
     1
 64
     7
176
     1
 65
   257
176
     1
 75
     1
176
     1
175
     1
176
     1
 42
1.0
176
     1
 92
        8
176
     1
 66
     7
176
     1
 43
1.0
176
     1
 76
     1
176
     1
 77
     6
176
     1
 78
     2
176
     1
 67
     7
176
     1
 79
     5
176
     1
170
     0
176
     1
171
     0
176
     1
290
     0
176
     1
 93
        1
176
     1
 44
-50.0
176
     1
173
     0
176
     1
  0
VISUALSTYLE
  5
39
102
{ACAD_REACTORS
330
2A
102
}
330
2A
100
AcDbVisualStyle
  2
Facepattern
 70
    15
177
     2
291
     1
 71
     2
176
     1
 72
     2
176
     1
 73
     0
176
     1
 90
        0
176
     1
 40
-0.6
176
     1
 41
-30.0
176
     1
 62
     5
 63
     7
421
 16777215
176
     1
 74
     1
176
     1
 91
        4
176
     1
 64
     7
176
     1
 65
   257
176
     1
 75
     1
176
     1
175
     1
176
     1
 42
1.0
176
     1
 92
        8
176
     1
 66
     7
176
     1
 43
1.0
176
     1
 76
     1
176
     1
 77
     6
176
     1
 78
     2
176
     1
 67
     7
176
     1
 79
     5
176
     1
170
     0
176
     1
171
     0
176
     1
290
     0
176
     1
 93
        1
176
     1
 44
0.0
176
     1
173
     0
176
     1
  0
VISUALSTYLE
  5
2B
102
{ACAD_REACTORS
330
2A
102
}
330
2A
100
AcDbVisualStyle
  2
Flat
 70
     0
177
     2
291
     1
 71
     2
176
     1
 72
     1
176
     1
 73
     1
176
     1
 90
        2
176
     1
 40
-0.6
176
     1
 41
30.0
176
     1
 62
     5
 63
     7
421
 16777215
176
     1
 74
     0
176
     1
 91
        4
176
     1
 64
     7
176
     1
 65
   257
176
     1
 75
     1
176
     1
175
     1
176
     1
 42
1.0
176
     1
 92
        8
176
     1
 66
     7
176
     1
 43
1.0
176
     1
 76
     1
176
     1
 77
     6
176
     1
 78
     2
176
     1
 67
     7
176
     1
 79
     5
176
     1
170
     0
176
     1
171
     0
176
     1
290
     0
176
     1
 93
       13
176
     1
 44
0.0
176
     1
173
     0
176
     1
  0
VISUALSTYLE
  5
2C
102
{ACAD_REACTORS
330
2A
102
}
330
2A
100
AcDbVisualStyle
  2
FlatWithEdges
 70
     1
177
     2
291
     1
 71
     2
176
     1
 72
     1
176
     1
 73
     1
176
     1
 90
        2
176
     1
 40
-0.6
176
     1
 41
30.0
176
     1
 62
     5
 63
     7
421
 16777215
176
     1
 74
     1
176
     1
 91
        4
176
     1
 64
     7
176
     1
 65
   257
176
     1
 75
     1
176
     1
175
     1
176
     1
 42
1.0
176
     1
 92
        0
176
     1
 66
   257
176
     1
 43
1.0
176
     1
 76
     1
176
     1
 77
     6
176
     1
 78
     2
176
     1
 67
     7
176
     1
 79
     5
176
     1
170
     0
176
     1
171
     0
176
     1
290
     0
176
     1
 93
       13
176
     1
 44
0.0
176
     1
173
     0
176
     1
  0
VISUALSTYLE
  5
2D
102
{ACAD_REACTORS
330
2A
102
}
330
2A
100
AcDbVisualStyle
  2
Gouraud
 70
     2
177
     2
291
     1
 71
     2
176
     1
 72
     2
176
     1
 73
     1
176
     1
 90
        2
176
     1
 40
-0.6
176
     1
 41
30.0
176
     1
 62
     5
 63
     7
421
 16777215
176
     1
 74
     0
176
     1
 91
        4
176
     1
 64
     7
176
     1
 65
   257
176
     1
 75
     1
176
     1
175
     1
176
     1
 42
1.0
176
     1
 92
        0
176
     1
 66
     7
176
     1
 43
1.0
176
     1
 76
     1
176
     1
 77
     6
176
     1
 78
     2
176
     1
 67
     7
176
     1
 79
     5
176
     1
170
     0
176
     1
171
     0
176
     1
290
     0
176
     1
 93
       13
176
     1
 44
0.0
176
     1
173
     0
176
     1
  0
VISUALSTYLE
  5
2E
102
{ACAD_REACTORS
330
2A
102
}
330
2A
100
AcDbVisualStyle
  2
GouraudWithEdges
 70
     3
177
     2
291
     1
 71
     2
176
     1
 72
     2
176
     1
 73
     1
176
     1
 90
        2
176
     1
 40
-0.6
176
     1
 41
30.0
176
     1
 62
     5
 63
     7
421
 16777215
176
     1
 74
     1
176
     1
 91
        4
176
     1
 64
     7
176
     1
 65
   257
176
     1
 75
     1
176
     1
175
     1
176
     1
 42
1.0
176
     1
 92
        0
176
     1
 66
   257
176
     1
 43
1.0
176
     1
 76
     1
176
     1
 77
     6
176
     1
 78
     2
176
     1
 67
     7
176
     1
 79
     5
176
     1
170
     0
176
     1
171
     0
176
     1
290
     0
176
     1
 93
       13
176
     1
 44
0.0
176
     1
173
     0
176
     1
  0
VISUALSTYLE
  5
38
102
{ACAD_REACTORS
330
2A
102
}
330
2A
100
AcDbVisualStyle
  2
Linepattern
 70
    14
177
     2
291
     1
 71
     2
176
     1
 72
     2
176
     1
 73
     0
176
     1
 90
        0
176
     1
 40
-0.6
176
     1
 41
-30.0
176
     1
 62
     5
 63
     7
421
 16777215
176
     1
 74
     1
176
     1
 91
        4
176
     1
 64
     7
176
     1
 65
   257
176
     1
 75
     7
176
     1
175
     7
176
     1
 42
1.0
176
     1
 92
        8
176
     1
 66
     7
176
     1
 43
1.0
176
     1
 76
     1
176
     1
 77
     6
176
     1
 78
     2
176
     1
 67
     7
176
     1
 79
     5
176
     1
170
     0
176
     1
171
     0
176
     1
290
     0
176
     1
 93
        1
176
     1
 44
0.0
176
     1
173
     0
176
     1
  0
VISUALSTYLE
  5
33
102
{ACAD_REACTORS
330
2A
102
}
330
2A
100
AcDbVisualStyle
  2
Realistic
 70
     8
177
     2
291
     0
 71
     2
176
     1
 72
     2
176
     1
 73
     0
176
     1
 90
        0
176
     1
 40
-0.6
176
     1
 41
-30.0
176
     1
 62
     5
 63
     7
421
 16777215
176
     1
 74
     1
176
     1
 91
        0
176
     1
 64
     7
176
     1
 65
   257
176
     1
 75
     1
176
     1
175
     1
176
     1
 42
1.0
176
     1
 92
        8
176
     1
 66
     8
424
  7895160
176
     1
 43
1.0
176
     1
 76
     1
176
     1
 77
     6
176
     1
 78
     2
176
     1
 67
     7
176
     1
 79
     5
176
     1
170
     0
176
     1
171
     0
176
     1
290
     0
176
     1
 93
       13
176
     1
 44
0.0
176
     1
173
     0
176
     1
  0
VISUALSTYLE
  5
37
102
{ACAD_REACTORS
330
2A
102
}
330
2A
100
AcDbVisualStyle
  2
Thicken
 70
    13
177
     2
291
     1
 71
     2
176
     1
 72
     2
176
     1
 73
     0
176
     1
 90
        0
176
     1
 40
-0.6
176
     1
 41
-30.0
176
     1
 62
     5
 63
     7
421
 16777215
176
     1
 74
     1
176
     1
 91
        4
176
     1
 64
     7
176
     1
 65
   257
176
     1
 75
     1
176
     1
175
     1
176
     1
 42
1.0
176
     1
 92
       12
176
     1
 66
     7
176
     1
 43
1.0
176
     1
 76
     1
176
     1
 77
     6
176
     1
 78
     2
176
     1
 67
     7
176
     1
 79
     5
176
     1
170
     0
176
     1
171
     0
176
     1
290
     0
176
     1
 93
        1
176
     1
 44
0.0
176
     1
173
     0
176
     1
  0
ENDSEC
  0
EOF
