ISO-10303-21;
HEADER;
FILE_DESCRIPTION (( 'STEP AP203' ),
    '1' );
FILE_NAME ('Part1_basket_v2.STEP',
    '2016-05-11T11:31:02',
    ( '' ),
    ( '' ),
    'SwSTEP 2.0',
    'SolidWorks 2015',
    '' );
FILE_SCHEMA (( 'CONFIG_CONTROL_DESIGN' ));
ENDSEC;

DATA;
#1 = DIRECTION ( 'NONE',  ( 0.0000000000000000000, 0.0000000000000000000, -1.000000000000000000 ) ) ;
#2 = CIRCLE ( 'NONE', #274, 30.00000000000000000 ) ;
#3 = ORIENTED_EDGE ( 'NONE', *, *, #332, .T. ) ;
#4 = LOCAL_TIME ( 14, 31, 2.000000000000000000, #77 ) ;
#5 = DIRECTION ( 'NONE',  ( 0.0000000000000000000, -1.000000000000000000, 0.0000000000000000000 ) ) ;
#6 = CARTESIAN_POINT ( 'NONE',  ( 39.99999999999997200, 50.00000000000000000, -200.0000000000000000 ) ) ;
#7 = EDGE_CURVE ( 'NONE', #310, #8, #123, .T. ) ;
#8 = VERTEX_POINT ( 'NONE', #73 ) ;
#9 = CARTESIAN_POINT ( 'NONE',  ( 39.99999999999997200, 0.0000000000000000000, -200.0000000000000000 ) ) ;
#10 = DIRECTION ( 'NONE',  ( 0.0000000000000000000, -1.000000000000000000, -0.0000000000000000000 ) ) ;
#11 = VECTOR ( 'NONE', #321, 1000.000000000000000 ) ;
#12 = CC_DESIGN_PERSON_AND_ORGANIZATION_ASSIGNMENT ( #269, #222, ( #331 ) ) ;
#13 = VERTEX_POINT ( 'NONE', #171 ) ;
#14 = CARTESIAN_POINT ( 'NONE',  ( -4.163336342344337000E-014, 50.00000000000000000, -200.0000000000000000 ) ) ;
#15 = DIRECTION ( 'NONE',  ( 1.000000000000000000, 0.0000000000000000000, 0.0000000000000000000 ) ) ;
#16 = EDGE_LOOP ( 'NONE', ( #196, #329, #294, #183 ) ) ;
#17 = DIRECTION ( 'NONE',  ( -1.000000000000000000, -1.375664245990882500E-032, 1.982541115402065100E-016 ) ) ;
#18 = APPLICATION_PROTOCOL_DEFINITION ( 'international standard', 'config_control_design', 1994, #314 ) ;
#19 = DIRECTION ( 'NONE',  ( 0.0000000000000000000, -1.000000000000000000, 0.0000000000000000000 ) ) ;
#20 = AXIS2_PLACEMENT_3D ( 'NONE', #243, #271, #303 ) ;
#21 = APPROVAL_ROLE ( '' ) ;
#22 = VECTOR ( 'NONE', #34, 1000.000000000000000 ) ;
#23 = EDGE_LOOP ( 'NONE', ( #232, #343, #25, #178 ) ) ;
#24 = APPROVAL_ROLE ( '' ) ;
#25 = ORIENTED_EDGE ( 'NONE', *, *, #130, .F. ) ;
#26 = APPROVAL_DATE_TIME ( #96, #107 ) ;
#27 = AXIS2_PLACEMENT_3D ( 'NONE', #166, #10, #203 ) ;
#28 = ADVANCED_FACE ( 'NONE', ( #48 ), #190, .T. ) ;
#29 = VECTOR ( 'NONE', #330, 1000.000000000000000 ) ;
#30 = CC_DESIGN_PERSON_AND_ORGANIZATION_ASSIGNMENT ( #197, #249, ( #331 ) ) ;
#31 = CARTESIAN_POINT ( 'NONE',  ( 0.0000000000000000000, 50.00000000000000000, 0.0000000000000000000 ) ) ;
#32 = EDGE_LOOP ( 'NONE', ( #235, #204, #201, #304 ) ) ;
#33 = APPROVAL_PERSON_ORGANIZATION ( #111, #107, #24 ) ;
#34 = DIRECTION ( 'NONE',  ( -1.000000000000000000, -0.0000000000000000000, -0.0000000000000000000 ) ) ;
#35 = AXIS2_PLACEMENT_3D ( 'NONE', #236, #105, #1 ) ;
#36 = LINE ( 'NONE', #31, #254 ) ;
#37 = ORIENTED_EDGE ( 'NONE', *, *, #206, .F. ) ;
#38 = LINE ( 'NONE', #99, #182 ) ;
#39 = EDGE_CURVE ( 'NONE', #8, #275, #264, .T. ) ;
#40 = CARTESIAN_POINT ( 'NONE',  ( 0.0000000000000000000, 50.00000000000000000, 0.0000000000000000000 ) ) ;
#41 = VECTOR ( 'NONE', #241, 1000.000000000000000 ) ;
#42 = PLANE ( 'NONE',  #71 ) ;
#43 = ORIENTED_EDGE ( 'NONE', *, *, #206, .T. ) ;
#44 = COORDINATED_UNIVERSAL_TIME_OFFSET ( 2, 0, .AHEAD. ) ;
#45 = AXIS2_PLACEMENT_3D ( 'NONE', #292, #122, #325 ) ;
#46 = DIRECTION ( 'NONE',  ( 1.982541115402065100E-016, -0.0000000000000000000, 1.000000000000000000 ) ) ;
#47 = DIRECTION ( 'NONE',  ( 0.0000000000000000000, 0.0000000000000000000, -1.000000000000000000 ) ) ;
#48 = FACE_OUTER_BOUND ( 'NONE', #358, .T. ) ;
#49 = DIRECTION ( 'NONE',  ( -0.0000000000000000000, 1.000000000000000000, 0.0000000000000000000 ) ) ;
#50 = SECURITY_CLASSIFICATION ( '', '', #106 ) ;
#51 = LINE ( 'NONE', #181, #41 ) ;
#52 = ORIENTED_EDGE ( 'NONE', *, *, #88, .F. ) ;
#53 = DATE_AND_TIME ( #129, #205 ) ;
#54 = EDGE_LOOP ( 'NONE', ( #297, #367, #322, #268 ) ) ;
#55 = CARTESIAN_POINT ( 'NONE',  ( 39.99999999999998600, 0.0000000000000000000, -30.00000000000000000 ) ) ;
#56 = VECTOR ( 'NONE', #291, 1000.000000000000000 ) ;
#57 = ORIENTED_EDGE ( 'NONE', *, *, #261, .T. ) ;
#58 = PERSON_AND_ORGANIZATION ( #100, #255 ) ;
#59 = DIRECTION ( 'NONE',  ( 0.0000000000000000000, 0.0000000000000000000, 1.000000000000000000 ) ) ;
#60 = DIRECTION ( 'NONE',  ( -2.081668171172168500E-016, 0.0000000000000000000, -1.000000000000000000 ) ) ;
#61 = EDGE_LOOP ( 'NONE', ( #128, #3, #151, #118, #248, #219, #110, #224 ) ) ;
#62 = CC_DESIGN_PERSON_AND_ORGANIZATION_ASSIGNMENT ( #119, #137, ( #50 ) ) ;
#63 = CYLINDRICAL_SURFACE ( 'NONE', #295, 30.00000000000000000 ) ;
#64 = ORIENTED_EDGE ( 'NONE', *, *, #88, .T. ) ;
#65 = PERSON_AND_ORGANIZATION ( #100, #255 ) ;
#66 = DIRECTION ( 'NONE',  ( 0.0000000000000000000, 0.0000000000000000000, -1.000000000000000000 ) ) ;
#67 = CARTESIAN_POINT ( 'NONE',  ( 0.0000000000000000000, 0.0000000000000000000, 0.0000000000000000000 ) ) ;
#68 = CARTESIAN_POINT ( 'NONE',  ( 39.99999999999997200, 50.00000000000000000, -200.0000000000000000 ) ) ;
#69 = CARTESIAN_POINT ( 'NONE',  ( 89.99999999999998600, 50.00000000000000000, -29.99999999999998600 ) ) ;
#70 = ORIENTED_EDGE ( 'NONE', *, *, #165, .F. ) ;
#71 = AXIS2_PLACEMENT_3D ( 'NONE', #187, #17, #218 ) ;
#72 = CARTESIAN_POINT ( 'NONE',  ( 0.0000000000000000000, 0.0000000000000000000, 0.0000000000000000000 ) ) ;
#73 = CARTESIAN_POINT ( 'NONE',  ( 69.99999999999997200, 0.0000000000000000000, -170.0000000000000000 ) ) ;
#74 = DIRECTION ( 'NONE',  ( 0.0000000000000000000, 0.0000000000000000000, -1.000000000000000000 ) ) ;
#75 = VECTOR ( 'NONE', #87, 1000.000000000000000 ) ;
#76 = CIRCLE ( 'NONE', #45, 30.00000000000000000 ) ;
#77 = COORDINATED_UNIVERSAL_TIME_OFFSET ( 2, 0, .AHEAD. ) ;
#78 = CARTESIAN_POINT ( 'NONE',  ( 69.99999999999997200, 50.00000000000000000, -170.0000000000000000 ) ) ;
#79 = ORIENTED_EDGE ( 'NONE', *, *, #194, .T. ) ;
#80 = AXIS2_PLACEMENT_3D ( 'NONE', #320, #5, #256 ) ;
#81 = ADVANCED_FACE ( 'NONE', ( #113 ), #234, .F. ) ;
#82 = CARTESIAN_POINT ( 'NONE',  ( 89.99999999999997200, 9.629649721936174000E-031, -58.28427124746187400 ) ) ;
#83 = PRODUCT ( 'Part1_basket_v2', 'Part1_basket_v2', '', ( #279 ) ) ;
#84 = FACE_OUTER_BOUND ( 'NONE', #95, .T. ) ;
#85 = VERTEX_POINT ( 'NONE', #355 ) ;
#86 = CC_DESIGN_DATE_AND_TIME_ASSIGNMENT ( #184, #341, ( #50 ) ) ;
#87 = DIRECTION ( 'NONE',  ( 1.375664245990882500E-032, -1.000000000000000000, -2.727310928665505200E-048 ) ) ;
#88 = EDGE_CURVE ( 'NONE', #319, #227, #36, .T. ) ;
#89 = ORIENTED_EDGE ( 'NONE', *, *, #313, .F. ) ;
#90 = DIRECTION ( 'NONE',  ( 0.0000000000000000000, 0.0000000000000000000, -1.000000000000000000 ) ) ;
#91 =( GEOMETRIC_REPRESENTATION_CONTEXT ( 3 ) GLOBAL_UNCERTAINTY_ASSIGNED_CONTEXT ( ( #161 ) ) GLOBAL_UNIT_ASSIGNED_CONTEXT ( ( #306, #135, #336 ) ) REPRESENTATION_CONTEXT ( 'NONE', 'WORKASPACE' ) );
#92 = FACE_OUTER_BOUND ( 'NONE', #163, .T. ) ;
#93 = CLOSED_SHELL ( 'NONE', ( #281, #168, #81, #112, #375, #28, #229, #347, #142, #284 ) ) ;
#94 = DIRECTION ( 'NONE',  ( 0.0000000000000000000, -1.000000000000000000, -0.0000000000000000000 ) ) ;
#95 = EDGE_LOOP ( 'NONE', ( #134, #251, #89, #57 ) ) ;
#96 = DATE_AND_TIME ( #173, #252 ) ;
#97 = CARTESIAN_POINT ( 'NONE',  ( 39.99999999999998600, 50.00000000000000000, -30.00000000000000000 ) ) ;
#98 = AXIS2_PLACEMENT_3D ( 'NONE', #149, #59, #260 ) ;
#99 = CARTESIAN_POINT ( 'NONE',  ( 69.99999999999998600, 50.00000000000000000, -30.00000000000000400 ) ) ;
#100 = PERSON ( 'UNSPECIFIED', 'UNSPECIFIED', 'UNSPECIFIED', ('UNSPECIFIED'), ('UNSPECIFIED'), ('UNSPECIFIED') ) ;
#101 = DIRECTION ( 'NONE',  ( 0.0000000000000000000, 0.0000000000000000000, 1.000000000000000000 ) ) ;
#102 = LINE ( 'NONE', #14, #22 ) ;
#103 = ORIENTED_EDGE ( 'NONE', *, *, #302, .T. ) ;
#104 = VECTOR ( 'NONE', #46, 1000.000000000000000 ) ;
#105 = DIRECTION ( 'NONE',  ( 0.0000000000000000000, -1.000000000000000000, 0.0000000000000000000 ) ) ;
#106 = SECURITY_CLASSIFICATION_LEVEL ( 'unclassified' ) ;
#107 = APPROVAL ( #370, 'UNSPECIFIED' ) ;
#108 = EDGE_CURVE ( 'NONE', #277, #275, #76, .T. ) ;
#109 = FACE_OUTER_BOUND ( 'NONE', #16, .T. ) ;
#110 = ORIENTED_EDGE ( 'NONE', *, *, #323, .F. ) ;
#111 = PERSON_AND_ORGANIZATION ( #100, #255 ) ;
#112 = ADVANCED_FACE ( 'NONE', ( #177 ), #120, .F. ) ;
#113 = FACE_OUTER_BOUND ( 'NONE', #124, .T. ) ;
#114 = AXIS2_PLACEMENT_3D ( 'NONE', #270, #188, #47 ) ;
#115 = DIRECTION ( 'NONE',  ( 0.0000000000000000000, -1.000000000000000000, 0.0000000000000000000 ) ) ;
#116 = CIRCLE ( 'NONE', #20, 30.00000000000000000 ) ;
#117 = CARTESIAN_POINT ( 'NONE',  ( 69.99999999999997200, 50.00000000000000000, -170.0000000000000000 ) ) ;
#118 = ORIENTED_EDGE ( 'NONE', *, *, #130, .T. ) ;
#119 = PERSON_AND_ORGANIZATION ( #100, #255 ) ;
#120 = PLANE ( 'NONE',  #157 ) ;
#121 = DIRECTION ( 'NONE',  ( -0.0000000000000000000, -1.000000000000000000, -0.0000000000000000000 ) ) ;
#122 = DIRECTION ( 'NONE',  ( -0.0000000000000000000, 1.000000000000000000, 0.0000000000000000000 ) ) ;
#123 = CIRCLE ( 'NONE', #27, 30.00000000000000000 ) ;
#124 = EDGE_LOOP ( 'NONE', ( #70, #43, #103, #144 ) ) ;
#125 = CC_DESIGN_APPROVAL ( #107, ( #50 ) ) ;
#126 = CARTESIAN_POINT ( 'NONE',  ( 89.99999999999998600, 0.0000000000000000000, -29.99999999999998900 ) ) ;
#127 = VECTOR ( 'NONE', #121, 1000.000000000000000 ) ;
#128 = ORIENTED_EDGE ( 'NONE', *, *, #7, .T. ) ;
#129 = CALENDAR_DATE ( 2016, 11, 5 ) ;
#130 = EDGE_CURVE ( 'NONE', #258, #13, #337, .T. ) ;
#131 = MANIFOLD_SOLID_BREP ( 'Fillet3', #93 ) ;
#132 = CARTESIAN_POINT ( 'NONE',  ( 59.99999999999997200, 50.00000000000000000, -58.28427124746186600 ) ) ;
#133 = CARTESIAN_POINT ( 'NONE',  ( 0.0000000000000000000, 0.0000000000000000000, 0.0000000000000000000 ) ) ;
#134 = ORIENTED_EDGE ( 'NONE', *, *, #323, .T. ) ;
#135 =( NAMED_UNIT ( * ) PLANE_ANGLE_UNIT ( ) SI_UNIT ( $, .RADIAN. ) );
#136 = DIRECTION ( 'NONE',  ( -0.0000000000000000000, 1.000000000000000000, -0.0000000000000000000 ) ) ;
#137 = PERSON_AND_ORGANIZATION_ROLE ( 'classification_officer' ) ;
#138 = FACE_OUTER_BOUND ( 'NONE', #23, .T. ) ;
#139 = ORIENTED_EDGE ( 'NONE', *, *, #313, .T. ) ;
#140 = DATE_AND_TIME ( #215, #288 ) ;
#141 = DIRECTION ( 'NONE',  ( 1.000000000000000000, 0.0000000000000000000, 0.0000000000000000000 ) ) ;
#142 = ADVANCED_FACE ( 'NONE', ( #348 ), #169, .T. ) ;
#143 = AXIS2_PLACEMENT_3D ( 'NONE', #199, #94, #299 ) ;
#144 = ORIENTED_EDGE ( 'NONE', *, *, #261, .F. ) ;
#145 = CIRCLE ( 'NONE', #253, 30.00000000000000000 ) ;
#146 = CC_DESIGN_SECURITY_CLASSIFICATION ( #50, ( #331 ) ) ;
#147 = ORIENTED_EDGE ( 'NONE', *, *, #108, .T. ) ;
#148 = APPROVAL_DATE_TIME ( #225, #247 ) ;
#149 = CARTESIAN_POINT ( 'NONE',  ( -4.163336342344337000E-014, 50.00000000000000000, -200.0000000000000000 ) ) ;
#150 = EDGE_CURVE ( 'NONE', #258, #239, #328, .T. ) ;
#151 = ORIENTED_EDGE ( 'NONE', *, *, #150, .F. ) ;
#152 = CIRCLE ( 'NONE', #175, 30.00000000000000000 ) ;
#153 = ORIENTED_EDGE ( 'NONE', *, *, #289, .T. ) ;
#154 = APPROVAL_PERSON_ORGANIZATION ( #233, #247, #339 ) ;
#155 = DIRECTION ( 'NONE',  ( -0.0000000000000000000, 1.000000000000000000, 0.0000000000000000000 ) ) ;
#156 = ORIENTED_EDGE ( 'NONE', *, *, #242, .T. ) ;
#157 = AXIS2_PLACEMENT_3D ( 'NONE', #290, #228, #357 ) ;
#158 = CARTESIAN_POINT ( 'NONE',  ( 69.99999999999998600, 50.00000000000000000, -30.00000000000000400 ) ) ;
#159 = PRODUCT_DEFINITION_SHAPE ( 'NONE', 'NONE',  #230 ) ;
#160 = PERSON_AND_ORGANIZATION_ROLE ( 'creator' ) ;
#161 = UNCERTAINTY_MEASURE_WITH_UNIT (LENGTH_MEASURE( 1.000000000000000100E-005 ), #306, 'distance_accuracy_value', 'NONE');
#162 = LINE ( 'NONE', #6, #231 ) ;
#163 = EDGE_LOOP ( 'NONE', ( #170, #79, #52, #153 ) ) ;
#164 = PRODUCT_RELATED_PRODUCT_CATEGORY ( 'detail', '', ( #83 ) ) ;
#165 = EDGE_CURVE ( 'NONE', #374, #287, #102, .T. ) ;
#166 = CARTESIAN_POINT ( 'NONE',  ( 39.99999999999997200, 0.0000000000000000000, -170.0000000000000000 ) ) ;
#167 = ORIENTED_EDGE ( 'NONE', *, *, #165, .T. ) ;
#168 = ADVANCED_FACE ( 'NONE', ( #92 ), #216, .F. ) ;
#169 = CYLINDRICAL_SURFACE ( 'NONE', #220, 30.00000000000000000 ) ;
#170 = ORIENTED_EDGE ( 'NONE', *, *, #345, .T. ) ;
#171 = CARTESIAN_POINT ( 'NONE',  ( 69.99999999999998600, 0.0000000000000000000, -29.99999999999998200 ) ) ;
#172 = EDGE_LOOP ( 'NONE', ( #334, #147, #210, #167, #139, #64, #338, #156 ) ) ;
#173 = CALENDAR_DATE ( 2016, 11, 5 ) ;
#174 = CARTESIAN_POINT ( 'NONE',  ( -4.163336342344337000E-014, 50.00000000000000000, -200.0000000000000000 ) ) ;
#175 = AXIS2_PLACEMENT_3D ( 'NONE', #97, #49, #74 ) ;
#176 = CARTESIAN_POINT ( 'NONE',  ( 39.99999999999998600, 50.00000000000000000, 0.0000000000000000000 ) ) ;
#177 = FACE_OUTER_BOUND ( 'NONE', #172, .T. ) ;
#178 = ORIENTED_EDGE ( 'NONE', *, *, #212, .F. ) ;
#179 = LINE ( 'NONE', #69, #104 ) ;
#180 = CARTESIAN_POINT ( 'NONE',  ( 89.99999999999995700, 9.629649721936174000E-031, -141.7157287525381000 ) ) ;
#181 = CARTESIAN_POINT ( 'NONE',  ( 0.0000000000000000000, 0.0000000000000000000, 0.0000000000000000000 ) ) ;
#182 = VECTOR ( 'NONE', #305, 1000.000000000000000 ) ;
#183 = ORIENTED_EDGE ( 'NONE', *, *, #212, .T. ) ;
#184 = DATE_AND_TIME ( #259, #344 ) ;
#185 = EDGE_CURVE ( 'NONE', #239, #277, #246, .T. ) ;
#186 = DIRECTION ( 'NONE',  ( 0.0000000000000000000, -1.000000000000000000, 0.0000000000000000000 ) ) ;
#187 = CARTESIAN_POINT ( 'NONE',  ( 89.99999999999998600, 9.629649721936174000E-031, -1.942890293094023600E-014 ) ) ;
#188 = DIRECTION ( 'NONE',  ( 0.0000000000000000000, -1.000000000000000000, 0.0000000000000000000 ) ) ;
#189 = APPLICATION_PROTOCOL_DEFINITION ( 'international standard', 'config_control_design', 1994, #245 ) ;
#190 = CYLINDRICAL_SURFACE ( 'NONE', #80, 30.00000000000000000 ) ;
#191 = AXIS2_PLACEMENT_3D ( 'NONE', #72, #101, #141 ) ;
#192 = APPROVAL_STATUS ( 'not_yet_approved' ) ;
#193 = CARTESIAN_POINT ( 'NONE',  ( -4.163336342344337000E-014, 50.00000000000000000, -200.0000000000000000 ) ) ;
#194 = EDGE_CURVE ( 'NONE', #85, #227, #238, .T. ) ;
#195 = VECTOR ( 'NONE', #326, 1000.000000000000000 ) ;
#196 = ORIENTED_EDGE ( 'NONE', *, *, #150, .T. ) ;
#197 = PERSON_AND_ORGANIZATION ( #100, #255 ) ;
#198 = PERSON_AND_ORGANIZATION_ROLE ( 'design_owner' ) ;
#199 = CARTESIAN_POINT ( 'NONE',  ( 59.99999999999997200, 0.0000000000000000000, -58.28427124746186600 ) ) ;
#200 = VECTOR ( 'NONE', #136, 1000.000000000000000 ) ;
#201 = ORIENTED_EDGE ( 'NONE', *, *, #266, .F. ) ;
#202 = CYLINDRICAL_SURFACE ( 'NONE', #35, 30.00000000000000000 ) ;
#203 = DIRECTION ( 'NONE',  ( 0.0000000000000000000, 0.0000000000000000000, -1.000000000000000000 ) ) ;
#204 = ORIENTED_EDGE ( 'NONE', *, *, #194, .F. ) ;
#205 = LOCAL_TIME ( 14, 31, 2.000000000000000000, #278 ) ;
#206 = EDGE_CURVE ( 'NONE', #374, #310, #162, .T. ) ;
#207 = DIRECTION ( 'NONE',  ( 1.000000000000000000, 0.0000000000000000000, 0.0000000000000000000 ) ) ;
#208 = CARTESIAN_POINT ( 'NONE',  ( 0.0000000000000000000, 50.00000000000000000, 0.0000000000000000000 ) ) ;
#209 = CARTESIAN_POINT ( 'NONE',  ( 59.99999999999995700, 50.00000000000000000, -141.7157287525381000 ) ) ;
#210 = ORIENTED_EDGE ( 'NONE', *, *, #280, .T. ) ;
#211 = CC_DESIGN_PERSON_AND_ORGANIZATION_ASSIGNMENT ( #311, #198, ( #83 ) ) ;
#212 = EDGE_CURVE ( 'NONE', #353, #258, #309, .T. ) ;
#213 = CIRCLE ( 'NONE', #317, 30.00000000000000000 ) ;
#214 = ORIENTED_EDGE ( 'NONE', *, *, #7, .F. ) ;
#215 = CALENDAR_DATE ( 2016, 11, 5 ) ;
#216 = PLANE ( 'NONE',  #237 ) ;
#217 = CARTESIAN_POINT ( 'NONE',  ( 89.99999999999997200, 50.00000000000000000, -141.7157287525381000 ) ) ;
#218 = DIRECTION ( 'NONE',  ( 1.982541115402065100E-016, 0.0000000000000000000, 1.000000000000000000 ) ) ;
#219 = ORIENTED_EDGE ( 'NONE', *, *, #345, .F. ) ;
#220 = AXIS2_PLACEMENT_3D ( 'NONE', #209, #115, #240 ) ;
#221 = CARTESIAN_POINT ( 'NONE',  ( -4.163336342344337000E-014, 0.0000000000000000000, -200.0000000000000000 ) ) ;
#222 = PERSON_AND_ORGANIZATION_ROLE ( 'creator' ) ;
#223 = FACE_OUTER_BOUND ( 'NONE', #32, .T. ) ;
#224 = ORIENTED_EDGE ( 'NONE', *, *, #302, .F. ) ;
#225 = DATE_AND_TIME ( #298, #4 ) ;
#226 = EDGE_CURVE ( 'NONE', #227, #372, #152, .T. ) ;
#227 = VERTEX_POINT ( 'NONE', #176 ) ;
#228 = DIRECTION ( 'NONE',  ( 0.0000000000000000000, -1.000000000000000000, 0.0000000000000000000 ) ) ;
#229 = ADVANCED_FACE ( 'NONE', ( #223 ), #63, .T. ) ;
#230 = PRODUCT_DEFINITION ( 'UNKNOWN', '', #331, #327 ) ;
#231 = VECTOR ( 'NONE', #19, 1000.000000000000000 ) ;
#232 = ORIENTED_EDGE ( 'NONE', *, *, #242, .F. ) ;
#233 = PERSON_AND_ORGANIZATION ( #100, #255 ) ;
#234 = PLANE ( 'NONE',  #98 ) ;
#235 = ORIENTED_EDGE ( 'NONE', *, *, #226, .F. ) ;
#236 = CARTESIAN_POINT ( 'NONE',  ( 59.99999999999997200, 50.00000000000000000, -58.28427124746186600 ) ) ;
#237 = AXIS2_PLACEMENT_3D ( 'NONE', #40, #66, #300 ) ;
#238 = LINE ( 'NONE', #283, #11 ) ;
#239 = VERTEX_POINT ( 'NONE', #316 ) ;
#240 = DIRECTION ( 'NONE',  ( 0.0000000000000000000, 0.0000000000000000000, -1.000000000000000000 ) ) ;
#241 = DIRECTION ( 'NONE',  ( 2.081668171172168500E-016, -0.0000000000000000000, 1.000000000000000000 ) ) ;
#242 = EDGE_CURVE ( 'NONE', #372, #353, #2, .T. ) ;
#243 = CARTESIAN_POINT ( 'NONE',  ( 59.99999999999995700, 0.0000000000000000000, -141.7157287525381000 ) ) ;
#244 = ORIENTED_EDGE ( 'NONE', *, *, #39, .F. ) ;
#245 = APPLICATION_CONTEXT ( 'configuration controlled 3d designs of mechanical parts and assemblies' ) ;
#246 = LINE ( 'NONE', #180, #318 ) ;
#247 = APPROVAL ( #307, 'UNSPECIFIED' ) ;
#248 = ORIENTED_EDGE ( 'NONE', *, *, #266, .T. ) ;
#249 = PERSON_AND_ORGANIZATION_ROLE ( 'design_supplier' ) ;
#250 = PLANE ( 'NONE',  #376 ) ;
#251 = ORIENTED_EDGE ( 'NONE', *, *, #289, .F. ) ;
#252 = LOCAL_TIME ( 14, 31, 2.000000000000000000, #335 ) ;
#253 = AXIS2_PLACEMENT_3D ( 'NONE', #55, #340, #377 ) ;
#254 = VECTOR ( 'NONE', #207, 1000.000000000000000 ) ;
#255 = ORGANIZATION ( 'UNSPECIFIED', 'UNSPECIFIED', '' ) ;
#256 = DIRECTION ( 'NONE',  ( 0.0000000000000000000, 0.0000000000000000000, -1.000000000000000000 ) ) ;
#257 = VECTOR ( 'NONE', #15, 1000.000000000000000 ) ;
#258 = VERTEX_POINT ( 'NONE', #346 ) ;
#259 = CALENDAR_DATE ( 2016, 11, 5 ) ;
#260 = DIRECTION ( 'NONE',  ( 1.000000000000000000, 0.0000000000000000000, -0.0000000000000000000 ) ) ;
#261 = EDGE_CURVE ( 'NONE', #287, #315, #371, .T. ) ;
#262 = DIRECTION ( 'NONE',  ( 1.000000000000000000, 0.0000000000000000000, -2.081668171172168500E-016 ) ) ;
#263 = CARTESIAN_POINT ( 'NONE',  ( 39.99999999999997200, 50.00000000000000000, -170.0000000000000000 ) ) ;
#264 = LINE ( 'NONE', #117, #200 ) ;
#265 = CC_DESIGN_APPROVAL ( #247, ( #230 ) ) ;
#266 = EDGE_CURVE ( 'NONE', #13, #85, #145, .T. ) ;
#267 = LINE ( 'NONE', #324, #195 ) ;
#268 = ORIENTED_EDGE ( 'NONE', *, *, #185, .F. ) ;
#269 = PERSON_AND_ORGANIZATION ( #100, #255 ) ;
#270 = CARTESIAN_POINT ( 'NONE',  ( 0.0000000000000000000, 0.0000000000000000000, 0.0000000000000000000 ) ) ;
#271 = DIRECTION ( 'NONE',  ( 0.0000000000000000000, -1.000000000000000000, -0.0000000000000000000 ) ) ;
#272 = DIRECTION ( 'NONE',  ( -0.0000000000000000000, -1.000000000000000000, -0.0000000000000000000 ) ) ;
#273 = CARTESIAN_POINT ( 'NONE',  ( 89.99999999999997200, 50.00000000000000000, -58.28427124746187400 ) ) ;
#274 = AXIS2_PLACEMENT_3D ( 'NONE', #132, #155, #364 ) ;
#275 = VERTEX_POINT ( 'NONE', #78 ) ;
#276 = LINE ( 'NONE', #208, #127 ) ;
#277 = VERTEX_POINT ( 'NONE', #217 ) ;
#278 = COORDINATED_UNIVERSAL_TIME_OFFSET ( 2, 0, .AHEAD. ) ;
#279 = MECHANICAL_CONTEXT ( 'NONE', #245, 'mechanical' ) ;
#280 = EDGE_CURVE ( 'NONE', #275, #374, #213, .T. ) ;
#281 = ADVANCED_FACE ( 'NONE', ( #84 ), #250, .F. ) ;
#282 = ORIENTED_EDGE ( 'NONE', *, *, #280, .F. ) ;
#283 = CARTESIAN_POINT ( 'NONE',  ( 39.99999999999998600, 50.00000000000000000, 0.0000000000000000000 ) ) ;
#284 = ADVANCED_FACE ( 'NONE', ( #138 ), #202, .T. ) ;
#285 = CC_DESIGN_PERSON_AND_ORGANIZATION_ASSIGNMENT ( #65, #160, ( #230 ) ) ;
#286 = VECTOR ( 'NONE', #272, 1000.000000000000000 ) ;
#287 = VERTEX_POINT ( 'NONE', #174 ) ;
#288 = LOCAL_TIME ( 14, 31, 2.000000000000000000, #373 ) ;
#289 = EDGE_CURVE ( 'NONE', #319, #360, #276, .T. ) ;
#290 = CARTESIAN_POINT ( 'NONE',  ( 0.0000000000000000000, 50.00000000000000000, 0.0000000000000000000 ) ) ;
#291 = DIRECTION ( 'NONE',  ( -1.000000000000000000, -0.0000000000000000000, -0.0000000000000000000 ) ) ;
#292 = CARTESIAN_POINT ( 'NONE',  ( 59.99999999999995700, 50.00000000000000000, -141.7157287525381000 ) ) ;
#293 = DIRECTION ( 'NONE',  ( -0.0000000000000000000, 1.000000000000000000, 0.0000000000000000000 ) ) ;
#294 = ORIENTED_EDGE ( 'NONE', *, *, #365, .T. ) ;
#295 = AXIS2_PLACEMENT_3D ( 'NONE', #301, #186, #363 ) ;
#296 = LINE ( 'NONE', #356, #56 ) ;
#297 = ORIENTED_EDGE ( 'NONE', *, *, #332, .F. ) ;
#298 = CALENDAR_DATE ( 2016, 11, 5 ) ;
#299 = DIRECTION ( 'NONE',  ( 0.0000000000000000000, 0.0000000000000000000, -1.000000000000000000 ) ) ;
#300 = DIRECTION ( 'NONE',  ( -1.000000000000000000, 0.0000000000000000000, -0.0000000000000000000 ) ) ;
#301 = CARTESIAN_POINT ( 'NONE',  ( 39.99999999999998600, 50.00000000000000000, -30.00000000000000000 ) ) ;
#302 = EDGE_CURVE ( 'NONE', #310, #315, #296, .T. ) ;
#303 = DIRECTION ( 'NONE',  ( 0.0000000000000000000, 0.0000000000000000000, -1.000000000000000000 ) ) ;
#304 = ORIENTED_EDGE ( 'NONE', *, *, #351, .F. ) ;
#305 = DIRECTION ( 'NONE',  ( 0.0000000000000000000, -1.000000000000000000, 0.0000000000000000000 ) ) ;
#306 =( LENGTH_UNIT ( ) NAMED_UNIT ( * ) SI_UNIT ( .MILLI., .METRE. ) );
#307 = APPROVAL_STATUS ( 'not_yet_approved' ) ;
#308 = CC_DESIGN_DATE_AND_TIME_ASSIGNMENT ( #140, #368, ( #230 ) ) ;
#309 = LINE ( 'NONE', #82, #75 ) ;
#310 = VERTEX_POINT ( 'NONE', #9 ) ;
#311 = PERSON_AND_ORGANIZATION ( #100, #255 ) ;
#312 = ADVANCED_BREP_SHAPE_REPRESENTATION ( 'Part1_basket_v2', ( #131, #191 ), #91 ) ;
#313 = EDGE_CURVE ( 'NONE', #287, #319, #267, .T. ) ;
#314 = APPLICATION_CONTEXT ( 'configuration controlled 3d designs of mechanical parts and assemblies' ) ;
#315 = VERTEX_POINT ( 'NONE', #221 ) ;
#316 = CARTESIAN_POINT ( 'NONE',  ( 89.99999999999997200, 0.0000000000000000000, -141.7157287525381000 ) ) ;
#317 = AXIS2_PLACEMENT_3D ( 'NONE', #263, #293, #90 ) ;
#318 = VECTOR ( 'NONE', #362, 1000.000000000000000 ) ;
#319 = VERTEX_POINT ( 'NONE', #366 ) ;
#320 = CARTESIAN_POINT ( 'NONE',  ( 39.99999999999997200, 50.00000000000000000, -170.0000000000000000 ) ) ;
#321 = DIRECTION ( 'NONE',  ( -0.0000000000000000000, 1.000000000000000000, -0.0000000000000000000 ) ) ;
#322 = ORIENTED_EDGE ( 'NONE', *, *, #108, .F. ) ;
#323 = EDGE_CURVE ( 'NONE', #315, #360, #51, .T. ) ;
#324 = CARTESIAN_POINT ( 'NONE',  ( 0.0000000000000000000, 50.00000000000000000, 0.0000000000000000000 ) ) ;
#325 = DIRECTION ( 'NONE',  ( -9.251858538542971800E-016, 0.0000000000000000000, -1.000000000000000000 ) ) ;
#326 = DIRECTION ( 'NONE',  ( 2.081668171172168500E-016, -0.0000000000000000000, 1.000000000000000000 ) ) ;
#327 = DESIGN_CONTEXT ( 'detailed design', #314, 'design' ) ;
#328 = LINE ( 'NONE', #126, #29 ) ;
#329 = ORIENTED_EDGE ( 'NONE', *, *, #185, .T. ) ;
#330 = DIRECTION ( 'NONE',  ( -1.982541115402065100E-016, 0.0000000000000000000, -1.000000000000000000 ) ) ;
#331 = PRODUCT_DEFINITION_FORMATION_WITH_SPECIFIED_SOURCE ( 'ANY', '', #83, .NOT_KNOWN. ) ;
#332 = EDGE_CURVE ( 'NONE', #8, #239, #116, .T. ) ;
#333 = PLANE ( 'NONE',  #114 ) ;
#334 = ORIENTED_EDGE ( 'NONE', *, *, #365, .F. ) ;
#335 = COORDINATED_UNIVERSAL_TIME_OFFSET ( 2, 0, .AHEAD. ) ;
#336 =( NAMED_UNIT ( * ) SI_UNIT ( $, .STERADIAN. ) SOLID_ANGLE_UNIT ( ) );
#337 = CIRCLE ( 'NONE', #143, 30.00000000000000000 ) ;
#338 = ORIENTED_EDGE ( 'NONE', *, *, #226, .T. ) ;
#339 = APPROVAL_ROLE ( '' ) ;
#340 = DIRECTION ( 'NONE',  ( 0.0000000000000000000, -1.000000000000000000, -0.0000000000000000000 ) ) ;
#341 = DATE_TIME_ROLE ( 'classification_date' ) ;
#342 = SHAPE_DEFINITION_REPRESENTATION ( #159, #312 ) ;
#343 = ORIENTED_EDGE ( 'NONE', *, *, #351, .T. ) ;
#344 = LOCAL_TIME ( 14, 31, 2.000000000000000000, #44 ) ;
#345 = EDGE_CURVE ( 'NONE', #360, #85, #359, .T. ) ;
#346 = CARTESIAN_POINT ( 'NONE',  ( 89.99999999999997200, 0.0000000000000000000, -58.28427124746187400 ) ) ;
#347 = ADVANCED_FACE ( 'NONE', ( #109 ), #42, .F. ) ;
#348 = FACE_OUTER_BOUND ( 'NONE', #54, .T. ) ;
#349 = APPROVAL ( #192, 'UNSPECIFIED' ) ;
#350 = CARTESIAN_POINT ( 'NONE',  ( 0.0000000000000000000, 50.00000000000000000, 0.0000000000000000000 ) ) ;
#351 = EDGE_CURVE ( 'NONE', #372, #13, #38, .T. ) ;
#352 = FACE_OUTER_BOUND ( 'NONE', #61, .T. ) ;
#353 = VERTEX_POINT ( 'NONE', #273 ) ;
#354 = APPROVAL_DATE_TIME ( #53, #349 ) ;
#355 = CARTESIAN_POINT ( 'NONE',  ( 39.99999999999998600, 0.0000000000000000000, 0.0000000000000000000 ) ) ;
#356 = CARTESIAN_POINT ( 'NONE',  ( -4.163336342344337000E-014, 0.0000000000000000000, -200.0000000000000000 ) ) ;
#357 = DIRECTION ( 'NONE',  ( 0.0000000000000000000, 0.0000000000000000000, -1.000000000000000000 ) ) ;
#358 = EDGE_LOOP ( 'NONE', ( #282, #244, #214, #37 ) ) ;
#359 = LINE ( 'NONE', #67, #257 ) ;
#360 = VERTEX_POINT ( 'NONE', #133 ) ;
#361 = APPROVAL_PERSON_ORGANIZATION ( #58, #349, #21 ) ;
#362 = DIRECTION ( 'NONE',  ( -1.375664245990882500E-032, 1.000000000000000000, 2.727310928665505200E-048 ) ) ;
#363 = DIRECTION ( 'NONE',  ( 0.0000000000000000000, 0.0000000000000000000, -1.000000000000000000 ) ) ;
#364 = DIRECTION ( 'NONE',  ( 0.0000000000000000000, 0.0000000000000000000, -1.000000000000000000 ) ) ;
#365 = EDGE_CURVE ( 'NONE', #277, #353, #179, .T. ) ;
#366 = CARTESIAN_POINT ( 'NONE',  ( 0.0000000000000000000, 50.00000000000000000, 0.0000000000000000000 ) ) ;
#367 = ORIENTED_EDGE ( 'NONE', *, *, #39, .T. ) ;
#368 = DATE_TIME_ROLE ( 'creation_date' ) ;
#369 = CC_DESIGN_APPROVAL ( #349, ( #331 ) ) ;
#370 = APPROVAL_STATUS ( 'not_yet_approved' ) ;
#371 = LINE ( 'NONE', #193, #286 ) ;
#372 = VERTEX_POINT ( 'NONE', #158 ) ;
#373 = COORDINATED_UNIVERSAL_TIME_OFFSET ( 2, 0, .AHEAD. ) ;
#374 = VERTEX_POINT ( 'NONE', #68 ) ;
#375 = ADVANCED_FACE ( 'NONE', ( #352 ), #333, .T. ) ;
#376 = AXIS2_PLACEMENT_3D ( 'NONE', #350, #262, #60 ) ;
#377 = DIRECTION ( 'NONE',  ( 0.0000000000000000000, 0.0000000000000000000, -1.000000000000000000 ) ) ;
ENDSEC;
END-ISO-10303-21;
