  0
SECTION
  2
HEADER
  9
$ACADVER
  1
AC1014
  9
$HANDSEED
  5
FFFF
  9
$MEASUREMENT
 70
     1
  0
ENDSEC
  0
SECTION
  2
TABLES
  0
TABLE
  2
VPORT
  5
8
330
0
100
AcDbSymbolTable
 70
     4
  0
VPORT
  5
2E
330
8
100
AcDbSymbolTableRecord
100
AcDbViewportTableRecord
  2
*ACTIVE
 70
     0
 10
0.0
 20
0.0
 11
1.0
 21
1.0
 12
210.0
 22
148.5
 13
0.0
 23
0.0
 14
10.0
 24
10.0
 15
10.0
 25
10.0
 16
0.0
 26
0.0
 36
1.0
 17
0.0
 27
0.0
 37
0.0
 40
341.0
 41
1.24
 42
50.0
 43
0.0
 44
0.0
 50
0.0
 51
0.0
 71
     0
 72
   100
 73
     1
 74
     3
 75
     0
 76
     0
 77
     0
 78
     0
  0
ENDTAB
  0
TABLE
  2
LTYPE
  5
5
330
0
100
AcDbSymbolTable
 70
     1
  0
LTYPE
  5
14
330
5
100
AcDbSymbolTableRecord
100
AcDbLinetypeTableRecord
  2
BYBLOCK
 70
     0
  3

 72
    65
 73
     0
 40
0.0
  0
LTYPE
  5
15
330
5
100
AcDbSymbolTableRecord
100
AcDbLinetypeTableRecord
  2
BYLAYER
 70
     0
  3

 72
    65
 73
     0
 40
0.0
  0
LTYPE
  5
16
330
5
100
AcDbSymbolTableRecord
100
AcDbLinetypeTableRecord
  2
CONTINUOUS
 70
     0
  3
Solid line
 72
    65
 73
     0
 40
0.0
  0
ENDTAB
  0
TABLE
  2
LAYER
  5
2
100
AcDbSymbolTable
 70
2
  0
LAYER
  5
50
100
AcDbSymbolTableRecord
100
AcDbLayerTableRecord
  2
0
 70
0
  6
CONTINUOUS
  0
LAYER
  5
51
100
AcDbSymbolTableRecord
100
AcDbLayerTableRecord
  2
Capa_1
 70
0
  6
CONTINUOUS
  0
ENDTAB
  0
TABLE
  2
STYLE
  5
3
330
0
100
AcDbSymbolTable
 70
     1
  0
STYLE
  5
11
330
3
100
AcDbSymbolTableRecord
100
AcDbTextStyleTableRecord
  2
STANDARD
 70
     0
 40
0.0
 41
1.0
 50
0.0
 71
     0
 42
2.5
  3
txt
  4

  0
ENDTAB
  0
TABLE
  2
VIEW
  5
6
330
0
100
AcDbSymbolTable
 70
     0
  0
ENDTAB
  0
TABLE
  2
UCS
  5
7
330
0
100
AcDbSymbolTable
 70
     0
  0
ENDTAB
  0
TABLE
  2
APPID
  5
9
330
0
100
AcDbSymbolTable
 70
     2
  0
APPID
  5
12
330
9
100
AcDbSymbolTableRecord
100
AcDbRegAppTableRecord
  2
ACAD
 70
     0
  0
ENDTAB
  0
TABLE
  2
DIMSTYLE
  5
A
330
0
100
AcDbSymbolTable
 70
     1
  0
DIMSTYLE
105
27
330
A
100
AcDbSymbolTableRecord
100
AcDbDimStyleTableRecord
  2
ISO-25
 70
     0
  3

  4

  5

  6

  7

 40
1.0
 41
2.5
 42
0.625
 43
3.75
 44
1.25
 45
0.0
 46
0.0
 47
0.0
 48
0.0
140
2.5
141
2.5
142
0.0
143
0.03937007874016
144
1.0
145
0.0
146
1.0
147
0.625
 71
     0
 72
     0
 73
     0
 74
     0
 75
     0
 76
     0
 77
     1
 78
     8
170
     0
171
     3
172
     1
173
     0
174
     0
175
     0
176
     0
177
     0
178
     0
270
     2
271
     2
272
     2
273
     2
274
     3
340
11
275
     0
280
     0
281
     0
282
     0
283
     0
284
     8
285
     0
286
     0
287
     3
288
     0
  0
ENDTAB
  0
TABLE
  2
BLOCK_RECORD
  5
1
330
0
100
AcDbSymbolTable
 70
     1
  0
BLOCK_RECORD
  5
1F
330
1
100
AcDbSymbolTableRecord
100
AcDbBlockTableRecord
  2
*MODEL_SPACE
  0
BLOCK_RECORD
  5
1B
330
1
100
AcDbSymbolTableRecord
100
AcDbBlockTableRecord
  2
*PAPER_SPACE
  0
ENDTAB
  0
ENDSEC
  0
SECTION
  2
BLOCKS
  0
BLOCK
  5
20
330
1F
100
AcDbEntity
  8
0
100
AcDbBlockBegin
  2
*MODEL_SPACE
 70
     0
 10
0.0
 20
0.0
 30
0.0
  3
*MODEL_SPACE
  1

  0
ENDBLK
  5
21
330
1F
100
AcDbEntity
  8
0
100
AcDbBlockEnd
  0
BLOCK
  5
1C
330
1B
100
AcDbEntity
 67
     1
  8
0
100
AcDbBlockBegin
  2
*PAPER_SPACE
  1

  0
ENDBLK
  5
1D
330
1B
100
AcDbEntity
 67
     1
  8
0
100
AcDbBlockEnd
  0
ENDSEC
  0
SECTION
  2
ENTITIES
  0
LINE
  5
100
100
AcDbEntity
  8
Capa_1
 62
7
100
AcDbLine
 10
76.434741
 20
353.774159
 30
0.0
 11
276.434748
 21
353.774159
 31
0.0
  0
LINE
  5
101
100
AcDbEntity
  8
Capa_1
 62
7
100
AcDbLine
 10
276.434748
 20
353.774159
 30
0.0
 11
276.434748
 21
203.774169
 31
0.0
  0
LINE
  5
102
100
AcDbEntity
  8
Capa_1
 62
7
100
AcDbLine
 10
276.434748
 20
203.774169
 30
0.0
 11
76.434741
 21
203.774169
 31
0.0
  0
LINE
  5
103
100
AcDbEntity
  8
Capa_1
 62
7
100
AcDbLine
 10
76.434741
 20
203.774169
 30
0.0
 11
76.434741
 21
353.774159
 31
0.0
  0
LINE
  5
104
100
AcDbEntity
  8
Capa_1
 62
7
100
AcDbLine
 10
139.210649
 20
223.718328
 30
0.0
 11
139.210649
 21
333.877278
 31
0.0
  0
LINE
  5
105
100
AcDbEntity
  8
Capa_1
 62
7
100
AcDbLine
 10
93.384528
 20
254.124470
 30
0.0
 11
96.909625
 21
260.259304
 31
0.0
  0
LINE
  5
106
100
AcDbEntity
  8
Capa_1
 62
7
100
AcDbLine
 10
139.210649
 20
223.718328
 30
0.0
 11
132.160484
 21
228.396189
 31
0.0
  0
LINE
  5
107
100
AcDbEntity
  8
Capa_1
 62
7
100
AcDbLine
 10
96.909625
 20
251.785553
 30
0.0
 11
96.909625
 21
260.259304
 31
0.0
  0
LINE
  5
108
100
AcDbEntity
  8
Capa_1
 62
7
100
AcDbLine
 10
118.060148
 20
237.751941
 30
0.0
 11
118.060148
 21
297.068277
 31
0.0
  0
LINE
  5
109
100
AcDbEntity
  8
Capa_1
 62
7
100
AcDbLine
 10
111.009955
 20
242.429802
 30
0.0
 11
111.009955
 21
284.798639
 31
0.0
  0
LINE
  5
10a
100
AcDbEntity
  8
Capa_1
 62
7
100
AcDbLine
 10
132.160484
 20
228.396189
 30
0.0
 11
132.160484
 21
321.607612
 31
0.0
  0
LINE
  5
10b
100
AcDbEntity
  8
Capa_1
 62
7
100
AcDbLine
 10
103.959790
 20
247.107664
 30
0.0
 11
103.959790
 21
272.528971
 31
0.0
  0
LINE
  5
10c
100
AcDbEntity
  8
Capa_1
 62
7
100
AcDbLine
 10
125.110319
 20
233.074051
 30
0.0
 11
125.110319
 21
309.337945
 31
0.0
  0
LINE
  5
10d
100
AcDbEntity
  8
Capa_1
 62
7
100
AcDbLine
 10
132.160484
 20
321.607612
 30
0.0
 11
139.210649
 21
333.877278
 31
0.0
  0
LINE
  5
10e
100
AcDbEntity
  8
Capa_1
 62
7
100
AcDbLine
 10
118.060148
 20
297.068277
 30
0.0
 11
125.110319
 21
309.337945
 31
0.0
  0
LINE
  5
10f
100
AcDbEntity
  8
Capa_1
 62
7
100
AcDbLine
 10
103.959790
 20
272.528971
 30
0.0
 11
111.009955
 21
284.798639
 31
0.0
  0
LINE
  5
110
100
AcDbEntity
  8
Capa_1
 62
7
100
AcDbLine
 10
96.909625
 20
251.785553
 30
0.0
 11
93.384528
 21
254.124470
 31
0.0
  0
LINE
  5
111
100
AcDbEntity
  8
Capa_1
 62
7
100
AcDbLine
 10
111.009955
 20
242.429802
 30
0.0
 11
103.959790
 21
247.107664
 31
0.0
  0
LINE
  5
112
100
AcDbEntity
  8
Capa_1
 62
7
100
AcDbLine
 10
125.110319
 20
233.074051
 30
0.0
 11
118.060148
 21
237.751941
 31
0.0
  0
LINE
  5
113
100
AcDbEntity
  8
Capa_1
 62
7
100
AcDbLine
 10
213.658823
 20
223.718328
 30
0.0
 11
213.658823
 21
333.877278
 31
0.0
  0
LINE
  5
114
100
AcDbEntity
  8
Capa_1
 62
7
100
AcDbLine
 10
259.484966
 20
254.124470
 30
0.0
 11
255.959870
 21
260.259304
 31
0.0
  0
LINE
  5
115
100
AcDbEntity
  8
Capa_1
 62
7
100
AcDbLine
 10
213.658823
 20
223.718328
 30
0.0
 11
220.708988
 21
228.396189
 31
0.0
  0
LINE
  5
116
100
AcDbEntity
  8
Capa_1
 62
7
100
AcDbLine
 10
255.959870
 20
251.785553
 30
0.0
 11
255.959870
 21
260.259304
 31
0.0
  0
LINE
  5
117
100
AcDbEntity
  8
Capa_1
 62
7
100
AcDbLine
 10
234.809346
 20
237.751941
 30
0.0
 11
234.809346
 21
297.068274
 31
0.0
  0
LINE
  5
118
100
AcDbEntity
  8
Capa_1
 62
7
100
AcDbLine
 10
241.859539
 20
242.429802
 30
0.0
 11
241.859539
 21
284.798639
 31
0.0
  0
LINE
  5
119
100
AcDbEntity
  8
Capa_1
 62
7
100
AcDbLine
 10
220.708988
 20
228.396189
 30
0.0
 11
220.708988
 21
321.607612
 31
0.0
  0
LINE
  5
11a
100
AcDbEntity
  8
Capa_1
 62
7
100
AcDbLine
 10
248.909705
 20
247.107664
 30
0.0
 11
248.909705
 21
272.528971
 31
0.0
  0
LINE
  5
11b
100
AcDbEntity
  8
Capa_1
 62
7
100
AcDbLine
 10
227.759153
 20
233.074051
 30
0.0
 11
227.759153
 21
309.337945
 31
0.0
  0
LINE
  5
11c
100
AcDbEntity
  8
Capa_1
 62
7
100
AcDbLine
 10
220.708988
 20
321.607612
 30
0.0
 11
213.658823
 21
333.877278
 31
0.0
  0
LINE
  5
11d
100
AcDbEntity
  8
Capa_1
 62
7
100
AcDbLine
 10
234.809346
 20
297.068274
 30
0.0
 11
227.759153
 21
309.337945
 31
0.0
  0
LINE
  5
11e
100
AcDbEntity
  8
Capa_1
 62
7
100
AcDbLine
 10
248.909705
 20
272.528971
 30
0.0
 11
241.859539
 21
284.798639
 31
0.0
  0
LINE
  5
11f
100
AcDbEntity
  8
Capa_1
 62
7
100
AcDbLine
 10
255.959870
 20
251.785553
 30
0.0
 11
259.484966
 21
254.124470
 31
0.0
  0
LINE
  5
120
100
AcDbEntity
  8
Capa_1
 62
7
100
AcDbLine
 10
241.859539
 20
242.429802
 30
0.0
 11
248.909705
 21
247.107664
 31
0.0
  0
LINE
  5
121
100
AcDbEntity
  8
Capa_1
 62
7
100
AcDbLine
 10
227.759153
 20
233.074051
 30
0.0
 11
234.809346
 21
237.751941
 31
0.0
  0
LINE
  5
122
100
AcDbEntity
  8
Capa_1
 62
7
100
AcDbLine
 10
350.827820
 20
182.457947
 30
0.0
 11
350.827820
 21
51.426177
 31
0.0
  0
LINE
  5
123
100
AcDbEntity
  8
Capa_1
 62
7
100
AcDbLine
 10
350.827820
 20
51.426177
 30
0.0
 11
299.221483
 21
87.711911
 31
0.0
  0
LINE
  5
124
100
AcDbEntity
  8
Capa_1
 62
7
100
AcDbLine
 10
299.221483
 20
87.711911
 30
0.0
 11
350.827820
 21
182.457947
 31
0.0
  0
LINE
  5
125
100
AcDbEntity
  8
Capa_1
 62
7
100
AcDbLine
 10
286.188912
 20
191.839956
 30
0.0
 11
486.188952
 21
191.839956
 31
0.0
  0
LINE
  5
126
100
AcDbEntity
  8
Capa_1
 62
7
100
AcDbLine
 10
486.188952
 20
191.839956
 30
0.0
 11
486.188952
 21
41.839932
 31
0.0
  0
LINE
  5
127
100
AcDbEntity
  8
Capa_1
 62
7
100
AcDbLine
 10
486.188952
 20
41.839932
 30
0.0
 11
286.188912
 21
41.839932
 31
0.0
  0
LINE
  5
128
100
AcDbEntity
  8
Capa_1
 62
7
100
AcDbLine
 10
286.188912
 20
41.839932
 30
0.0
 11
286.188912
 21
191.839956
 31
0.0
  0
LINE
  5
129
100
AcDbEntity
  8
Capa_1
 62
7
100
AcDbLine
 10
421.550084
 20
182.457947
 30
0.0
 11
421.550084
 21
51.426177
 31
0.0
  0
LINE
  5
12a
100
AcDbEntity
  8
Capa_1
 62
7
100
AcDbLine
 10
421.550084
 20
51.426177
 30
0.0
 11
473.156421
 21
87.711911
 31
0.0
  0
LINE
  5
12b
100
AcDbEntity
  8
Capa_1
 62
7
100
AcDbLine
 10
473.156421
 20
87.711911
 30
0.0
 11
421.550084
 21
182.457947
 31
0.0
  0
LINE
  5
12c
100
AcDbEntity
  8
Capa_1
 62
7
100
AcDbLine
 10
349.198269
 20
345.370129
 30
0.0
 11
349.198269
 21
214.338384
 31
0.0
  0
LINE
  5
12d
100
AcDbEntity
  8
Capa_1
 62
7
100
AcDbLine
 10
349.198269
 20
214.338384
 30
0.0
 11
297.591932
 21
250.624099
 31
0.0
  0
LINE
  5
12e
100
AcDbEntity
  8
Capa_1
 62
7
100
AcDbLine
 10
297.591932
 20
250.624099
 30
0.0
 11
349.198269
 21
345.370129
 31
0.0
  0
LINE
  5
12f
100
AcDbEntity
  8
Capa_1
 62
7
100
AcDbLine
 10
285.848608
 20
354.752144
 30
0.0
 11
485.848632
 21
354.752144
 31
0.0
  0
LINE
  5
130
100
AcDbEntity
  8
Capa_1
 62
7
100
AcDbLine
 10
485.848632
 20
354.752144
 30
0.0
 11
485.848632
 21
204.752136
 31
0.0
  0
LINE
  5
131
100
AcDbEntity
  8
Capa_1
 62
7
100
AcDbLine
 10
485.848632
 20
204.752136
 30
0.0
 11
285.848608
 21
204.752136
 31
0.0
  0
LINE
  5
132
100
AcDbEntity
  8
Capa_1
 62
7
100
AcDbLine
 10
285.848608
 20
204.752136
 30
0.0
 11
285.848608
 21
354.752144
 31
0.0
  0
LINE
  5
133
100
AcDbEntity
  8
Capa_1
 62
7
100
AcDbLine
 10
422.499000
 20
345.370138
 30
0.0
 11
422.499000
 21
214.338376
 31
0.0
  0
LINE
  5
134
100
AcDbEntity
  8
Capa_1
 62
7
100
AcDbLine
 10
422.499000
 20
214.338376
 30
0.0
 11
474.105337
 21
250.624110
 31
0.0
  0
LINE
  5
135
100
AcDbEntity
  8
Capa_1
 62
7
100
AcDbLine
 10
474.105337
 20
250.624110
 30
0.0
 11
422.499000
 21
345.370138
 31
0.0
  0
LINE
  5
136
100
AcDbEntity
  8
Capa_1
 62
7
100
AcDbLine
 10
428.190434
 20
322.247640
 30
0.0
 11
428.190434
 21
229.498964
 31
0.0
  0
LINE
  5
137
100
AcDbEntity
  8
Capa_1
 62
7
100
AcDbLine
 10
428.190434
 20
229.498964
 30
0.0
 11
464.719134
 21
255.183216
 31
0.0
  0
LINE
  5
138
100
AcDbEntity
  8
Capa_1
 62
7
100
AcDbLine
 10
464.719134
 20
255.183216
 30
0.0
 11
428.190434
 21
322.247640
 31
0.0
  0
LINE
  5
139
100
AcDbEntity
  8
Capa_1
 62
7
100
AcDbLine
 10
344.528479
 20
322.389362
 30
0.0
 11
344.528479
 21
229.640668
 31
0.0
  0
LINE
  5
13a
100
AcDbEntity
  8
Capa_1
 62
7
100
AcDbLine
 10
344.528479
 20
229.640668
 30
0.0
 11
307.999779
 21
255.324922
 31
0.0
  0
LINE
  5
13b
100
AcDbEntity
  8
Capa_1
 62
7
100
AcDbLine
 10
307.999779
 20
255.324922
 30
0.0
 11
344.528479
 21
322.389362
 31
0.0
  0
LINE
  5
13c
100
AcDbEntity
  8
Capa_1
 62
7
100
AcDbLine
 10
40.491125
 20
849.297662
 30
0.0
 11
240.491131
 21
849.297662
 31
0.0
  0
LINE
  5
13d
100
AcDbEntity
  8
Capa_1
 62
7
100
AcDbLine
 10
240.491131
 20
849.297662
 30
0.0
 11
240.491131
 21
699.297672
 31
0.0
  0
LINE
  5
13e
100
AcDbEntity
  8
Capa_1
 62
7
100
AcDbLine
 10
240.491131
 20
699.297672
 30
0.0
 11
40.491125
 21
699.297672
 31
0.0
  0
LINE
  5
13f
100
AcDbEntity
  8
Capa_1
 62
7
100
AcDbLine
 10
40.491125
 20
699.297672
 30
0.0
 11
40.491125
 21
849.297662
 31
0.0
  0
LINE
  5
140
100
AcDbEntity
  8
Capa_1
 62
7
100
AcDbLine
 10
105.437263
 20
677.073640
 30
0.0
 11
105.437263
 21
546.041895
 31
0.0
  0
LINE
  5
141
100
AcDbEntity
  8
Capa_1
 62
7
100
AcDbLine
 10
105.437263
 20
546.041895
 30
0.0
 11
53.830926
 21
582.327604
 31
0.0
  0
LINE
  5
142
100
AcDbEntity
  8
Capa_1
 62
7
100
AcDbLine
 10
53.830926
 20
582.327604
 30
0.0
 11
105.437263
 21
677.073640
 31
0.0
  0
LINE
  5
143
100
AcDbEntity
  8
Capa_1
 62
7
100
AcDbLine
 10
42.087594
 20
686.455638
 30
0.0
 11
242.087617
 21
686.455638
 31
0.0
  0
LINE
  5
144
100
AcDbEntity
  8
Capa_1
 62
7
100
AcDbLine
 10
242.087617
 20
686.455638
 30
0.0
 11
242.087617
 21
536.455630
 31
0.0
  0
LINE
  5
145
100
AcDbEntity
  8
Capa_1
 62
7
100
AcDbLine
 10
242.087617
 20
536.455630
 30
0.0
 11
42.087594
 21
536.455630
 31
0.0
  0
LINE
  5
146
100
AcDbEntity
  8
Capa_1
 62
7
100
AcDbLine
 10
42.087594
 20
536.455630
 30
0.0
 11
42.087594
 21
686.455638
 31
0.0
  0
LINE
  5
147
100
AcDbEntity
  8
Capa_1
 62
7
100
AcDbLine
 10
178.737994
 20
677.073640
 30
0.0
 11
178.737994
 21
546.041886
 31
0.0
  0
LINE
  5
148
100
AcDbEntity
  8
Capa_1
 62
7
100
AcDbLine
 10
178.737994
 20
546.041886
 30
0.0
 11
230.344331
 21
582.327632
 31
0.0
  0
LINE
  5
149
100
AcDbEntity
  8
Capa_1
 62
7
100
AcDbLine
 10
230.344331
 20
582.327632
 30
0.0
 11
178.737994
 21
677.073640
 31
0.0
  0
LINE
  5
14a
100
AcDbEntity
  8
Capa_1
 62
7
100
AcDbLine
 10
771.546219
 20
833.968538
 30
0.0
 11
661.387272
 21
833.968538
 31
0.0
  0
LINE
  5
14b
100
AcDbEntity
  8
Capa_1
 62
7
100
AcDbLine
 10
741.140078
 20
788.142390
 30
0.0
 11
735.005245
 21
791.667487
 31
0.0
  0
LINE
  5
14c
100
AcDbEntity
  8
Capa_1
 62
7
100
AcDbLine
 10
771.546219
 20
833.968538
 30
0.0
 11
766.868358
 21
826.918373
 31
0.0
  0
LINE
  5
14d
100
AcDbEntity
  8
Capa_1
 62
7
100
AcDbLine
 10
743.478995
 20
791.667487
 30
0.0
 11
735.005245
 21
791.667487
 31
0.0
  0
LINE
  5
14e
100
AcDbEntity
  8
Capa_1
 62
7
100
AcDbLine
 10
757.512607
 20
812.818041
 30
0.0
 11
698.196273
 21
812.818041
 31
0.0
  0
LINE
  5
14f
100
AcDbEntity
  8
Capa_1
 62
7
100
AcDbLine
 10
752.834745
 20
805.767819
 30
0.0
 11
710.465911
 21
805.767819
 31
0.0
  0
LINE
  5
150
100
AcDbEntity
  8
Capa_1
 62
7
100
AcDbLine
 10
766.868358
 20
826.918373
 30
0.0
 11
673.656939
 21
826.918373
 31
0.0
  0
LINE
  5
151
100
AcDbEntity
  8
Capa_1
 62
7
100
AcDbLine
 10
748.156884
 20
798.717653
 30
0.0
 11
722.735578
 21
798.717653
 31
0.0
  0
LINE
  5
152
100
AcDbEntity
  8
Capa_1
 62
7
100
AcDbLine
 10
762.190496
 20
819.868207
 30
0.0
 11
685.926606
 21
819.868207
 31
0.0
  0
LINE
  5
153
100
AcDbEntity
  8
Capa_1
 62
7
100
AcDbLine
 10
673.656939
 20
826.918373
 30
0.0
 11
661.387272
 21
833.968538
 31
0.0
  0
LINE
  5
154
100
AcDbEntity
  8
Capa_1
 62
7
100
AcDbLine
 10
698.196273
 20
812.818041
 30
0.0
 11
685.926606
 21
819.868207
 31
0.0
  0
LINE
  5
155
100
AcDbEntity
  8
Capa_1
 62
7
100
AcDbLine
 10
722.735578
 20
798.717653
 30
0.0
 11
710.465911
 21
805.767819
 31
0.0
  0
LINE
  5
156
100
AcDbEntity
  8
Capa_1
 62
7
100
AcDbLine
 10
743.478995
 20
791.667487
 30
0.0
 11
741.140078
 21
788.142390
 31
0.0
  0
LINE
  5
157
100
AcDbEntity
  8
Capa_1
 62
7
100
AcDbLine
 10
752.834745
 20
805.767819
 30
0.0
 11
748.156884
 21
798.717653
 31
0.0
  0
LINE
  5
158
100
AcDbEntity
  8
Capa_1
 62
7
100
AcDbLine
 10
762.190496
 20
819.868207
 30
0.0
 11
757.512607
 21
812.818041
 31
0.0
  0
LINE
  5
159
100
AcDbEntity
  8
Capa_1
 62
7
100
AcDbLine
 10
689.137273
 20
788.161165
 30
0.0
 11
578.978326
 21
788.161165
 31
0.0
  0
LINE
  5
15a
100
AcDbEntity
  8
Capa_1
 62
7
100
AcDbLine
 10
658.731132
 20
833.987286
 30
0.0
 11
652.596299
 21
830.462188
 31
0.0
  0
LINE
  5
15b
100
AcDbEntity
  8
Capa_1
 62
7
100
AcDbLine
 10
689.137273
 20
788.161165
 30
0.0
 11
684.459412
 21
795.211331
 31
0.0
  0
LINE
  5
15c
100
AcDbEntity
  8
Capa_1
 62
7
100
AcDbLine
 10
661.070049
 20
830.462188
 30
0.0
 11
652.596299
 21
830.462188
 31
0.0
  0
LINE
  5
15d
100
AcDbEntity
  8
Capa_1
 62
7
100
AcDbLine
 10
675.103661
 20
809.311663
 30
0.0
 11
615.787327
 21
809.311663
 31
0.0
  0
LINE
  5
15e
100
AcDbEntity
  8
Capa_1
 62
7
100
AcDbLine
 10
670.425800
 20
816.361857
 30
0.0
 11
628.056965
 21
816.361857
 31
0.0
  0
LINE
  5
15f
100
AcDbEntity
  8
Capa_1
 62
7
100
AcDbLine
 10
684.459412
 20
795.211331
 30
0.0
 11
591.247993
 21
795.211331
 31
0.0
  0
LINE
  5
160
100
AcDbEntity
  8
Capa_1
 62
7
100
AcDbLine
 10
665.747938
 20
823.412023
 30
0.0
 11
640.326632
 21
823.412023
 31
0.0
  0
LINE
  5
161
100
AcDbEntity
  8
Capa_1
 62
7
100
AcDbLine
 10
679.781550
 20
802.261497
 30
0.0
 11
603.517660
 21
802.261497
 31
0.0
  0
LINE
  5
162
100
AcDbEntity
  8
Capa_1
 62
7
100
AcDbLine
 10
591.247993
 20
795.211331
 30
0.0
 11
578.978326
 21
788.161165
 31
0.0
  0
LINE
  5
163
100
AcDbEntity
  8
Capa_1
 62
7
100
AcDbLine
 10
615.787327
 20
809.311663
 30
0.0
 11
603.517660
 21
802.261497
 31
0.0
  0
LINE
  5
164
100
AcDbEntity
  8
Capa_1
 62
7
100
AcDbLine
 10
640.326632
 20
823.412023
 30
0.0
 11
628.056965
 21
816.361857
 31
0.0
  0
LINE
  5
165
100
AcDbEntity
  8
Capa_1
 62
7
100
AcDbLine
 10
661.070049
 20
830.462188
 30
0.0
 11
658.731132
 21
833.987286
 31
0.0
  0
LINE
  5
166
100
AcDbEntity
  8
Capa_1
 62
7
100
AcDbLine
 10
670.425800
 20
816.361857
 30
0.0
 11
665.747938
 21
823.412023
 31
0.0
  0
LINE
  5
167
100
AcDbEntity
  8
Capa_1
 62
7
100
AcDbLine
 10
679.781550
 20
802.261497
 30
0.0
 11
675.103661
 21
809.311663
 31
0.0
  0
LINE
  5
168
100
AcDbEntity
  8
Capa_1
 62
7
100
AcDbLine
 10
633.394184
 20
823.629128
 30
0.0
 11
540.645519
 21
823.629128
 31
0.0
  0
LINE
  5
169
100
AcDbEntity
  8
Capa_1
 62
7
100
AcDbLine
 10
540.645519
 20
823.629128
 30
0.0
 11
566.329774
 21
787.100428
 31
0.0
  0
LINE
  5
16a
100
AcDbEntity
  8
Capa_1
 62
7
100
AcDbLine
 10
566.329774
 20
787.100428
 30
0.0
 11
633.394184
 21
823.629128
 31
0.0
  0
LINE
  5
16b
100
AcDbEntity
  8
Capa_1
 62
7
100
AcDbLine
 10
562.844216
 20
787.211709
 30
0.0
 11
470.095495
 21
787.211709
 31
0.0
  0
LINE
  5
16c
100
AcDbEntity
  8
Capa_1
 62
7
100
AcDbLine
 10
470.095495
 20
787.211709
 30
0.0
 11
495.779750
 21
823.740408
 31
0.0
  0
LINE
  5
16d
100
AcDbEntity
  8
Capa_1
 62
7
100
AcDbLine
 10
495.779750
 20
823.740408
 30
0.0
 11
562.844216
 21
787.211709
 31
0.0
  0
ENDSEC
  0
SECTION
  2
OBJECTS
  0
DICTIONARY
  5
C
330
0
100
AcDbDictionary
  3
ACAD_GROUP
350
D
  3
ACAD_MLINESTYLE
350
17
  0
DICTIONARY
  5
D
330
C
100
AcDbDictionary
  0
DICTIONARY
  5
1A
330
C
100
AcDbDictionary
  0
DICTIONARY
  5
17
330
C
100
AcDbDictionary
  3
STANDARD
350
18
  0
DICTIONARY
  5
19
330
C
100
AcDbDictionary
  0
ENDSEC
  0
EOF
