  0
SECTION
  2
HEADER
  9
$ACADVER
  1
AC1014
  9
$HANDSEED
  5
FFFF
  9
$MEASUREMENT
 70
     1
  0
ENDSEC
  0
SECTION
  2
TABLES
  0
TABLE
  2
VPORT
  5
8
330
0
100
AcDbSymbolTable
 70
     4
  0
VPORT
  5
2E
330
8
100
AcDbSymbolTableRecord
100
AcDbViewportTableRecord
  2
*ACTIVE
 70
     0
 10
0.0
 20
0.0
 11
1.0
 21
1.0
 12
210.0
 22
148.5
 13
0.0
 23
0.0
 14
10.0
 24
10.0
 15
10.0
 25
10.0
 16
0.0
 26
0.0
 36
1.0
 17
0.0
 27
0.0
 37
0.0
 40
341.0
 41
1.24
 42
50.0
 43
0.0
 44
0.0
 50
0.0
 51
0.0
 71
     0
 72
   100
 73
     1
 74
     3
 75
     0
 76
     0
 77
     0
 78
     0
  0
ENDTAB
  0
TABLE
  2
LTYPE
  5
5
330
0
100
AcDbSymbolTable
 70
     1
  0
LTYPE
  5
14
330
5
100
AcDbSymbolTableRecord
100
AcDbLinetypeTableRecord
  2
BYBLOCK
 70
     0
  3

 72
    65
 73
     0
 40
0.0
  0
LTYPE
  5
15
330
5
100
AcDbSymbolTableRecord
100
AcDbLinetypeTableRecord
  2
BYLAYER
 70
     0
  3

 72
    65
 73
     0
 40
0.0
  0
LTYPE
  5
16
330
5
100
AcDbSymbolTableRecord
100
AcDbLinetypeTableRecord
  2
CONTINUOUS
 70
     0
  3
Solid line
 72
    65
 73
     0
 40
0.0
  0
ENDTAB
  0
TABLE
  2
LAYER
  5
2
100
AcDbSymbolTable
 70
2
  0
LAYER
  5
50
100
AcDbSymbolTableRecord
100
AcDbLayerTableRecord
  2
0
 70
0
  6
CONTINUOUS
  0
LAYER
  5
51
100
AcDbSymbolTableRecord
100
AcDbLayerTableRecord
  2
Layer_1
 70
0
  6
CONTINUOUS
  0
ENDTAB
  0
TABLE
  2
STYLE
  5
3
330
0
100
AcDbSymbolTable
 70
     1
  0
STYLE
  5
11
330
3
100
AcDbSymbolTableRecord
100
AcDbTextStyleTableRecord
  2
STANDARD
 70
     0
 40
0.0
 41
1.0
 50
0.0
 71
     0
 42
2.5
  3
txt
  4

  0
ENDTAB
  0
TABLE
  2
VIEW
  5
6
330
0
100
AcDbSymbolTable
 70
     0
  0
ENDTAB
  0
TABLE
  2
UCS
  5
7
330
0
100
AcDbSymbolTable
 70
     0
  0
ENDTAB
  0
TABLE
  2
APPID
  5
9
330
0
100
AcDbSymbolTable
 70
     2
  0
APPID
  5
12
330
9
100
AcDbSymbolTableRecord
100
AcDbRegAppTableRecord
  2
ACAD
 70
     0
  0
ENDTAB
  0
TABLE
  2
DIMSTYLE
  5
A
330
0
100
AcDbSymbolTable
 70
     1
  0
DIMSTYLE
105
27
330
A
100
AcDbSymbolTableRecord
100
AcDbDimStyleTableRecord
  2
ISO-25
 70
     0
  3

  4

  5

  6

  7

 40
1.0
 41
2.5
 42
0.625
 43
3.75
 44
1.25
 45
0.0
 46
0.0
 47
0.0
 48
0.0
140
2.5
141
2.5
142
0.0
143
0.03937007874016
144
1.0
145
0.0
146
1.0
147
0.625
 71
     0
 72
     0
 73
     0
 74
     0
 75
     0
 76
     0
 77
     1
 78
     8
170
     0
171
     3
172
     1
173
     0
174
     0
175
     0
176
     0
177
     0
178
     0
270
     2
271
     2
272
     2
273
     2
274
     3
340
11
275
     0
280
     0
281
     0
282
     0
283
     0
284
     8
285
     0
286
     0
287
     3
288
     0
  0
ENDTAB
  0
TABLE
  2
BLOCK_RECORD
  5
1
330
0
100
AcDbSymbolTable
 70
     1
  0
BLOCK_RECORD
  5
1F
330
1
100
AcDbSymbolTableRecord
100
AcDbBlockTableRecord
  2
*MODEL_SPACE
  0
BLOCK_RECORD
  5
1B
330
1
100
AcDbSymbolTableRecord
100
AcDbBlockTableRecord
  2
*PAPER_SPACE
  0
ENDTAB
  0
ENDSEC
  0
SECTION
  2
BLOCKS
  0
BLOCK
  5
20
330
1F
100
AcDbEntity
  8
0
100
AcDbBlockBegin
  2
*MODEL_SPACE
 70
     0
 10
0.0
 20
0.0
 30
0.0
  3
*MODEL_SPACE
  1

  0
ENDBLK
  5
21
330
1F
100
AcDbEntity
  8
0
100
AcDbBlockEnd
  0
BLOCK
  5
1C
330
1B
100
AcDbEntity
 67
     1
  8
0
100
AcDbBlockBegin
  2
*PAPER_SPACE
  1

  0
ENDBLK
  5
1D
330
1B
100
AcDbEntity
 67
     1
  8
0
100
AcDbBlockEnd
  0
ENDSEC
  0
SECTION
  2
ENTITIES
  0
LWPOLYLINE
  5
100
100
AcDbEntity
  8
Layer_1
 62
1
100
AcDbPolyline
 90
30
 70
1
 10
144.000000
 20
1044.000000
 30
0.0
 10
162.000000
 20
1044.000000
 30
0.0
 10
162.000000
 20
990.000000
 30
0.0
 10
198.000000
 20
990.000000
 30
0.0
 10
198.000000
 20
972.000000
 30
0.0
 10
234.000000
 20
972.000000
 30
0.0
 10
234.000000
 20
990.000000
 30
0.0
 10
306.000000
 20
990.000000
 30
0.0
 10
306.000000
 20
972.000000
 30
0.0
 10
342.000000
 20
972.000000
 30
0.0
 10
342.000000
 20
990.000000
 30
0.0
 10
378.000000
 20
990.000000
 30
0.0
 10
378.000000
 20
1044.000000
 30
0.0
 10
396.000000
 20
1044.000000
 30
0.0
 10
396.000000
 20
1080.000000
 30
0.0
 10
378.000000
 20
1080.000000
 30
0.0
 10
378.000000
 20
1134.000000
 30
0.0
 10
342.000000
 20
1134.000000
 30
0.0
 10
342.000000
 20
1152.000000
 30
0.0
 10
306.000000
 20
1152.000000
 30
0.0
 10
306.000000
 20
1134.000000
 30
0.0
 10
234.000000
 20
1134.000000
 30
0.0
 10
234.000000
 20
1152.000000
 30
0.0
 10
198.000000
 20
1152.000000
 30
0.0
 10
198.000000
 20
1134.000000
 30
0.0
 10
162.000000
 20
1134.000000
 30
0.0
 10
162.000000
 20
1080.000000
 30
0.0
 10
144.000000
 20
1080.000000
 30
0.0
 10
144.000000
 20
1044.000000
 30
0.0
 10
144.000000
 20
1044.000000
 30
0.0
  0
LWPOLYLINE
  5
101
100
AcDbEntity
  8
Layer_1
 62
1
100
AcDbPolyline
 90
22
 70
0
 10
684.000000
 20
1692.000000
 30
0.0
 10
684.000000
 20
1674.000000
 30
0.0
 10
648.000000
 20
1674.000000
 30
0.0
 10
648.000000
 20
1620.000000
 30
0.0
 10
630.000000
 20
1620.000000
 30
0.0
 10
630.000000
 20
1584.000000
 30
0.0
 10
648.000000
 20
1584.000000
 30
0.0
 10
648.000000
 20
1530.000000
 30
0.0
 10
864.000000
 20
1530.000000
 30
0.0
 10
864.000000
 20
1584.000000
 30
0.0
 10
882.000000
 20
1584.000000
 30
0.0
 10
882.000000
 20
1620.000000
 30
0.0
 10
864.000000
 20
1620.000000
 30
0.0
 10
864.000000
 20
1674.000000
 30
0.0
 10
828.000000
 20
1674.000000
 30
0.0
 10
828.000000
 20
1692.000000
 30
0.0
 10
792.000000
 20
1692.000000
 30
0.0
 10
792.000000
 20
1674.000000
 30
0.0
 10
720.000000
 20
1674.000000
 30
0.0
 10
720.000000
 20
1692.000000
 30
0.0
 10
684.000000
 20
1692.000000
 30
0.0
 10
684.000000
 20
1692.000000
 30
0.0
  0
LWPOLYLINE
  5
102
100
AcDbEntity
  8
Layer_1
 62
1
100
AcDbPolyline
 90
6
 70
0
 10
720.000000
 20
1638.000000
 30
0.0
 10
792.000000
 20
1638.000000
 30
0.0
 10
792.000000
 20
1584.000000
 30
0.0
 10
720.000000
 20
1584.000000
 30
0.0
 10
720.000000
 20
1638.000000
 30
0.0
 10
720.000000
 20
1638.000000
 30
0.0
  0
LWPOLYLINE
  5
103
100
AcDbEntity
  8
Layer_1
 62
1
100
AcDbPolyline
 90
38
 70
1
 10
342.000000
 20
1476.000000
 30
0.0
 10
360.000000
 20
1476.000000
 30
0.0
 10
360.000000
 20
1440.000000
 30
0.0
 10
414.000000
 20
1440.000000
 30
0.0
 10
414.000000
 20
1458.000000
 30
0.0
 10
450.000000
 20
1458.000000
 30
0.0
 10
450.000000
 20
1440.000000
 30
0.0
 10
504.000000
 20
1440.000000
 30
0.0
 10
504.000000
 20
1476.000000
 30
0.0
 10
522.000000
 20
1476.000000
 30
0.0
 10
522.000000
 20
1512.000000
 30
0.0
 10
504.000000
 20
1512.000000
 30
0.0
 10
504.000000
 20
1566.000000
 30
0.0
 10
522.000000
 20
1566.000000
 30
0.0
 10
522.000000
 20
1602.000000
 30
0.0
 10
504.000000
 20
1602.000000
 30
0.0
 10
504.000000
 20
1656.000000
 30
0.0
 10
522.000000
 20
1656.000000
 30
0.0
 10
522.000000
 20
1692.000000
 30
0.0
 10
504.000000
 20
1692.000000
 30
0.0
 10
504.000000
 20
1728.000000
 30
0.0
 10
450.000000
 20
1728.000000
 30
0.0
 10
450.000000
 20
1710.000000
 30
0.0
 10
414.000000
 20
1710.000000
 30
0.0
 10
414.000000
 20
1728.000000
 30
0.0
 10
360.000000
 20
1728.000000
 30
0.0
 10
360.000000
 20
1692.000000
 30
0.0
 10
342.000000
 20
1692.000000
 30
0.0
 10
342.000000
 20
1656.000000
 30
0.0
 10
360.000000
 20
1656.000000
 30
0.0
 10
360.000000
 20
1602.000000
 30
0.0
 10
342.000000
 20
1602.000000
 30
0.0
 10
342.000000
 20
1566.000000
 30
0.0
 10
360.000000
 20
1566.000000
 30
0.0
 10
360.000000
 20
1512.000000
 30
0.0
 10
342.000000
 20
1512.000000
 30
0.0
 10
342.000000
 20
1476.000000
 30
0.0
 10
342.000000
 20
1476.000000
 30
0.0
  0
LWPOLYLINE
  5
104
100
AcDbEntity
  8
Layer_1
 62
1
100
AcDbPolyline
 90
50
 70
0
 10
972.000000
 20
1710.000000
 30
0.0
 10
972.000000
 20
1674.000000
 30
0.0
 10
990.000000
 20
1674.000000
 30
0.0
 10
990.000000
 20
1638.000000
 30
0.0
 10
972.000000
 20
1638.000000
 30
0.0
 10
972.000000
 20
1584.000000
 30
0.0
 10
990.000000
 20
1584.000000
 30
0.0
 10
990.000000
 20
1548.000000
 30
0.0
 10
972.000000
 20
1548.000000
 30
0.0
 10
972.000000
 20
1494.000000
 30
0.0
 10
990.000000
 20
1494.000000
 30
0.0
 10
990.000000
 20
1458.000000
 30
0.0
 10
972.000000
 20
1458.000000
 30
0.0
 10
972.000000
 20
1422.000000
 30
0.0
 10
990.000000
 20
1422.000000
 30
0.0
 10
1026.000000
 20
1422.000000
 30
0.0
 10
1026.000000
 20
1440.000000
 30
0.0
 10
1062.000000
 20
1440.000000
 30
0.0
 10
1062.000000
 20
1422.000000
 30
0.0
 10
1134.000000
 20
1422.000000
 30
0.0
 10
1134.000000
 20
1440.000000
 30
0.0
 10
1170.000000
 20
1440.000000
 30
0.0
 10
1170.000000
 20
1422.000000
 30
0.0
 10
1206.000000
 20
1422.000000
 30
0.0
 10
1224.000000
 20
1422.000000
 30
0.0
 10
1224.000000
 20
1458.000000
 30
0.0
 10
1206.000000
 20
1458.000000
 30
0.0
 10
1206.000000
 20
1494.000000
 30
0.0
 10
1224.000000
 20
1494.000000
 30
0.0
 10
1224.000000
 20
1548.000000
 30
0.0
 10
1206.000000
 20
1548.000000
 30
0.0
 10
1206.000000
 20
1584.000000
 30
0.0
 10
1224.000000
 20
1584.000000
 30
0.0
 10
1224.000000
 20
1638.000000
 30
0.0
 10
1206.000000
 20
1638.000000
 30
0.0
 10
1206.000000
 20
1674.000000
 30
0.0
 10
1224.000000
 20
1674.000000
 30
0.0
 10
1224.000000
 20
1710.000000
 30
0.0
 10
1206.000000
 20
1710.000000
 30
0.0
 10
1170.000000
 20
1710.000000
 30
0.0
 10
1170.000000
 20
1692.000000
 30
0.0
 10
1134.000000
 20
1692.000000
 30
0.0
 10
1134.000000
 20
1710.000000
 30
0.0
 10
1062.000000
 20
1710.000000
 30
0.0
 10
1062.000000
 20
1692.000000
 30
0.0
 10
1026.000000
 20
1692.000000
 30
0.0
 10
1026.000000
 20
1710.000000
 30
0.0
 10
990.000000
 20
1710.000000
 30
0.0
 10
972.000000
 20
1710.000000
 30
0.0
 10
972.000000
 20
1710.000000
 30
0.0
  0
LWPOLYLINE
  5
105
100
AcDbEntity
  8
Layer_1
 62
1
100
AcDbPolyline
 90
6
 70
0
 10
1062.000000
 20
1638.000000
 30
0.0
 10
1134.000000
 20
1638.000000
 30
0.0
 10
1134.000000
 20
1494.000000
 30
0.0
 10
1062.000000
 20
1494.000000
 30
0.0
 10
1062.000000
 20
1638.000000
 30
0.0
 10
1062.000000
 20
1638.000000
 30
0.0
  0
LWPOLYLINE
  5
106
100
AcDbEntity
  8
Layer_1
 62
1
100
AcDbPolyline
 90
22
 70
1
 10
1350.000000
 20
1332.000000
 30
0.0
 10
1350.000000
 20
1350.000000
 30
0.0
 10
1386.000000
 20
1350.000000
 30
0.0
 10
1386.000000
 20
1386.000000
 30
0.0
 10
1404.000000
 20
1386.000000
 30
0.0
 10
1404.000000
 20
1422.000000
 30
0.0
 10
1386.000000
 20
1422.000000
 30
0.0
 10
1386.000000
 20
1458.000000
 30
0.0
 10
1350.000000
 20
1458.000000
 30
0.0
 10
1350.000000
 20
1476.000000
 30
0.0
 10
1314.000000
 20
1476.000000
 30
0.0
 10
1314.000000
 20
1458.000000
 30
0.0
 10
1278.000000
 20
1458.000000
 30
0.0
 10
1278.000000
 20
1422.000000
 30
0.0
 10
1296.000000
 20
1422.000000
 30
0.0
 10
1296.000000
 20
1386.000000
 30
0.0
 10
1278.000000
 20
1386.000000
 30
0.0
 10
1278.000000
 20
1350.000000
 30
0.0
 10
1314.000000
 20
1350.000000
 30
0.0
 10
1314.000000
 20
1332.000000
 30
0.0
 10
1350.000000
 20
1332.000000
 30
0.0
 10
1350.000000
 20
1332.000000
 30
0.0
  0
LWPOLYLINE
  5
107
100
AcDbEntity
  8
Layer_1
 62
1
100
AcDbPolyline
 90
6
 70
1
 10
1368.000000
 20
1386.000000
 30
0.0
 10
1332.000000
 20
1386.000000
 30
0.0
 10
1332.000000
 20
1422.000000
 30
0.0
 10
1368.000000
 20
1422.000000
 30
0.0
 10
1368.000000
 20
1386.000000
 30
0.0
 10
1368.000000
 20
1386.000000
 30
0.0
  0
LWPOLYLINE
  5
108
100
AcDbEntity
  8
Layer_1
 62
1
100
AcDbPolyline
 90
22
 70
1
 10
414.000000
 20
1404.000000
 30
0.0
 10
414.000000
 20
1386.000000
 30
0.0
 10
378.000000
 20
1386.000000
 30
0.0
 10
378.000000
 20
1350.000000
 30
0.0
 10
360.000000
 20
1350.000000
 30
0.0
 10
360.000000
 20
1314.000000
 30
0.0
 10
378.000000
 20
1314.000000
 30
0.0
 10
378.000000
 20
1278.000000
 30
0.0
 10
414.000000
 20
1278.000000
 30
0.0
 10
414.000000
 20
1260.000000
 30
0.0
 10
450.000000
 20
1260.000000
 30
0.0
 10
450.000000
 20
1278.000000
 30
0.0
 10
486.000000
 20
1278.000000
 30
0.0
 10
486.000000
 20
1314.000000
 30
0.0
 10
504.000000
 20
1314.000000
 30
0.0
 10
504.000000
 20
1350.000000
 30
0.0
 10
486.000000
 20
1350.000000
 30
0.0
 10
486.000000
 20
1386.000000
 30
0.0
 10
450.000000
 20
1386.000000
 30
0.0
 10
450.000000
 20
1404.000000
 30
0.0
 10
414.000000
 20
1404.000000
 30
0.0
 10
414.000000
 20
1404.000000
 30
0.0
  0
LWPOLYLINE
  5
109
100
AcDbEntity
  8
Layer_1
 62
1
100
AcDbPolyline
 90
5
 70
1
 10
486.000000
 20
1170.000008
 30
0.0
 10
522.000000
 20
1170.000008
 30
0.0
 10
522.000000
 20
1134.000008
 30
0.0
 10
486.000000
 20
1134.000008
 30
0.0
 10
486.000000
 20
1170.000008
 30
0.0
  0
LWPOLYLINE
  5
10a
100
AcDbEntity
  8
Layer_1
 62
1
100
AcDbPolyline
 90
22
 70
1
 10
954.000000
 20
1350.000000
 30
0.0
 10
954.000000
 20
1332.000000
 30
0.0
 10
918.000000
 20
1332.000000
 30
0.0
 10
918.000000
 20
1296.000000
 30
0.0
 10
900.000000
 20
1296.000000
 30
0.0
 10
900.000000
 20
1260.000000
 30
0.0
 10
918.000000
 20
1260.000000
 30
0.0
 10
918.000000
 20
1224.000000
 30
0.0
 10
954.000000
 20
1224.000000
 30
0.0
 10
954.000000
 20
1242.000000
 30
0.0
 10
990.000000
 20
1242.000000
 30
0.0
 10
990.000000
 20
1224.000000
 30
0.0
 10
1026.000000
 20
1224.000000
 30
0.0
 10
1026.000000
 20
1260.000000
 30
0.0
 10
1044.000000
 20
1260.000000
 30
0.0
 10
1044.000000
 20
1296.000000
 30
0.0
 10
1026.000000
 20
1296.000000
 30
0.0
 10
1026.000000
 20
1332.000000
 30
0.0
 10
990.000000
 20
1332.000000
 30
0.0
 10
990.000000
 20
1350.000000
 30
0.0
 10
954.000000
 20
1350.000000
 30
0.0
 10
954.000000
 20
1350.000000
 30
0.0
  0
LWPOLYLINE
  5
10b
100
AcDbEntity
  8
Layer_1
 62
1
100
AcDbPolyline
 90
6
 70
1
 10
954.000000
 20
1314.000000
 30
0.0
 10
990.000000
 20
1314.000000
 30
0.0
 10
990.000000
 20
1278.000000
 30
0.0
 10
954.000000
 20
1278.000000
 30
0.0
 10
954.000000
 20
1314.000000
 30
0.0
 10
954.000000
 20
1314.000000
 30
0.0
  0
LWPOLYLINE
  5
10c
100
AcDbEntity
  8
Layer_1
 62
1
100
AcDbPolyline
 90
42
 70
0
 10
18.000000
 20
1710.000000
 30
0.0
 10
18.000000
 20
1692.000000
 30
0.0
 10
18.000000
 20
1656.000000
 30
0.0
 10
36.000000
 20
1656.000000
 30
0.0
 10
36.000000
 20
1620.000000
 30
0.0
 10
18.000000
 20
1620.000000
 30
0.0
 10
18.000000
 20
1584.000000
 30
0.0
 10
18.000000
 20
1566.000000
 30
0.0
 10
54.000000
 20
1566.000000
 30
0.0
 10
54.000000
 20
1584.000000
 30
0.0
 10
90.000000
 20
1584.000000
 30
0.0
 10
90.000000
 20
1566.000000
 30
0.0
 10
144.000000
 20
1566.000000
 30
0.0
 10
144.000000
 20
1584.000000
 30
0.0
 10
180.000000
 20
1584.000000
 30
0.0
 10
180.000000
 20
1566.000000
 30
0.0
 10
234.000000
 20
1566.000000
 30
0.0
 10
234.000000
 20
1584.000000
 30
0.0
 10
270.000000
 20
1584.000000
 30
0.0
 10
270.000000
 20
1566.000000
 30
0.0
 10
306.000000
 20
1566.000000
 30
0.0
 10
306.000000
 20
1584.000000
 30
0.0
 10
306.000000
 20
1620.000000
 30
0.0
 10
288.000000
 20
1620.000000
 30
0.0
 10
288.000000
 20
1656.000000
 30
0.0
 10
306.000000
 20
1656.000000
 30
0.0
 10
306.000000
 20
1692.000000
 30
0.0
 10
306.000000
 20
1710.000000
 30
0.0
 10
270.000000
 20
1710.000000
 30
0.0
 10
270.000000
 20
1692.000000
 30
0.0
 10
234.000000
 20
1692.000000
 30
0.0
 10
234.000000
 20
1710.000000
 30
0.0
 10
180.000000
 20
1710.000000
 30
0.0
 10
180.000000
 20
1692.000000
 30
0.0
 10
144.000000
 20
1692.000000
 30
0.0
 10
144.000000
 20
1710.000000
 30
0.0
 10
90.000000
 20
1710.000000
 30
0.0
 10
90.000000
 20
1692.000000
 30
0.0
 10
54.000000
 20
1692.000000
 30
0.0
 10
54.000000
 20
1710.000000
 30
0.0
 10
18.000000
 20
1710.000000
 30
0.0
 10
18.000000
 20
1710.000000
 30
0.0
  0
LWPOLYLINE
  5
10d
100
AcDbEntity
  8
Layer_1
 62
1
100
AcDbPolyline
 90
6
 70
0
 10
72.000000
 20
1656.000000
 30
0.0
 10
252.000000
 20
1656.000000
 30
0.0
 10
252.000000
 20
1620.000000
 30
0.0
 10
72.000000
 20
1620.000000
 30
0.0
 10
72.000000
 20
1656.000000
 30
0.0
 10
72.000000
 20
1656.000000
 30
0.0
  0
LWPOLYLINE
  5
10e
100
AcDbEntity
  8
Layer_1
 62
1
100
AcDbPolyline
 90
22
 70
1
 10
648.000000
 20
1494.000000
 30
0.0
 10
648.000000
 20
1440.000000
 30
0.0
 10
630.000000
 20
1440.000000
 30
0.0
 10
630.000000
 20
1404.000000
 30
0.0
 10
648.000000
 20
1404.000000
 30
0.0
 10
648.000000
 20
1350.000000
 30
0.0
 10
684.000000
 20
1350.000000
 30
0.0
 10
684.000000
 20
1332.000000
 30
0.0
 10
720.000000
 20
1332.000000
 30
0.0
 10
720.000000
 20
1350.000000
 30
0.0
 10
792.000000
 20
1350.000000
 30
0.0
 10
792.000000
 20
1332.000000
 30
0.0
 10
828.000000
 20
1332.000000
 30
0.0
 10
828.000000
 20
1350.000000
 30
0.0
 10
864.000000
 20
1350.000000
 30
0.0
 10
864.000000
 20
1404.000000
 30
0.0
 10
882.000000
 20
1404.000000
 30
0.0
 10
882.000000
 20
1440.000000
 30
0.0
 10
864.000000
 20
1440.000000
 30
0.0
 10
864.000000
 20
1494.000000
 30
0.0
 10
648.000000
 20
1494.000000
 30
0.0
 10
648.000000
 20
1494.000000
 30
0.0
  0
LWPOLYLINE
  5
10f
100
AcDbEntity
  8
Layer_1
 62
1
100
AcDbPolyline
 90
30
 70
1
 10
1278.000000
 20
1602.000000
 30
0.0
 10
1296.000000
 20
1602.000000
 30
0.0
 10
1296.000000
 20
1548.000000
 30
0.0
 10
1332.000000
 20
1548.000000
 30
0.0
 10
1332.000000
 20
1530.000000
 30
0.0
 10
1368.000000
 20
1530.000000
 30
0.0
 10
1368.000000
 20
1548.000000
 30
0.0
 10
1440.000000
 20
1548.000000
 30
0.0
 10
1440.000000
 20
1530.000000
 30
0.0
 10
1476.000000
 20
1530.000000
 30
0.0
 10
1476.000000
 20
1548.000000
 30
0.0
 10
1512.000000
 20
1548.000000
 30
0.0
 10
1512.000000
 20
1602.000000
 30
0.0
 10
1530.000000
 20
1602.000000
 30
0.0
 10
1530.000000
 20
1638.000000
 30
0.0
 10
1512.000000
 20
1638.000000
 30
0.0
 10
1512.000000
 20
1692.000000
 30
0.0
 10
1476.000000
 20
1692.000000
 30
0.0
 10
1476.000000
 20
1710.000000
 30
0.0
 10
1440.000000
 20
1710.000000
 30
0.0
 10
1440.000000
 20
1692.000000
 30
0.0
 10
1368.000000
 20
1692.000000
 30
0.0
 10
1368.000000
 20
1710.000000
 30
0.0
 10
1332.000000
 20
1710.000000
 30
0.0
 10
1332.000000
 20
1692.000000
 30
0.0
 10
1296.000000
 20
1692.000000
 30
0.0
 10
1296.000000
 20
1638.000000
 30
0.0
 10
1278.000000
 20
1638.000000
 30
0.0
 10
1278.000000
 20
1602.000000
 30
0.0
 10
1278.000000
 20
1602.000000
 30
0.0
  0
LWPOLYLINE
  5
110
100
AcDbEntity
  8
Layer_1
 62
1
100
AcDbPolyline
 90
50
 70
1
 10
1458.000000
 20
1206.000000
 30
0.0
 10
1476.000000
 20
1206.000000
 30
0.0
 10
1512.000000
 20
1206.000000
 30
0.0
 10
1512.000000
 20
1224.000000
 30
0.0
 10
1548.000000
 20
1224.000000
 30
0.0
 10
1548.000000
 20
1206.000000
 30
0.0
 10
1620.000000
 20
1206.000000
 30
0.0
 10
1620.000000
 20
1224.000000
 30
0.0
 10
1656.000000
 20
1224.000000
 30
0.0
 10
1656.000000
 20
1206.000000
 30
0.0
 10
1692.000000
 20
1206.000000
 30
0.0
 10
1710.000000
 20
1206.000000
 30
0.0
 10
1710.000000
 20
1242.000000
 30
0.0
 10
1692.000000
 20
1242.000000
 30
0.0
 10
1692.000000
 20
1278.000000
 30
0.0
 10
1710.000000
 20
1278.000000
 30
0.0
 10
1710.000000
 20
1332.000000
 30
0.0
 10
1692.000000
 20
1332.000000
 30
0.0
 10
1692.000000
 20
1368.000000
 30
0.0
 10
1710.000000
 20
1368.000000
 30
0.0
 10
1710.000000
 20
1422.000000
 30
0.0
 10
1692.000000
 20
1422.000000
 30
0.0
 10
1692.000000
 20
1458.000000
 30
0.0
 10
1710.000000
 20
1458.000000
 30
0.0
 10
1710.000000
 20
1494.000000
 30
0.0
 10
1692.000000
 20
1494.000000
 30
0.0
 10
1656.000000
 20
1494.000000
 30
0.0
 10
1656.000000
 20
1476.000000
 30
0.0
 10
1620.000000
 20
1476.000000
 30
0.0
 10
1620.000000
 20
1494.000000
 30
0.0
 10
1548.000000
 20
1494.000000
 30
0.0
 10
1548.000000
 20
1476.000000
 30
0.0
 10
1512.000000
 20
1476.000000
 30
0.0
 10
1512.000000
 20
1494.000000
 30
0.0
 10
1476.000000
 20
1494.000000
 30
0.0
 10
1458.000000
 20
1494.000000
 30
0.0
 10
1458.000000
 20
1458.000000
 30
0.0
 10
1476.000000
 20
1458.000000
 30
0.0
 10
1476.000000
 20
1422.000000
 30
0.0
 10
1458.000000
 20
1422.000000
 30
0.0
 10
1458.000000
 20
1368.000000
 30
0.0
 10
1476.000000
 20
1368.000000
 30
0.0
 10
1476.000000
 20
1332.000000
 30
0.0
 10
1458.000000
 20
1332.000000
 30
0.0
 10
1458.000000
 20
1278.000000
 30
0.0
 10
1476.000000
 20
1278.000000
 30
0.0
 10
1476.000000
 20
1242.000000
 30
0.0
 10
1458.000000
 20
1242.000000
 30
0.0
 10
1458.000000
 20
1206.000000
 30
0.0
 10
1458.000000
 20
1206.000000
 30
0.0
  0
LWPOLYLINE
  5
111
100
AcDbEntity
  8
Layer_1
 62
1
100
AcDbPolyline
 90
22
 70
1
 10
1134.000000
 20
1242.000000
 30
0.0
 10
1134.000000
 20
1224.000000
 30
0.0
 10
1098.000000
 20
1224.000000
 30
0.0
 10
1098.000000
 20
1170.000000
 30
0.0
 10
1080.000000
 20
1170.000000
 30
0.0
 10
1080.000000
 20
1134.000000
 30
0.0
 10
1098.000000
 20
1134.000000
 30
0.0
 10
1098.000000
 20
1080.000000
 30
0.0
 10
1314.000000
 20
1080.000000
 30
0.0
 10
1314.000000
 20
1134.000000
 30
0.0
 10
1332.000000
 20
1134.000000
 30
0.0
 10
1332.000000
 20
1170.000000
 30
0.0
 10
1314.000000
 20
1170.000000
 30
0.0
 10
1314.000000
 20
1224.000000
 30
0.0
 10
1278.000000
 20
1224.000000
 30
0.0
 10
1278.000000
 20
1242.000000
 30
0.0
 10
1242.000000
 20
1242.000000
 30
0.0
 10
1242.000000
 20
1224.000000
 30
0.0
 10
1170.000000
 20
1224.000000
 30
0.0
 10
1170.000000
 20
1242.000000
 30
0.0
 10
1134.000000
 20
1242.000000
 30
0.0
 10
1134.000000
 20
1242.000000
 30
0.0
  0
LWPOLYLINE
  5
112
100
AcDbEntity
  8
Layer_1
 62
1
100
AcDbPolyline
 90
6
 70
1
 10
1170.000000
 20
1188.000000
 30
0.0
 10
1242.000000
 20
1188.000000
 30
0.0
 10
1242.000000
 20
1134.000000
 30
0.0
 10
1170.000000
 20
1134.000000
 30
0.0
 10
1170.000000
 20
1188.000000
 30
0.0
 10
1170.000000
 20
1188.000000
 30
0.0
  0
LWPOLYLINE
  5
113
100
AcDbEntity
  8
Layer_1
 62
1
100
AcDbPolyline
 90
42
 70
1
 10
36.000000
 20
1350.000000
 30
0.0
 10
36.000000
 20
1332.000000
 30
0.0
 10
36.000000
 20
1296.000000
 30
0.0
 10
54.000000
 20
1296.000000
 30
0.0
 10
54.000000
 20
1260.000000
 30
0.0
 10
36.000000
 20
1260.000000
 30
0.0
 10
36.000000
 20
1224.000000
 30
0.0
 10
36.000000
 20
1206.000000
 30
0.0
 10
72.000000
 20
1206.000000
 30
0.0
 10
72.000000
 20
1224.000000
 30
0.0
 10
108.000000
 20
1224.000000
 30
0.0
 10
108.000000
 20
1206.000000
 30
0.0
 10
162.000000
 20
1206.000000
 30
0.0
 10
162.000000
 20
1224.000000
 30
0.0
 10
198.000000
 20
1224.000000
 30
0.0
 10
198.000000
 20
1206.000000
 30
0.0
 10
252.000000
 20
1206.000000
 30
0.0
 10
252.000000
 20
1224.000000
 30
0.0
 10
288.000000
 20
1224.000000
 30
0.0
 10
288.000000
 20
1206.000000
 30
0.0
 10
324.000000
 20
1206.000000
 30
0.0
 10
324.000000
 20
1224.000000
 30
0.0
 10
324.000000
 20
1260.000000
 30
0.0
 10
306.000000
 20
1260.000000
 30
0.0
 10
306.000000
 20
1296.000000
 30
0.0
 10
324.000000
 20
1296.000000
 30
0.0
 10
324.000000
 20
1332.000000
 30
0.0
 10
324.000000
 20
1350.000000
 30
0.0
 10
288.000000
 20
1350.000000
 30
0.0
 10
288.000000
 20
1332.000000
 30
0.0
 10
252.000000
 20
1332.000000
 30
0.0
 10
252.000000
 20
1350.000000
 30
0.0
 10
198.000000
 20
1350.000000
 30
0.0
 10
198.000000
 20
1332.000000
 30
0.0
 10
162.000000
 20
1332.000000
 30
0.0
 10
162.000000
 20
1350.000000
 30
0.0
 10
108.000000
 20
1350.000000
 30
0.0
 10
108.000000
 20
1332.000000
 30
0.0
 10
72.000000
 20
1332.000000
 30
0.0
 10
72.000000
 20
1350.000000
 30
0.0
 10
36.000000
 20
1350.000000
 30
0.0
 10
36.000000
 20
1350.000000
 30
0.0
  0
LWPOLYLINE
  5
114
100
AcDbEntity
  8
Layer_1
 62
1
100
AcDbPolyline
 90
22
 70
1
 10
1170.000000
 20
1404.000000
 30
0.0
 10
1170.000000
 20
1386.000000
 30
0.0
 10
1134.000000
 20
1386.000000
 30
0.0
 10
1134.000000
 20
1350.000000
 30
0.0
 10
1116.000000
 20
1350.000000
 30
0.0
 10
1116.000000
 20
1314.000000
 30
0.0
 10
1134.000000
 20
1314.000000
 30
0.0
 10
1134.000000
 20
1278.000000
 30
0.0
 10
1170.000000
 20
1278.000000
 30
0.0
 10
1170.000000
 20
1260.000000
 30
0.0
 10
1206.000000
 20
1260.000000
 30
0.0
 10
1206.000000
 20
1278.000000
 30
0.0
 10
1242.000000
 20
1278.000000
 30
0.0
 10
1242.000000
 20
1314.000000
 30
0.0
 10
1260.000000
 20
1314.000000
 30
0.0
 10
1260.000000
 20
1350.000000
 30
0.0
 10
1242.000000
 20
1350.000000
 30
0.0
 10
1242.000000
 20
1386.000000
 30
0.0
 10
1206.000000
 20
1386.000000
 30
0.0
 10
1206.000000
 20
1404.000000
 30
0.0
 10
1170.000000
 20
1404.000000
 30
0.0
 10
1170.000000
 20
1404.000000
 30
0.0
  0
LWPOLYLINE
  5
115
100
AcDbEntity
  8
Layer_1
 62
1
100
AcDbPolyline
 90
6
 70
1
 10
1170.000000
 20
1350.000000
 30
0.0
 10
1206.000000
 20
1350.000000
 30
0.0
 10
1206.000000
 20
1314.000000
 30
0.0
 10
1170.000000
 20
1314.000000
 30
0.0
 10
1170.000000
 20
1350.000000
 30
0.0
 10
1170.000000
 20
1350.000000
 30
0.0
  0
LWPOLYLINE
  5
116
100
AcDbEntity
  8
Layer_1
 62
1
100
AcDbPolyline
 90
22
 70
1
 10
72.000001
 20
1530.000000
 30
0.0
 10
72.000001
 20
1512.000000
 30
0.0
 10
36.000001
 20
1512.000000
 30
0.0
 10
36.000001
 20
1476.000000
 30
0.0
 10
18.000000
 20
1476.000000
 30
0.0
 10
18.000000
 20
1440.000000
 30
0.0
 10
36.000001
 20
1440.000000
 30
0.0
 10
36.000001
 20
1404.000000
 30
0.0
 10
72.000001
 20
1404.000000
 30
0.0
 10
72.000001
 20
1386.000000
 30
0.0
 10
108.000000
 20
1386.000000
 30
0.0
 10
108.000000
 20
1404.000000
 30
0.0
 10
144.000000
 20
1404.000000
 30
0.0
 10
144.000000
 20
1440.000000
 30
0.0
 10
126.000000
 20
1440.000000
 30
0.0
 10
126.000000
 20
1476.000000
 30
0.0
 10
144.000000
 20
1476.000000
 30
0.0
 10
144.000000
 20
1512.000000
 30
0.0
 10
108.000000
 20
1512.000000
 30
0.0
 10
108.000000
 20
1530.000000
 30
0.0
 10
72.000001
 20
1530.000000
 30
0.0
 10
72.000001
 20
1530.000000
 30
0.0
  0
LWPOLYLINE
  5
117
100
AcDbEntity
  8
Layer_1
 62
1
100
AcDbPolyline
 90
22
 70
1
 10
180.000000
 20
1476.000000
 30
0.0
 10
198.000000
 20
1476.000000
 30
0.0
 10
198.000000
 20
1512.000000
 30
0.0
 10
234.000000
 20
1512.000000
 30
0.0
 10
234.000000
 20
1530.000000
 30
0.0
 10
270.000000
 20
1530.000000
 30
0.0
 10
270.000000
 20
1512.000000
 30
0.0
 10
306.000000
 20
1512.000000
 30
0.0
 10
306.000000
 20
1476.000000
 30
0.0
 10
324.000000
 20
1476.000000
 30
0.0
 10
324.000000
 20
1440.000000
 30
0.0
 10
306.000000
 20
1440.000000
 30
0.0
 10
306.000000
 20
1404.000000
 30
0.0
 10
270.000000
 20
1404.000000
 30
0.0
 10
270.000000
 20
1422.000000
 30
0.0
 10
234.000000
 20
1422.000000
 30
0.0
 10
234.000000
 20
1404.000000
 30
0.0
 10
198.000000
 20
1404.000000
 30
0.0
 10
198.000000
 20
1440.000000
 30
0.0
 10
180.000000
 20
1440.000000
 30
0.0
 10
180.000000
 20
1476.000000
 30
0.0
 10
180.000000
 20
1476.000000
 30
0.0
  0
ENDSEC
  0
SECTION
  2
OBJECTS
  0
DICTIONARY
  5
C
330
0
100
AcDbDictionary
  3
ACAD_GROUP
350
D
  3
ACAD_MLINESTYLE
350
17
  0
DICTIONARY
  5
D
330
C
100
AcDbDictionary
  0
DICTIONARY
  5
1A
330
C
100
AcDbDictionary
  0
DICTIONARY
  5
17
330
C
100
AcDbDictionary
  3
STANDARD
350
18
  0
DICTIONARY
  5
19
330
C
100
AcDbDictionary
  0
ENDSEC
  0
EOF
