  0
SECTION
  2
HEADER
  9
$ACADVER
  1
AC1014
  9
$HANDSEED
  5
FFFF
  9
$MEASUREMENT
 70
     1
  0
ENDSEC
  0
SECTION
  2
TABLES
  0
TABLE
  2
VPORT
  5
8
330
0
100
AcDbSymbolTable
 70
     4
  0
VPORT
  5
2E
330
8
100
AcDbSymbolTableRecord
100
AcDbViewportTableRecord
  2
*ACTIVE
 70
     0
 10
0.0
 20
0.0
 11
1.0
 21
1.0
 12
210.0
 22
148.5
 13
0.0
 23
0.0
 14
10.0
 24
10.0
 15
10.0
 25
10.0
 16
0.0
 26
0.0
 36
1.0
 17
0.0
 27
0.0
 37
0.0
 40
341.0
 41
1.24
 42
50.0
 43
0.0
 44
0.0
 50
0.0
 51
0.0
 71
     0
 72
   100
 73
     1
 74
     3
 75
     0
 76
     0
 77
     0
 78
     0
  0
ENDTAB
  0
TABLE
  2
LTYPE
  5
5
330
0
100
AcDbSymbolTable
 70
     1
  0
LTYPE
  5
14
330
5
100
AcDbSymbolTableRecord
100
AcDbLinetypeTableRecord
  2
BYBLOCK
 70
     0
  3

 72
    65
 73
     0
 40
0.0
  0
LTYPE
  5
15
330
5
100
AcDbSymbolTableRecord
100
AcDbLinetypeTableRecord
  2
BYLAYER
 70
     0
  3

 72
    65
 73
     0
 40
0.0
  0
LTYPE
  5
16
330
5
100
AcDbSymbolTableRecord
100
AcDbLinetypeTableRecord
  2
CONTINUOUS
 70
     0
  3
Solid line
 72
    65
 73
     0
 40
0.0
  0
ENDTAB
  0
TABLE
  2
LAYER
  5
2
100
AcDbSymbolTable
 70
4
  0
LAYER
  5
50
100
AcDbSymbolTableRecord
100
AcDbLayerTableRecord
  2
0
 70
0
  6
CONTINUOUS
  0
LAYER
  5
51
100
AcDbSymbolTableRecord
100
AcDbLayerTableRecord
  2
AM_5
 70
0
  6
CONTINUOUS
  0
LAYER
  5
52
100
AcDbSymbolTableRecord
100
AcDbLayerTableRecord
  2
Defpoints
 70
0
  6
CONTINUOUS
  0
LAYER
  5
53
100
AcDbSymbolTableRecord
100
AcDbLayerTableRecord
  2
ADSK_CONSTRAINTS
 70
0
  6
CONTINUOUS
  0
ENDTAB
  0
TABLE
  2
STYLE
  5
3
330
0
100
AcDbSymbolTable
 70
     1
  0
STYLE
  5
11
330
3
100
AcDbSymbolTableRecord
100
AcDbTextStyleTableRecord
  2
STANDARD
 70
     0
 40
0.0
 41
1.0
 50
0.0
 71
     0
 42
2.5
  3
txt
  4

  0
ENDTAB
  0
TABLE
  2
VIEW
  5
6
330
0
100
AcDbSymbolTable
 70
     0
  0
ENDTAB
  0
TABLE
  2
UCS
  5
7
330
0
100
AcDbSymbolTable
 70
     0
  0
ENDTAB
  0
TABLE
  2
APPID
  5
9
330
0
100
AcDbSymbolTable
 70
     2
  0
APPID
  5
12
330
9
100
AcDbSymbolTableRecord
100
AcDbRegAppTableRecord
  2
ACAD
 70
     0
  0
ENDTAB
  0
TABLE
  2
DIMSTYLE
  5
A
330
0
100
AcDbSymbolTable
 70
     1
  0
DIMSTYLE
105
27
330
A
100
AcDbSymbolTableRecord
100
AcDbDimStyleTableRecord
  2
ISO-25
 70
     0
  3

  4

  5

  6

  7

 40
1.0
 41
2.5
 42
0.625
 43
3.75
 44
1.25
 45
0.0
 46
0.0
 47
0.0
 48
0.0
140
2.5
141
2.5
142
0.0
143
0.03937007874016
144
1.0
145
0.0
146
1.0
147
0.625
 71
     0
 72
     0
 73
     0
 74
     0
 75
     0
 76
     0
 77
     1
 78
     8
170
     0
171
     3
172
     1
173
     0
174
     0
175
     0
176
     0
177
     0
178
     0
270
     2
271
     2
272
     2
273
     2
274
     3
340
11
275
     0
280
     0
281
     0
282
     0
283
     0
284
     8
285
     0
286
     0
287
     3
288
     0
  0
ENDTAB
  0
TABLE
  2
BLOCK_RECORD
  5
1
330
0
100
AcDbSymbolTable
 70
     1
  0
BLOCK_RECORD
  5
1F
330
1
100
AcDbSymbolTableRecord
100
AcDbBlockTableRecord
  2
*MODEL_SPACE
  0
BLOCK_RECORD
  5
1B
330
1
100
AcDbSymbolTableRecord
100
AcDbBlockTableRecord
  2
*PAPER_SPACE
  0
ENDTAB
  0
ENDSEC
  0
SECTION
  2
BLOCKS
  0
BLOCK
  5
20
330
1F
100
AcDbEntity
  8
0
100
AcDbBlockBegin
  2
*MODEL_SPACE
 70
     0
 10
0.0
 20
0.0
 30
0.0
  3
*MODEL_SPACE
  1

  0
ENDBLK
  5
21
330
1F
100
AcDbEntity
  8
0
100
AcDbBlockEnd
  0
BLOCK
  5
1C
330
1B
100
AcDbEntity
 67
     1
  8
0
100
AcDbBlockBegin
  2
*PAPER_SPACE
  1

  0
ENDBLK
  5
1D
330
1B
100
AcDbEntity
 67
     1
  8
0
100
AcDbBlockEnd
  0
ENDSEC
  0
SECTION
  2
ENTITIES
  0
SPLINE
  5
100
100
AcDbEntity
  8
0
 62
1
100
AcDbSpline
 70
8
 71
3
 72
8
 73
4
 74
0
 40
0
 40
0
 40
0
 40
0
 40
1
 40
1
 40
1
 40
1
 10
498.814152
 20
241.256575
 30
0.0
 10
498.814152
 20
241.256575
 30
0.0
 10
226.690064
 20
241.256575
 30
0.0
 10
226.690064
 20
241.256575
 30
0.0
  0
SPLINE
  5
101
100
AcDbEntity
  8
0
 62
1
100
AcDbSpline
 70
8
 71
3
 72
8
 73
4
 74
0
 40
0
 40
0
 40
0
 40
0
 40
1
 40
1
 40
1
 40
1
 10
226.690064
 20
241.256575
 30
0.0
 10
184.537658
 20
279.610091
 30
0.0
 10
122.058368
 20
285.349618
 30
0.0
 10
73.623878
 20
255.317674
 30
0.0
  0
SPLINE
  5
102
100
AcDbEntity
  8
0
 62
1
100
AcDbSpline
 70
8
 71
3
 72
8
 73
4
 74
0
 40
0
 40
0
 40
0
 40
0
 40
1
 40
1
 40
1
 40
1
 10
73.623878
 20
255.317674
 30
0.0
 10
25.189388
 20
225.285730
 30
0.0
 10
2.552107
 20
166.769430
 30
0.0
 10
18.165465
 20
111.960301
 30
0.0
  0
SPLINE
  5
103
100
AcDbEntity
  8
0
 62
1
100
AcDbSpline
 70
8
 71
3
 72
8
 73
4
 74
0
 40
0
 40
0
 40
0
 40
0
 40
1
 40
1
 40
1
 40
1
 10
18.165465
 20
111.960301
 30
0.0
 10
33.778823
 20
57.151173
 30
0.0
 10
83.854310
 20
19.348402
 30
0.0
 10
140.843936
 20
19.348399
 30
0.0
  0
SPLINE
  5
104
100
AcDbEntity
  8
0
 62
1
100
AcDbSpline
 70
8
 71
3
 72
8
 73
4
 74
0
 40
0
 40
0
 40
0
 40
0
 40
1
 40
1
 40
1
 40
1
 10
584.660280
 20
19.348399
 30
0.0
 10
641.649906
 20
19.348402
 30
0.0
 10
691.725393
 20
57.151173
 30
0.0
 10
707.338751
 20
111.960301
 30
0.0
  0
SPLINE
  5
105
100
AcDbEntity
  8
0
 62
1
100
AcDbSpline
 70
8
 71
3
 72
8
 73
4
 74
0
 40
0
 40
0
 40
0
 40
0
 40
1
 40
1
 40
1
 40
1
 10
707.338751
 20
111.960301
 30
0.0
 10
722.952109
 20
166.769430
 30
0.0
 10
700.314828
 20
225.285730
 30
0.0
 10
651.880338
 20
255.317674
 30
0.0
  0
SPLINE
  5
106
100
AcDbEntity
  8
0
 62
1
100
AcDbSpline
 70
8
 71
3
 72
8
 73
4
 74
0
 40
0
 40
0
 40
0
 40
0
 40
1
 40
1
 40
1
 40
1
 10
651.880338
 20
255.317674
 30
0.0
 10
603.445848
 20
285.349618
 30
0.0
 10
540.966558
 20
279.610091
 30
0.0
 10
498.814152
 20
241.256575
 30
0.0
  0
LWPOLYLINE
  5
107
100
AcDbEntity
  8
0
 62
1
100
AcDbPolyline
 90
2
 70
1
 10
140.843936
 20
19.348399
 30
0.0
 10
584.660280
 20
19.348399
 30
0.0
  0
LWPOLYLINE
  5
108
100
AcDbEntity
  8
0
 62
1
100
AcDbPolyline
 90
2
 70
1
 10
498.814152
 20
241.256575
 30
0.0
 10
498.814152
 20
241.256575
 30
0.0
  0
LWPOLYLINE
  5
109
100
AcDbEntity
  8
0
 62
1
100
AcDbPolyline
 90
7
 70
1
 10
362.752104
 20
222.831375
 30
0.0
 10
371.256048
 20
222.831375
 30
0.0
 10
371.256048
 20
231.335311
 30
0.0
 10
354.248168
 20
231.335311
 30
0.0
 10
354.248168
 20
222.831375
 30
0.0
 10
362.752104
 20
222.831375
 30
0.0
 10
362.752104
 20
222.831375
 30
0.0
  0
LWPOLYLINE
  5
10a
100
AcDbEntity
  8
0
 62
1
100
AcDbPolyline
 90
7
 70
1
 10
419.445024
 20
222.831375
 30
0.0
 10
427.948960
 20
222.831375
 30
0.0
 10
427.948960
 20
231.335311
 30
0.0
 10
410.941080
 20
231.335311
 30
0.0
 10
410.941080
 20
222.831375
 30
0.0
 10
419.445024
 20
222.831375
 30
0.0
 10
419.445024
 20
222.831375
 30
0.0
  0
LWPOLYLINE
  5
10b
100
AcDbEntity
  8
0
 62
1
100
AcDbPolyline
 90
7
 70
1
 10
476.137936
 20
222.831375
 30
0.0
 10
484.641872
 20
222.831375
 30
0.0
 10
484.641872
 20
231.335311
 30
0.0
 10
467.634000
 20
231.335311
 30
0.0
 10
467.634000
 20
222.831375
 30
0.0
 10
476.137936
 20
222.831375
 30
0.0
 10
476.137936
 20
222.831375
 30
0.0
  0
LWPOLYLINE
  5
10c
100
AcDbEntity
  8
0
 62
1
100
AcDbPolyline
 90
7
 70
1
 10
584.660280
 20
256.041311
 30
0.0
 10
593.164216
 20
256.041311
 30
0.0
 10
593.164216
 20
264.545255
 30
0.0
 10
576.156344
 20
264.545255
 30
0.0
 10
576.156344
 20
256.041311
 30
0.0
 10
584.660280
 20
256.041311
 30
0.0
 10
584.660280
 20
256.041311
 30
0.0
  0
LWPOLYLINE
  5
10d
100
AcDbEntity
  8
0
 62
1
100
AcDbPolyline
 90
7
 70
1
 10
693.714384
 20
146.827703
 30
0.0
 10
693.714384
 20
138.323767
 30
0.0
 10
702.218320
 20
138.323767
 30
0.0
 10
702.218320
 20
155.331639
 30
0.0
 10
693.714384
 20
155.331639
 30
0.0
 10
693.714384
 20
146.827703
 30
0.0
 10
693.714384
 20
146.827703
 30
0.0
  0
LWPOLYLINE
  5
10e
100
AcDbEntity
  8
0
 62
1
100
AcDbPolyline
 90
7
 70
1
 10
584.660280
 20
29.269679
 30
0.0
 10
593.164216
 20
29.269679
 30
0.0
 10
593.164216
 20
37.773599
 30
0.0
 10
576.156344
 20
37.773599
 30
0.0
 10
576.156344
 20
29.269679
 30
0.0
 10
584.660280
 20
29.269679
 30
0.0
 10
584.660280
 20
29.269679
 30
0.0
  0
LWPOLYLINE
  5
10f
100
AcDbEntity
  8
0
 62
1
100
AcDbPolyline
 90
7
 70
1
 10
667.842760
 20
230.089943
 30
0.0
 10
661.829568
 20
236.103127
 30
0.0
 10
655.816376
 20
230.089943
 30
0.0
 10
667.842760
 20
218.063559
 30
0.0
 10
673.855952
 20
224.076751
 30
0.0
 10
667.842760
 20
230.089943
 30
0.0
 10
667.842760
 20
230.089943
 30
0.0
  0
LWPOLYLINE
  5
110
100
AcDbEntity
  8
0
 62
1
100
AcDbPolyline
 90
7
 70
1
 10
667.842760
 20
63.724975
 30
0.0
 10
661.829568
 20
57.711783
 30
0.0
 10
655.816376
 20
63.724975
 30
0.0
 10
667.842760
 20
75.751359
 30
0.0
 10
673.855952
 20
69.738167
 30
0.0
 10
667.842760
 20
63.724975
 30
0.0
 10
667.842760
 20
63.724975
 30
0.0
  0
LWPOLYLINE
  5
111
100
AcDbEntity
  8
0
 62
1
100
AcDbPolyline
 90
7
 70
1
 10
419.445024
 20
37.773599
 30
0.0
 10
427.948960
 20
37.773599
 30
0.0
 10
427.948960
 20
29.269679
 30
0.0
 10
410.941080
 20
29.269679
 30
0.0
 10
410.941080
 20
37.773599
 30
0.0
 10
419.445024
 20
37.773599
 30
0.0
 10
419.445024
 20
37.773599
 30
0.0
  0
LWPOLYLINE
  5
112
100
AcDbEntity
  8
0
 62
1
100
AcDbPolyline
 90
7
 70
1
 10
476.137936
 20
37.773599
 30
0.0
 10
484.641872
 20
37.773599
 30
0.0
 10
484.641872
 20
29.269679
 30
0.0
 10
467.634000
 20
29.269679
 30
0.0
 10
467.634000
 20
37.773599
 30
0.0
 10
476.137936
 20
37.773599
 30
0.0
 10
476.137936
 20
37.773599
 30
0.0
  0
LWPOLYLINE
  5
113
100
AcDbEntity
  8
0
 62
1
100
AcDbPolyline
 90
7
 70
1
 10
306.059192
 20
222.831375
 30
0.0
 10
297.555256
 20
222.831375
 30
0.0
 10
297.555256
 20
231.335311
 30
0.0
 10
314.563128
 20
231.335311
 30
0.0
 10
314.563128
 20
222.831375
 30
0.0
 10
306.059192
 20
222.831375
 30
0.0
 10
306.059192
 20
222.831375
 30
0.0
  0
LWPOLYLINE
  5
114
100
AcDbEntity
  8
0
 62
1
100
AcDbPolyline
 90
7
 70
1
 10
249.366280
 20
222.831375
 30
0.0
 10
240.862344
 20
222.831375
 30
0.0
 10
240.862344
 20
231.335311
 30
0.0
 10
257.870216
 20
231.335311
 30
0.0
 10
257.870216
 20
222.831375
 30
0.0
 10
249.366280
 20
222.831375
 30
0.0
 10
249.366280
 20
222.831375
 30
0.0
  0
LWPOLYLINE
  5
115
100
AcDbEntity
  8
0
 62
1
100
AcDbPolyline
 90
7
 70
1
 10
140.843936
 20
256.041311
 30
0.0
 10
132.340000
 20
256.041311
 30
0.0
 10
132.340000
 20
264.545255
 30
0.0
 10
149.347872
 20
264.545255
 30
0.0
 10
149.347872
 20
256.041311
 30
0.0
 10
140.843936
 20
256.041311
 30
0.0
 10
140.843936
 20
256.041311
 30
0.0
  0
LWPOLYLINE
  5
116
100
AcDbEntity
  8
0
 62
1
100
AcDbPolyline
 90
7
 70
1
 10
31.789830
 20
146.827703
 30
0.0
 10
31.789830
 20
138.323767
 30
0.0
 10
23.285893
 20
138.323767
 30
0.0
 10
23.285893
 20
155.331639
 30
0.0
 10
31.789830
 20
155.331639
 30
0.0
 10
31.789830
 20
146.827703
 30
0.0
 10
31.789830
 20
146.827703
 30
0.0
  0
LWPOLYLINE
  5
117
100
AcDbEntity
  8
0
 62
1
100
AcDbPolyline
 90
7
 70
1
 10
140.843936
 20
29.269679
 30
0.0
 10
132.340000
 20
29.269679
 30
0.0
 10
132.340000
 20
37.773599
 30
0.0
 10
149.347872
 20
37.773599
 30
0.0
 10
149.347872
 20
29.269679
 30
0.0
 10
140.843936
 20
29.269679
 30
0.0
 10
140.843936
 20
29.269679
 30
0.0
  0
LWPOLYLINE
  5
118
100
AcDbEntity
  8
0
 62
1
100
AcDbPolyline
 90
7
 70
1
 10
57.661453
 20
230.089943
 30
0.0
 10
63.674642
 20
236.103127
 30
0.0
 10
69.687834
 20
230.089943
 30
0.0
 10
57.661453
 20
218.063559
 30
0.0
 10
51.648262
 20
224.076751
 30
0.0
 10
57.661453
 20
230.089943
 30
0.0
 10
57.661453
 20
230.089943
 30
0.0
  0
LWPOLYLINE
  5
119
100
AcDbEntity
  8
0
 62
1
100
AcDbPolyline
 90
7
 70
1
 10
57.661453
 20
63.724975
 30
0.0
 10
63.674642
 20
57.711783
 30
0.0
 10
69.687834
 20
63.724975
 30
0.0
 10
57.661453
 20
75.751359
 30
0.0
 10
51.648262
 20
69.738167
 30
0.0
 10
57.661453
 20
63.724975
 30
0.0
 10
57.661453
 20
63.724975
 30
0.0
  0
LWPOLYLINE
  5
11a
100
AcDbEntity
  8
0
 62
1
100
AcDbPolyline
 90
7
 70
1
 10
306.059192
 20
37.773599
 30
0.0
 10
297.555256
 20
37.773599
 30
0.0
 10
297.555256
 20
29.269679
 30
0.0
 10
314.563128
 20
29.269679
 30
0.0
 10
314.563128
 20
37.773599
 30
0.0
 10
306.059192
 20
37.773599
 30
0.0
 10
306.059192
 20
37.773599
 30
0.0
  0
LWPOLYLINE
  5
11b
100
AcDbEntity
  8
0
 62
1
100
AcDbPolyline
 90
7
 70
1
 10
249.366280
 20
37.773599
 30
0.0
 10
240.862344
 20
37.773599
 30
0.0
 10
240.862344
 20
29.269679
 30
0.0
 10
257.870216
 20
29.269679
 30
0.0
 10
257.870216
 20
37.773599
 30
0.0
 10
249.366280
 20
37.773599
 30
0.0
 10
249.366280
 20
37.773599
 30
0.0
  0
ENDSEC
  0
SECTION
  2
OBJECTS
  0
DICTIONARY
  5
C
330
0
100
AcDbDictionary
  3
ACAD_GROUP
350
D
  3
ACAD_MLINESTYLE
350
17
  0
DICTIONARY
  5
D
330
C
100
AcDbDictionary
  0
DICTIONARY
  5
1A
330
C
100
AcDbDictionary
  0
DICTIONARY
  5
17
330
C
100
AcDbDictionary
  3
STANDARD
350
18
  0
DICTIONARY
  5
19
330
C
100
AcDbDictionary
  0
ENDSEC
  0
EOF
