  0
SECTION
  2
HEADER
  9
$ACADVER
  1
AC1009
  9
$DWGCODEPAGE
  3
ansi_1252
  9
$INSBASE
 10
0.0
 20
0.0
 30
0.0
  9
$EXTMIN
 10
-298.1470117602963
 20
-406.2710694827367
 30
-0.0000000000000008
  9
$EXTMAX
 10
361.0680060658311
 20
572.3561123208985
 30
0.0000000000000112
  9
$LIMMIN
 10
0.0
 20
0.0
  9
$LIMMAX
 10
12.0
 20
9.0
  9
$ORTHOMODE
 70
     0
  9
$REGENMODE
 70
     1
  9
$FILLMODE
 70
     1
  9
$QTEXTMODE
 70
     0
  9
$MIRRTEXT
 70
     1
  9
$DRAGMODE
 70
     2
  9
$LTSCALE
 40
1.0
  9
$OSMODE
 70
    37
  9
$ATTMODE
 70
     1
  9
$TEXTSIZE
 40
0.2
  9
$TRACEWID
 40
0.05
  9
$TEXTSTYLE
  7
STANDARD
  9
$CLAYER
  8
OUTSIDE
  9
$CELTYPE
  6
BYLAYER
  9
$CECOLOR
 62
   256
  9
$DIMSCALE
 40
1.0
  9
$DIMASZ
 40
0.18
  9
$DIMEXO
 40
0.0625
  9
$DIMDLI
 40
0.38
  9
$DIMRND
 40
0.0
  9
$DIMDLE
 40
0.0
  9
$DIMEXE
 40
0.18
  9
$DIMTP
 40
0.0
  9
$DIMTM
 40
0.0
  9
$DIMTXT
 40
0.18
  9
$DIMCEN
 40
0.09
  9
$DIMTSZ
 40
0.0
  9
$DIMTOL
 70
     0
  9
$DIMLIM
 70
     0
  9
$DIMTIH
 70
     1
  9
$DIMTOH
 70
     1
  9
$DIMSE1
 70
     0
  9
$DIMSE2
 70
     0
  9
$DIMTAD
 70
     0
  9
$DIMZIN
 70
     0
  9
$DIMBLK
  1

  9
$DIMASO
 70
     1
  9
$DIMSHO
 70
     1
  9
$DIMPOST
  1

  9
$DIMAPOST
  1

  9
$DIMALT
 70
     0
  9
$DIMALTD
 70
     2
  9
$DIMALTF
 40
25.4
  9
$DIMLFAC
 40
1.0
  9
$DIMTOFL
 70
     0
  9
$DIMTVP
 40
0.0
  9
$DIMTIX
 70
     0
  9
$DIMSOXD
 70
     0
  9
$DIMSAH
 70
     0
  9
$DIMBLK1
  1

  9
$DIMBLK2
  1

  9
$DIMSTYLE
  2
STANDARD
  9
$DIMCLRD
 70
     0
  9
$DIMCLRE
 70
     0
  9
$DIMCLRT
 70
     0
  9
$DIMTFAC
 40
1.0
  9
$DIMGAP
 40
0.09
  9
$LUNITS
 70
     2
  9
$LUPREC
 70
     4
  9
$SKETCHINC
 40
0.1
  9
$FILLETRAD
 40
0.5
  9
$AUNITS
 70
     0
  9
$AUPREC
 70
     0
  9
$MENU
  1
.
  9
$ELEVATION
 40
0.0
  9
$PELEVATION
 40
0.0
  9
$THICKNESS
 40
0.0
  9
$LIMCHECK
 70
     0
  9
$CHAMFERA
 40
0.0
  9
$CHAMFERB
 40
0.0
  9
$SKPOLY
 70
     0
  9
$TDCREATE
 40
2457477.682724005
  9
$TDUPDATE
 40
2457477.682742222
  9
$TDINDWG
 40
0.0000000116
  9
$TDUSRTIMER
 40
0.0000000116
  9
$USRTIMER
 70
     1
  9
$ANGBASE
 50
0.0
  9
$ANGDIR
 70
     0
  9
$PDMODE
 70
     0
  9
$PDSIZE
 40
0.0
  9
$PLINEWID
 40
0.0
  9
$COORDS
 70
     1
  9
$SPLFRAME
 70
     0
  9
$SPLINETYPE
 70
     6
  9
$SPLINESEGS
 70
     8
  9
$ATTDIA
 70
     0
  9
$ATTREQ
 70
     1
  9
$HANDLING
 70
     1
  9
$HANDSEED
  5
5DB
  9
$SURFTAB1
 70
     6
  9
$SURFTAB2
 70
     6
  9
$SURFTYPE
 70
     6
  9
$SURFU
 70
     6
  9
$SURFV
 70
     6
  9
$UCSNAME
  2

  9
$UCSORG
 10
0.0
 20
0.0
 30
0.0
  9
$UCSXDIR
 10
1.0
 20
0.0
 30
0.0
  9
$UCSYDIR
 10
0.0
 20
1.0
 30
0.0
  9
$PUCSNAME
  2

  9
$PUCSORG
 10
0.0
 20
0.0
 30
0.0
  9
$PUCSXDIR
 10
1.0
 20
0.0
 30
0.0
  9
$PUCSYDIR
 10
0.0
 20
1.0
 30
0.0
  9
$USERI1
 70
     0
  9
$USERI2
 70
     0
  9
$USERI3
 70
     0
  9
$USERI4
 70
     0
  9
$USERI5
 70
     0
  9
$USERR1
 40
0.0
  9
$USERR2
 40
0.0
  9
$USERR3
 40
0.0
  9
$USERR4
 40
0.0
  9
$USERR5
 40
0.0
  9
$WORLDVIEW
 70
     1
  9
$SHADEDGE
 70
     3
  9
$SHADEDIF
 70
    70
  9
$TILEMODE
 70
     1
  9
$MAXACTVP
 70
    64
  9
$PLIMCHECK
 70
     0
  9
$PEXTMIN
 10
1.000000000000000E+20
 20
1.000000000000000E+20
 30
1.000000000000000E+20
  9
$PEXTMAX
 10
-1.000000000000000E+20
 20
-1.000000000000000E+20
 30
-1.000000000000000E+20
  9
$PLIMMIN
 10
0.0
 20
0.0
  9
$PLIMMAX
 10
12.0
 20
9.0
  9
$UNITMODE
 70
     0
  9
$VISRETAIN
 70
     1
  9
$PLINEGEN
 70
     0
  9
$PSLTSCALE
 70
     1
  0
ENDSEC
  0
SECTION
  2
TABLES
  0
TABLE
  2
VPORT
 70
     1
  0
VPORT
  2
*ACTIVE
 70
     0
 10
0.0
 20
0.0
 11
1.0
 21
1.0
 12
31.4604971527674
 22
83.04252141908097
 13
0.0
 23
0.0
 14
0.5
 24
0.5
 15
0.5
 25
0.5
 16
0.0
 26
0.0
 36
1.0
 17
0.0
 27
0.0
 37
0.0
 40
998.199725439708
 41
0.6736120047382876
 42
50.0
 43
0.0
 44
0.0
 50
0.0
 51
0.0
 71
     0
 72
   100
 73
     1
 74
     3
 75
     0
 76
     0
 77
     0
 78
     0
  0
ENDTAB
  0
TABLE
  2
LTYPE
 70
     1
  0
LTYPE
  2
CONTINUOUS
 70
     0
  3
Solid line
 72
    65
 73
     0
 40
0.0
  0
ENDTAB
  0
TABLE
  2
LAYER
 70
     4
  0
LAYER
  2
0
 70
     0
 62
     7
  6
CONTINUOUS
  0
LAYER
  2
OUTSIDE
 70
     0
 62
     5
  6
CONTINUOUS
  0
LAYER
  2
INSIDE
 70
     0
 62
     3
  6
CONTINUOUS
  0
LAYER
  2
DRILL
 70
     0
 62
     1
  6
CONTINUOUS
  0
ENDTAB
  0
TABLE
  2
STYLE
 70
     1
  0
STYLE
  2
STANDARD
 70
     0
 40
0.0
 41
1.0
 50
0.0
 71
     0
 42
0.2
  3
txt
  4

  0
ENDTAB
  0
TABLE
  2
VIEW
 70
     0
  0
ENDTAB
  0
TABLE
  2
UCS
 70
     0
  0
ENDTAB
  0
TABLE
  2
APPID
 70
     1
  0
APPID
  2
ACAD
 70
     0
  0
ENDTAB
  0
TABLE
  2
DIMSTYLE
 70
     1
  0
DIMSTYLE
  2
STANDARD
 70
     0
  3

  4

  5

  6

  7

 40
1.0
 41
0.18
 42
0.0625
 43
0.38
 44
0.18
 45
0.0
 46
0.0
 47
0.0
 48
0.0
140
0.18
141
0.09
142
0.0
143
25.4
144
1.0
145
0.0
146
1.0
147
0.09
 71
     0
 72
     0
 73
     1
 74
     1
 75
     0
 76
     0
 77
     0
 78
     0
170
     0
171
     2
172
     0
173
     0
174
     0
175
     0
176
     0
177
     0
178
     0
  0
ENDTAB
  0
ENDSEC
  0
SECTION
  2
BLOCKS
  0
BLOCK
  8
0
  2
$MODEL_SPACE
 70
     0
 10
0.0
 20
0.0
 30
0.0
  3
$MODEL_SPACE
  1

  0
ENDBLK
  5
21
  8
0
  0
BLOCK
 67
     1
  8
0
  2
$PAPER_SPACE
 70
     0
 10
0.0
 20
0.0
 30
0.0
  3
$PAPER_SPACE
  1

  0
ENDBLK
  5
1D
 67
     1
  8
0
  0
ENDSEC
  0
SECTION
  2
ENTITIES
  0
ARC
  5
6F
  8
OUTSIDE
 10
147.7514652514747
 20
-371.6024353530673
 30
0.0
 40
3.999999999999954
 50
179.9999999999992
 51
270.0
  0
LINE
  5
70
  8
OUTSIDE
 10
143.7514652514747
 20
-371.6024353530672
 30
0.0
 11
143.7514652514733
 21
300.3975646469304
 31
0.0
  0
ARC
  5
71
  8
OUTSIDE
 10
147.7514652514733
 20
300.3975646469304
 30
0.0
 40
3.999999999999989
 50
89.99999999999919
 51
180.0000000000008
  0
LINE
  5
72
  8
OUTSIDE
 10
147.7514652514734
 20
304.3975646469304
 30
0.0
 11
158.7514652514732
 21
304.3975646469305
 31
0.0
  0
LINE
  5
73
  8
OUTSIDE
 10
158.7514652514732
 20
304.3975646469305
 30
0.0
 11
158.7514652514732
 21
316.8975646469304
 31
0.0
  0
LINE
  5
74
  8
OUTSIDE
 10
158.7514652514732
 20
316.8975646469304
 30
0.0
 11
147.7514652514733
 21
316.8975646469306
 31
0.0
  0
ARC
  5
75
  8
OUTSIDE
 10
147.7514652514733
 20
320.8975646469304
 30
0.0
 40
3.999999999999894
 50
180.0
 51
270.0000000000013
  0
LINE
  5
76
  8
OUTSIDE
 10
143.7514652514734
 20
320.8975646469304
 30
0.0
 11
143.7514652514734
 21
332.3975646469303
 31
0.0
  0
ARC
  5
77
  8
OUTSIDE
 10
145.7514652514733
 20
332.3975646469303
 30
0.0
 40
1.999999999999883
 50
90.00000000000082
 51
180.0000000000016
  0
LINE
  5
78
  8
OUTSIDE
 10
145.7514652514733
 20
334.3975646469302
 30
0.0
 11
187.9148013925421
 21
334.3975646469306
 31
0.0
  0
ARC
  5
79
  8
OUTSIDE
 10
187.9148013925421
 20
332.3975646469304
 30
0.0
 40
2.000000000000114
 50
0.0
 51
90.0
  0
LINE
  5
7A
  8
OUTSIDE
 10
189.9148013925422
 20
332.3975646469304
 30
0.0
 11
189.9148013925435
 21
-403.6024353530673
 31
0.0
  0
ARC
  5
7B
  8
OUTSIDE
 10
187.9148013925436
 20
-403.6024353530671
 30
0.0
 40
1.999999999999929
 50
269.9999999999992
 51
359.9999999999951
  0
LINE
  5
7C
  8
OUTSIDE
 10
187.9148013925436
 20
-405.6024353530671
 30
0.0
 11
145.7514652514747
 21
-405.6024353530672
 31
0.0
  0
ARC
  5
7D
  8
OUTSIDE
 10
145.7514652514747
 20
-403.6024353530672
 30
0.0
 40
1.999999999999943
 50
179.9999999999967
 51
269.9999999999992
  0
LINE
  5
7E
  8
OUTSIDE
 10
143.7514652514747
 20
-403.6024353530671
 30
0.0
 11
143.7514652514747
 21
-392.1024353530672
 31
0.0
  0
ARC
  5
7F
  8
OUTSIDE
 10
147.7514652514747
 20
-392.1024353530671
 30
0.0
 40
3.999999999999957
 50
90.00000000000082
 51
180.0000000000008
  0
LINE
  5
80
  8
OUTSIDE
 10
147.7514652514747
 20
-388.1024353530672
 30
0.0
 11
158.7514652514746
 21
-388.1024353530672
 31
0.0
  0
LINE
  5
81
  8
OUTSIDE
 10
158.7514652514746
 20
-388.1024353530672
 30
0.0
 11
158.7514652514745
 21
-375.6024353530672
 31
0.0
  0
LINE
  5
82
  8
OUTSIDE
 10
158.7514652514745
 20
-375.6024353530672
 30
0.0
 11
147.7514652514747
 21
-375.6024353530672
 31
0.0
  0
ARC
  5
83
  8
OUTSIDE
 10
81.42512484310404
 20
299.7289305172637
 30
0.0
 40
3.999999999999996
 50
89.99999999999939
 51
180.0
  0
LINE
  5
84
  8
OUTSIDE
 10
81.42512484310407
 20
303.7289305172637
 30
0.0
 11
92.42512484310402
 21
303.7289305172638
 31
0.0
  0
LINE
  5
85
  8
OUTSIDE
 10
92.42512484310402
 20
303.7289305172638
 30
0.0
 11
92.42512484310399
 21
316.2289305172638
 31
0.0
  0
LINE
  5
86
  8
OUTSIDE
 10
92.42512484310399
 20
316.2289305172638
 30
0.0
 11
81.42512484310407
 21
316.2289305172639
 31
0.0
  0
ARC
  5
87
  8
OUTSIDE
 10
81.42512484310404
 20
320.2289305172638
 30
0.0
 40
3.999999999999883
 50
180.0
 51
270.0000000000004
  0
LINE
  5
88
  8
OUTSIDE
 10
77.42512484310416
 20
320.2289305172638
 30
0.0
 11
77.4251248431043
 21
331.7289305172639
 31
0.0
  0
ARC
  5
89
  8
OUTSIDE
 10
79.4251248431041
 20
331.728930517264
 30
0.0
 40
1.999999999999812
 50
90.00000000000122
 51
180.0000000000016
  0
LINE
  5
8A
  8
OUTSIDE
 10
79.42512484310407
 20
333.7289305172638
 30
0.0
 11
121.5881248431039
 21
333.728930517264
 31
0.0
  0
ARC
  5
8B
  8
OUTSIDE
 10
121.588124843104
 20
331.728930517264
 30
0.0
 40
2.000000000000064
 50
359.9999999999984
 51
90.00000000000082
  0
LINE
  5
8C
  8
OUTSIDE
 10
123.588124843104
 20
331.7289305172639
 30
0.0
 11
123.588124843104
 21
-404.2710694827361
 31
0.0
  0
ARC
  5
8D
  8
OUTSIDE
 10
121.588124843104
 20
-404.2710694827362
 30
0.0
 40
2.0
 50
270.0000000000016
 51
0.0000000000016284
  0
LINE
  5
8E
  8
OUTSIDE
 10
121.588124843104
 20
-406.2710694827362
 30
0.0
 11
79.42512484310404
 21
-406.271069482736
 31
0.0
  0
ARC
  5
8F
  8
OUTSIDE
 10
79.42512484310413
 20
-404.2710694827361
 30
0.0
 40
1.999999999999964
 50
180.0000000000049
 51
269.9999999999976
  0
LINE
  5
90
  8
OUTSIDE
 10
77.42512484310416
 20
-404.2710694827362
 30
0.0
 11
77.42512484310399
 21
-392.7710694827362
 31
0.0
  0
ARC
  5
91
  8
OUTSIDE
 10
81.42512484310404
 20
-392.7710694827362
 30
0.0
 40
4.00000000000005
 50
89.99999999999898
 51
180.0
  0
LINE
  5
92
  8
OUTSIDE
 10
81.4251248431041
 20
-388.7710694827361
 30
0.0
 11
92.42512484310402
 21
-388.7710694827361
 31
0.0
  0
LINE
  5
93
  8
OUTSIDE
 10
92.42512484310402
 20
-388.7710694827361
 30
0.0
 11
92.42512484310399
 21
-376.2710694827361
 31
0.0
  0
LINE
  5
94
  8
OUTSIDE
 10
92.42512484310399
 20
-376.2710694827361
 30
0.0
 11
81.42512484310407
 21
-376.2710694827361
 31
0.0
  0
ARC
  5
95
  8
OUTSIDE
 10
81.42512484310404
 20
-372.2710694827362
 30
0.0
 40
3.999999999999897
 50
179.9999999999976
 51
270.0000000000002
  0
LINE
  5
96
  8
OUTSIDE
 10
77.42512484310416
 20
-372.271069482736
 30
0.0
 11
77.42512484310404
 21
299.7289305172637
 31
0.0
  0
LINE
  5
98
  8
INSIDE
 10
-15.2008559207441
 20
273.7289305172639
 30
0.0
 11
-9.904160613965171
 21
271.2682516814066
 31
0.0
  0
LINE
  5
99
  8
INSIDE
 10
-9.904160613965171
 20
271.2682516814066
 30
0.0
 11
-4.904585353653011
 21
268.8075664825807
 31
0.0
  0
LINE
  5
9A
  8
INSIDE
 10
-4.904585353653011
 20
268.8075664825807
 30
0.0
 11
-0.2021258523802448
 21
266.3468749248177
 31
0.0
  0
LINE
  5
9B
  8
INSIDE
 10
-0.2021258523802448
 20
266.3468749248177
 30
0.0
 11
4.203259132588702
 21
263.8861770192995
 31
0.0
  0
LINE
  5
9C
  8
INSIDE
 10
4.203259132588702
 20
263.8861770192995
 30
0.0
 11
8.311677061492736
 21
261.4254727882342
 31
0.0
  0
LINE
  5
9D
  8
INSIDE
 10
8.311677061492736
 20
261.4254727882342
 30
0.0
 11
10.25458226709385
 21
260.1951183115245
 31
0.0
  0
LINE
  5
9E
  8
INSIDE
 10
10.25458226709385
 20
260.1951183115245
 30
0.0
 11
12.12333086499489
 21
258.964762268701
 31
0.0
  0
LINE
  5
9F
  8
INSIDE
 10
12.12333086499489
 20
258.964762268701
 30
0.0
 11
13.91796793416329
 21
257.7344046673391
 31
0.0
  0
LINE
  5
A0
  8
INSIDE
 10
13.91796793416329
 20
257.7344046673391
 30
0.0
 11
15.63854817356061
 21
256.5040455164121
 31
0.0
  0
LINE
  5
A1
  8
INSIDE
 10
15.63854817356061
 20
256.5040455164121
 30
0.0
 11
17.28513681525966
 21
255.2736848264077
 31
0.0
  0
LINE
  5
A2
  8
INSIDE
 10
17.28513681525966
 20
255.2736848264077
 30
0.0
 11
18.85781053756162
 21
254.0433226094444
 31
0.0
  0
LINE
  5
A3
  8
INSIDE
 10
18.85781053756162
 20
254.0433226094444
 30
0.0
 11
20.35665837818343
 21
252.812958879388
 31
0.0
  0
LINE
  5
A4
  8
INSIDE
 10
20.35665837818343
 20
252.812958879388
 30
0.0
 11
21.78178264927455
 21
251.5825936519709
 31
0.0
  0
LINE
  5
A5
  8
INSIDE
 10
21.78178264927455
 20
251.5825936519709
 30
0.0
 11
23.13329985707697
 21
250.352226944914
 31
0.0
  0
LINE
  5
A6
  8
INSIDE
 10
23.13329985707697
 20
250.352226944914
 30
0.0
 11
24.41134162341459
 21
249.121858778053
 31
0.0
  0
LINE
  5
A7
  8
INSIDE
 10
24.41134162341459
 20
249.121858778053
 30
0.0
 11
25.61605560725281
 21
247.8914891734627
 31
0.0
  0
LINE
  5
A8
  8
INSIDE
 10
25.61605560725281
 20
247.8914891734627
 30
0.0
 11
26.74760642625827
 21
246.6611181555824
 31
0.0
  0
LINE
  5
A9
  8
INSIDE
 10
26.74760642625827
 20
246.6611181555824
 30
0.0
 11
27.80617657835846
 21
245.4307457513414
 31
0.0
  0
LINE
  5
AA
  8
INSIDE
 10
27.80617657835846
 20
245.4307457513414
 30
0.0
 11
28.30815605084532
 21
244.8155590384625
 31
0.0
  0
LINE
  5
AB
  8
INSIDE
 10
28.30815605084532
 20
244.8155590384625
 30
0.0
 11
28.79196736330141
 21
244.2003719902835
 31
0.0
  0
LINE
  5
AC
  8
INSIDE
 10
28.79196736330141
 20
244.2003719902835
 30
0.0
 11
29.25763876717085
 21
243.5851846109265
 31
0.0
  0
LINE
  5
AD
  8
INSIDE
 10
29.25763876717085
 20
243.5851846109265
 30
0.0
 11
29.70519980414531
 21
242.9699969046924
 31
0.0
  0
LINE
  5
AE
  8
INSIDE
 10
29.70519980414531
 20
242.9699969046924
 30
0.0
 11
30.13468133475912
 21
242.3548088760647
 31
0.0
  0
LINE
  5
AF
  8
INSIDE
 10
30.13468133475912
 20
242.3548088760647
 30
0.0
 11
30.54611556692771
 21
241.7396205297127
 31
0.0
  0
LINE
  5
B0
  8
INSIDE
 10
30.54611556692771
 20
241.7396205297127
 30
0.0
 11
30.93953608448374
 21
241.1244318704945
 31
0.0
  0
LINE
  5
B1
  8
INSIDE
 10
30.93953608448374
 20
241.1244318704945
 30
0.0
 11
31.31497787571329
 21
240.5092429034609
 31
0.0
  0
LINE
  5
B2
  8
INSIDE
 10
31.31497787571329
 20
240.5092429034609
 30
0.0
 11
31.672477361892
 21
239.8940536338583
 31
0.0
  0
LINE
  5
B3
  8
INSIDE
 10
31.672477361892
 20
239.8940536338583
 30
0.0
 11
32.01207242582127
 21
239.2788640671325
 31
0.0
  0
LINE
  5
B4
  8
INSIDE
 10
32.01207242582127
 20
239.2788640671325
 30
0.0
 11
32.3338024403644
 21
238.6636742089315
 31
0.0
  0
LINE
  5
B5
  8
INSIDE
 10
32.3338024403644
 20
238.6636742089315
 30
0.0
 11
32.63770829698275
 21
238.0484840651093
 31
0.0
  0
LINE
  5
B6
  8
INSIDE
 10
32.63770829698275
 20
238.0484840651093
 30
0.0
 11
32.92383243427194
 21
237.4332936417289
 31
0.0
  0
LINE
  5
B7
  8
INSIDE
 10
32.92383243427194
 20
237.4332936417289
 30
0.0
 11
33.19221886649799
 21
236.818102945066
 31
0.0
  0
LINE
  5
B8
  8
INSIDE
 10
33.19221886649799
 20
236.818102945066
 30
0.0
 11
33.44291321213349
 21
236.2029119816119
 31
0.0
  0
LINE
  5
B9
  8
INSIDE
 10
33.44291321213349
 20
236.2029119816119
 30
0.0
 11
33.67596272239377
 21
235.5877207580774
 31
0.0
  0
LINE
  5
BA
  8
INSIDE
 10
33.67596272239377
 20
235.5877207580774
 30
0.0
 11
33.89141630977309
 21
234.9725292813956
 31
0.0
  0
LINE
  5
BB
  8
INSIDE
 10
33.89141630977309
 20
234.9725292813956
 30
0.0
 11
34.08932457658074
 21
234.3573375587256
 31
0.0
  0
LINE
  5
BC
  8
INSIDE
 10
34.08932457658074
 20
234.3573375587256
 30
0.0
 11
34.26973984348732
 21
233.7421455974557
 31
0.0
  0
LINE
  5
BD
  8
INSIDE
 10
34.26973984348732
 20
233.7421455974557
 30
0.0
 11
34.43271617833115
 21
233.1269534052071
 31
0.0
  0
LINE
  5
BE
  8
INSIDE
 10
34.43271617833115
 20
233.1269534052071
 30
0.0
 11
34.57830942558578
 21
232.5117609898384
 31
0.0
  0
LINE
  5
BF
  8
INSIDE
 10
34.57830942558578
 20
232.5117609898384
 30
0.0
 11
34.70657723608768
 21
231.8965683594507
 31
0.0
  0
LINE
  5
C0
  8
INSIDE
 10
34.70657723608768
 20
231.8965683594507
 30
0.0
 11
34.81757909677403
 21
231.2813755223921
 31
0.0
  0
LINE
  5
C1
  8
INSIDE
 10
34.81757909677403
 20
231.2813755223921
 30
0.0
 11
34.91137636042045
 21
230.6661824872627
 31
0.0
  0
LINE
  5
C2
  8
INSIDE
 10
34.91137636042045
 20
230.6661824872627
 30
0.0
 11
34.98803227537881
 21
230.0509892629195
 31
0.0
  0
LINE
  5
C3
  8
INSIDE
 10
34.98803227537881
 20
230.0509892629195
 30
0.0
 11
35.047612015315
 21
229.4357958584813
 31
0.0
  0
LINE
  5
C4
  8
INSIDE
 10
35.047612015315
 20
229.4357958584813
 30
0.0
 11
35.09018270894663
 21
228.8206022833335
 31
0.0
  0
LINE
  5
C5
  8
INSIDE
 10
35.09018270894663
 20
228.8206022833335
 30
0.0
 11
35.11581346978082
 21
228.2054085471328
 31
0.0
  0
LINE
  5
C6
  8
INSIDE
 10
35.11581346978082
 20
228.2054085471328
 30
0.0
 11
35.12457542585203
 21
227.5902146598125
 31
0.0
  0
LINE
  5
C7
  8
INSIDE
 10
35.12457542585203
 20
227.5902146598125
 30
0.0
 11
35.11654174945974
 21
226.9750206315869
 31
0.0
  0
LINE
  5
C8
  8
INSIDE
 10
35.11654174945974
 20
226.9750206315869
 30
0.0
 11
35.09178768690626
 21
226.3598264729565
 31
0.0
  0
LINE
  5
C9
  8
INSIDE
 10
35.09178768690626
 20
226.3598264729565
 30
0.0
 11
35.05039058823449
 21
225.7446321947125
 31
0.0
  0
LINE
  5
CA
  8
INSIDE
 10
35.05039058823449
 20
225.7446321947125
 30
0.0
 11
34.99242993696564
 21
225.1294378079421
 31
0.0
  0
LINE
  5
CB
  8
INSIDE
 10
34.99242993696564
 20
225.1294378079421
 30
0.0
 11
34.91798737983709
 21
224.514243324033
 31
0.0
  0
LINE
  5
CC
  8
INSIDE
 10
34.91798737983709
 20
224.514243324033
 30
0.0
 11
34.82714675638027
 21
223.8990487546784
 31
0.0
  0
LINE
  5
CD
  8
INSIDE
 10
34.82714675638027
 20
223.8990487546784
 30
0.0
 11
34.71999412434557
 21
223.2838541118766
 31
0.0
  0
LINE
  5
CE
  8
INSIDE
 10
34.71999412434557
 20
223.2838541118766
 30
0.0
 11
34.59661777458386
 21
222.6686594079195
 31
0.0
  0
LINE
  5
CF
  8
INSIDE
 10
34.59661777458386
 20
222.6686594079195
 30
0.0
 11
34.45710824177504
 21
222.0534646553763
 31
0.0
  0
LINE
  5
D0
  8
INSIDE
 10
34.45710824177504
 20
222.0534646553763
 30
0.0
 11
34.3015583149966
 21
221.4382698670763
 31
0.0
  0
LINE
  5
D1
  8
INSIDE
 10
34.3015583149966
 20
221.4382698670763
 30
0.0
 11
34.13006304829237
 21
220.8230750560926
 31
0.0
  0
LINE
  5
D2
  8
INSIDE
 10
34.13006304829237
 20
220.8230750560926
 30
0.0
 11
33.94271977124117
 21
220.2078802357256
 31
0.0
  0
LINE
  5
D3
  8
INSIDE
 10
33.94271977124117
 20
220.2078802357256
 30
0.0
 11
33.73962809952545
 21
219.5926854194859
 31
0.0
  0
LINE
  5
D4
  8
INSIDE
 10
33.73962809952545
 20
219.5926854194859
 30
0.0
 11
33.52088994549997
 21
218.9774906210781
 31
0.0
  0
LINE
  5
D5
  8
INSIDE
 10
33.52088994549997
 20
218.9774906210781
 30
0.0
 11
33.28660952876049
 21
218.3622958543838
 31
0.0
  0
LINE
  5
D6
  8
INSIDE
 10
33.28660952876049
 20
218.3622958543838
 30
0.0
 11
33.0368933867124
 21
217.747101133445
 31
0.0
  0
LINE
  5
D7
  8
INSIDE
 10
33.0368933867124
 20
217.747101133445
 30
0.0
 11
32.7718503851394
 21
217.1319064724478
 31
0.0
  0
LINE
  5
D8
  8
INSIDE
 10
32.7718503851394
 20
217.1319064724478
 30
0.0
 11
32.49159172877219
 21
216.5167118857051
 31
0.0
  0
LINE
  5
D9
  8
INSIDE
 10
32.49159172877219
 20
216.5167118857051
 30
0.0
 11
32.19623097185712
 21
215.9015173876407
 31
0.0
  0
LINE
  5
DA
  8
INSIDE
 10
32.19623097185712
 20
215.9015173876407
 30
0.0
 11
31.88588402872485
 21
215.2863229927719
 31
0.0
  0
LINE
  5
DB
  8
INSIDE
 10
31.88588402872485
 20
215.2863229927719
 30
0.0
 11
31.56066918435901
 21
214.6711287156936
 31
0.0
  0
LINE
  5
DC
  8
INSIDE
 10
31.56066918435901
 20
214.6711287156936
 30
0.0
 11
31.22070710494157
 21
214.0559345710607
 31
0.0
  0
LINE
  5
DD
  8
INSIDE
 10
31.22070710494157
 20
214.0559345710607
 30
0.0
 11
30.86612084779094
 21
213.4407405735724
 31
0.0
  0
LINE
  5
DE
  8
INSIDE
 10
30.86612084779094
 20
213.4407405735724
 30
0.0
 11
30.11358003502073
 21
212.2103530789376
 31
0.0
  0
LINE
  5
DF
  8
INSIDE
 10
30.11358003502073
 20
212.2103530789376
 30
0.0
 11
29.30407933534073
 21
210.9799663495827
 31
0.0
  0
LINE
  5
E0
  8
INSIDE
 10
29.30407933534073
 20
210.9799663495827
 30
0.0
 11
28.43869010374164
 21
209.7495805028663
 31
0.0
  0
LINE
  5
E1
  8
INSIDE
 10
28.43869010374164
 20
209.7495805028663
 30
0.0
 11
27.51852270943925
 21
208.5191956551436
 31
0.0
  0
LINE
  5
E2
  8
INSIDE
 10
27.51852270943925
 20
208.5191956551436
 30
0.0
 11
26.54472678440098
 21
207.2888119211974
 31
0.0
  0
LINE
  5
E3
  8
INSIDE
 10
26.54472678440098
 20
207.2888119211974
 30
0.0
 11
25.51849147187261
 21
206.0584294136698
 31
0.0
  0
LINE
  5
E4
  8
INSIDE
 10
25.51849147187261
 20
206.0584294136698
 30
0.0
 11
24.44104567490482
 21
204.828048242493
 31
0.0
  0
LINE
  5
E5
  8
INSIDE
 10
24.44104567490482
 20
204.828048242493
 30
0.0
 11
23.31365830596343
 21
203.5976685143212
 31
0.0
  0
LINE
  5
E6
  8
INSIDE
 10
23.31365830596343
 20
203.5976685143212
 30
0.0
 11
22.13763856471098
 21
202.367290331956
 31
0.0
  0
LINE
  5
E7
  8
INSIDE
 10
22.13763856471098
 20
202.367290331956
 30
0.0
 11
20.91433628730053
 21
201.1369137937596
 31
0.0
  0
LINE
  5
E8
  8
INSIDE
 10
20.91433628730053
 20
201.1369137937596
 30
0.0
 11
19.64514232384097
 21
199.9065389930629
 31
0.0
  0
LINE
  5
E9
  8
INSIDE
 10
19.64514232384097
 20
199.9065389930629
 30
0.0
 11
16.97485008028193
 21
197.4457949487819
 31
0.0
  0
LINE
  5
EA
  8
INSIDE
 10
16.97485008028193
 20
197.4457949487819
 30
0.0
 11
14.13872329887546
 21
194.9850588226269
 31
0.0
  0
LINE
  5
EB
  8
INSIDE
 10
14.13872329887546
 20
194.9850588226269
 30
0.0
 11
11.1494038287342
 21
192.5243311197291
 31
0.0
  0
LINE
  5
EC
  8
INSIDE
 10
11.1494038287342
 20
192.5243311197291
 30
0.0
 11
8.020224230891976
 21
190.0636122085363
 31
0.0
  0
LINE
  5
ED
  8
INSIDE
 10
8.020224230891976
 20
190.0636122085363
 30
0.0
 11
1.39910250861358
 21
185.1422014519909
 31
0.0
  0
LINE
  5
EE
  8
INSIDE
 10
1.39910250861358
 20
185.1422014519909
 30
0.0
 11
-34.6159432325384
 21
160.5355449993828
 31
0.0
  0
LINE
  5
EF
  8
INSIDE
 10
-34.6159432325384
 20
160.5355449993828
 30
0.0
 11
-41.32607301748889
 21
155.6142136758452
 31
0.0
  0
LINE
  5
F0
  8
INSIDE
 10
-41.32607301748889
 20
155.6142136758452
 30
0.0
 11
-44.48531899132135
 21
153.1535346821085
 31
0.0
  0
LINE
  5
F1
  8
INSIDE
 10
-44.48531899132135
 20
153.1535346821085
 30
0.0
 11
-47.4868083472746
 21
150.6928439128838
 31
0.0
  0
LINE
  5
F2
  8
INSIDE
 10
-47.4868083472746
 20
150.6928439128838
 30
0.0
 11
-50.31083270577149
 21
148.2321393519154
 31
0.0
  0
LINE
  5
F3
  8
INSIDE
 10
-50.31083270577149
 20
148.2321393519154
 30
0.0
 11
-51.65033934177619
 21
147.0017813178461
 31
0.0
  0
LINE
  5
F4
  8
INSIDE
 10
-51.65033934177619
 20
147.0017813178461
 30
0.0
 11
-52.93844148455686
 21
145.7714191651783
 31
0.0
  0
LINE
  5
F5
  8
INSIDE
 10
-52.93844148455686
 20
145.7714191651783
 30
0.0
 11
-54.17291577852534
 21
144.5410527017096
 31
0.0
  0
LINE
  5
F6
  8
INSIDE
 10
-54.17291577852534
 20
144.5410527017096
 30
0.0
 11
-55.35160675742128
 21
143.3106817531008
 31
0.0
  0
LINE
  5
F7
  8
INSIDE
 10
-55.35160675742128
 20
143.3106817531008
 30
0.0
 11
-56.47243168815678
 21
142.0803061642994
 31
0.0
  0
LINE
  5
F8
  8
INSIDE
 10
-56.47243168815678
 20
142.0803061642994
 30
0.0
 11
-57.53338532762043
 21
140.8499258009053
 31
0.0
  0
LINE
  5
F9
  8
INSIDE
 10
-57.53338532762043
 20
140.8499258009053
 30
0.0
 11
-58.53254467613343
 21
139.6195405505337
 31
0.0
  0
LINE
  5
FA
  8
INSIDE
 10
-58.53254467613343
 20
139.6195405505337
 30
0.0
 11
-59.46807373090594
 21
138.3891503241778
 31
0.0
  0
LINE
  5
FB
  8
INSIDE
 10
-59.46807373090594
 20
138.3891503241778
 30
0.0
 11
-59.91142810527535
 21
137.7739533239192
 31
0.0
  0
LINE
  5
FC
  8
INSIDE
 10
-59.91142810527535
 20
137.7739533239192
 30
0.0
 11
-60.33822823949322
 21
137.1587550575724
 31
0.0
  0
LINE
  5
FD
  8
INSIDE
 10
-60.33822823949322
 20
137.1587550575724
 30
0.0
 11
-60.74827121785929
 21
136.5435555211938
 31
0.0
  0
LINE
  5
FE
  8
INSIDE
 10
-60.74827121785929
 20
136.5435555211938
 30
0.0
 11
-61.14136045325189
 21
135.9283547125562
 31
0.0
  0
LINE
  5
FF
  8
INSIDE
 10
-61.14136045325189
 20
135.9283547125562
 30
0.0
 11
-61.51730583602458
 21
135.3131526311923
 31
0.0
  0
LINE
  5
100
  8
INSIDE
 10
-61.51730583602458
 20
135.3131526311923
 30
0.0
 11
-61.87592389203107
 21
134.6979492784423
 31
0.0
  0
LINE
  5
101
  8
INSIDE
 10
-61.87592389203107
 20
134.6979492784423
 30
0.0
 11
-62.21703796382216
 21
134.0827446575165
 31
0.0
  0
LINE
  5
102
  8
INSIDE
 10
-62.21703796382216
 20
134.0827446575165
 30
0.0
 11
-62.54047840097113
 21
133.467538773563
 31
0.0
  0
LINE
  5
103
  8
INSIDE
 10
-62.54047840097113
 20
133.467538773563
 30
0.0
 11
-62.84608275075009
 21
132.8523316337357
 31
0.0
  0
LINE
  5
104
  8
INSIDE
 10
-62.84608275075009
 20
132.8523316337357
 30
0.0
 11
-63.13369594880641
 21
132.2371232472619
 31
0.0
  0
LINE
  5
105
  8
INSIDE
 10
-63.13369594880641
 20
132.2371232472619
 30
0.0
 11
-63.40317050983913
 21
131.6219136255108
 31
0.0
  0
LINE
  5
106
  8
INSIDE
 10
-63.40317050983913
 20
131.6219136255108
 30
0.0
 11
-63.6543667182754
 21
131.0067027820608
 31
0.0
  0
LINE
  5
107
  8
INSIDE
 10
-63.6543667182754
 20
131.0067027820608
 30
0.0
 11
-63.88715281894689
 21
130.391490732768
 31
0.0
  0
LINE
  5
108
  8
INSIDE
 10
-63.88715281894689
 20
130.391490732768
 30
0.0
 11
-64.10140520776615
 21
129.7762774958337
 31
0.0
  0
LINE
  5
109
  8
INSIDE
 10
-64.10140520776615
 20
129.7762774958337
 30
0.0
 11
-64.29700862240307
 21
129.1610630918727
 31
0.0
  0
LINE
  5
10A
  8
INSIDE
 10
-64.29700862240307
 20
129.1610630918727
 30
0.0
 11
-64.4738563329613
 21
128.5458475439809
 31
0.0
  0
LINE
  5
10B
  8
INSIDE
 10
-64.4738563329613
 20
128.5458475439809
 30
0.0
 11
-64.63185033265464
 21
127.9306308778036
 31
0.0
  0
LINE
  5
10C
  8
INSIDE
 10
-64.63185033265464
 20
127.9306308778036
 30
0.0
 11
-64.77090152848339
 21
127.3154131216029
 31
0.0
  0
LINE
  5
10D
  8
INSIDE
 10
-64.77090152848339
 20
127.3154131216029
 30
0.0
 11
-64.89092993191097
 21
126.7001943063265
 31
0.0
  0
LINE
  5
10E
  8
INSIDE
 10
-64.89092993191097
 20
126.7001943063265
 30
0.0
 11
-64.99186484954008
 21
126.0849744656746
 31
0.0
  0
LINE
  5
10F
  8
INSIDE
 10
-64.99186484954008
 20
126.0849744656746
 30
0.0
 11
-65.07364507161401
 21
125.4697536361673
 31
0.0
  0
LINE
  5
110
  8
INSIDE
 10
-65.07364507161401
 20
125.4697536361673
 30
0.0
 11
-65.13621900396139
 21
124.854531857178
 31
0.0
  0
LINE
  5
111
  8
INSIDE
 10
-65.13621900396139
 20
124.854531857178
 30
0.0
 11
-65.17954465637474
 21
124.2393091708827
 31
0.0
  0
LINE
  5
112
  8
INSIDE
 10
-65.17954465637474
 20
124.2393091708827
 30
0.0
 11
-65.20358957443267
 21
123.6240856221762
 31
0.0
  0
LINE
  5
113
  8
INSIDE
 10
-65.20358957443267
 20
123.6240856221762
 30
0.0
 11
-65.20833076914664
 21
123.0088612585875
 31
0.0
  0
LINE
  5
114
  8
INSIDE
 10
-65.20833076914664
 20
123.0088612585875
 30
0.0
 11
-65.19375464660814
 21
122.3936361301947
 31
0.0
  0
LINE
  5
115
  8
INSIDE
 10
-65.19375464660814
 20
122.3936361301947
 30
0.0
 11
-65.15985693763531
 21
121.7784102895398
 31
0.0
  0
LINE
  5
116
  8
INSIDE
 10
-65.15985693763531
 20
121.7784102895398
 30
0.0
 11
-65.10664262742006
 21
121.1631837915443
 31
0.0
  0
LINE
  5
117
  8
INSIDE
 10
-65.10664262742006
 20
121.1631837915443
 30
0.0
 11
-65.03412588517492
 21
120.5479566934235
 31
0.0
  0
LINE
  5
118
  8
INSIDE
 10
-65.03412588517492
 20
120.5479566934235
 30
0.0
 11
-64.94232999377994
 21
119.9327290546021
 31
0.0
  0
LINE
  5
119
  8
INSIDE
 10
-64.94232999377994
 20
119.9327290546021
 30
0.0
 11
-64.8312872794296
 21
119.3175009366294
 31
0.0
  0
LINE
  5
11A
  8
INSIDE
 10
-64.8312872794296
 20
119.3175009366294
 30
0.0
 11
-64.70103904127981
 21
118.7022724030935
 31
0.0
  0
LINE
  5
11B
  8
INSIDE
 10
-64.70103904127981
 20
118.7022724030935
 30
0.0
 11
-64.5516354810947
 21
118.0870435195372
 31
0.0
  0
LINE
  5
11C
  8
INSIDE
 10
-64.5516354810947
 20
118.0870435195372
 30
0.0
 11
-64.3831356328936
 21
117.4718143533726
 31
0.0
  0
LINE
  5
11D
  8
INSIDE
 10
-64.3831356328936
 20
117.4718143533726
 30
0.0
 11
-64.19560729259794
 21
116.8565849737964
 31
0.0
  0
LINE
  5
11E
  8
INSIDE
 10
-64.19560729259794
 20
116.8565849737964
 30
0.0
 11
-63.98912694767817
 21
116.2413554517047
 31
0.0
  0
LINE
  5
11F
  8
INSIDE
 10
-63.98912694767817
 20
116.2413554517047
 30
0.0
 11
-63.76377970615403
 21
115.6261258596079
 31
0.0
  0
LINE
  5
120
  8
INSIDE
 10
-63.76377970615403
 20
115.6261258596079
 30
0.0
 11
-63.51965920878225
 21
115.0108962715365
 31
0.0
  0
LINE
  5
121
  8
INSIDE
 10
-63.51965920878225
 20
115.0108962715365
 30
0.0
 11
-63.25686749856592
 21
114.3956667629254
 31
0.0
  0
LINE
  5
122
  8
INSIDE
 10
-63.25686749856592
 20
114.3956667629254
 30
0.0
 11
-62.97551487345137
 21
113.7804374104889
 31
0.0
  0
LINE
  5
123
  8
INSIDE
 10
-62.97551487345137
 20
113.7804374104889
 30
0.0
 11
-62.67571973837838
 21
113.165208292096
 31
0.0
  0
LINE
  5
124
  8
INSIDE
 10
-62.67571973837838
 20
113.165208292096
 30
0.0
 11
-62.35760845733034
 21
112.549979486645
 31
0.0
  0
LINE
  5
125
  8
INSIDE
 10
-62.35760845733034
 20
112.549979486645
 30
0.0
 11
-62.02131520538448
 21
111.9347510739388
 31
0.0
  0
LINE
  5
126
  8
INSIDE
 10
-62.02131520538448
 20
111.9347510739388
 30
0.0
 11
-61.66698182076205
 21
111.3195231345597
 31
0.0
  0
LINE
  5
127
  8
INSIDE
 10
-61.66698182076205
 20
111.3195231345597
 30
0.0
 11
-61.29475765687848
 21
110.7042957497445
 31
0.0
  0
LINE
  5
128
  8
INSIDE
 10
-61.29475765687848
 20
110.7042957497445
 30
0.0
 11
-60.90479943439366
 21
110.0890690012592
 31
0.0
  0
LINE
  5
129
  8
INSIDE
 10
-60.90479943439366
 20
110.0890690012592
 30
0.0
 11
-60.49727109326204
 21
109.4738429712742
 31
0.0
  0
LINE
  5
12A
  8
INSIDE
 10
-60.49727109326204
 20
109.4738429712742
 30
0.0
 11
-60.07234364478292
 21
108.8586177422395
 31
0.0
  0
LINE
  5
12B
  8
INSIDE
 10
-60.07234364478292
 20
108.8586177422395
 30
0.0
 11
-59.63019502365054
 21
108.2433933967591
 31
0.0
  0
LINE
  5
12C
  8
INSIDE
 10
-59.63019502365054
 20
108.2433933967591
 30
0.0
 11
-59.17100994000436
 21
107.6281700174664
 31
0.0
  0
LINE
  5
12D
  8
INSIDE
 10
-59.17100994000436
 20
107.6281700174664
 30
0.0
 11
-58.20230221525553
 21
106.397726487374
 31
0.0
  0
LINE
  5
12E
  8
INSIDE
 10
-58.20230221525553
 20
106.397726487374
 30
0.0
 11
-57.16782804538247
 21
105.1672878088651
 31
0.0
  0
LINE
  5
12F
  8
INSIDE
 10
-57.16782804538247
 20
105.1672878088651
 30
0.0
 11
-56.06929413730414
 21
103.9368546313342
 31
0.0
  0
LINE
  5
130
  8
INSIDE
 10
-56.06929413730414
 20
103.9368546313342
 30
0.0
 11
-54.90850223910345
 21
102.7064275927491
 31
0.0
  0
LINE
  5
131
  8
INSIDE
 10
-54.90850223910345
 20
102.7064275927491
 30
0.0
 11
-53.68734522901731
 21
101.4760073157557
 31
0.0
  0
LINE
  5
132
  8
INSIDE
 10
-53.68734522901731
 20
101.4760073157557
 30
0.0
 11
-52.40780321134592
 21
100.2455944037834
 31
0.0
  0
LINE
  5
133
  8
INSIDE
 10
-52.40780321134592
 20
100.2455944037834
 30
0.0
 11
-51.07193961236196
 21
99.01518943715111
 31
0.0
  0
LINE
  5
134
  8
INSIDE
 10
-51.07193961236196
 20
99.01518943715111
 30
0.0
 11
-49.68189727621987
 21
97.78479296917243
 31
0.0
  0
LINE
  5
135
  8
INSIDE
 10
-49.68189727621987
 20
97.78479296917243
 30
0.0
 11
-48.23989456086507
 21
96.55440552226139
 31
0.0
  0
LINE
  5
136
  8
INSIDE
 10
-48.23989456086507
 20
96.55440552226139
 30
0.0
 11
-45.20923549496673
 21
94.0936596036143
 31
0.0
  0
LINE
  5
137
  8
INSIDE
 10
-45.20923549496673
 20
94.0936596036143
 30
0.0
 11
-41.99906906006481
 21
91.63295509976405
 31
0.0
  0
LINE
  5
138
  8
INSIDE
 10
-41.99906906006481
 20
91.63295509976405
 30
0.0
 11
-38.62945133754545
 21
89.17229470741168
 31
0.0
  0
LINE
  5
139
  8
INSIDE
 10
-38.62945133754545
 20
89.17229470741168
 30
0.0
 11
-35.12125413850514
 21
86.71168029820579
 31
0.0
  0
LINE
  5
13A
  8
INSIDE
 10
-35.12125413850514
 20
86.71168029820579
 30
0.0
 11
-27.77588444142455
 21
81.79059215424381
 31
0.0
  0
LINE
  5
13B
  8
INSIDE
 10
-27.77588444142455
 20
81.79059215424381
 30
0.0
 11
2.673981263225859
 21
62.10764603429318
 31
0.0
  0
LINE
  5
13C
  8
INSIDE
 10
2.673981263225859
 20
62.10764603429318
 30
0.0
 11
9.653429279643166
 21
57.18695152528505
 31
0.0
  0
LINE
  5
13D
  8
INSIDE
 10
9.653429279643166
 20
57.18695152528505
 30
0.0
 11
12.93062369537326
 21
54.72654946969968
 31
0.0
  0
LINE
  5
13E
  8
INSIDE
 10
12.93062369537326
 20
54.72654946969968
 30
0.0
 11
16.04012678893843
 21
52.26609468056664
 31
0.0
  0
LINE
  5
13F
  8
INSIDE
 10
16.04012678893843
 20
52.26609468056664
 30
0.0
 11
18.96352979358807
 21
49.80557553011167
 31
0.0
  0
LINE
  5
140
  8
INSIDE
 10
18.96352979358807
 20
49.80557553011167
 30
0.0
 11
20.34996145407598
 21
48.57528838697363
 31
0.0
  0
LINE
  5
141
  8
INSIDE
 10
20.34996145407598
 20
48.57528838697363
 30
0.0
 11
21.68342327911876
 21
47.34498115548389
 31
0.0
  0
LINE
  5
142
  8
INSIDE
 10
21.68342327911876
 20
47.34498115548389
 30
0.0
 11
22.96191218195337
 21
46.11465264465737
 31
0.0
  0
LINE
  5
143
  8
INSIDE
 10
22.96191218195337
 20
46.11465264465737
 30
0.0
 11
24.18350033230415
 21
44.88430174704974
 31
0.0
  0
LINE
  5
144
  8
INSIDE
 10
24.18350033230415
 20
44.88430174704974
 30
0.0
 11
25.34633799896926
 21
43.65392744660251
 31
0.0
  0
LINE
  5
145
  8
INSIDE
 10
25.34633799896926
 20
43.65392744660251
 30
0.0
 11
26.44865628450647
 21
42.4235288261591
 31
0.0
  0
LINE
  5
146
  8
INSIDE
 10
26.44865628450647
 20
42.4235288261591
 30
0.0
 11
27.48876985576898
 21
41.1931050749682
 31
0.0
  0
LINE
  5
147
  8
INSIDE
 10
27.48876985576898
 20
41.1931050749682
 30
0.0
 11
28.4650796744412
 21
39.96265549618727
 31
0.0
  0
LINE
  5
148
  8
INSIDE
 10
28.4650796744412
 20
39.96265549618727
 30
0.0
 11
29.37607572757454
 21
38.73217951438588
 31
0.0
  0
LINE
  5
149
  8
INSIDE
 10
29.37607572757454
 20
38.73217951438588
 30
0.0
 11
29.8066342278593
 21
38.11693147757569
 31
0.0
  0
LINE
  5
14A
  8
INSIDE
 10
29.8066342278593
 20
38.11693147757569
 30
0.0
 11
30.22033975812325
 21
37.50167668304918
 31
0.0
  0
LINE
  5
14B
  8
INSIDE
 10
30.22033975812325
 20
37.50167668304918
 30
0.0
 11
30.61702982137561
 21
36.88641509636741
 31
0.0
  0
LINE
  5
14C
  8
INSIDE
 10
30.61702982137561
 20
36.88641509636741
 30
0.0
 11
30.99654800513088
 21
36.27114669212378
 31
0.0
  0
LINE
  5
14D
  8
INSIDE
 10
30.99654800513088
 20
36.27114669212378
 30
0.0
 11
31.35874409478552
 21
35.65587145430193
 31
0.0
  0
LINE
  5
14E
  8
INSIDE
 10
31.35874409478552
 20
35.65587145430193
 30
0.0
 11
31.70347419483586
 21
35.04058937666827
 31
0.0
  0
LINE
  5
14F
  8
INSIDE
 10
31.70347419483586
 20
35.04058937666827
 30
0.0
 11
32.03060085039759
 21
34.42530046316574
 31
0.0
  0
LINE
  5
150
  8
INSIDE
 10
32.03060085039759
 20
34.42530046316574
 30
0.0
 11
32.33999316872521
 21
33.81000472830767
 31
0.0
  0
LINE
  5
151
  8
INSIDE
 10
32.33999316872521
 20
33.81000472830767
 30
0.0
 11
32.63152694073158
 21
33.19470219757152
 31
0.0
  0
LINE
  5
152
  8
INSIDE
 10
32.63152694073158
 20
33.19470219757152
 30
0.0
 11
32.90508476250731
 21
32.57939290779269
 31
0.0
  0
LINE
  5
153
  8
INSIDE
 10
32.90508476250731
 20
32.57939290779269
 30
0.0
 11
33.16055615684031
 21
31.96407690755835
 31
0.0
  0
LINE
  5
154
  8
INSIDE
 10
33.16055615684031
 20
31.96407690755835
 30
0.0
 11
33.39783769473526
 21
31.34875425760122
 31
0.0
  0
LINE
  5
155
  8
INSIDE
 10
33.39783769473526
 20
31.34875425760122
 30
0.0
 11
33.6168331169331
 21
30.73342503119336
 31
0.0
  0
LINE
  5
156
  8
INSIDE
 10
33.6168331169331
 20
30.73342503119336
 30
0.0
 11
33.81745345543048
 21
30.11808931453999
 31
0.0
  0
LINE
  5
157
  8
INSIDE
 10
33.81745345543048
 20
30.11808931453999
 30
0.0
 11
33.99961715499929
 21
29.50274720717327
 31
0.0
  0
LINE
  5
158
  8
INSIDE
 10
33.99961715499929
 20
29.50274720717327
 30
0.0
 11
34.16325019470608
 21
28.88739882234614
 31
0.0
  0
LINE
  5
159
  8
INSIDE
 10
34.16325019470608
 20
28.88739882234614
 30
0.0
 11
34.30828620943164
 21
28.27204428742608
 31
0.0
  0
LINE
  5
15A
  8
INSIDE
 10
34.30828620943164
 20
28.27204428742608
 30
0.0
 11
34.43466661139036
 21
27.65668374428893
 31
0.0
  0
LINE
  5
15B
  8
INSIDE
 10
34.43466661139036
 20
27.65668374428893
 30
0.0
 11
34.54234071041974
 21
27.04131734970688
 31
0.0
  0
LINE
  5
15C
  8
INSIDE
 10
34.54234071041974
 20
27.04131734970688
 30
0.0
 11
34.63126580228701
 21
26.42594527558658
 31
0.0
  0
LINE
  5
15D
  8
INSIDE
 10
34.63126580228701
 20
26.42594527558658
 30
0.0
 11
34.70140717580928
 21
25.81056770882625
 31
0.0
  0
LINE
  5
15E
  8
INSIDE
 10
34.70140717580928
 20
25.81056770882625
 30
0.0
 11
34.75273808799081
 21
25.19518485102293
 31
0.0
  0
LINE
  5
15F
  8
INSIDE
 10
34.75273808799081
 20
25.19518485102293
 30
0.0
 11
34.78523973793041
 21
24.5797969181739
 31
0.0
  0
LINE
  5
160
  8
INSIDE
 10
34.78523973793041
 20
24.5797969181739
 30
0.0
 11
34.79890124072868
 21
23.96440414037814
 31
0.0
  0
LINE
  5
161
  8
INSIDE
 10
34.79890124072868
 20
23.96440414037814
 30
0.0
 11
34.79371960139531
 21
23.34900676153767
 31
0.0
  0
LINE
  5
162
  8
INSIDE
 10
34.79371960139531
 20
23.34900676153767
 30
0.0
 11
34.76969968875635
 21
22.73360503905908
 31
0.0
  0
LINE
  5
163
  8
INSIDE
 10
34.76969968875635
 20
22.73360503905908
 30
0.0
 11
34.72685420936156
 21
22.11819924355491
 31
0.0
  0
LINE
  5
164
  8
INSIDE
 10
34.72685420936156
 20
22.11819924355491
 30
0.0
 11
34.6652036813916
 21
21.50278965854507
 31
0.0
  0
LINE
  5
165
  8
INSIDE
 10
34.6652036813916
 20
21.50278965854507
 30
0.0
 11
34.58477640856546
 21
20.88737658015829
 31
0.0
  0
LINE
  5
166
  8
INSIDE
 10
34.58477640856546
 20
20.88737658015829
 30
0.0
 11
34.48560845404764
 21
20.27196031683354
 31
0.0
  0
LINE
  5
167
  8
INSIDE
 10
34.48560845404764
 20
20.27196031683354
 30
0.0
 11
34.36774361435545
 21
19.65654118902145
 31
0.0
  0
LINE
  5
168
  8
INSIDE
 10
34.36774361435545
 20
19.65654118902145
 30
0.0
 11
34.23123339326638
 21
19.04111952888578
 31
0.0
  0
LINE
  5
169
  8
INSIDE
 10
34.23123339326638
 20
19.04111952888578
 30
0.0
 11
34.0761369757253
 21
18.42569568000478
 31
0.0
  0
LINE
  5
16A
  8
INSIDE
 10
34.0761369757253
 20
18.42569568000478
 30
0.0
 11
33.90252120175182
 21
17.81026999707268
 31
0.0
  0
LINE
  5
16B
  8
INSIDE
 10
33.90252120175182
 20
17.81026999707268
 30
0.0
 11
33.71046053955048
 21
17.19484284559759
 31
0.0
  0
LINE
  5
16C
  8
INSIDE
 10
33.71046053955048
 20
17.19484284559759
 30
0.0
 11
33.50003703789733
 21
16.57941460150895
 31
0.0
  0
LINE
  5
16D
  8
INSIDE
 10
33.50003703789733
 20
16.57941460150895
 30
0.0
 11
33.2713402259204
 21
15.96398565053514
 31
0.0
  0
LINE
  5
16E
  8
INSIDE
 10
33.2713402259204
 20
15.96398565053514
 30
0.0
 11
33.02446699215641
 21
15.34855638749046
 31
0.0
  0
LINE
  5
16F
  8
INSIDE
 10
33.02446699215641
 20
15.34855638749046
 30
0.0
 11
32.75952146281058
 21
14.73312721555884
 31
0.0
  0
LINE
  5
170
  8
INSIDE
 10
32.75952146281058
 20
14.73312721555884
 30
0.0
 11
32.47661488001623
 21
14.11769854557732
 31
0.0
  0
LINE
  5
171
  8
INSIDE
 10
32.47661488001623
 20
14.11769854557732
 30
0.0
 11
32.17586548009459
 21
13.50227079531968
 31
0.0
  0
LINE
  5
172
  8
INSIDE
 10
32.17586548009459
 20
13.50227079531968
 30
0.0
 11
31.85739837181453
 21
12.88684438878003
 31
0.0
  0
LINE
  5
173
  8
INSIDE
 10
31.85739837181453
 20
12.88684438878003
 30
0.0
 11
31.52134541465214
 21
12.27141975545637
 31
0.0
  0
LINE
  5
174
  8
INSIDE
 10
31.52134541465214
 20
12.27141975545637
 30
0.0
 11
31.16784509705063
 21
11.65599732963421
 31
0.0
  0
LINE
  5
175
  8
INSIDE
 10
31.16784509705063
 20
11.65599732963421
 30
0.0
 11
30.7970424146799
 21
11.0405775496701
 31
0.0
  0
LINE
  5
176
  8
INSIDE
 10
30.7970424146799
 20
11.0405775496701
 30
0.0
 11
30.40908874869636
 21
10.42516085727527
 31
0.0
  0
LINE
  5
177
  8
INSIDE
 10
30.40908874869636
 20
10.42516085727527
 30
0.0
 11
30.00414174400256
 21
9.809747696799164
 31
0.0
  0
LINE
  5
178
  8
INSIDE
 10
30.00414174400256
 20
9.809747696799164
 30
0.0
 11
29.58236518750698
 21
9.194338514513081
 31
0.0
  0
LINE
  5
179
  8
INSIDE
 10
29.58236518750698
 20
9.194338514513081
 30
0.0
 11
29.14392888638372
 21
8.578933757893708
 31
0.0
  0
LINE
  5
17A
  8
INSIDE
 10
29.14392888638372
 20
8.578933757893708
 30
0.0
 11
28.68900854633218
 21
7.963533874906732
 31
0.0
  0
LINE
  5
17B
  8
INSIDE
 10
28.68900854633218
 20
7.963533874906732
 30
0.0
 11
27.73044734231016
 21
6.732750519857323
 31
0.0
  0
LINE
  5
17C
  8
INSIDE
 10
27.73044734231016
 20
6.732750519857323
 30
0.0
 11
26.708200794025
 21
5.501992016172957
 31
0.0
  0
LINE
  5
17D
  8
INSIDE
 10
26.708200794025
 20
5.501992016172957
 30
0.0
 11
25.6238756589549
 21
4.271261894832088
 31
0.0
  0
LINE
  5
17E
  8
INSIDE
 10
25.6238756589549
 20
4.271261894832088
 30
0.0
 11
24.47916327588374
 21
3.040563630219005
 31
0.0
  0
LINE
  5
17F
  8
INSIDE
 10
24.47916327588374
 20
3.040563630219005
 30
0.0
 11
23.27583661519568
 21
1.809900619377446
 31
0.0
  0
LINE
  5
180
  8
INSIDE
 10
23.27583661519568
 20
1.809900619377446
 30
0.0
 11
22.01574732916988
 21
0.579276161264237
 31
0.0
  0
LINE
  5
181
  8
INSIDE
 10
22.01574732916988
 20
0.579276161264237
 30
0.0
 11
20.70082280227517
 21
-0.6513065639970913
 31
0.0
  0
LINE
  5
182
  8
INSIDE
 10
20.70082280227517
 20
-0.6513065639970913
 30
0.0
 11
19.33306320146468
 21
-1.88184451586267
 31
0.0
  0
LINE
  5
183
  8
INSIDE
 10
19.33306320146468
 20
-1.88184451586267
 30
0.0
 11
16.44738555414617
 21
-4.342774758774085
 31
0.0
  0
LINE
  5
184
  8
INSIDE
 10
16.44738555414617
 20
-4.342774758774085
 30
0.0
 11
13.37605621110228
 21
-6.80349379890073
 31
0.0
  0
LINE
  5
185
  8
INSIDE
 10
13.37605621110228
 20
-6.80349379890073
 30
0.0
 11
10.13737991458195
 21
-9.263984327852803
 31
0.0
  0
LINE
  5
186
  8
INSIDE
 10
10.13737991458195
 20
-9.263984327852803
 30
0.0
 11
6.750517326282097
 21
-11.72423306210804
 31
0.0
  0
LINE
  5
187
  8
INSIDE
 10
6.750517326282097
 20
-11.72423306210804
 30
0.0
 11
-0.3874850955974163
 21
-16.64397561675399
 31
0.0
  0
LINE
  5
188
  8
INSIDE
 10
-0.3874850955974163
 20
-16.64397561675399
 30
0.0
 11
-30.64977197628554
 21
-36.31471554253609
 31
0.0
  0
LINE
  5
189
  8
INSIDE
 10
-30.64977197628554
 20
-36.31471554253609
 30
0.0
 11
-37.76234075367444
 21
-41.23183136814886
 31
0.0
  0
LINE
  5
18A
  8
INSIDE
 10
-37.76234075367444
 20
-41.23183136814886
 30
0.0
 11
-41.13190626392764
 21
-43.69062111242073
 31
0.0
  0
LINE
  5
18B
  8
INSIDE
 10
-41.13190626392764
 20
-43.69062111242073
 30
0.0
 11
-44.34995203644663
 21
-46.14965369833154
 31
0.0
  0
LINE
  5
18C
  8
INSIDE
 10
-44.34995203644663
 20
-46.14965369833154
 30
0.0
 11
-47.39711128114612
 21
-48.60899368893995
 31
0.0
  0
LINE
  5
18D
  8
INSIDE
 10
-47.39711128114612
 20
-48.60899368893995
 30
0.0
 11
-50.25488758696829
 21
-51.06870248609691
 31
0.0
  0
LINE
  5
18E
  8
INSIDE
 10
-50.25488758696829
 20
-51.06870248609691
 30
0.0
 11
-51.60724367122937
 21
-52.2987131360475
 31
0.0
  0
LINE
  5
18F
  8
INSIDE
 10
-51.60724367122937
 20
-52.2987131360475
 30
0.0
 11
-52.90577131087409
 21
-53.52883680893397
 31
0.0
  0
LINE
  5
190
  8
INSIDE
 10
-52.90577131087409
 20
-53.52883680893397
 30
0.0
 11
-54.14845458414376
 21
-54.75907961995994
 31
0.0
  0
LINE
  5
191
  8
INSIDE
 10
-54.14845458414376
 20
-54.75907961995994
 30
0.0
 11
-55.33335293945408
 21
-55.98944721286422
 31
0.0
  0
LINE
  5
192
  8
INSIDE
 10
-55.33335293945408
 20
-55.98944721286422
 30
0.0
 11
-56.45860439954834
 21
-57.21994471816812
 31
0.0
  0
LINE
  5
193
  8
INSIDE
 10
-56.45860439954834
 20
-57.21994471816812
 30
0.0
 11
-57.52242876565069
 21
-58.4505767114226
 31
0.0
  0
LINE
  5
194
  8
INSIDE
 10
-57.52242876565069
 20
-58.4505767114226
 30
0.0
 11
-58.52313082161935
 21
-59.68134717145552
 31
0.0
  0
LINE
  5
195
  8
INSIDE
 10
-58.52313082161935
 20
-59.68134717145552
 30
0.0
 11
-59.45910353809997
 21
-60.91225943861885
 31
0.0
  0
LINE
  5
196
  8
INSIDE
 10
-59.45910353809997
 20
-60.91225943861885
 30
0.0
 11
-59.90233909975036
 21
-61.5277696088699
 31
0.0
  0
LINE
  5
197
  8
INSIDE
 10
-59.90233909975036
 20
-61.5277696088699
 30
0.0
 11
-60.32883128610609
 21
-62.14331617283849
 31
0.0
  0
LINE
  5
198
  8
INSIDE
 10
-60.32883128610609
 20
-62.14331617283849
 30
0.0
 11
-60.73840549207204
 21
-62.7588993489788
 31
0.0
  0
LINE
  5
199
  8
INSIDE
 10
-60.73840549207204
 20
-62.7588993489788
 30
0.0
 11
-61.13089329571116
 21
-63.37451930653095
 31
0.0
  0
LINE
  5
19A
  8
INSIDE
 10
-61.13089329571116
 20
-63.37451930653095
 30
0.0
 11
-61.50613259372692
 21
-63.99017616347583
 31
0.0
  0
LINE
  5
19B
  8
INSIDE
 10
-61.50613259372692
 20
-63.99017616347583
 30
0.0
 11
-61.86396773694565
 21
-64.60586998449003
 31
0.0
  0
LINE
  5
19C
  8
INSIDE
 10
-61.86396773694565
 20
-64.60586998449003
 30
0.0
 11
-62.20424966579887
 21
-65.2216007789007
 31
0.0
  0
LINE
  5
19D
  8
INSIDE
 10
-62.20424966579887
 20
-65.2216007789007
 30
0.0
 11
-62.52683604580572
 21
-65.83736849864036
 31
0.0
  0
LINE
  5
19E
  8
INSIDE
 10
-62.52683604580572
 20
-65.83736849864036
 30
0.0
 11
-62.83159140305528
 21
-66.4531730362019
 31
0.0
  0
LINE
  5
19F
  8
INSIDE
 10
-62.83159140305528
 20
-66.4531730362019
 30
0.0
 11
-63.11838725968898
 21
-67.06901422259341
 31
0.0
  0
LINE
  5
1A0
  8
INSIDE
 10
-63.11838725968898
 20
-67.06901422259341
 30
0.0
 11
-63.38710226938296
 21
-67.68489182529301
 31
0.0
  0
LINE
  5
1A1
  8
INSIDE
 10
-63.38710226938296
 20
-67.68489182529301
 30
0.0
 11
-63.63762235283043
 21
-68.3008055462038
 31
0.0
  0
LINE
  5
1A2
  8
INSIDE
 10
-63.63762235283043
 20
-68.3008055462038
 30
0.0
 11
-63.86984083322406
 21
-68.9167550196087
 31
0.0
  0
LINE
  5
1A3
  8
INSIDE
 10
-63.86984083322406
 20
-68.9167550196087
 30
0.0
 11
-64.08365857173833
 21
-69.53273981012529
 31
0.0
  0
LINE
  5
1A4
  8
INSIDE
 10
-64.08365857173833
 20
-69.53273981012529
 30
0.0
 11
-64.27898410301191
 21
-70.14875941066083
 31
0.0
  0
LINE
  5
1A5
  8
INSIDE
 10
-64.27898410301191
 20
-70.14875941066083
 30
0.0
 11
-64.45573377063005
 21
-70.76481324036699
 31
0.0
  0
LINE
  5
1A6
  8
INSIDE
 10
-64.45573377063005
 20
-70.76481324036699
 30
0.0
 11
-64.61383186159823
 21
-71.38090064261735
 31
0.0
  0
LINE
  5
1A7
  8
INSIDE
 10
-64.61383186159823
 20
-71.38090064261735
 30
0.0
 11
-64.75321071458929
 21
-71.99702088357321
 31
0.0
  0
LINE
  5
1A8
  8
INSIDE
 10
-64.75321071458929
 20
-71.99702088357321
 30
0.0
 11
-64.8738107616159
 21
-72.61317315224215
 31
0.0
  0
LINE
  5
1A9
  8
INSIDE
 10
-64.8738107616159
 20
-72.61317315224215
 30
0.0
 11
-64.97558054347637
 21
-73.22935656112489
 31
0.0
  0
LINE
  5
1AA
  8
INSIDE
 10
-64.97558054347637
 20
-73.22935656112489
 30
0.0
 11
-65.05847672419178
 21
-73.84557014688465
 31
0.0
  0
LINE
  5
1AB
  8
INSIDE
 10
-65.05847672419178
 20
-73.84557014688465
 30
0.0
 11
-65.12246410544321
 21
-74.46181287101685
 31
0.0
  0
LINE
  5
1AC
  8
INSIDE
 10
-65.12246410544321
 20
-74.46181287101685
 30
0.0
 11
-65.16751564100889
 21
-75.07808362051833
 31
0.0
  0
LINE
  5
1AD
  8
INSIDE
 10
-65.16751564100889
 20
-75.07808362051833
 30
0.0
 11
-65.19361245120136
 21
-75.69438120855699
 31
0.0
  0
LINE
  5
1AE
  8
INSIDE
 10
-65.19361245120136
 20
-75.69438120855699
 30
0.0
 11
-65.20074383730466
 21
-76.31070437514107
 31
0.0
  0
LINE
  5
1AF
  8
INSIDE
 10
-65.20074383730466
 20
-76.31070437514107
 30
0.0
 11
-65.18890729601141
 21
-76.92705178778877
 31
0.0
  0
LINE
  5
1B0
  8
INSIDE
 10
-65.18890729601141
 20
-76.92705178778877
 30
0.0
 11
-65.15810853386014
 21
-77.54342204219759
 31
0.0
  0
LINE
  5
1B1
  8
INSIDE
 10
-65.15810853386014
 20
-77.54342204219759
 30
0.0
 11
-65.10836148167232
 21
-78.15981366291388
 31
0.0
  0
LINE
  5
1B2
  8
INSIDE
 10
-65.10836148167232
 20
-78.15981366291388
 30
0.0
 11
-65.03968830898958
 21
-78.77622510400222
 31
0.0
  0
LINE
  5
1B3
  8
INSIDE
 10
-65.03968830898958
 20
-78.77622510400222
 30
0.0
 11
-64.95211943851092
 21
-79.39265474971498
 31
0.0
  0
LINE
  5
1B4
  8
INSIDE
 10
-64.95211943851092
 20
-79.39265474971498
 30
0.0
 11
-64.84569356052972
 21
-80.00910091516164
 31
0.0
  0
LINE
  5
1B5
  8
INSIDE
 10
-64.84569356052972
 20
-80.00910091516164
 30
0.0
 11
-64.72045764737112
 21
-80.6255618469784
 31
0.0
  0
LINE
  5
1B6
  8
INSIDE
 10
-64.72045764737112
 20
-80.6255618469784
 30
0.0
 11
-64.57646696653778
 21
-81.24203572402527
 31
0.0
  0
LINE
  5
1B7
  8
INSIDE
 10
-64.57646696653778
 20
-81.24203572402527
 30
0.0
 11
-64.41378506028252
 21
-81.85852065880573
 31
0.0
  0
LINE
  5
1B8
  8
INSIDE
 10
-64.41378506028252
 20
-81.85852065880573
 30
0.0
 11
-64.23248363995634
 21
-82.47501470071975
 31
0.0
  0
LINE
  5
1B9
  8
INSIDE
 10
-64.23248363995634
 20
-82.47501470071975
 30
0.0
 11
-64.03264244678331
 21
-83.0915158400392
 31
0.0
  0
LINE
  5
1BA
  8
INSIDE
 10
-64.03264244678331
 20
-83.0915158400392
 30
0.0
 11
-63.81434911134404
 21
-83.70802201191094
 31
0.0
  0
LINE
  5
1BB
  8
INSIDE
 10
-63.81434911134404
 20
-83.70802201191094
 30
0.0
 11
-63.5776990130592
 21
-84.32453110036008
 31
0.0
  0
LINE
  5
1BC
  8
INSIDE
 10
-63.5776990130592
 20
-84.32453110036008
 30
0.0
 11
-63.322795139673
 21
-84.94104094229306
 31
0.0
  0
LINE
  5
1BD
  8
INSIDE
 10
-63.322795139673
 20
-84.94104094229306
 30
0.0
 11
-63.04974794673677
 21
-85.55754933150081
 31
0.0
  0
LINE
  5
1BE
  8
INSIDE
 10
-63.04974794673677
 20
-85.55754933150081
 30
0.0
 11
-62.75867521709246
 21
-86.17405402266199
 31
0.0
  0
LINE
  5
1BF
  8
INSIDE
 10
-62.75867521709246
 20
-86.17405402266199
 30
0.0
 11
-62.44970192035609
 21
-86.79055273534603
 31
0.0
  0
LINE
  5
1C0
  8
INSIDE
 10
-62.44970192035609
 20
-86.79055273534603
 30
0.0
 11
-62.12296007240137
 21
-87.40704315801639
 31
0.0
  0
LINE
  5
1C1
  8
INSIDE
 10
-62.12296007240137
 20
-87.40704315801639
 30
0.0
 11
-61.77858859484313
 21
-88.02352295203369
 31
0.0
  0
LINE
  5
1C2
  8
INSIDE
 10
-61.77858859484313
 20
-88.02352295203369
 30
0.0
 11
-61.41673317452086
 21
-88.6399897556588
 31
0.0
  0
LINE
  5
1C3
  8
INSIDE
 10
-61.41673317452086
 20
-88.6399897556588
 30
0.0
 11
-61.03754612298225
 21
-89.2564411880561
 31
0.0
  0
LINE
  5
1C4
  8
INSIDE
 10
-61.03754612298225
 20
-89.2564411880561
 30
0.0
 11
-60.64118623596669
 21
-89.87287485329657
 31
0.0
  0
LINE
  5
1C5
  8
INSIDE
 10
-60.64118623596669
 20
-89.87287485329657
 30
0.0
 11
-60.22781865288876
 21
-90.48928834436103
 31
0.0
  0
LINE
  5
1C6
  8
INSIDE
 10
-60.22781865288876
 20
-90.48928834436103
 30
0.0
 11
-59.79761471664921
 21
-91.10567924713823
 31
0.0
  0
LINE
  5
1C7
  8
INSIDE
 10
-59.79761471664921
 20
-91.10567924713823
 30
0.0
 11
-59.35075184195895
 21
-91.72204514429521
 31
0.0
  0
LINE
  5
1C8
  8
INSIDE
 10
-59.35075184195895
 20
-91.72204514429521
 30
0.0
 11
-58.40778864323882
 21
-92.95469225745066
 31
0.0
  0
LINE
  5
1C9
  8
INSIDE
 10
-58.40778864323882
 20
-92.95469225745066
 30
0.0
 11
-57.40046578331634
 21
-94.1872104131107
 31
0.0
  0
LINE
  5
1CA
  8
INSIDE
 10
-57.40046578331634
 20
-94.1872104131107
 30
0.0
 11
-56.33041051263245
 21
-95.41958050959872
 31
0.0
  0
LINE
  5
1CB
  8
INSIDE
 10
-56.33041051263245
 20
-95.41958050959872
 30
0.0
 11
-55.19933736626948
 21
-96.65178372346952
 31
0.0
  0
LINE
  5
1CC
  8
INSIDE
 10
-55.19933736626948
 20
-96.65178372346952
 30
0.0
 11
-54.00904492473973
 21
-97.88380161870049
 31
0.0
  0
LINE
  5
1CD
  8
INSIDE
 10
-54.00904492473973
 20
-97.88380161870049
 30
0.0
 11
-52.76141257477392
 21
-99.11561625588294
 31
0.0
  0
LINE
  5
1CE
  8
INSIDE
 10
-52.76141257477392
 20
-99.11561625588294
 30
0.0
 11
-51.45839727010976
 21
-100.3472103014132
 31
0.0
  0
LINE
  5
1CF
  8
INSIDE
 10
-51.45839727010976
 20
-100.3472103014132
 30
0.0
 11
-50.10203028837459
 21
-101.5785671366042
 31
0.0
  0
LINE
  5
1D0
  8
INSIDE
 10
-50.10203028837459
 20
-101.5785671366042
 30
0.0
 11
-48.69441388641761
 21
-102.8096709647145
 31
0.0
  0
LINE
  5
1D1
  8
INSIDE
 10
-48.69441388641761
 20
-102.8096709647145
 30
0.0
 11
-45.7341750290916
 21
-105.2710611308545
 31
0.0
  0
LINE
  5
1D2
  8
INSIDE
 10
-45.7341750290916
 20
-105.2710611308545
 30
0.0
 11
-42.59577959290582
 21
-107.731274693232
 31
0.0
  0
LINE
  5
1D3
  8
INSIDE
 10
-42.59577959290582
 20
-107.731274693232
 30
0.0
 11
-39.298226583953
 21
-110.1902251056638
 31
0.0
  0
LINE
  5
1D4
  8
INSIDE
 10
-39.298226583953
 20
-110.1902251056638
 30
0.0
 11
-32.3054338142875
 21
-115.104107612321
 31
0.0
  0
LINE
  5
1D5
  8
INSIDE
 10
-32.3054338142875
 20
-115.104107612321
 30
0.0
 11
-2.159233006116432
 21
-134.7124767568876
 31
0.0
  0
LINE
  5
1D6
  8
INSIDE
 10
-2.159233006116432
 20
-134.7124767568876
 30
0.0
 11
5.049105359906235
 21
-139.6098022581857
 31
0.0
  0
LINE
  5
1D7
  8
INSIDE
 10
5.049105359906235
 20
-139.6098022581857
 30
0.0
 11
8.486859400780693
 21
-142.0593776025637
 31
0.0
  0
LINE
  5
1D8
  8
INSIDE
 10
8.486859400780693
 20
-142.0593776025637
 30
0.0
 11
11.78697044345658
 21
-144.5100373647573
 31
0.0
  0
LINE
  5
1D9
  8
INSIDE
 10
11.78697044345658
 20
-144.5100373647573
 30
0.0
 11
14.93025515213584
 21
-146.9621361172923
 31
0.0
  0
LINE
  5
1DA
  8
INSIDE
 10
14.93025515213584
 20
-146.9621361172923
 30
0.0
 11
17.89832136918651
 21
-149.4160167624713
 31
0.0
  0
LINE
  5
1DB
  8
INSIDE
 10
17.89832136918651
 20
-149.4160167624713
 30
0.0
 11
19.31114063141169
 21
-150.6437272853299
 31
0.0
  0
LINE
  5
1DC
  8
INSIDE
 10
19.31114063141169
 20
-150.6437272853299
 30
0.0
 11
20.67366679012675
 21
-151.8720025084144
 31
0.0
  0
LINE
  5
1DD
  8
INSIDE
 10
20.67366679012675
 20
-151.8720025084144
 30
0.0
 11
21.9838669649474
 21
-153.1008784532916
 31
0.0
  0
LINE
  5
1DE
  8
INSIDE
 10
21.9838669649474
 20
-153.1008784532916
 30
0.0
 11
23.23977567280074
 21
-154.3303889321216
 31
0.0
  0
LINE
  5
1DF
  8
INSIDE
 10
23.23977567280074
 20
-154.3303889321216
 30
0.0
 11
24.4394976303512
 21
-155.5605653093554
 31
0.0
  0
LINE
  5
1E0
  8
INSIDE
 10
24.4394976303512
 20
-155.5605653093554
 30
0.0
 11
25.5812105564266
 21
-156.791436263433
 31
0.0
  0
LINE
  5
1E1
  8
INSIDE
 10
25.5812105564266
 20
-156.791436263433
 30
0.0
 11
26.66316797444409
 21
-158.023027548481
 31
0.0
  0
LINE
  5
1E2
  8
INSIDE
 10
26.66316797444409
 20
-158.023027548481
 30
0.0
 11
27.68370201483618
 21
-159.2553617560104
 31
0.0
  0
LINE
  5
1E3
  8
INSIDE
 10
27.68370201483618
 20
-159.2553617560104
 30
0.0
 11
28.64122622263273
 21
-160.488458075927
 31
0.0
  0
LINE
  5
1E4
  8
INSIDE
 10
28.64122622263273
 20
-160.488458075927
 30
0.0
 11
29.09588685005789
 21
-161.1052970325784
 31
0.0
  0
LINE
  5
1E5
  8
INSIDE
 10
29.09588685005789
 20
-161.1052970325784
 30
0.0
 11
29.53423849909953
 21
-161.722332039678
 31
0.0
  0
LINE
  5
1E6
  8
INSIDE
 10
29.53423849909953
 20
-161.722332039678
 30
0.0
 11
29.95610712744683
 21
-162.339564417319
 31
0.0
  0
LINE
  5
1E7
  8
INSIDE
 10
29.95610712744683
 20
-162.339564417319
 30
0.0
 11
30.36132438367422
 21
-162.9569952180491
 31
0.0
  0
LINE
  5
1E8
  8
INSIDE
 10
30.36132438367422
 20
-162.9569952180491
 30
0.0
 11
30.7497277141523
 21
-163.5746252168468
 31
0.0
  0
LINE
  5
1E9
  8
INSIDE
 10
30.7497277141523
 20
-163.5746252168468
 30
0.0
 11
31.12116046995871
 21
-164.1924549010981
 31
0.0
  0
LINE
  5
1EA
  8
INSIDE
 10
31.12116046995871
 20
-164.1924549010981
 30
0.0
 11
31.47547201378905
 21
-164.8104844605727
 31
0.0
  0
LINE
  5
1EB
  8
INSIDE
 10
31.47547201378905
 20
-164.8104844605727
 30
0.0
 11
31.81251782686772
 21
-165.4287137774006
 31
0.0
  0
LINE
  5
1EC
  8
INSIDE
 10
31.81251782686772
 20
-165.4287137774006
 30
0.0
 11
32.13215961585887
 21
-166.0471424160484
 31
0.0
  0
LINE
  5
1ED
  8
INSIDE
 10
32.13215961585887
 20
-166.0471424160484
 30
0.0
 11
32.43426541977725
 21
-166.6657696132958
 31
0.0
  0
LINE
  5
1EE
  8
INSIDE
 10
32.43426541977725
 20
-166.6657696132958
 30
0.0
 11
32.71870971689909
 21
-167.2845942682122
 31
0.0
  0
LINE
  5
1EF
  8
INSIDE
 10
32.71870971689909
 20
-167.2845942682122
 30
0.0
 11
32.98537353167303
 21
-167.903614932133
 31
0.0
  0
LINE
  5
1F0
  8
INSIDE
 10
32.98537353167303
 20
-167.903614932133
 30
0.0
 11
33.234144541631
 21
-168.5228297986358
 31
0.0
  0
LINE
  5
1F1
  8
INSIDE
 10
33.234144541631
 20
-168.5228297986358
 30
0.0
 11
33.46491718429907
 21
-169.1422366935172
 31
0.0
  0
LINE
  5
1F2
  8
INSIDE
 10
33.46491718429907
 20
-169.1422366935172
 30
0.0
 11
33.67759276364335
 21
-169.7618330648415
 31
0.0
  0
LINE
  5
1F3
  8
INSIDE
 10
33.67759276364335
 20
-169.7618330648415
 30
0.0
 11
33.87207954442479
 21
-170.3816159748705
 31
0.0
  0
LINE
  5
1F4
  8
INSIDE
 10
33.87207954442479
 20
-170.3816159748705
 30
0.0
 11
34.0482928158614
 21
-171.0015820967685
 31
0.0
  0
LINE
  5
1F5
  8
INSIDE
 10
34.0482928158614
 20
-171.0015820967685
 30
0.0
 11
34.20615494319942
 21
-171.6217277131883
 31
0.0
  0
LINE
  5
1F6
  8
INSIDE
 10
34.20615494319942
 20
-171.6217277131883
 30
0.0
 11
34.34559541881946
 21
-172.2420487149302
 31
0.0
  0
LINE
  5
1F7
  8
INSIDE
 10
34.34559541881946
 20
-172.2420487149302
 30
0.0
 11
34.4665509133427
 21
-172.8625405995997
 31
0.0
  0
LINE
  5
1F8
  8
INSIDE
 10
34.4665509133427
 20
-172.8625405995997
 30
0.0
 11
34.56896532673695
 21
-173.4831984702662
 31
0.0
  0
LINE
  5
1F9
  8
INSIDE
 10
34.56896532673695
 20
-173.4831984702662
 30
0.0
 11
34.65278983942285
 21
-174.1040170341217
 31
0.0
  0
LINE
  5
1FA
  8
INSIDE
 10
34.65278983942285
 20
-174.1040170341217
 30
0.0
 11
34.71798296338
 21
-174.7249906011392
 31
0.0
  0
LINE
  5
1FB
  8
INSIDE
 10
34.71798296338
 20
-174.7249906011392
 30
0.0
 11
34.76451059325306
 21
-175.3461130827307
 31
0.0
  0
LINE
  5
1FC
  8
INSIDE
 10
34.76451059325306
 20
-175.3461130827307
 30
0.0
 11
34.79234605745803
 21
-175.967377990406
 31
0.0
  0
LINE
  5
1FD
  8
INSIDE
 10
34.79234605745803
 20
-175.967377990406
 30
0.0
 11
34.80147016928822
 21
-176.5887784344314
 31
0.0
  0
LINE
  5
1FE
  8
INSIDE
 10
34.80147016928822
 20
-176.5887784344314
 30
0.0
 11
34.7918712780205
 21
-177.2103071224876
 31
0.0
  0
LINE
  5
1FF
  8
INSIDE
 10
34.7918712780205
 20
-177.2103071224876
 30
0.0
 11
34.76354532002142
 21
-177.8319563583285
 31
0.0
  0
LINE
  5
200
  8
INSIDE
 10
34.76354532002142
 20
-177.8319563583285
 30
0.0
 11
34.71649586985335
 21
-178.4537180404396
 31
0.0
  0
LINE
  5
201
  8
INSIDE
 10
34.71649586985335
 20
-178.4537180404396
 30
0.0
 11
34.65073419138062
 21
-179.0755836606962
 31
0.0
  0
LINE
  5
202
  8
INSIDE
 10
34.65073419138062
 20
-179.0755836606962
 30
0.0
 11
34.56627928762796
 21
-179.6975443032127
 31
0.0
  0
LINE
  5
203
  8
INSIDE
 10
34.56627928762796
 20
-179.6975443032127
 30
0.0
 11
34.46315791819794
 21
-180.3195906481421
 31
0.0
  0
LINE
  5
204
  8
INSIDE
 10
34.46315791819794
 20
-180.3195906481421
 30
0.0
 11
34.34140453433828
 21
-180.9417129880443
 31
0.0
  0
LINE
  5
205
  8
INSIDE
 10
34.34140453433828
 20
-180.9417129880443
 30
0.0
 11
34.20106118156833
 21
-181.5639012492048
 31
0.0
  0
LINE
  5
206
  8
INSIDE
 10
34.20106118156833
 20
-181.5639012492048
 30
0.0
 11
34.04217740105766
 21
-182.1861450131442
 31
0.0
  0
LINE
  5
207
  8
INSIDE
 10
34.04217740105766
 20
-182.1861450131442
 30
0.0
 11
33.86481013100472
 21
-182.8084335381277
 31
0.0
  0
LINE
  5
208
  8
INSIDE
 10
33.86481013100472
 20
-182.8084335381277
 30
0.0
 11
33.66902360801558
 21
-183.4307557806743
 31
0.0
  0
LINE
  5
209
  8
INSIDE
 10
33.66902360801558
 20
-183.4307557806743
 30
0.0
 11
33.45488926848248
 21
-184.0531004170664
 31
0.0
  0
LINE
  5
20A
  8
INSIDE
 10
33.45488926848248
 20
-184.0531004170664
 30
0.0
 11
33.22248564996259
 21
-184.6754558648591
 31
0.0
  0
LINE
  5
20B
  8
INSIDE
 10
33.22248564996259
 20
-184.6754558648591
 30
0.0
 11
32.97189829255662
 21
-185.2978103043898
 31
0.0
  0
LINE
  5
20C
  8
INSIDE
 10
32.97189829255662
 20
-185.2978103043898
 30
0.0
 11
32.70321964028747
 21
-185.9201517002873
 31
0.0
  0
LINE
  5
20D
  8
INSIDE
 10
32.70321964028747
 20
-185.9201517002873
 30
0.0
 11
32.41654894247897
 21
-186.5424678229812
 31
0.0
  0
LINE
  5
20E
  8
INSIDE
 10
32.41654894247897
 20
-186.5424678229812
 30
0.0
 11
32.11199215513443
 21
-187.1647462702118
 31
0.0
  0
LINE
  5
20F
  8
INSIDE
 10
32.11199215513443
 20
-187.1647462702118
 30
0.0
 11
31.7896618423154
 21
-187.7869744885388
 31
0.0
  0
LINE
  5
210
  8
INSIDE
 10
31.7896618423154
 20
-187.7869744885388
 30
0.0
 11
31.44967707752028
 21
-188.4091397948514
 31
0.0
  0
LINE
  5
211
  8
INSIDE
 10
31.44967707752028
 20
-188.4091397948514
 30
0.0
 11
31.092163345063
 21
-189.0312293978771
 31
0.0
  0
LINE
  5
212
  8
INSIDE
 10
31.092163345063
 20
-189.0312293978771
 30
0.0
 11
30.71725244169934
 21
-189.6532304196621
 31
0.0
  0
LINE
  5
213
  8
INSIDE
 10
30.71725244169934
 20
-189.6532304196621
 30
0.0
 11
30.32508238469243
 21
-190.2751299162877
 31
0.0
  0
LINE
  5
214
  8
INSIDE
 10
30.32508238469243
 20
-190.2751299162877
 30
0.0
 11
29.91579733622388
 21
-190.8969148966479
 31
0.0
  0
LINE
  5
215
  8
INSIDE
 10
29.91579733622388
 20
-190.8969148966479
 30
0.0
 11
29.4895475342441
 21
-191.5185723404635
 31
0.0
  0
LINE
  5
216
  8
INSIDE
 10
29.4895475342441
 20
-191.5185723404635
 30
0.0
 11
29.04648922357028
 21
-192.1400892162672
 31
0.0
  0
LINE
  5
217
  8
INSIDE
 10
29.04648922357028
 20
-192.1400892162672
 30
0.0
 11
28.58678458698433
 21
-192.761452499388
 31
0.0
  0
LINE
  5
218
  8
INSIDE
 10
28.58678458698433
 20
-192.761452499388
 30
0.0
 11
27.61811434361527
 21
-194.0036663307888
 31
0.0
  0
LINE
  5
219
  8
INSIDE
 10
27.61811434361527
 20
-194.0036663307888
 30
0.0
 11
26.58495040741006
 21
-195.2451104566498
 31
0.0
  0
LINE
  5
21A
  8
INSIDE
 10
26.58495040741006
 20
-195.2451104566498
 30
0.0
 11
25.48879697934798
 21
-196.4856827587245
 31
0.0
  0
LINE
  5
21B
  8
INSIDE
 10
25.48879697934798
 20
-196.4856827587245
 30
0.0
 11
24.33124665324954
 21
-197.7252829540487
 31
0.0
  0
LINE
  5
21C
  8
INSIDE
 10
24.33124665324954
 20
-197.7252829540487
 30
0.0
 11
23.11397821091163
 21
-198.9638131704531
 31
0.0
  0
LINE
  5
21D
  8
INSIDE
 10
23.11397821091163
 20
-198.9638131704531
 30
0.0
 11
21.8387544135706
 21
-200.201178522025
 31
0.0
  0
LINE
  5
21E
  8
INSIDE
 10
21.8387544135706
 20
-200.201178522025
 30
0.0
 11
20.50741969789214
 21
-201.4372876832319
 31
0.0
  0
LINE
  5
21F
  8
INSIDE
 10
20.50741969789214
 20
-201.4372876832319
 30
0.0
 11
19.12189762960609
 21
-202.6720534596502
 31
0.0
  0
LINE
  5
220
  8
INSIDE
 10
19.12189762960609
 20
-202.6720534596502
 30
0.0
 11
17.68418826166802
 21
-203.905393357356
 31
0.0
  0
LINE
  5
221
  8
INSIDE
 10
17.68418826166802
 20
-203.905393357356
 30
0.0
 11
14.66057440172424
 21
-206.3674924594698
 31
0.0
  0
LINE
  5
222
  8
INSIDE
 10
14.66057440172424
 20
-206.3674924594698
 30
0.0
 11
11.4540077568235
 21
-208.8230406830791
 31
0.0
  0
LINE
  5
223
  8
INSIDE
 10
11.4540077568235
 20
-208.8230406830791
 30
0.0
 11
8.082972554677662
 21
-211.2716054007824
 31
0.0
  0
LINE
  5
224
  8
INSIDE
 10
8.082972554677662
 20
-211.2716054007824
 30
0.0
 11
4.566925817766239
 21
-213.7128847840693
 31
0.0
  0
LINE
  5
225
  8
INSIDE
 10
4.566925817766239
 20
-213.7128847840693
 30
0.0
 11
-2.817956227297495
 21
-218.5731630278389
 31
0.0
  0
LINE
  5
226
  8
INSIDE
 10
-2.817956227297495
 20
-218.5731630278389
 30
0.0
 11
-33.74647803840546
 21
-237.7917902182372
 31
0.0
  0
LINE
  5
227
  8
INSIDE
 10
-33.74647803840546
 20
-237.7917902182372
 30
0.0
 11
-37.37488950735507
 21
-240.1884682139725
 31
0.0
  0
LINE
  5
228
  8
INSIDE
 10
-37.37488950735507
 20
-240.1884682139725
 30
0.0
 11
-40.87014495183562
 21
-242.5896120080052
 31
0.0
  0
LINE
  5
229
  8
INSIDE
 10
-40.87014495183562
 20
-242.5896120080052
 30
0.0
 11
-44.20912944293957
 21
-244.9971651563839
 31
0.0
  0
LINE
  5
22A
  8
INSIDE
 10
-44.20912944293957
 20
-244.9971651563839
 30
0.0
 11
-47.36951071332651
 21
-247.4130517437063
 31
0.0
  0
LINE
  5
22B
  8
INSIDE
 10
-47.36951071332651
 20
-247.4130517437063
 30
0.0
 11
-48.87600318502118
 21
-248.6247060584726
 31
0.0
  0
LINE
  5
22C
  8
INSIDE
 10
-48.87600318502118
 20
-248.6247060584726
 30
0.0
 11
-50.32991333349955
 21
-249.839135856127
 31
0.0
  0
LINE
  5
22D
  8
INSIDE
 10
-50.32991333349955
 20
-249.839135856127
 30
0.0
 11
-51.72874721110718
 21
-251.0565580698411
 31
0.0
  0
LINE
  5
22E
  8
INSIDE
 10
-51.72874721110718
 20
-251.0565580698411
 30
0.0
 11
-53.07009227104892
 21
-252.2771807241315
 31
0.0
  0
LINE
  5
22F
  8
INSIDE
 10
-53.07009227104892
 20
-252.2771807241315
 30
0.0
 11
-54.35162272214399
 21
-253.5012016211583
 31
0.0
  0
LINE
  5
230
  8
INSIDE
 10
-54.35162272214399
 20
-253.5012016211583
 30
0.0
 11
-55.57110488358114
 21
-254.7288070270236
 31
0.0
  0
LINE
  5
231
  8
INSIDE
 10
-55.57110488358114
 20
-254.7288070270236
 30
0.0
 11
-56.72640253967381
 21
-255.9601703580697
 31
0.0
  0
LINE
  5
232
  8
INSIDE
 10
-56.72640253967381
 20
-255.9601703580697
 30
0.0
 11
-57.81548229461523
 21
-257.1954508671782
 31
0.0
  0
LINE
  5
233
  8
INSIDE
 10
-57.81548229461523
 20
-257.1954508671782
 30
0.0
 11
-58.83641893184631
 21
-258.434792329316
 31
0.0
  0
LINE
  5
234
  8
INSIDE
 10
-58.83641893184631
 20
-258.434792329316
 30
0.0
 11
-59.32076287285702
 21
-259.0560262880533
 31
0.0
  0
LINE
  5
235
  8
INSIDE
 10
-59.32076287285702
 20
-259.0560262880533
 30
0.0
 11
-59.78740089335541
 21
-259.6783217075355
 31
0.0
  0
LINE
  5
236
  8
INSIDE
 10
-59.78740089335541
 20
-259.6783217075355
 30
0.0
 11
-60.23612525746211
 21
-260.3016916041473
 31
0.0
  0
LINE
  5
237
  8
INSIDE
 10
-60.23612525746211
 20
-260.3016916041473
 30
0.0
 11
-60.66673606342046
 21
-260.9261477693545
 31
0.0
  0
LINE
  5
238
  8
INSIDE
 10
-60.66673606342046
 20
-260.9261477693545
 30
0.0
 11
-61.0790414282305
 21
-261.5517007258317
 31
0.0
  0
LINE
  5
239
  8
INSIDE
 10
-61.0790414282305
 20
-261.5517007258317
 30
0.0
 11
-61.47285767228293
 21
-262.1783596835894
 31
0.0
  0
LINE
  5
23A
  8
INSIDE
 10
-61.47285767228293
 20
-262.1783596835894
 30
0.0
 11
-61.848009503993
 21
-262.8061324961022
 31
0.0
  0
LINE
  5
23B
  8
INSIDE
 10
-61.848009503993
 20
-262.8061324961022
 30
0.0
 11
-62.20433020443458
 21
-263.4350256164361
 31
0.0
  0
LINE
  5
23C
  8
INSIDE
 10
-62.20433020443458
 20
-263.4350256164361
 30
0.0
 11
-62.54166181197405
 21
-264.0650440533757
 31
0.0
  0
LINE
  5
23D
  8
INSIDE
 10
-62.54166181197405
 20
-264.0650440533757
 30
0.0
 11
-62.85985530690427
 21
-264.6961913275521
 31
0.0
  0
LINE
  5
23E
  8
INSIDE
 10
-62.85985530690427
 20
-264.6961913275521
 30
0.0
 11
-63.15877079607852
 21
-265.3284694275703
 31
0.0
  0
LINE
  5
23F
  8
INSIDE
 10
-63.15877079607852
 20
-265.3284694275703
 30
0.0
 11
-63.43827769754456
 21
-265.9618787661369
 31
0.0
  0
LINE
  5
240
  8
INSIDE
 10
-63.43827769754456
 20
-265.9618787661369
 30
0.0
 11
-63.69825492517847
 21
-266.5964181361874
 31
0.0
  0
LINE
  5
241
  8
INSIDE
 10
-63.69825492517847
 20
-266.5964181361874
 30
0.0
 11
-63.93859107331865
 21
-267.2320846670139
 31
0.0
  0
LINE
  5
242
  8
INSIDE
 10
-63.93859107331865
 20
-267.2320846670139
 30
0.0
 11
-64.1591846009718
 21
-267.8688737804829
 31
0.0
  0
LINE
  5
243
  8
INSIDE
 10
-64.1591846009718
 20
-267.8688737804829
 30
0.0
 11
-64.35994400488963
 21
-268.5067791496034
 31
0.0
  0
LINE
  5
244
  8
INSIDE
 10
-64.35994400488963
 20
-268.5067791496034
 30
0.0
 11
-64.54078796439508
 21
-269.1457926630595
 31
0.0
  0
LINE
  5
245
  8
INSIDE
 10
-64.54078796439508
 20
-269.1457926630595
 30
0.0
 11
-64.70164547507929
 21
-269.7859043920931
 31
0.0
  0
LINE
  5
246
  8
INSIDE
 10
-64.70164547507929
 20
-269.7859043920931
 30
0.0
 11
-64.84245598207045
 21
-270.4271025574773
 31
0.0
  0
LINE
  5
247
  8
INSIDE
 10
-64.84245598207045
 20
-270.4271025574773
 30
0.0
 11
-64.96316951330289
 21
-271.0693734964891
 31
0.0
  0
LINE
  5
248
  8
INSIDE
 10
-64.96316951330289
 20
-271.0693734964891
 30
0.0
 11
-65.06374681278604
 21
-271.7127016298834
 31
0.0
  0
LINE
  5
249
  8
INSIDE
 10
-65.06374681278604
 20
-271.7127016298834
 30
0.0
 11
-65.14415947387329
 21
-272.3570694288652
 31
0.0
  0
LINE
  5
24A
  8
INSIDE
 10
-65.14415947387329
 20
-272.3570694288652
 30
0.0
 11
-65.20439007253106
 21
-273.0024573820632
 31
0.0
  0
LINE
  5
24B
  8
INSIDE
 10
-65.20439007253106
 20
-273.0024573820632
 30
0.0
 11
-65.24443230060764
 21
-273.6488439625028
 31
0.0
  0
LINE
  5
24C
  8
INSIDE
 10
-65.24443230060764
 20
-273.6488439625028
 30
0.0
 11
-65.26429109910234
 21
-274.2962055945798
 31
0.0
  0
LINE
  5
24D
  8
INSIDE
 10
-65.26429109910234
 20
-274.2962055945798
 30
0.0
 11
-65.26398279143422
 21
-274.9445166210323
 31
0.0
  0
LINE
  5
24E
  8
INSIDE
 10
-65.26398279143422
 20
-274.9445166210323
 30
0.0
 11
-65.24353521671124
 21
-275.5937492699152
 31
0.0
  0
LINE
  5
24F
  8
INSIDE
 10
-65.24353521671124
 20
-275.5937492699152
 30
0.0
 11
-65.20298786299912
 21
-276.2438736215726
 31
0.0
  0
LINE
  5
250
  8
INSIDE
 10
-65.20298786299912
 20
-276.2438736215726
 30
0.0
 11
-65.14239200059038
 21
-276.8948575756109
 31
0.0
  0
LINE
  5
251
  8
INSIDE
 10
-65.14239200059038
 20
-276.8948575756109
 30
0.0
 11
-65.06181081527313
 21
-277.5466668178724
 31
0.0
  0
LINE
  5
252
  8
INSIDE
 10
-65.06181081527313
 20
-277.5466668178724
 30
0.0
 11
-64.96131953819567
 21
-278.199264788152
 31
0.0
  0
LINE
  5
253
  8
INSIDE
 10
-64.96131953819567
 20
-278.199264788152
 30
0.0
 11
-64.84100548720932
 21
-278.8526126672647
 31
0.0
  0
LINE
  5
254
  8
INSIDE
 10
-64.84100548720932
 20
-278.8526126672647
 30
0.0
 11
-64.70096788350446
 21
-279.5066694132277
 31
0.0
  0
LINE
  5
255
  8
INSIDE
 10
-64.70096788350446
 20
-279.5066694132277
 30
0.0
 11
-64.54131757972496
 21
-280.1613918167937
 31
0.0
  0
LINE
  5
256
  8
INSIDE
 10
-64.54131757972496
 20
-280.1613918167937
 30
0.0
 11
-64.36217678467816
 21
-280.8167345577278
 31
0.0
  0
LINE
  5
257
  8
INSIDE
 10
-64.36217678467816
 20
-280.8167345577278
 30
0.0
 11
-64.16367878804479
 21
-281.4726502610838
 31
0.0
  0
LINE
  5
258
  8
INSIDE
 10
-64.16367878804479
 20
-281.4726502610838
 30
0.0
 11
-63.94596768508909
 21
-282.1290895534812
 31
0.0
  0
LINE
  5
259
  8
INSIDE
 10
-63.94596768508909
 20
-282.1290895534812
 30
0.0
 11
-63.70919810136849
 21
-282.7860011193816
 31
0.0
  0
LINE
  5
25A
  8
INSIDE
 10
-63.70919810136849
 20
-282.7860011193816
 30
0.0
 11
-63.45353491744375
 21
-283.4433317573661
 31
0.0
  0
LINE
  5
25B
  8
INSIDE
 10
-63.45353491744375
 20
-283.4433317573661
 30
0.0
 11
-63.17915299358887
 21
-284.1010264364112
 31
0.0
  0
LINE
  5
25C
  8
INSIDE
 10
-63.17915299358887
 20
-284.1010264364112
 30
0.0
 11
-62.88623689450101
 21
-284.7590283521665
 31
0.0
  0
LINE
  5
25D
  8
INSIDE
 10
-62.88623689450101
 20
-284.7590283521665
 30
0.0
 11
-62.57498061401046
 21
-285.4172789832303
 31
0.0
  0
LINE
  5
25E
  8
INSIDE
 10
-62.57498061401046
 20
-285.4172789832303
 30
0.0
 11
-62.24558729979055
 21
-286.0757181474274
 31
0.0
  0
LINE
  5
25F
  8
INSIDE
 10
-62.24558729979055
 20
-286.0757181474274
 30
0.0
 11
-61.89826897806769
 21
-286.7342840580852
 31
0.0
  0
LINE
  5
260
  8
INSIDE
 10
-61.89826897806769
 20
-286.7342840580852
 30
0.0
 11
-61.5332462783312
 21
-287.3929133803108
 31
0.0
  0
LINE
  5
261
  8
INSIDE
 10
-61.5332462783312
 20
-287.3929133803108
 30
0.0
 11
-61.15074815804337
 21
-288.0515412872675
 31
0.0
  0
LINE
  5
262
  8
INSIDE
 10
-61.15074815804337
 20
-288.0515412872675
 30
0.0
 11
-60.75101162767374
 21
-288.7101015163801
 31
0.0
  0
LINE
  5
263
  8
INSIDE
 10
-60.75101162767374
 20
-288.7101015163801
 30
0.0
 11
-60.3342814841692
 21
-289.3685264236911
 31
0.0
  0
LINE
  5
264
  8
INSIDE
 10
-60.3342814841692
 20
-289.3685264236911
 30
0.0
 11
-59.90081006583705
 21
-290.0267470335182
 31
0.0
  0
LINE
  5
265
  8
INSIDE
 10
-59.90081006583705
 20
-290.0267470335182
 30
0.0
 11
-59.45085701566398
 21
-290.6846930862631
 31
0.0
  0
LINE
  5
266
  8
INSIDE
 10
-59.45085701566398
 20
-290.6846930862631
 30
0.0
 11
-58.50257969699792
 21
-291.9994743489547
 31
0.0
  0
LINE
  5
267
  8
INSIDE
 10
-58.50257969699792
 20
-291.9994743489547
 30
0.0
 11
-57.49166378409454
 21
-293.3122842706626
 31
0.0
  0
LINE
  5
268
  8
INSIDE
 10
-57.49166378409454
 20
-293.3122842706626
 30
0.0
 11
-56.42042528091488
 21
-294.6225194227953
 31
0.0
  0
LINE
  5
269
  8
INSIDE
 10
-56.42042528091488
 20
-294.6225194227953
 30
0.0
 11
-55.29127437604161
 21
-295.929560416857
 31
0.0
  0
LINE
  5
26A
  8
INSIDE
 10
-55.29127437604161
 20
-295.929560416857
 30
0.0
 11
-54.10670787926316
 21
-297.2327734320333
 31
0.0
  0
LINE
  5
26B
  8
INSIDE
 10
-54.10670787926316
 20
-297.2327734320333
 30
0.0
 11
-52.86930165815791
 21
-298.5315117427762
 31
0.0
  0
LINE
  5
26C
  8
INSIDE
 10
-52.86930165815791
 20
-298.5315117427762
 30
0.0
 11
-51.58170307134714
 21
-299.8251172471341
 31
0.0
  0
LINE
  5
26D
  8
INSIDE
 10
-51.58170307134714
 20
-299.8251172471341
 30
0.0
 11
-50.2466233151394
 21
-301.1129220144562
 31
0.0
  0
LINE
  5
26E
  8
INSIDE
 10
-50.2466233151394
 20
-301.1129220144562
 30
0.0
 11
-48.86682955032179
 21
-302.3942498822771
 31
0.0
  0
LINE
  5
26F
  8
INSIDE
 10
-48.86682955032179
 20
-302.3942498822771
 30
0.0
 11
-47.44513694234243
 21
-303.6684180725752
 31
0.0
  0
LINE
  5
270
  8
INSIDE
 10
-47.44513694234243
 20
-303.6684180725752
 30
0.0
 11
-44.48750810310509
 21
-306.1925209327588
 31
0.0
  0
LINE
  5
271
  8
INSIDE
 10
-44.48750810310509
 20
-306.1925209327588
 30
0.0
 11
-41.39691561458858
 21
-308.6796975058558
 31
0.0
  0
LINE
  5
272
  8
INSIDE
 10
-41.39691561458858
 20
-308.6796975058558
 30
0.0
 11
-38.19679673585259
 21
-311.1244123399257
 31
0.0
  0
LINE
  5
273
  8
INSIDE
 10
-38.19679673585259
 20
-311.1244123399257
 30
0.0
 11
-34.91059258549713
 21
-313.5211793068155
 31
0.0
  0
LINE
  5
274
  8
INSIDE
 10
-34.91059258549713
 20
-313.5211793068155
 30
0.0
 11
-28.17218847391985
 21
-318.1494809654184
 31
0.0
  0
LINE
  5
275
  8
INSIDE
 10
-28.17218847391985
 20
-318.1494809654184
 30
0.0
 11
-21.35966481897142
 21
-322.523656998791
 31
0.0
  0
LINE
  5
276
  8
INSIDE
 10
-21.35966481897142
 20
-322.523656998791
 30
0.0
 11
-14.63488982822821
 21
-326.6068286187655
 31
0.0
  0
LINE
  5
277
  8
INSIDE
 10
-14.63488982822821
 20
-326.6068286187655
 30
0.0
 11
-8.13591560070687
 21
-330.3677480430925
 31
0.0
  0
LINE
  5
278
  8
INSIDE
 10
-8.13591560070687
 20
-330.3677480430925
 30
0.0
 11
-1.971938994014978
 21
-333.7817937554
 31
0.0
  0
LINE
  5
279
  8
INSIDE
 10
-1.971938994014978
 20
-333.7817937554
 30
0.0
 11
3.775137087642148
 21
-336.8305654909774
 31
0.0
  0
LINE
  5
27A
  8
INSIDE
 10
3.775137087642148
 20
-336.8305654909774
 30
0.0
 11
9.046644170421267
 21
-339.5009493460566
 31
0.0
  0
LINE
  5
27B
  8
INSIDE
 10
9.046644170421267
 20
-339.5009493460566
 30
0.0
 11
13.80324671445707
 21
-341.7842167406334
 31
0.0
  0
LINE
  5
27C
  8
INSIDE
 10
13.80324671445707
 20
-341.7842167406334
 30
0.0
 11
18.02110552463387
 21
-343.6751373453441
 31
0.0
  0
LINE
  5
27D
  8
INSIDE
 10
18.02110552463387
 20
-343.6751373453441
 30
0.0
 11
19.92382809246494
 21
-344.4725668930117
 31
0.0
  0
LINE
  5
27E
  8
INSIDE
 10
19.92382809246494
 20
-344.4725668930117
 30
0.0
 11
21.68795127611177
 21
-345.1710731133276
 31
0.0
  0
LINE
  5
27F
  8
INSIDE
 10
21.68795127611177
 20
-345.1710731133276
 30
0.0
 11
23.31310269230989
 21
-345.7705821881025
 31
0.0
  0
LINE
  5
280
  8
INSIDE
 10
23.31310269230989
 20
-345.7705821881025
 30
0.0
 11
24.79914407925594
 21
-346.2710694827361
 31
0.0
  0
ARC
  5
281
  8
INSIDE
 10
23.28227542380772
 20
-351.0354277272554
 30
0.0
 40
5.000000000000001
 50
252.3396496023045
 51
72.33964960230408
  0
LINE
  5
282
  8
INSIDE
 10
21.76540676835958
 20
-355.7997859717747
 30
0.0
 11
20.364397640678
 21
-355.3336995128764
 31
0.0
  0
LINE
  5
283
  8
INSIDE
 10
20.364397640678
 20
-355.3336995128764
 30
0.0
 11
18.91470286161216
 21
-354.8131742025733
 31
0.0
  0
LINE
  5
284
  8
INSIDE
 10
18.91470286161216
 20
-354.8131742025733
 30
0.0
 11
17.40939669876324
 21
-354.2377037795387
 31
0.0
  0
LINE
  5
285
  8
INSIDE
 10
17.40939669876324
 20
-354.2377037795387
 30
0.0
 11
15.84155341973242
 21
-353.606781982446
 31
0.0
  0
LINE
  5
286
  8
INSIDE
 10
15.84155341973242
 20
-353.606781982446
 30
0.0
 11
12.7342560200322
 21
-352.2805228651396
 31
0.0
  0
LINE
  5
287
  8
INSIDE
 10
12.7342560200322
 20
-352.2805228651396
 30
0.0
 11
9.377598750142436
 21
-350.7559831728009
 31
0.0
  0
LINE
  5
288
  8
INSIDE
 10
9.377598750142436
 20
-350.7559831728009
 30
0.0
 11
1.894727094120995
 21
-347.1042478794564
 31
0.0
  0
LINE
  5
289
  8
INSIDE
 10
1.894727094120995
 20
-347.1042478794564
 30
0.0
 11
-7.875387668571232
 21
-341.9569965895574
 31
0.0
  0
LINE
  5
28A
  8
INSIDE
 10
-7.875387668571232
 20
-341.9569965895574
 30
0.0
 11
-18.74978412866645
 21
-335.7898147939212
 31
0.0
  0
LINE
  5
28B
  8
INSIDE
 10
-18.74978412866645
 20
-335.7898147939212
 30
0.0
 11
-24.58084004568148
 21
-332.2912202980376
 31
0.0
  0
LINE
  5
28C
  8
INSIDE
 10
-24.58084004568148
 20
-332.2912202980376
 30
0.0
 11
-30.530191163843
 21
-328.5566473409303
 31
0.0
  0
LINE
  5
28D
  8
INSIDE
 10
-30.530191163843
 20
-328.5566473409303
 30
0.0
 11
-36.50852765221712
 21
-324.5986415158487
 31
0.0
  0
LINE
  5
28E
  8
INSIDE
 10
-36.50852765221712
 20
-324.5986415158487
 30
0.0
 11
-42.42653967986994
 21
-320.4297484160422
 31
0.0
  0
LINE
  5
28F
  8
INSIDE
 10
-42.42653967986994
 20
-320.4297484160422
 30
0.0
 11
-45.27676009497135
 21
-318.3142796919241
 31
0.0
  0
LINE
  5
290
  8
INSIDE
 10
-45.27676009497135
 20
-318.3142796919241
 30
0.0
 11
-48.0763602377228
 21
-316.1532239371055
 31
0.0
  0
LINE
  5
291
  8
INSIDE
 10
-48.0763602377228
 20
-316.1532239371055
 30
0.0
 11
-50.81335357340966
 21
-313.9451263089921
 31
0.0
  0
LINE
  5
292
  8
INSIDE
 10
-50.81335357340966
 20
-313.9451263089921
 30
0.0
 11
-53.47575356731734
 21
-311.6885319649894
 31
0.0
  0
LINE
  5
293
  8
INSIDE
 10
-53.47575356731734
 20
-311.6885319649894
 30
0.0
 11
-56.05157368473124
 21
-309.3819860625028
 31
0.0
  0
LINE
  5
294
  8
INSIDE
 10
-56.05157368473124
 20
-309.3819860625028
 30
0.0
 11
-58.52882739093675
 21
-307.0240337589381
 31
0.0
  0
LINE
  5
295
  8
INSIDE
 10
-58.52882739093675
 20
-307.0240337589381
 30
0.0
 11
-59.72674604773805
 21
-305.8253255684406
 31
0.0
  0
LINE
  5
296
  8
INSIDE
 10
-59.72674604773805
 20
-305.8253255684406
 30
0.0
 11
-60.89552815121927
 21
-304.6132202117006
 31
0.0
  0
LINE
  5
297
  8
INSIDE
 10
-60.89552815121927
 20
-304.6132202117006
 30
0.0
 11
-62.0336753845411
 21
-303.3875358333939
 31
0.0
  0
LINE
  5
298
  8
INSIDE
 10
-62.0336753845411
 20
-303.3875358333939
 30
0.0
 11
-63.1396894308642
 21
-302.1480905781962
 31
0.0
  0
LINE
  5
299
  8
INSIDE
 10
-63.1396894308642
 20
-302.1480905781962
 30
0.0
 11
-64.70043991772204
 21
-300.3048010647691
 31
0.0
  0
LINE
  5
29A
  8
INSIDE
 10
-64.70043991772204
 20
-300.3048010647691
 30
0.0
 11
-65.45277594583041
 21
-299.3699128013615
 31
0.0
  0
LINE
  5
29B
  8
INSIDE
 10
-65.45277594583041
 20
-299.3699128013615
 30
0.0
 11
-66.18519027507907
 21
-298.4257874691457
 31
0.0
  0
LINE
  5
29C
  8
INSIDE
 10
-66.18519027507907
 20
-298.4257874691457
 30
0.0
 11
-66.89676123898349
 21
-297.4721190198626
 31
0.0
  0
LINE
  5
29D
  8
INSIDE
 10
-66.89676123898349
 20
-297.4721190198626
 30
0.0
 11
-67.58656717105916
 21
-296.508601405253
 31
0.0
  0
LINE
  5
29E
  8
INSIDE
 10
-67.58656717105916
 20
-296.508601405253
 30
0.0
 11
-68.25368640482154
 21
-295.5349285770576
 31
0.0
  0
LINE
  5
29F
  8
INSIDE
 10
-68.25368640482154
 20
-295.5349285770576
 30
0.0
 11
-68.8971972737861
 21
-294.5507944870174
 31
0.0
  0
LINE
  5
2A0
  8
INSIDE
 10
-68.8971972737861
 20
-294.5507944870174
 30
0.0
 11
-69.51617811146835
 21
-293.555893086873
 31
0.0
  0
LINE
  5
2A1
  8
INSIDE
 10
-69.51617811146835
 20
-293.555893086873
 30
0.0
 11
-70.10970725138375
 21
-292.5499183283656
 31
0.0
  0
LINE
  5
2A2
  8
INSIDE
 10
-70.10970725138375
 20
-292.5499183283656
 30
0.0
 11
-70.6768630270478
 21
-291.5325641632357
 31
0.0
  0
LINE
  5
2A3
  8
INSIDE
 10
-70.6768630270478
 20
-291.5325641632357
 30
0.0
 11
-71.21672377197598
 21
-290.5035245432243
 31
0.0
  0
LINE
  5
2A4
  8
INSIDE
 10
-71.21672377197598
 20
-290.5035245432243
 30
0.0
 11
-71.72836781968374
 21
-289.4624934200723
 31
0.0
  0
LINE
  5
2A5
  8
INSIDE
 10
-71.72836781968374
 20
-289.4624934200723
 30
0.0
 11
-72.21087350368656
 21
-288.4091647455204
 31
0.0
  0
LINE
  5
2A6
  8
INSIDE
 10
-72.21087350368656
 20
-288.4091647455204
 30
0.0
 11
-72.66331915749993
 21
-287.3432324713095
 31
0.0
  0
LINE
  5
2A7
  8
INSIDE
 10
-72.66331915749993
 20
-287.3432324713095
 30
0.0
 11
-73.08478311463935
 21
-286.2643905491804
 31
0.0
  0
LINE
  5
2A8
  8
INSIDE
 10
-73.08478311463935
 20
-286.2643905491804
 30
0.0
 11
-73.36707473672877
 21
-285.4818358746762
 31
0.0
  0
LINE
  5
2A9
  8
INSIDE
 10
-73.36707473672877
 20
-285.4818358746762
 30
0.0
 11
-73.63143979421888
 21
-284.6923533919857
 31
0.0
  0
LINE
  5
2AA
  8
INSIDE
 10
-73.63143979421888
 20
-284.6923533919857
 30
0.0
 11
-73.87749056405244
 21
-283.8964098410704
 31
0.0
  0
LINE
  5
2AB
  8
INSIDE
 10
-73.87749056405244
 20
-283.8964098410704
 30
0.0
 11
-74.10483932317226
 21
-283.0944719618919
 31
0.0
  0
LINE
  5
2AC
  8
INSIDE
 10
-74.10483932317226
 20
-283.0944719618919
 30
0.0
 11
-74.31309834852115
 21
-282.2870064944118
 31
0.0
  0
LINE
  5
2AD
  8
INSIDE
 10
-74.31309834852115
 20
-282.2870064944118
 30
0.0
 11
-74.50187991704189
 21
-281.4744801785916
 31
0.0
  0
LINE
  5
2AE
  8
INSIDE
 10
-74.50187991704189
 20
-281.4744801785916
 30
0.0
 11
-74.67079630567729
 21
-280.6573597543932
 31
0.0
  0
LINE
  5
2AF
  8
INSIDE
 10
-74.67079630567729
 20
-280.6573597543932
 30
0.0
 11
-74.81945979137012
 21
-279.8361119617779
 31
0.0
  0
LINE
  5
2B0
  8
INSIDE
 10
-74.81945979137012
 20
-279.8361119617779
 30
0.0
 11
-74.94748265106321
 21
-279.0112035407073
 31
0.0
  0
LINE
  5
2B1
  8
INSIDE
 10
-74.94748265106321
 20
-279.0112035407073
 30
0.0
 11
-75.05447716169934
 21
-278.1831012311431
 31
0.0
  0
LINE
  5
2B2
  8
INSIDE
 10
-75.05447716169934
 20
-278.1831012311431
 30
0.0
 11
-75.14005560022129
 21
-277.3522717730468
 31
0.0
  0
LINE
  5
2B3
  8
INSIDE
 10
-75.14005560022129
 20
-277.3522717730468
 30
0.0
 11
-75.20383024357189
 21
-276.5191819063801
 31
0.0
  0
LINE
  5
2B4
  8
INSIDE
 10
-75.20383024357189
 20
-276.5191819063801
 30
0.0
 11
-75.24541336869392
 21
-275.6842983711045
 31
0.0
  0
LINE
  5
2B5
  8
INSIDE
 10
-75.24541336869392
 20
-275.6842983711045
 30
0.0
 11
-75.26441725253017
 21
-274.8480879071816
 31
0.0
  0
LINE
  5
2B6
  8
INSIDE
 10
-75.26441725253017
 20
-274.8480879071816
 30
0.0
 11
-75.26045417202343
 21
-274.011017254573
 31
0.0
  0
LINE
  5
2B7
  8
INSIDE
 10
-75.26045417202343
 20
-274.011017254573
 30
0.0
 11
-75.2331364041165
 21
-273.1735531532403
 31
0.0
  0
LINE
  5
2B8
  8
INSIDE
 10
-75.2331364041165
 20
-273.1735531532403
 30
0.0
 11
-75.18363874368958
 21
-272.3558894669839
 31
0.0
  0
LINE
  5
2B9
  8
INSIDE
 10
-75.18363874368958
 20
-272.3558894669839
 30
0.0
 11
-75.1118775097748
 21
-271.5403633842521
 31
0.0
  0
LINE
  5
2BA
  8
INSIDE
 10
-75.1118775097748
 20
-271.5403633842521
 30
0.0
 11
-75.018228050712
 21
-270.7273999730298
 31
0.0
  0
LINE
  5
2BB
  8
INSIDE
 10
-75.018228050712
 20
-270.7273999730298
 30
0.0
 11
-74.90306571484102
 21
-269.9174243013016
 31
0.0
  0
LINE
  5
2BC
  8
INSIDE
 10
-74.90306571484102
 20
-269.9174243013016
 30
0.0
 11
-74.76676585050173
 21
-269.110861437052
 31
0.0
  0
LINE
  5
2BD
  8
INSIDE
 10
-74.76676585050173
 20
-269.110861437052
 30
0.0
 11
-74.609703806034
 21
-268.3081364482657
 31
0.0
  0
LINE
  5
2BE
  8
INSIDE
 10
-74.609703806034
 20
-268.3081364482657
 30
0.0
 11
-74.43225492977768
 21
-267.5096744029272
 31
0.0
  0
LINE
  5
2BF
  8
INSIDE
 10
-74.43225492977768
 20
-267.5096744029272
 30
0.0
 11
-74.23479457007261
 21
-266.7159003690211
 31
0.0
  0
LINE
  5
2C0
  8
INSIDE
 10
-74.23479457007261
 20
-266.7159003690211
 30
0.0
 11
-74.01769807525866
 21
-265.9272394145321
 31
0.0
  0
LINE
  5
2C1
  8
INSIDE
 10
-74.01769807525866
 20
-265.9272394145321
 30
0.0
 11
-73.7813407936757
 21
-265.1441166074447
 31
0.0
  0
LINE
  5
2C2
  8
INSIDE
 10
-73.7813407936757
 20
-265.1441166074447
 30
0.0
 11
-73.52609807366355
 21
-264.3669570157435
 31
0.0
  0
LINE
  5
2C3
  8
INSIDE
 10
-73.52609807366355
 20
-264.3669570157435
 30
0.0
 11
-73.2523452635621
 21
-263.596185707413
 31
0.0
  0
LINE
  5
2C4
  8
INSIDE
 10
-73.2523452635621
 20
-263.596185707413
 30
0.0
 11
-72.96045771171121
 21
-262.8322277504381
 31
0.0
  0
LINE
  5
2C5
  8
INSIDE
 10
-72.96045771171121
 20
-262.8322277504381
 30
0.0
 11
-72.6508107664507
 21
-262.0755082128031
 31
0.0
  0
LINE
  5
2C6
  8
INSIDE
 10
-72.6508107664507
 20
-262.0755082128031
 30
0.0
 11
-72.32377977612046
 21
-261.3264521624928
 31
0.0
  0
LINE
  5
2C7
  8
INSIDE
 10
-72.32377977612046
 20
-261.3264521624928
 30
0.0
 11
-71.97974008906031
 21
-260.5854846674916
 31
0.0
  0
LINE
  5
2C8
  8
INSIDE
 10
-71.97974008906031
 20
-260.5854846674916
 30
0.0
 11
-71.55906228276307
 21
-259.7334196738884
 31
0.0
  0
LINE
  5
2C9
  8
INSIDE
 10
-71.55906228276307
 20
-259.7334196738884
 30
0.0
 11
-71.11764240951098
 21
-258.8919354417665
 31
0.0
  0
LINE
  5
2CA
  8
INSIDE
 10
-71.11764240951098
 20
-258.8919354417665
 30
0.0
 11
-70.65600701436671
 21
-258.0607861246475
 31
0.0
  0
LINE
  5
2CB
  8
INSIDE
 10
-70.65600701436671
 20
-258.0607861246475
 30
0.0
 11
-70.1746826423929
 21
-257.2397258760528
 31
0.0
  0
LINE
  5
2CC
  8
INSIDE
 10
-70.1746826423929
 20
-257.2397258760528
 30
0.0
 11
-69.67419583865217
 21
-256.4285088495038
 31
0.0
  0
LINE
  5
2CD
  8
INSIDE
 10
-69.67419583865217
 20
-256.4285088495038
 30
0.0
 11
-69.15507314820718
 21
-255.626889198522
 31
0.0
  0
LINE
  5
2CE
  8
INSIDE
 10
-69.15507314820718
 20
-255.626889198522
 30
0.0
 11
-68.61784111612056
 21
-254.8346210766288
 31
0.0
  0
LINE
  5
2CF
  8
INSIDE
 10
-68.61784111612056
 20
-254.8346210766288
 30
0.0
 11
-68.06302628745496
 21
-254.0514586373456
 31
0.0
  0
LINE
  5
2D0
  8
INSIDE
 10
-68.06302628745496
 20
-254.0514586373456
 30
0.0
 11
-67.49115520727301
 21
-253.2771560341939
 31
0.0
  0
LINE
  5
2D1
  8
INSIDE
 10
-67.49115520727301
 20
-253.2771560341939
 30
0.0
 11
-66.90275442063738
 21
-252.5114674206952
 31
0.0
  0
LINE
  5
2D2
  8
INSIDE
 10
-66.90275442063738
 20
-252.5114674206952
 30
0.0
 11
-66.29835047261068
 21
-251.7541469503708
 31
0.0
  0
LINE
  5
2D3
  8
INSIDE
 10
-66.29835047261068
 20
-251.7541469503708
 30
0.0
 11
-65.67846990825555
 21
-251.0049487767423
 31
0.0
  0
LINE
  5
2D4
  8
INSIDE
 10
-65.67846990825555
 20
-251.0049487767423
 30
0.0
 11
-64.39438511081059
 21
-249.5299359336583
 31
0.0
  0
LINE
  5
2D5
  8
INSIDE
 10
-64.39438511081059
 20
-249.5299359336583
 30
0.0
 11
-63.05471238880363
 21
-248.0844621196149
 31
0.0
  0
LINE
  5
2D6
  8
INSIDE
 10
-63.05471238880363
 20
-248.0844621196149
 30
0.0
 11
-61.93553918634791
 21
-246.9376368958431
 31
0.0
  0
LINE
  5
2D7
  8
INSIDE
 10
-61.93553918634791
 20
-246.9376368958431
 30
0.0
 11
-60.78280199350242
 21
-245.8059617197162
 31
0.0
  0
LINE
  5
2D8
  8
INSIDE
 10
-60.78280199350242
 20
-245.8059617197162
 30
0.0
 11
-59.59772820439402
 21
-244.6886680009236
 31
0.0
  0
LINE
  5
2D9
  8
INSIDE
 10
-59.59772820439402
 20
-244.6886680009236
 30
0.0
 11
-58.38154521314958
 21
-243.584987149155
 31
0.0
  0
LINE
  5
2DA
  8
INSIDE
 10
-58.38154521314958
 20
-243.584987149155
 30
0.0
 11
-55.86076120076
 21
-241.4153896854475
 31
0.0
  0
LINE
  5
2DB
  8
INSIDE
 10
-55.86076120076
 20
-241.4153896854475
 30
0.0
 11
-53.23026910934858
 21
-239.29102060611
 31
0.0
  0
LINE
  5
2DC
  8
INSIDE
 10
-53.23026910934858
 20
-239.29102060611
 30
0.0
 11
-50.49988809193024
 21
-237.2057311886586
 31
0.0
  0
LINE
  5
2DD
  8
INSIDE
 10
-50.49988809193024
 20
-237.2057311886586
 30
0.0
 11
-47.67943730151987
 21
-235.1533727106095
 31
0.0
  0
LINE
  5
2DE
  8
INSIDE
 10
-47.67943730151987
 20
-235.1533727106095
 30
0.0
 11
-41.80760301378265
 21
-231.1228536827829
 31
0.0
  0
LINE
  5
2DF
  8
INSIDE
 10
-41.80760301378265
 20
-231.1228536827829
 30
0.0
 11
-34.80875621389343
 21
-226.5992232599754
 31
0.0
  0
LINE
  5
2E0
  8
INSIDE
 10
-34.80875621389343
 20
-226.5992232599754
 30
0.0
 11
-6.687137146306906
 21
-209.1670889267729
 31
0.0
  0
LINE
  5
2E1
  8
INSIDE
 10
-6.687137146306906
 20
-209.1670889267729
 30
0.0
 11
-0.4115480149531479
 21
-204.9930605473396
 31
0.0
  0
LINE
  5
2E2
  8
INSIDE
 10
-0.4115480149531479
 20
-204.9930605473396
 30
0.0
 11
2.55065258106851
 21
-202.9258273343983
 31
0.0
  0
LINE
  5
2E3
  8
INSIDE
 10
2.55065258106851
 20
-202.9258273343983
 30
0.0
 11
5.375353581956301
 21
-200.8751910061185
 31
0.0
  0
LINE
  5
2E4
  8
INSIDE
 10
5.375353581956301
 20
-200.8751910061185
 30
0.0
 11
8.047227276187433
 21
-198.8437087376088
 31
0.0
  0
LINE
  5
2E5
  8
INSIDE
 10
8.047227276187433
 20
-198.8437087376088
 30
0.0
 11
10.55094595223912
 21
-196.8339377039775
 31
0.0
  0
LINE
  5
2E6
  8
INSIDE
 10
10.55094595223912
 20
-196.8339377039775
 30
0.0
 11
12.24710123118886
 21
-195.3965710410828
 31
0.0
  0
LINE
  5
2E7
  8
INSIDE
 10
12.24710123118886
 20
-195.3965710410828
 30
0.0
 11
13.84243958834408
 21
-193.9759816498234
 31
0.0
  0
LINE
  5
2E8
  8
INSIDE
 10
13.84243958834408
 20
-193.9759816498234
 30
0.0
 11
15.33405477054772
 21
-192.5759137696346
 31
0.0
  0
LINE
  5
2E9
  8
INSIDE
 10
15.33405477054772
 20
-192.5759137696346
 30
0.0
 11
16.71904052464274
 21
-191.2001116399519
 31
0.0
  0
LINE
  5
2EA
  8
INSIDE
 10
16.71904052464274
 20
-191.2001116399519
 30
0.0
 11
17.99449059747206
 21
-189.8523195002106
 31
0.0
  0
LINE
  5
2EB
  8
INSIDE
 10
17.99449059747206
 20
-189.8523195002106
 30
0.0
 11
18.59023154930051
 21
-189.1900972513916
 31
0.0
  0
LINE
  5
2EC
  8
INSIDE
 10
18.59023154930051
 20
-189.1900972513916
 30
0.0
 11
19.15749873587864
 21
-188.5362815898462
 31
0.0
  0
LINE
  5
2ED
  8
INSIDE
 10
19.15749873587864
 20
-188.5362815898462
 30
0.0
 11
19.69592887556182
 21
-187.8913405455039
 31
0.0
  0
LINE
  5
2EE
  8
INSIDE
 10
19.69592887556182
 20
-187.8913405455039
 30
0.0
 11
20.20515868670542
 21
-187.255742148294
 31
0.0
  0
LINE
  5
2EF
  8
INSIDE
 10
20.20515868670542
 20
-187.255742148294
 30
0.0
 11
20.68482488766481
 21
-186.6299544281461
 31
0.0
  0
LINE
  5
2F0
  8
INSIDE
 10
20.68482488766481
 20
-186.6299544281461
 30
0.0
 11
21.13456419679535
 21
-186.0144454149895
 31
0.0
  0
LINE
  5
2F1
  8
INSIDE
 10
21.13456419679535
 20
-186.0144454149895
 30
0.0
 11
21.45832694891483
 21
-185.5511597960928
 31
0.0
  0
LINE
  5
2F2
  8
INSIDE
 10
21.45832694891483
 20
-185.5511597960928
 30
0.0
 11
21.76466228372399
 21
-185.0951644238314
 31
0.0
  0
LINE
  5
2F3
  8
INSIDE
 10
21.76466228372399
 20
-185.0951644238314
 30
0.0
 11
22.05390587844065
 21
-184.6464849821443
 31
0.0
  0
LINE
  5
2F4
  8
INSIDE
 10
22.05390587844065
 20
-184.6464849821443
 30
0.0
 11
22.32639341028268
 21
-184.2051471549707
 31
0.0
  0
LINE
  5
2F5
  8
INSIDE
 10
22.32639341028268
 20
-184.2051471549707
 30
0.0
 11
22.58246055646793
 21
-183.7711766262495
 31
0.0
  0
LINE
  5
2F6
  8
INSIDE
 10
22.58246055646793
 20
-183.7711766262495
 30
0.0
 11
22.82244299421425
 21
-183.3445990799199
 31
0.0
  0
LINE
  5
2F7
  8
INSIDE
 10
22.82244299421425
 20
-183.3445990799199
 30
0.0
 11
23.0466764007395
 21
-182.9254401999208
 31
0.0
  0
LINE
  5
2F8
  8
INSIDE
 10
23.0466764007395
 20
-182.9254401999208
 30
0.0
 11
23.25549645326151
 21
-182.5137256701914
 31
0.0
  0
LINE
  5
2F9
  8
INSIDE
 10
23.25549645326151
 20
-182.5137256701914
 30
0.0
 11
23.44923882899815
 21
-182.1094811746706
 31
0.0
  0
LINE
  5
2FA
  8
INSIDE
 10
23.44923882899815
 20
-182.1094811746706
 30
0.0
 11
23.62823920516727
 21
-181.7127323972977
 31
0.0
  0
LINE
  5
2FB
  8
INSIDE
 10
23.62823920516727
 20
-181.7127323972977
 30
0.0
 11
23.79283325898671
 21
-181.3235050220115
 31
0.0
  0
LINE
  5
2FC
  8
INSIDE
 10
23.79283325898671
 20
-181.3235050220115
 30
0.0
 11
23.94335666767434
 21
-180.9418247327511
 31
0.0
  0
LINE
  5
2FD
  8
INSIDE
 10
23.94335666767434
 20
-180.9418247327511
 30
0.0
 11
24.08014510844799
 21
-180.5677172134557
 31
0.0
  0
LINE
  5
2FE
  8
INSIDE
 10
24.08014510844799
 20
-180.5677172134557
 30
0.0
 11
24.20353425852552
 21
-180.2012081480642
 31
0.0
  0
LINE
  5
2FF
  8
INSIDE
 10
24.20353425852552
 20
-180.2012081480642
 30
0.0
 11
24.31385979512478
 21
-179.8423232205158
 31
0.0
  0
LINE
  5
300
  8
INSIDE
 10
24.31385979512478
 20
-179.8423232205158
 30
0.0
 11
24.41145739546363
 21
-179.4910881147494
 31
0.0
  0
LINE
  5
301
  8
INSIDE
 10
24.41145739546363
 20
-179.4910881147494
 30
0.0
 11
24.49309078150758
 21
-179.1654879969354
 31
0.0
  0
LINE
  5
302
  8
INSIDE
 10
24.49309078150758
 20
-179.1654879969354
 30
0.0
 11
24.56518812307031
 21
-178.8456340823102
 31
0.0
  0
LINE
  5
303
  8
INSIDE
 10
24.56518812307031
 20
-178.8456340823102
 30
0.0
 11
24.62782806060075
 21
-178.5308518406761
 31
0.0
  0
LINE
  5
304
  8
INSIDE
 10
24.62782806060075
 20
-178.5308518406761
 30
0.0
 11
24.68108923454786
 21
-178.2204667418356
 31
0.0
  0
LINE
  5
305
  8
INSIDE
 10
24.68108923454786
 20
-178.2204667418356
 30
0.0
 11
24.72505028536057
 21
-177.9138042555908
 31
0.0
  0
LINE
  5
306
  8
INSIDE
 10
24.72505028536057
 20
-177.9138042555908
 30
0.0
 11
24.75978985348782
 21
-177.6101898517442
 31
0.0
  0
LINE
  5
307
  8
INSIDE
 10
24.75978985348782
 20
-177.6101898517442
 30
0.0
 11
24.78538657937856
 21
-177.3089490000981
 31
0.0
  0
LINE
  5
308
  8
INSIDE
 10
24.78538657937856
 20
-177.3089490000981
 30
0.0
 11
24.80191910348174
 21
-177.0094071704549
 31
0.0
  0
LINE
  5
309
  8
INSIDE
 10
24.80191910348174
 20
-177.0094071704549
 30
0.0
 11
24.80946606624629
 21
-176.710889832617
 31
0.0
  0
LINE
  5
30A
  8
INSIDE
 10
24.80946606624629
 20
-176.710889832617
 30
0.0
 11
24.80810610812115
 21
-176.4127224563865
 31
0.0
  0
LINE
  5
30B
  8
INSIDE
 10
24.80810610812115
 20
-176.4127224563865
 30
0.0
 11
24.79791786955527
 21
-176.1142305115661
 31
0.0
  0
LINE
  5
30C
  8
INSIDE
 10
24.79791786955527
 20
-176.1142305115661
 30
0.0
 11
24.7789799909976
 21
-175.8147394679578
 31
0.0
  0
LINE
  5
30D
  8
INSIDE
 10
24.7789799909976
 20
-175.8147394679578
 30
0.0
 11
24.75137111289707
 21
-175.5135747953643
 31
0.0
  0
LINE
  5
30E
  8
INSIDE
 10
24.75137111289707
 20
-175.5135747953643
 30
0.0
 11
24.71516987570264
 21
-175.2100619635876
 31
0.0
  0
LINE
  5
30F
  8
INSIDE
 10
24.71516987570264
 20
-175.2100619635876
 30
0.0
 11
24.67045491986323
 21
-174.9035264424303
 31
0.0
  0
LINE
  5
310
  8
INSIDE
 10
24.67045491986323
 20
-174.9035264424303
 30
0.0
 11
24.61730488582779
 21
-174.5932937016947
 31
0.0
  0
LINE
  5
311
  8
INSIDE
 10
24.61730488582779
 20
-174.5932937016947
 30
0.0
 11
24.55512232228121
 21
-174.2783872475274
 31
0.0
  0
LINE
  5
312
  8
INSIDE
 10
24.55512232228121
 20
-174.2783872475274
 30
0.0
 11
24.48297710255815
 21
-173.9579188913011
 31
0.0
  0
LINE
  5
313
  8
INSIDE
 10
24.48297710255815
 20
-173.9579188913011
 30
0.0
 11
24.40052551606688
 21
-173.6317640954483
 31
0.0
  0
LINE
  5
314
  8
INSIDE
 10
24.40052551606688
 20
-173.6317640954483
 30
0.0
 11
24.30742385221567
 21
-173.2997983224014
 31
0.0
  0
LINE
  5
315
  8
INSIDE
 10
24.30742385221567
 20
-173.2997983224014
 30
0.0
 11
24.20332840041279
 21
-172.961897034593
 31
0.0
  0
LINE
  5
316
  8
INSIDE
 10
24.20332840041279
 20
-172.961897034593
 30
0.0
 11
24.08789545006651
 21
-172.6179356944555
 31
0.0
  0
LINE
  5
317
  8
INSIDE
 10
24.08789545006651
 20
-172.6179356944555
 30
0.0
 11
23.9607812905851
 21
-172.2677897644214
 31
0.0
  0
LINE
  5
318
  8
INSIDE
 10
23.9607812905851
 20
-172.2677897644214
 30
0.0
 11
23.82164221137684
 21
-171.9113347069232
 31
0.0
  0
LINE
  5
319
  8
INSIDE
 10
23.82164221137684
 20
-171.9113347069232
 30
0.0
 11
23.67013450184999
 21
-171.5484459843933
 31
0.0
  0
LINE
  5
31A
  8
INSIDE
 10
23.67013450184999
 20
-171.5484459843933
 30
0.0
 11
23.50591445141283
 21
-171.1789990592644
 31
0.0
  0
LINE
  5
31B
  8
INSIDE
 10
23.50591445141283
 20
-171.1789990592644
 30
0.0
 11
23.32863834947363
 21
-170.8028693939688
 31
0.0
  0
LINE
  5
31C
  8
INSIDE
 10
23.32863834947363
 20
-170.8028693939688
 30
0.0
 11
23.13796248544066
 21
-170.419932450939
 31
0.0
  0
LINE
  5
31D
  8
INSIDE
 10
23.13796248544066
 20
-170.419932450939
 30
0.0
 11
22.93354314872219
 21
-170.0300636926076
 31
0.0
  0
LINE
  5
31E
  8
INSIDE
 10
22.93354314872219
 20
-170.0300636926076
 30
0.0
 11
22.71503662872649
 21
-169.633138581407
 31
0.0
  0
LINE
  5
31F
  8
INSIDE
 10
22.71503662872649
 20
-169.633138581407
 30
0.0
 11
22.48209921486183
 21
-169.2290325797697
 31
0.0
  0
LINE
  5
320
  8
INSIDE
 10
22.48209921486183
 20
-169.2290325797697
 30
0.0
 11
22.23438719653649
 21
-168.8176211501282
 31
0.0
  0
LINE
  5
321
  8
INSIDE
 10
22.23438719653649
 20
-168.8176211501282
 30
0.0
 11
21.90607439817075
 21
-168.2978488246931
 31
0.0
  0
LINE
  5
322
  8
INSIDE
 10
21.90607439817075
 20
-168.2978488246931
 30
0.0
 11
21.55426947282459
 21
-167.7684116319301
 31
0.0
  0
LINE
  5
323
  8
INSIDE
 10
21.55426947282459
 20
-167.7684116319301
 30
0.0
 11
21.17911454563874
 21
-167.2296720528756
 31
0.0
  0
LINE
  5
324
  8
INSIDE
 10
21.17911454563874
 20
-167.2296720528756
 30
0.0
 11
20.78075174175397
 21
-166.6819925685661
 31
0.0
  0
LINE
  5
325
  8
INSIDE
 10
20.78075174175397
 20
-166.6819925685661
 30
0.0
 11
20.35932318631105
 21
-166.1257356600381
 31
0.0
  0
LINE
  5
326
  8
INSIDE
 10
20.35932318631105
 20
-166.1257356600381
 30
0.0
 11
19.91497100445073
 21
-165.5612638083279
 31
0.0
  0
LINE
  5
327
  8
INSIDE
 10
19.91497100445073
 20
-165.5612638083279
 30
0.0
 11
18.95806426204091
 21
-164.4091251995071
 31
0.0
  0
LINE
  5
328
  8
INSIDE
 10
18.95806426204091
 20
-164.4091251995071
 30
0.0
 11
17.9111685156506
 21
-163.2284765903955
 31
0.0
  0
LINE
  5
329
  8
INSIDE
 10
17.9111685156506
 20
-163.2284765903955
 30
0.0
 11
16.77542076640585
 21
-162.0222178292845
 31
0.0
  0
LINE
  5
32A
  8
INSIDE
 10
16.77542076640585
 20
-162.0222178292845
 30
0.0
 11
15.55195801543275
 21
-160.793248764466
 31
0.0
  0
LINE
  5
32B
  8
INSIDE
 10
15.55195801543275
 20
-160.793248764466
 30
0.0
 11
14.24191726385735
 21
-159.5444692442315
 31
0.0
  0
LINE
  5
32C
  8
INSIDE
 10
14.24191726385735
 20
-159.5444692442315
 30
0.0
 11
12.47820375003874
 21
-157.9523400465083
 31
0.0
  0
LINE
  5
32D
  8
INSIDE
 10
12.47820375003874
 20
-157.9523400465083
 30
0.0
 11
10.59071150223725
 21
-156.3366603939778
 31
0.0
  0
LINE
  5
32E
  8
INSIDE
 10
10.59071150223725
 20
-156.3366603939778
 30
0.0
 11
8.587188639829693
 21
-154.6995907241437
 31
0.0
  0
LINE
  5
32F
  8
INSIDE
 10
8.587188639829693
 20
-154.6995907241437
 30
0.0
 11
6.475383282192876
 21
-153.0432914745097
 31
0.0
  0
LINE
  5
330
  8
INSIDE
 10
6.475383282192876
 20
-153.0432914745097
 30
0.0
 11
1.957917558738726
 21
-149.6816459858566
 31
0.0
  0
LINE
  5
331
  8
INSIDE
 10
1.957917558738726
 20
-149.6816459858566
 30
0.0
 11
-2.89970071311069
 21
-146.2690074280478
 31
0.0
  0
LINE
  5
332
  8
INSIDE
 10
-2.89970071311069
 20
-146.2690074280478
 30
0.0
 11
-40.07781595038505
 21
-121.900273216734
 31
0.0
  0
LINE
  5
333
  8
INSIDE
 10
-40.07781595038505
 20
-121.900273216734
 30
0.0
 11
-46.21405424118927
 21
-117.5223858093956
 31
0.0
  0
LINE
  5
334
  8
INSIDE
 10
-46.21405424118927
 20
-117.5223858093956
 30
0.0
 11
-49.16285917036632
 21
-115.3006808041623
 31
0.0
  0
LINE
  5
335
  8
INSIDE
 10
-49.16285917036632
 20
-115.3006808041623
 30
0.0
 11
-52.01723120842085
 21
-113.052966734056
 31
0.0
  0
LINE
  5
336
  8
INSIDE
 10
-52.01723120842085
 20
-113.052966734056
 30
0.0
 11
-54.76600279512347
 21
-110.7761174512042
 31
0.0
  0
LINE
  5
337
  8
INSIDE
 10
-54.76600279512347
 20
-110.7761174512042
 30
0.0
 11
-57.39800637024481
 21
-108.4670068077341
 31
0.0
  0
LINE
  5
338
  8
INSIDE
 10
-57.39800637024481
 20
-108.4670068077341
 30
0.0
 11
-59.3835834870026
 21
-106.6225813640589
 31
0.0
  0
LINE
  5
339
  8
INSIDE
 10
-59.3835834870026
 20
-106.6225813640589
 30
0.0
 11
-61.287801046193
 21
-104.7505171759098
 31
0.0
  0
LINE
  5
33A
  8
INSIDE
 10
-61.287801046193
 20
-104.7505171759098
 30
0.0
 11
-63.10418025160199
 21
-102.8459641513013
 31
0.0
  0
LINE
  5
33B
  8
INSIDE
 10
-63.10418025160199
 20
-102.8459641513013
 30
0.0
 11
-63.97740584782158
 21
-101.8799886715794
 31
0.0
  0
LINE
  5
33C
  8
INSIDE
 10
-63.97740584782158
 20
-101.8799886715794
 30
0.0
 11
-64.82624230701559
 21
-100.9040721982481
 31
0.0
  0
LINE
  5
33D
  8
INSIDE
 10
-64.82624230701559
 20
-100.9040721982481
 30
0.0
 11
-65.64987977965724
 21
-99.91760846980921
 31
0.0
  0
LINE
  5
33E
  8
INSIDE
 10
-65.64987977965724
 20
-99.91760846980921
 30
0.0
 11
-66.44750841621979
 21
-98.91999122476463
 31
0.0
  0
LINE
  5
33F
  8
INSIDE
 10
-66.44750841621979
 20
-98.91999122476463
 30
0.0
 11
-67.21831836717651
 21
-97.91061420161611
 31
0.0
  0
LINE
  5
340
  8
INSIDE
 10
-67.21831836717651
 20
-97.91061420161611
 30
0.0
 11
-67.96149978300062
 21
-96.88887113886551
 31
0.0
  0
LINE
  5
341
  8
INSIDE
 10
-67.96149978300062
 20
-96.88887113886551
 30
0.0
 11
-68.67624281416539
 21
-95.85415577501465
 31
0.0
  0
LINE
  5
342
  8
INSIDE
 10
-68.67624281416539
 20
-95.85415577501465
 30
0.0
 11
-69.36173761114406
 21
-94.80586184856534
 31
0.0
  0
LINE
  5
343
  8
INSIDE
 10
-69.36173761114406
 20
-94.80586184856534
 30
0.0
 11
-70.0171743244099
 21
-93.74338309801941
 31
0.0
  0
LINE
  5
344
  8
INSIDE
 10
-70.0171743244099
 20
-93.74338309801941
 30
0.0
 11
-70.64174310443613
 21
-92.66611326187866
 31
0.0
  0
LINE
  5
345
  8
INSIDE
 10
-70.64174310443613
 20
-92.66611326187866
 30
0.0
 11
-71.04315807596177
 21
-91.93359719332707
 31
0.0
  0
LINE
  5
346
  8
INSIDE
 10
-71.04315807596177
 20
-91.93359719332707
 30
0.0
 11
-71.42925824029561
 21
-91.19335831819606
 31
0.0
  0
LINE
  5
347
  8
INSIDE
 10
-71.42925824029561
 20
-91.19335831819606
 30
0.0
 11
-71.79954376948086
 21
-90.44561176465771
 31
0.0
  0
LINE
  5
348
  8
INSIDE
 10
-71.79954376948086
 20
-90.44561176465771
 30
0.0
 11
-72.15351483556077
 21
-89.69057266088416
 31
0.0
  0
LINE
  5
349
  8
INSIDE
 10
-72.15351483556077
 20
-89.69057266088416
 30
0.0
 11
-72.49067161057856
 21
-88.9284561350475
 31
0.0
  0
LINE
  5
34A
  8
INSIDE
 10
-72.49067161057856
 20
-88.9284561350475
 30
0.0
 11
-72.81051426657744
 21
-88.15947731531986
 31
0.0
  0
LINE
  5
34B
  8
INSIDE
 10
-72.81051426657744
 20
-88.15947731531986
 30
0.0
 11
-73.11254297560063
 21
-87.38385132987338
 31
0.0
  0
LINE
  5
34C
  8
INSIDE
 10
-73.11254297560063
 20
-87.38385132987338
 30
0.0
 11
-73.39625790969137
 21
-86.60179330688017
 31
0.0
  0
LINE
  5
34D
  8
INSIDE
 10
-73.39625790969137
 20
-86.60179330688017
 30
0.0
 11
-73.66115924089287
 21
-85.81351837451234
 31
0.0
  0
LINE
  5
34E
  8
INSIDE
 10
-73.66115924089287
 20
-85.81351837451234
 30
0.0
 11
-73.90674714124836
 21
-85.01924166094199
 31
0.0
  0
LINE
  5
34F
  8
INSIDE
 10
-73.90674714124836
 20
-85.01924166094199
 30
0.0
 11
-74.13252178280106
 21
-84.21917829434128
 31
0.0
  0
LINE
  5
350
  8
INSIDE
 10
-74.13252178280106
 20
-84.21917829434128
 30
0.0
 11
-74.33798333759421
 21
-83.41354340288228
 31
0.0
  0
LINE
  5
351
  8
INSIDE
 10
-74.33798333759421
 20
-83.41354340288228
 30
0.0
 11
-74.52263197767101
 21
-82.60255211473716
 31
0.0
  0
LINE
  5
352
  8
INSIDE
 10
-74.52263197767101
 20
-82.60255211473716
 30
0.0
 11
-74.68596787507468
 21
-81.78641955807802
 31
0.0
  0
LINE
  5
353
  8
INSIDE
 10
-74.68596787507468
 20
-81.78641955807802
 30
0.0
 11
-74.82749120184845
 21
-80.96536086107699
 31
0.0
  0
LINE
  5
354
  8
INSIDE
 10
-74.82749120184845
 20
-80.96536086107699
 30
0.0
 11
-74.94670213003553
 21
-80.13959115190616
 31
0.0
  0
LINE
  5
355
  8
INSIDE
 10
-74.94670213003553
 20
-80.13959115190616
 30
0.0
 11
-75.0374688036319
 21
-79.36181058118359
 31
0.0
  0
LINE
  5
356
  8
INSIDE
 10
-75.0374688036319
 20
-79.36181058118359
 30
0.0
 11
-75.10752259566232
 21
-78.58181641699433
 31
0.0
  0
LINE
  5
357
  8
INSIDE
 10
-75.10752259566232
 20
-78.58181641699433
 30
0.0
 11
-75.15700436760311
 21
-77.80015487332317
 31
0.0
  0
LINE
  5
358
  8
INSIDE
 10
-75.15700436760311
 20
-77.80015487332317
 30
0.0
 11
-75.1860549809306
 21
-77.01737216415488
 31
0.0
  0
LINE
  5
359
  8
INSIDE
 10
-75.1860549809306
 20
-77.01737216415488
 30
0.0
 11
-75.19481529712111
 21
-76.23401450347426
 31
0.0
  0
LINE
  5
35A
  8
INSIDE
 10
-75.19481529712111
 20
-76.23401450347426
 30
0.0
 11
-75.18342617765093
 21
-75.45062810526609
 31
0.0
  0
LINE
  5
35B
  8
INSIDE
 10
-75.18342617765093
 20
-75.45062810526609
 30
0.0
 11
-75.1520284839964
 21
-74.66775918351516
 31
0.0
  0
LINE
  5
35C
  8
INSIDE
 10
-75.1520284839964
 20
-74.66775918351516
 30
0.0
 11
-75.10076307763384
 21
-73.88595395220624
 31
0.0
  0
LINE
  5
35D
  8
INSIDE
 10
-75.10076307763384
 20
-73.88595395220624
 30
0.0
 11
-75.02977082003956
 21
-73.10575862532413
 31
0.0
  0
LINE
  5
35E
  8
INSIDE
 10
-75.02977082003956
 20
-73.10575862532413
 30
0.0
 11
-74.93919257268988
 21
-72.3277194168536
 31
0.0
  0
LINE
  5
35F
  8
INSIDE
 10
-74.93919257268988
 20
-72.3277194168536
 30
0.0
 11
-74.82916919706112
 21
-71.55238254077943
 31
0.0
  0
LINE
  5
360
  8
INSIDE
 10
-74.82916919706112
 20
-71.55238254077943
 30
0.0
 11
-74.69984155462959
 21
-70.78029421108641
 31
0.0
  0
LINE
  5
361
  8
INSIDE
 10
-74.69984155462959
 20
-70.78029421108641
 30
0.0
 11
-74.55135050687161
 21
-70.01200064175933
 31
0.0
  0
LINE
  5
362
  8
INSIDE
 10
-74.55135050687161
 20
-70.01200064175933
 30
0.0
 11
-74.38383691526349
 21
-69.24804804678298
 31
0.0
  0
LINE
  5
363
  8
INSIDE
 10
-74.38383691526349
 20
-69.24804804678298
 30
0.0
 11
-74.19744164128156
 21
-68.48898264014213
 31
0.0
  0
LINE
  5
364
  8
INSIDE
 10
-74.19744164128156
 20
-68.48898264014213
 30
0.0
 11
-73.99230554640214
 21
-67.73535063582155
 31
0.0
  0
LINE
  5
365
  8
INSIDE
 10
-73.99230554640214
 20
-67.73535063582155
 30
0.0
 11
-73.73617454767951
 21
-66.88227781742823
 31
0.0
  0
LINE
  5
366
  8
INSIDE
 10
-73.73617454767951
 20
-66.88227781742823
 30
0.0
 11
-73.45786704221939
 21
-66.03730659266174
 31
0.0
  0
LINE
  5
367
  8
INSIDE
 10
-73.45786704221939
 20
-66.03730659266174
 30
0.0
 11
-73.15794112716264
 21
-65.20038484866241
 31
0.0
  0
LINE
  5
368
  8
INSIDE
 10
-73.15794112716264
 20
-65.20038484866241
 30
0.0
 11
-72.8369548996501
 21
-64.37146047257062
 31
0.0
  0
LINE
  5
369
  8
INSIDE
 10
-72.8369548996501
 20
-64.37146047257062
 30
0.0
 11
-72.49546645682258
 21
-63.5504813515267
 31
0.0
  0
LINE
  5
36A
  8
INSIDE
 10
-72.49546645682258
 20
-63.5504813515267
 30
0.0
 11
-72.13403389582099
 21
-62.73739537267101
 31
0.0
  0
LINE
  5
36B
  8
INSIDE
 10
-72.13403389582099
 20
-62.73739537267101
 30
0.0
 11
-71.75321531378614
 21
-61.9321504231439
 31
0.0
  0
LINE
  5
36C
  8
INSIDE
 10
-71.75321531378614
 20
-61.9321504231439
 30
0.0
 11
-71.35356880785886
 21
-61.1346943900857
 31
0.0
  0
LINE
  5
36D
  8
INSIDE
 10
-71.35356880785886
 20
-61.1346943900857
 30
0.0
 11
-70.93565247518002
 21
-60.34497516063679
 31
0.0
  0
LINE
  5
36E
  8
INSIDE
 10
-70.93565247518002
 20
-60.34497516063679
 30
0.0
 11
-70.50002441289047
 21
-59.5629406219375
 31
0.0
  0
LINE
  5
36F
  8
INSIDE
 10
-70.50002441289047
 20
-59.5629406219375
 30
0.0
 11
-70.04724271813103
 21
-58.7885386611282
 31
0.0
  0
LINE
  5
370
  8
INSIDE
 10
-70.04724271813103
 20
-58.7885386611282
 30
0.0
 11
-69.57786548804256
 21
-58.02171716534922
 31
0.0
  0
LINE
  5
371
  8
INSIDE
 10
-69.57786548804256
 20
-58.02171716534922
 30
0.0
 11
-69.0924508197659
 21
-57.26242402174093
 31
0.0
  0
LINE
  5
372
  8
INSIDE
 10
-69.0924508197659
 20
-57.26242402174093
 30
0.0
 11
-68.59155681044192
 21
-56.51060711744366
 31
0.0
  0
LINE
  5
373
  8
INSIDE
 10
-68.59155681044192
 20
-56.51060711744366
 30
0.0
 11
-68.07574155721144
 21
-55.76621433959778
 31
0.0
  0
LINE
  5
374
  8
INSIDE
 10
-68.07574155721144
 20
-55.76621433959778
 30
0.0
 11
-67.54556315721531
 21
-55.02919357534363
 31
0.0
  0
LINE
  5
375
  8
INSIDE
 10
-67.54556315721531
 20
-55.02919357534363
 30
0.0
 11
-66.781850274189
 21
-54.01113271563038
 31
0.0
  0
LINE
  5
376
  8
INSIDE
 10
-66.781850274189
 20
-54.01113271563038
 30
0.0
 11
-65.9914977411074
 21
-53.00487309176172
 31
0.0
  0
LINE
  5
377
  8
INSIDE
 10
-65.9914977411074
 20
-53.00487309176172
 30
0.0
 11
-65.17516898519166
 21
-52.0098855533409
 31
0.0
  0
LINE
  5
378
  8
INSIDE
 10
-65.17516898519166
 20
-52.0098855533409
 30
0.0
 11
-64.33352743366298
 21
-51.02564094997119
 31
0.0
  0
LINE
  5
379
  8
INSIDE
 10
-64.33352743366298
 20
-51.02564094997119
 30
0.0
 11
-63.46723651374252
 21
-50.05161013125584
 31
0.0
  0
LINE
  5
37A
  8
INSIDE
 10
-63.46723651374252
 20
-50.05161013125584
 30
0.0
 11
-62.57695965265147
 21
-49.08726394679809
 31
0.0
  0
LINE
  5
37B
  8
INSIDE
 10
-62.57695965265147
 20
-49.08726394679809
 30
0.0
 11
-60.72710181584222
 21
-47.18550887906845
 31
0.0
  0
LINE
  5
37C
  8
INSIDE
 10
-60.72710181584222
 20
-47.18550887906845
 30
0.0
 11
-58.78926134100464
 21
-45.31614254360829
 31
0.0
  0
LINE
  5
37D
  8
INSIDE
 10
-58.78926134100464
 20
-45.31614254360829
 30
0.0
 11
-56.7687456459081
 21
-43.47493173724366
 31
0.0
  0
LINE
  5
37E
  8
INSIDE
 10
-56.7687456459081
 20
-43.47493173724366
 30
0.0
 11
-54.67086214832198
 21
-41.65764325680058
 31
0.0
  0
LINE
  5
37F
  8
INSIDE
 10
-54.67086214832198
 20
-41.65764325680058
 30
0.0
 11
-52.50091826601567
 21
-39.86004389910508
 31
0.0
  0
LINE
  5
380
  8
INSIDE
 10
-52.50091826601567
 20
-39.86004389910508
 30
0.0
 11
-49.64313271058924
 21
-37.59679185404664
 31
0.0
  0
LINE
  5
381
  8
INSIDE
 10
-49.64313271058924
 20
-37.59679185404664
 30
0.0
 11
-46.68558301647253
 21
-35.3573811462459
 31
0.0
  0
LINE
  5
382
  8
INSIDE
 10
-46.68558301647253
 20
-35.3573811462459
 30
0.0
 11
-40.51991868880413
 21
-30.94141114994592
 31
0.0
  0
LINE
  5
383
  8
INSIDE
 10
-40.51991868880413
 20
-30.94141114994592
 30
0.0
 11
-3.627668657385869
 21
-6.759613042949633
 31
0.0
  0
LINE
  5
384
  8
INSIDE
 10
-3.627668657385869
 20
-6.759613042949633
 30
0.0
 11
0.0153548170514246
 21
-4.238934155936583
 31
0.0
  0
LINE
  5
385
  8
INSIDE
 10
0.0153548170514246
 20
-4.238934155936583
 30
0.0
 11
3.48931613812637
 21
-1.742194693724628
 31
0.0
  0
LINE
  5
386
  8
INSIDE
 10
3.48931613812637
 20
-1.742194693724628
 30
0.0
 11
5.762204391360807
 21
-0.0425348969624435
 31
0.0
  0
LINE
  5
387
  8
INSIDE
 10
5.762204391360807
 20
-0.0425348969624435
 30
0.0
 11
7.93347449440704
 21
1.642119726013409
 31
0.0
  0
LINE
  5
388
  8
INSIDE
 10
7.93347449440704
 20
1.642119726013409
 30
0.0
 11
9.99604877764109
 21
3.308061418120265
 31
0.0
  0
LINE
  5
389
  8
INSIDE
 10
9.99604877764109
 20
3.308061418120265
 30
0.0
 11
11.94284957143898
 21
4.951582422275454
 31
0.0
  0
LINE
  5
38A
  8
INSIDE
 10
11.94284957143898
 20
4.951582422275454
 30
0.0
 11
13.76679920617673
 21
6.568974981396311
 31
0.0
  0
LINE
  5
38B
  8
INSIDE
 10
13.76679920617673
 20
6.568974981396311
 30
0.0
 11
15.46082001223037
 21
8.15653133840017
 31
0.0
  0
LINE
  5
38C
  8
INSIDE
 10
15.46082001223037
 20
8.15653133840017
 30
0.0
 11
17.01783431997592
 21
9.710543736204361
 31
0.0
  0
LINE
  5
38D
  8
INSIDE
 10
17.01783431997592
 20
9.710543736204361
 30
0.0
 11
17.74275226522567
 21
10.47381227631825
 31
0.0
  0
LINE
  5
38E
  8
INSIDE
 10
17.74275226522567
 20
10.47381227631825
 30
0.0
 11
18.4307644597894
 21
11.22730441772622
 31
0.0
  0
LINE
  5
38F
  8
INSIDE
 10
18.4307644597894
 20
11.22730441772622
 30
0.0
 11
19.36703183629078
 21
12.30762990171558
 31
0.0
  0
LINE
  5
390
  8
INSIDE
 10
19.36703183629078
 20
12.30762990171558
 30
0.0
 11
20.22198805049126
 21
13.36124842250169
 31
0.0
  0
LINE
  5
391
  8
INSIDE
 10
20.22198805049126
 20
13.36124842250169
 30
0.0
 11
20.61935265666667
 21
13.87736873542816
 31
0.0
  0
LINE
  5
392
  8
INSIDE
 10
20.61935265666667
 20
13.87736873542816
 30
0.0
 11
20.99684329419249
 21
14.38600370403536
 31
0.0
  0
LINE
  5
393
  8
INSIDE
 10
20.99684329419249
 20
14.38600370403536
 30
0.0
 11
21.35461123704392
 21
14.88688379381715
 31
0.0
  0
LINE
  5
394
  8
INSIDE
 10
21.35461123704392
 20
14.88688379381715
 30
0.0
 11
21.69280775919617
 21
15.37973947026738
 31
0.0
  0
LINE
  5
395
  8
INSIDE
 10
21.69280775919617
 20
15.37973947026738
 30
0.0
 11
22.01158413462445
 21
15.8643011988799
 31
0.0
  0
LINE
  5
396
  8
INSIDE
 10
22.01158413462445
 20
15.8643011988799
 30
0.0
 11
22.31109163730397
 21
16.34029944514855
 31
0.0
  0
LINE
  5
397
  8
INSIDE
 10
22.31109163730397
 20
16.34029944514855
 30
0.0
 11
22.59148154120994
 21
16.8074646745672
 31
0.0
  0
LINE
  5
398
  8
INSIDE
 10
22.59148154120994
 20
16.8074646745672
 30
0.0
 11
22.85290512031757
 21
17.26552735262968
 31
0.0
  0
LINE
  5
399
  8
INSIDE
 10
22.85290512031757
 20
17.26552735262968
 30
0.0
 11
23.09551364860206
 21
17.71421794482985
 31
0.0
  0
LINE
  5
39A
  8
INSIDE
 10
23.09551364860206
 20
17.71421794482985
 30
0.0
 11
23.31945840003863
 21
18.15326691666156
 31
0.0
  0
LINE
  5
39B
  8
INSIDE
 10
23.31945840003863
 20
18.15326691666156
 30
0.0
 11
23.52489064860249
 21
18.58240473361867
 31
0.0
  0
LINE
  5
39C
  8
INSIDE
 10
23.52489064860249
 20
18.58240473361867
 30
0.0
 11
23.71196166826886
 21
19.00136186119501
 31
0.0
  0
LINE
  5
39D
  8
INSIDE
 10
23.71196166826886
 20
19.00136186119501
 30
0.0
 11
23.85735047368241
 21
19.3493726695451
 31
0.0
  0
LINE
  5
39E
  8
INSIDE
 10
23.85735047368241
 20
19.3493726695451
 30
0.0
 11
23.99094592080695
 21
19.68964045464243
 31
0.0
  0
LINE
  5
39F
  8
INSIDE
 10
23.99094592080695
 20
19.68964045464243
 30
0.0
 11
24.11306251091942
 21
20.02263037664903
 31
0.0
  0
LINE
  5
3A0
  8
INSIDE
 10
24.11306251091942
 20
20.02263037664903
 30
0.0
 11
24.22401474529675
 21
20.3488075957269
 31
0.0
  0
LINE
  5
3A1
  8
INSIDE
 10
24.22401474529675
 20
20.3488075957269
 30
0.0
 11
24.32411712521587
 21
20.66863727203806
 31
0.0
  0
LINE
  5
3A2
  8
INSIDE
 10
24.32411712521587
 20
20.66863727203806
 30
0.0
 11
24.4136841519537
 21
20.98258456574453
 31
0.0
  0
LINE
  5
3A3
  8
INSIDE
 10
24.4136841519537
 20
20.98258456574453
 30
0.0
 11
24.49303032678718
 21
21.29111463700832
 31
0.0
  0
LINE
  5
3A4
  8
INSIDE
 10
24.49303032678718
 20
21.29111463700832
 30
0.0
 11
24.56247015099325
 21
21.59469264599145
 31
0.0
  0
LINE
  5
3A5
  8
INSIDE
 10
24.56247015099325
 20
21.59469264599145
 30
0.0
 11
24.62231812584882
 21
21.89378375285592
 31
0.0
  0
LINE
  5
3A6
  8
INSIDE
 10
24.62231812584882
 20
21.89378375285592
 30
0.0
 11
24.67288875263084
 21
22.18885311776377
 31
0.0
  0
LINE
  5
3A7
  8
INSIDE
 10
24.67288875263084
 20
22.18885311776377
 30
0.0
 11
24.71449653261623
 21
22.480365900877
 31
0.0
  0
LINE
  5
3A8
  8
INSIDE
 10
24.71449653261623
 20
22.480365900877
 30
0.0
 11
24.74745596708193
 21
22.76878726235762
 31
0.0
  0
LINE
  5
3A9
  8
INSIDE
 10
24.74745596708193
 20
22.76878726235762
 30
0.0
 11
24.77208155730486
 21
23.05458236236766
 31
0.0
  0
LINE
  5
3AA
  8
INSIDE
 10
24.77208155730486
 20
23.05458236236766
 30
0.0
 11
24.78868780456196
 21
23.33821636106912
 31
0.0
  0
LINE
  5
3AB
  8
INSIDE
 10
24.78868780456196
 20
23.33821636106912
 30
0.0
 11
24.79758921013016
 21
23.62015441862403
 31
0.0
  0
LINE
  5
3AC
  8
INSIDE
 10
24.79758921013016
 20
23.62015441862403
 30
0.0
 11
24.79910027528638
 21
23.90086169519439
 31
0.0
  0
LINE
  5
3AD
  8
INSIDE
 10
24.79910027528638
 20
23.90086169519439
 30
0.0
 11
24.79332037211611
 21
24.184273987041
 31
0.0
  0
LINE
  5
3AE
  8
INSIDE
 10
24.79332037211611
 20
24.184273987041
 30
0.0
 11
24.77995146382251
 21
24.4692959937824
 31
0.0
  0
LINE
  5
3AF
  8
INSIDE
 10
24.77995146382251
 20
24.4692959937824
 30
0.0
 11
24.75865603068673
 21
24.75638154075651
 31
0.0
  0
LINE
  5
3B0
  8
INSIDE
 10
24.75865603068673
 20
24.75638154075651
 30
0.0
 11
24.72909655298994
 21
25.0459844533013
 31
0.0
  0
LINE
  5
3B1
  8
INSIDE
 10
24.72909655298994
 20
25.0459844533013
 30
0.0
 11
24.69093551101328
 21
25.33855855675467
 31
0.0
  0
LINE
  5
3B2
  8
INSIDE
 10
24.69093551101328
 20
25.33855855675467
 30
0.0
 11
24.64383538503792
 21
25.63455767645458
 31
0.0
  0
LINE
  5
3B3
  8
INSIDE
 10
24.64383538503792
 20
25.63455767645458
 30
0.0
 11
24.58745865534501
 21
25.93443563773895
 31
0.0
  0
LINE
  5
3B4
  8
INSIDE
 10
24.58745865534501
 20
25.93443563773895
 30
0.0
 11
24.52146780221572
 21
26.23864626594571
 31
0.0
  0
LINE
  5
3B5
  8
INSIDE
 10
24.52146780221572
 20
26.23864626594571
 30
0.0
 11
24.44552530593119
 21
26.5476433864128
 31
0.0
  0
LINE
  5
3B6
  8
INSIDE
 10
24.44552530593119
 20
26.5476433864128
 30
0.0
 11
24.35929364677258
 21
26.86188082447816
 31
0.0
  0
LINE
  5
3B7
  8
INSIDE
 10
24.35929364677258
 20
26.86188082447816
 30
0.0
 11
24.26243530502106
 21
27.18181240547972
 31
0.0
  0
LINE
  5
3B8
  8
INSIDE
 10
24.26243530502106
 20
27.18181240547972
 30
0.0
 11
24.15461276095778
 21
27.50789195475541
 31
0.0
  0
LINE
  5
3B9
  8
INSIDE
 10
24.15461276095778
 20
27.50789195475541
 30
0.0
 11
24.03548849486389
 21
27.84057329764317
 31
0.0
  0
LINE
  5
3BA
  8
INSIDE
 10
24.03548849486389
 20
27.84057329764317
 30
0.0
 11
23.90472498702055
 21
28.18031025948093
 31
0.0
  0
LINE
  5
3BB
  8
INSIDE
 10
23.90472498702055
 20
28.18031025948093
 30
0.0
 11
23.76198471770893
 21
28.52755666560662
 31
0.0
  0
LINE
  5
3BC
  8
INSIDE
 10
23.76198471770893
 20
28.52755666560662
 30
0.0
 11
23.60693016721018
 21
28.88276634135818
 31
0.0
  0
LINE
  5
3BD
  8
INSIDE
 10
23.60693016721018
 20
28.88276634135818
 30
0.0
 11
23.42137350902289
 21
29.28232838288561
 31
0.0
  0
LINE
  5
3BE
  8
INSIDE
 10
23.42137350902289
 20
29.28232838288561
 30
0.0
 11
23.21926403738994
 21
29.69090316413839
 31
0.0
  0
LINE
  5
3BF
  8
INSIDE
 10
23.21926403738994
 20
29.69090316413839
 30
0.0
 11
23.00047423805211
 21
30.10825969287858
 31
0.0
  0
LINE
  5
3C0
  8
INSIDE
 10
23.00047423805211
 20
30.10825969287858
 30
0.0
 11
22.76487659675016
 21
30.53416697686824
 31
0.0
  0
LINE
  5
3C1
  8
INSIDE
 10
22.76487659675016
 20
30.53416697686824
 30
0.0
 11
22.51234359922486
 21
30.96839402386945
 31
0.0
  0
LINE
  5
3C2
  8
INSIDE
 10
22.51234359922486
 20
30.96839402386945
 30
0.0
 11
22.24274773121696
 21
31.41070984164428
 31
0.0
  0
LINE
  5
3C3
  8
INSIDE
 10
22.24274773121696
 20
31.41070984164428
 30
0.0
 11
21.95596147846723
 21
31.86088343795478
 31
0.0
  0
LINE
  5
3C4
  8
INSIDE
 10
21.95596147846723
 20
31.86088343795478
 30
0.0
 11
21.65185732671643
 21
32.31868382056303
 31
0.0
  0
LINE
  5
3C5
  8
INSIDE
 10
21.65185732671643
 20
32.31868382056303
 30
0.0
 11
21.33030776170533
 21
32.78387999723109
 31
0.0
  0
LINE
  5
3C6
  8
INSIDE
 10
21.33030776170533
 20
32.78387999723109
 30
0.0
 11
20.99118526917468
 21
33.25624097572103
 31
0.0
  0
LINE
  5
3C7
  8
INSIDE
 10
20.99118526917468
 20
33.25624097572103
 30
0.0
 11
20.25971144451781
 21
34.22153336921483
 31
0.0
  0
LINE
  5
3C8
  8
INSIDE
 10
20.25971144451781
 20
34.22153336921483
 30
0.0
 11
19.45641573867193
 21
35.21271306314095
 31
0.0
  0
LINE
  5
3C9
  8
INSIDE
 10
19.45641573867193
 20
35.21271306314095
 30
0.0
 11
18.58027803756313
 21
36.22793211959593
 31
0.0
  0
LINE
  5
3CA
  8
INSIDE
 10
18.58027803756313
 20
36.22793211959593
 30
0.0
 11
17.95569421051382
 21
36.91675288896518
 31
0.0
  0
LINE
  5
3CB
  8
INSIDE
 10
17.95569421051382
 20
36.91675288896518
 30
0.0
 11
17.29958759089312
 21
37.61412225752463
 31
0.0
  0
LINE
  5
3CC
  8
INSIDE
 10
17.29958759089312
 20
37.61412225752463
 30
0.0
 11
15.89545113347014
 21
39.03296958770949
 31
0.0
  0
LINE
  5
3CD
  8
INSIDE
 10
15.89545113347014
 20
39.03296958770949
 30
0.0
 11
14.37315898435939
 21
40.48139970114124
 31
0.0
  0
LINE
  5
3CE
  8
INSIDE
 10
14.37315898435939
 20
40.48139970114124
 30
0.0
 11
12.73800146262608
 21
41.95633818881062
 31
0.0
  0
LINE
  5
3CF
  8
INSIDE
 10
12.73800146262608
 20
41.95633818881062
 30
0.0
 11
10.99526888733541
 21
43.45471064170833
 31
0.0
  0
LINE
  5
3D0
  8
INSIDE
 10
10.99526888733541
 20
43.45471064170833
 30
0.0
 11
9.150251577552574
 21
44.97344265082511
 31
0.0
  0
LINE
  5
3D1
  8
INSIDE
 10
9.150251577552574
 20
44.97344265082511
 30
0.0
 11
7.208239852342773
 21
46.50945980715166
 31
0.0
  0
LINE
  5
3D2
  8
INSIDE
 10
7.208239852342773
 20
46.50945980715166
 30
0.0
 11
5.174524030771209
 21
48.0596877016787
 31
0.0
  0
LINE
  5
3D3
  8
INSIDE
 10
5.174524030771209
 20
48.0596877016787
 30
0.0
 11
-0.524110950641592
 21
52.16463999643192
 31
0.0
  0
LINE
  5
3D4
  8
INSIDE
 10
-0.524110950641592
 20
52.16463999643192
 30
0.0
 11
-6.680507621761617
 21
56.33924649025163
 31
0.0
  0
LINE
  5
3D5
  8
INSIDE
 10
-6.680507621761617
 20
56.33924649025163
 30
0.0
 11
-34.49033330842458
 21
74.23387064597043
 31
0.0
  0
LINE
  5
3D6
  8
INSIDE
 10
-34.49033330842458
 20
74.23387064597043
 30
0.0
 11
-41.58355201871393
 21
79.021160506976
 31
0.0
  0
LINE
  5
3D7
  8
INSIDE
 10
-41.58355201871393
 20
79.021160506976
 30
0.0
 11
-45.01468633191005
 21
81.44530963178372
 31
0.0
  0
LINE
  5
3D8
  8
INSIDE
 10
-45.01468633191005
 20
81.44530963178372
 30
0.0
 11
-48.34514684309498
 21
83.8921985102353
 31
0.0
  0
LINE
  5
3D9
  8
INSIDE
 10
-48.34514684309498
 20
83.8921985102353
 30
0.0
 11
-50.91551801029723
 21
85.85863451109951
 31
0.0
  0
LINE
  5
3DA
  8
INSIDE
 10
-50.91551801029723
 20
85.85863451109951
 30
0.0
 11
-53.4055461961787
 21
87.84412556715462
 31
0.0
  0
LINE
  5
3DB
  8
INSIDE
 10
-53.4055461961787
 20
87.84412556715462
 30
0.0
 11
-55.80798568414905
 21
89.85390131032102
 31
0.0
  0
LINE
  5
3DC
  8
INSIDE
 10
-55.80798568414905
 20
89.85390131032102
 30
0.0
 11
-58.11559075761798
 21
91.89319137251907
 31
0.0
  0
LINE
  5
3DD
  8
INSIDE
 10
-58.11559075761798
 20
91.89319137251907
 30
0.0
 11
-60.3211156999952
 21
93.96722538566917
 31
0.0
  0
LINE
  5
3DE
  8
INSIDE
 10
-60.3211156999952
 20
93.96722538566917
 30
0.0
 11
-61.38333383558994
 21
95.01890563382636
 31
0.0
  0
LINE
  5
3DF
  8
INSIDE
 10
-61.38333383558994
 20
95.01890563382636
 30
0.0
 11
-62.41731479469039
 21
96.0812329816917
 31
0.0
  0
LINE
  5
3E0
  8
INSIDE
 10
-62.41731479469039
 20
96.0812329816917
 30
0.0
 11
-63.42215286272275
 21
97.15486113325525
 31
0.0
  0
LINE
  5
3E1
  8
INSIDE
 10
-63.42215286272275
 20
97.15486113325525
 30
0.0
 11
-64.39694232511326
 21
98.24044379250705
 31
0.0
  0
LINE
  5
3E2
  8
INSIDE
 10
-64.39694232511326
 20
98.24044379250705
 30
0.0
 11
-65.34077746728809
 21
99.33863466343715
 31
0.0
  0
LINE
  5
3E3
  8
INSIDE
 10
-65.34077746728809
 20
99.33863466343715
 30
0.0
 11
-66.25275257467348
 21
100.4500874500356
 31
0.0
  0
LINE
  5
3E4
  8
INSIDE
 10
-66.25275257467348
 20
100.4500874500356
 30
0.0
 11
-67.428217904597
 21
101.9695682437524
 31
0.0
  0
LINE
  5
3E5
  8
INSIDE
 10
-67.428217904597
 20
101.9695682437524
 30
0.0
 11
-67.9928415575854
 21
102.7408018766418
 31
0.0
  0
LINE
  5
3E6
  8
INSIDE
 10
-67.9928415575854
 20
102.7408018766418
 30
0.0
 11
-68.54123430953229
 21
103.519891403076
 31
0.0
  0
LINE
  5
3E7
  8
INSIDE
 10
-68.54123430953229
 20
103.519891403076
 30
0.0
 11
-69.0727774906433
 21
104.306982125198
 31
0.0
  0
LINE
  5
3E8
  8
INSIDE
 10
-69.0727774906433
 20
104.306982125198
 30
0.0
 11
-69.58685243112404
 21
105.1022193451511
 31
0.0
  0
LINE
  5
3E9
  8
INSIDE
 10
-69.58685243112404
 20
105.1022193451511
 30
0.0
 11
-70.0828404611801
 21
105.9057483650782
 31
0.0
  0
LINE
  5
3EA
  8
INSIDE
 10
-70.0828404611801
 20
105.9057483650782
 30
0.0
 11
-70.56012291101707
 21
106.7177144871225
 31
0.0
  0
LINE
  5
3EB
  8
INSIDE
 10
-70.56012291101707
 20
106.7177144871225
 30
0.0
 11
-71.01808111084054
 21
107.538263013427
 31
0.0
  0
LINE
  5
3EC
  8
INSIDE
 10
-71.01808111084054
 20
107.538263013427
 30
0.0
 11
-71.45609639085615
 21
108.3675392461349
 31
0.0
  0
LINE
  5
3ED
  8
INSIDE
 10
-71.45609639085615
 20
108.3675392461349
 30
0.0
 11
-71.87355008126946
 21
109.2056884873892
 31
0.0
  0
LINE
  5
3EE
  8
INSIDE
 10
-71.87355008126946
 20
109.2056884873892
 30
0.0
 11
-72.26982351228605
 21
110.0528560393331
 31
0.0
  0
LINE
  5
3EF
  8
INSIDE
 10
-72.26982351228605
 20
110.0528560393331
 30
0.0
 11
-72.64429801411154
 21
110.9091872041096
 31
0.0
  0
LINE
  5
3F0
  8
INSIDE
 10
-72.64429801411154
 20
110.9091872041096
 30
0.0
 11
-72.99635491695155
 21
111.7748272838619
 31
0.0
  0
LINE
  5
3F1
  8
INSIDE
 10
-72.99635491695155
 20
111.7748272838619
 30
0.0
 11
-73.32537555101165
 21
112.6499215807329
 31
0.0
  0
LINE
  5
3F2
  8
INSIDE
 10
-73.32537555101165
 20
112.6499215807329
 30
0.0
 11
-73.63074124649744
 21
113.5346153968659
 31
0.0
  0
LINE
  5
3F3
  8
INSIDE
 10
-73.63074124649744
 20
113.5346153968659
 30
0.0
 11
-73.86237534997804
 21
114.2667985241442
 31
0.0
  0
LINE
  5
3F4
  8
INSIDE
 10
-73.86237534997804
 20
114.2667985241442
 30
0.0
 11
-74.07634036532127
 21
115.0049560694522
 31
0.0
  0
LINE
  5
3F5
  8
INSIDE
 10
-74.07634036532127
 20
115.0049560694522
 30
0.0
 11
-74.27243196818102
 21
115.7485754372289
 31
0.0
  0
LINE
  5
3F6
  8
INSIDE
 10
-74.27243196818102
 20
115.7485754372289
 30
0.0
 11
-74.45044583421118
 21
116.4971440319134
 31
0.0
  0
LINE
  5
3F7
  8
INSIDE
 10
-74.45044583421118
 20
116.4971440319134
 30
0.0
 11
-74.61017763906565
 21
117.2501492579446
 31
0.0
  0
LINE
  5
3F8
  8
INSIDE
 10
-74.61017763906565
 20
117.2501492579446
 30
0.0
 11
-74.75142305839836
 21
118.0070785197616
 31
0.0
  0
LINE
  5
3F9
  8
INSIDE
 10
-74.75142305839836
 20
118.0070785197616
 30
0.0
 11
-74.87397776786318
 21
118.7674192218034
 31
0.0
  0
LINE
  5
3FA
  8
INSIDE
 10
-74.87397776786318
 20
118.7674192218034
 30
0.0
 11
-74.97763744311399
 21
119.5306587685089
 31
0.0
  0
LINE
  5
3FB
  8
INSIDE
 10
-74.97763744311399
 20
119.5306587685089
 30
0.0
 11
-75.06219775980472
 21
120.2962845643172
 31
0.0
  0
LINE
  5
3FC
  8
INSIDE
 10
-75.06219775980472
 20
120.2962845643172
 30
0.0
 11
-75.12745439358926
 21
121.0637840136674
 31
0.0
  0
LINE
  5
3FD
  8
INSIDE
 10
-75.12745439358926
 20
121.0637840136674
 30
0.0
 11
-75.17320302012149
 21
121.8326445209984
 31
0.0
  0
LINE
  5
3FE
  8
INSIDE
 10
-75.17320302012149
 20
121.8326445209984
 30
0.0
 11
-75.19923931505534
 21
122.6023534907492
 31
0.0
  0
LINE
  5
3FF
  8
INSIDE
 10
-75.19923931505534
 20
122.6023534907492
 30
0.0
 11
-75.20535895404468
 21
123.3723983273589
 31
0.0
  0
LINE
  5
400
  8
INSIDE
 10
-75.20535895404468
 20
123.3723983273589
 30
0.0
 11
-75.19135761274343
 21
124.1422664352664
 31
0.0
  0
LINE
  5
401
  8
INSIDE
 10
-75.19135761274343
 20
124.1422664352664
 30
0.0
 11
-75.15703096680548
 21
124.9114452189108
 31
0.0
  0
LINE
  5
402
  8
INSIDE
 10
-75.15703096680548
 20
124.9114452189108
 30
0.0
 11
-75.1021746918847
 21
125.6794220827311
 31
0.0
  0
LINE
  5
403
  8
INSIDE
 10
-75.1021746918847
 20
125.6794220827311
 30
0.0
 11
-75.02154939039141
 21
126.4933403861411
 31
0.0
  0
LINE
  5
404
  8
INSIDE
 10
-75.02154939039141
 20
126.4933403861411
 30
0.0
 11
-74.91862527619566
 21
127.3034481862187
 31
0.0
  0
LINE
  5
405
  8
INSIDE
 10
-74.91862527619566
 20
127.3034481862187
 30
0.0
 11
-74.79389355838758
 21
128.1094580694004
 31
0.0
  0
LINE
  5
406
  8
INSIDE
 10
-74.79389355838758
 20
128.1094580694004
 30
0.0
 11
-74.64784544605732
 21
128.9110826221228
 31
0.0
  0
LINE
  5
407
  8
INSIDE
 10
-74.64784544605732
 20
128.9110826221228
 30
0.0
 11
-74.48097214829502
 21
129.7080344308227
 31
0.0
  0
LINE
  5
408
  8
INSIDE
 10
-74.48097214829502
 20
129.7080344308227
 30
0.0
 11
-74.29376487419083
 21
130.5000260819367
 31
0.0
  0
LINE
  5
409
  8
INSIDE
 10
-74.29376487419083
 20
130.5000260819367
 30
0.0
 11
-74.0867148328349
 21
131.2867701619014
 31
0.0
  0
LINE
  5
40A
  8
INSIDE
 10
-74.0867148328349
 20
131.2867701619014
 30
0.0
 11
-73.86031323331741
 21
132.0679792571533
 31
0.0
  0
LINE
  5
40B
  8
INSIDE
 10
-73.86031323331741
 20
132.0679792571533
 30
0.0
 11
-73.61505128472845
 21
132.8433659541292
 31
0.0
  0
LINE
  5
40C
  8
INSIDE
 10
-73.61505128472845
 20
132.8433659541292
 30
0.0
 11
-73.35142019615822
 21
133.6126428392658
 31
0.0
  0
LINE
  5
40D
  8
INSIDE
 10
-73.35142019615822
 20
133.6126428392658
 30
0.0
 11
-73.06991117669682
 21
134.3755224989995
 31
0.0
  0
LINE
  5
40E
  8
INSIDE
 10
-73.06991117669682
 20
134.3755224989995
 30
0.0
 11
-72.77101543543445
 21
135.1317175197672
 31
0.0
  0
LINE
  5
40F
  8
INSIDE
 10
-72.77101543543445
 20
135.1317175197672
 30
0.0
 11
-72.45522418146123
 21
135.8809404880054
 31
0.0
  0
LINE
  5
410
  8
INSIDE
 10
-72.45522418146123
 20
135.8809404880054
 30
0.0
 11
-72.12302862386731
 21
136.6229039901507
 31
0.0
  0
LINE
  5
411
  8
INSIDE
 10
-72.12302862386731
 20
136.6229039901507
 30
0.0
 11
-71.77491997174283
 21
137.3573206126398
 31
0.0
  0
LINE
  5
412
  8
INSIDE
 10
-71.77491997174283
 20
137.3573206126398
 30
0.0
 11
-71.41138943417798
 21
138.0839029419093
 31
0.0
  0
LINE
  5
413
  8
INSIDE
 10
-71.41138943417798
 20
138.0839029419093
 30
0.0
 11
-70.95131215175846
 21
138.9541940822912
 31
0.0
  0
LINE
  5
414
  8
INSIDE
 10
-70.95131215175846
 20
138.9541940822912
 30
0.0
 11
-70.47067465482496
 21
139.8142505879393
 31
0.0
  0
LINE
  5
415
  8
INSIDE
 10
-70.47067465482496
 20
139.8142505879393
 30
0.0
 11
-69.96998882605334
 21
140.6644102267692
 31
0.0
  0
LINE
  5
416
  8
INSIDE
 10
-69.96998882605334
 20
140.6644102267692
 30
0.0
 11
-69.44976654811941
 21
141.505010766697
 31
0.0
  0
LINE
  5
417
  8
INSIDE
 10
-69.44976654811941
 20
141.505010766697
 30
0.0
 11
-68.91051970369898
 21
142.3363899756384
 31
0.0
  0
LINE
  5
418
  8
INSIDE
 10
-68.91051970369898
 20
142.3363899756384
 30
0.0
 11
-68.35276017546789
 21
143.1588856215091
 31
0.0
  0
LINE
  5
419
  8
INSIDE
 10
-68.35276017546789
 20
143.1588856215091
 30
0.0
 11
-67.77699984610194
 21
143.9728354722251
 31
0.0
  0
LINE
  5
41A
  8
INSIDE
 10
-67.77699984610194
 20
143.9728354722251
 30
0.0
 11
-67.18375059827699
 21
144.7785772957021
 31
0.0
  0
LINE
  5
41B
  8
INSIDE
 10
-67.18375059827699
 20
144.7785772957021
 30
0.0
 11
-66.57352431466882
 21
145.576448859856
 31
0.0
  0
LINE
  5
41C
  8
INSIDE
 10
-66.57352431466882
 20
145.576448859856
 30
0.0
 11
-65.9468328779533
 21
146.3667879326026
 31
0.0
  0
LINE
  5
41D
  8
INSIDE
 10
-65.9468328779533
 20
146.3667879326026
 30
0.0
 11
-64.64610207590343
 21
147.926219675537
 31
0.0
  0
LINE
  5
41E
  8
INSIDE
 10
-64.64610207590343
 20
147.926219675537
 30
0.0
 11
-63.28565325353394
 21
149.4595746678319
 31
0.0
  0
LINE
  5
41F
  8
INSIDE
 10
-63.28565325353394
 20
149.4595746678319
 30
0.0
 11
-61.86958147225143
 21
150.9695550528139
 31
0.0
  0
LINE
  5
420
  8
INSIDE
 10
-61.86958147225143
 20
150.9695550528139
 30
0.0
 11
-59.67626608726599
 21
153.1691450936231
 31
0.0
  0
LINE
  5
421
  8
INSIDE
 10
-59.67626608726599
 20
153.1691450936231
 30
0.0
 11
-57.37348909151979
 21
155.3312760845369
 31
0.0
  0
LINE
  5
422
  8
INSIDE
 10
-57.37348909151979
 20
155.3312760845369
 30
0.0
 11
-54.96989847165027
 21
157.4598258853139
 31
0.0
  0
LINE
  5
423
  8
INSIDE
 10
-54.96989847165027
 20
157.4598258853139
 30
0.0
 11
-52.47414221429489
 21
159.5586723557127
 31
0.0
  0
LINE
  5
424
  8
INSIDE
 10
-52.47414221429489
 20
159.5586723557127
 30
0.0
 11
-49.89486830609111
 21
161.6316933554917
 31
0.0
  0
LINE
  5
425
  8
INSIDE
 10
-49.89486830609111
 20
161.6316933554917
 30
0.0
 11
-47.24072473367641
 21
163.6827667444096
 31
0.0
  0
LINE
  5
426
  8
INSIDE
 10
-47.24072473367641
 20
163.6827667444096
 30
0.0
 11
-41.74242054276403
 21
167.7345821286961
 31
0.0
  0
LINE
  5
427
  8
INSIDE
 10
-41.74242054276403
 20
167.7345821286961
 30
0.0
 11
-7.889646460248922
 21
190.8142904875471
 31
0.0
  0
LINE
  5
428
  8
INSIDE
 10
-7.889646460248922
 20
190.8142904875471
 30
0.0
 11
-1.431562040000403
 21
195.4671211185833
 31
0.0
  0
LINE
  5
429
  8
INSIDE
 10
-1.431562040000403
 20
195.4671211185833
 30
0.0
 11
1.619148143425262
 21
197.7653055610095
 31
0.0
  0
LINE
  5
42A
  8
INSIDE
 10
1.619148143425262
 20
197.7653055610095
 30
0.0
 11
4.531252793168972
 21
200.0416041065577
 31
0.0
  0
LINE
  5
42B
  8
INSIDE
 10
4.531252793168972
 20
200.0416041065577
 30
0.0
 11
7.289963772318559
 21
202.2937177691149
 31
0.0
  0
LINE
  5
42C
  8
INSIDE
 10
7.289963772318559
 20
202.2937177691149
 30
0.0
 11
9.880492943961855
 21
204.5193475625686
 31
0.0
  0
LINE
  5
42D
  8
INSIDE
 10
9.880492943961855
 20
204.5193475625686
 30
0.0
 11
11.74387043686474
 21
206.2065440767795
 31
0.0
  0
LINE
  5
42E
  8
INSIDE
 10
11.74387043686474
 20
206.2065440767795
 30
0.0
 11
13.49452659755813
 21
207.8729682437962
 31
0.0
  0
LINE
  5
42F
  8
INSIDE
 10
13.49452659755813
 20
207.8729682437962
 30
0.0
 11
15.12911867431366
 21
209.5147245280046
 31
0.0
  0
LINE
  5
430
  8
INSIDE
 10
15.12911867431366
 20
209.5147245280046
 30
0.0
 11
16.64430391540297
 21
211.1279173937909
 31
0.0
  0
LINE
  5
431
  8
INSIDE
 10
16.64430391540297
 20
211.1279173937909
 30
0.0
 11
18.03673956909773
 21
212.7086513055413
 31
0.0
  0
LINE
  5
432
  8
INSIDE
 10
18.03673956909773
 20
212.7086513055413
 30
0.0
 11
18.68588169075703
 21
213.4856287987736
 31
0.0
  0
LINE
  5
433
  8
INSIDE
 10
18.68588169075703
 20
213.4856287987736
 30
0.0
 11
19.30308288366956
 21
214.2530307276417
 31
0.0
  0
LINE
  5
434
  8
INSIDE
 10
19.30308288366956
 20
214.2530307276417
 30
0.0
 11
19.88792530386927
 21
215.0103701501939
 31
0.0
  0
LINE
  5
435
  8
INSIDE
 10
19.88792530386927
 20
215.0103701501939
 30
0.0
 11
20.43999110739012
 21
215.7571601244783
 31
0.0
  0
LINE
  5
436
  8
INSIDE
 10
20.43999110739012
 20
215.7571601244783
 30
0.0
 11
20.95886245026606
 21
216.4929137085433
 31
0.0
  0
LINE
  5
437
  8
INSIDE
 10
20.95886245026606
 20
216.4929137085433
 30
0.0
 11
21.44412148853105
 21
217.2171439604371
 31
0.0
  0
LINE
  5
438
  8
INSIDE
 10
21.44412148853105
 20
217.2171439604371
 30
0.0
 11
21.77977579516311
 21
217.7422766501243
 31
0.0
  0
LINE
  5
439
  8
INSIDE
 10
21.77977579516311
 20
217.7422766501243
 30
0.0
 11
22.09732403199366
 21
218.2599302728888
 31
0.0
  0
LINE
  5
43A
  8
INSIDE
 10
22.09732403199366
 20
218.2599302728888
 30
0.0
 11
22.39706369846274
 21
218.7700959888604
 31
0.0
  0
LINE
  5
43B
  8
INSIDE
 10
22.39706369846274
 20
218.7700959888604
 30
0.0
 11
22.6792922940104
 21
219.2727649581688
 31
0.0
  0
LINE
  5
43C
  8
INSIDE
 10
22.6792922940104
 20
219.2727649581688
 30
0.0
 11
22.94430731807668
 21
219.7679283409435
 31
0.0
  0
LINE
  5
43D
  8
INSIDE
 10
22.94430731807668
 20
219.7679283409435
 30
0.0
 11
23.19240627010164
 21
220.2555772973144
 31
0.0
  0
LINE
  5
43E
  8
INSIDE
 10
23.19240627010164
 20
220.2555772973144
 30
0.0
 11
23.4238866495253
 21
220.7357029874111
 31
0.0
  0
LINE
  5
43F
  8
INSIDE
 10
23.4238866495253
 20
220.7357029874111
 30
0.0
 11
23.63904595578773
 21
221.2082965713632
 31
0.0
  0
LINE
  5
440
  8
INSIDE
 10
23.63904595578773
 20
221.2082965713632
 30
0.0
 11
23.83818168832896
 21
221.6733492093005
 31
0.0
  0
LINE
  5
441
  8
INSIDE
 10
23.83818168832896
 20
221.6733492093005
 30
0.0
 11
24.02159134658903
 21
222.1308520613526
 31
0.0
  0
LINE
  5
442
  8
INSIDE
 10
24.02159134658903
 20
222.1308520613526
 30
0.0
 11
24.189572430008
 21
222.5807962876493
 31
0.0
  0
LINE
  5
443
  8
INSIDE
 10
24.189572430008
 20
222.5807962876493
 30
0.0
 11
24.34242243802591
 21
223.0231730483202
 31
0.0
  0
LINE
  5
444
  8
INSIDE
 10
24.34242243802591
 20
223.0231730483202
 30
0.0
 11
24.4804388700828
 21
223.4579735034949
 31
0.0
  0
LINE
  5
445
  8
INSIDE
 10
24.4804388700828
 20
223.4579735034949
 30
0.0
 11
24.60391922561872
 21
223.8851888133031
 31
0.0
  0
LINE
  5
446
  8
INSIDE
 10
24.60391922561872
 20
223.8851888133031
 30
0.0
 11
24.71316100407372
 21
224.3048101378746
 31
0.0
  0
LINE
  5
447
  8
INSIDE
 10
24.71316100407372
 20
224.3048101378746
 30
0.0
 11
24.80846170488783
 21
224.7168286373391
 31
0.0
  0
LINE
  5
448
  8
INSIDE
 10
24.80846170488783
 20
224.7168286373391
 30
0.0
 11
24.88423546499165
 21
225.0870510570969
 31
0.0
  0
LINE
  5
449
  8
INSIDE
 10
24.88423546499165
 20
225.0870510570969
 30
0.0
 11
24.94991688316722
 21
225.4519103477791
 31
0.0
  0
LINE
  5
44A
  8
INSIDE
 10
24.94991688316722
 20
225.4519103477791
 30
0.0
 11
25.00551930325347
 21
225.8120173523303
 31
0.0
  0
LINE
  5
44B
  8
INSIDE
 10
25.00551930325347
 20
225.8120173523303
 30
0.0
 11
25.05105606908932
 21
226.1679829136951
 31
0.0
  0
LINE
  5
44C
  8
INSIDE
 10
25.05105606908932
 20
226.1679829136951
 30
0.0
 11
25.08654052451368
 21
226.5204178748182
 31
0.0
  0
LINE
  5
44D
  8
INSIDE
 10
25.08654052451368
 20
226.5204178748182
 30
0.0
 11
25.11198601336547
 21
226.8699330786441
 31
0.0
  0
LINE
  5
44E
  8
INSIDE
 10
25.11198601336547
 20
226.8699330786441
 30
0.0
 11
25.12740587948362
 21
227.2171393681175
 31
0.0
  0
LINE
  5
44F
  8
INSIDE
 10
25.12740587948362
 20
227.2171393681175
 30
0.0
 11
25.13281346670704
 21
227.5626475861831
 31
0.0
  0
LINE
  5
450
  8
INSIDE
 10
25.13281346670704
 20
227.5626475861831
 30
0.0
 11
25.12822211887465
 21
227.9070685757855
 31
0.0
  0
LINE
  5
451
  8
INSIDE
 10
25.12822211887465
 20
227.9070685757855
 30
0.0
 11
25.11364517982537
 21
228.2510131798693
 31
0.0
  0
LINE
  5
452
  8
INSIDE
 10
25.11364517982537
 20
228.2510131798693
 30
0.0
 11
25.08909599339811
 21
228.5950922413791
 31
0.0
  0
LINE
  5
453
  8
INSIDE
 10
25.08909599339811
 20
228.5950922413791
 30
0.0
 11
25.0545879034318
 21
228.9399166032597
 31
0.0
  0
LINE
  5
454
  8
INSIDE
 10
25.0545879034318
 20
228.9399166032597
 30
0.0
 11
25.01013425376535
 21
229.2860971084555
 31
0.0
  0
LINE
  5
455
  8
INSIDE
 10
25.01013425376535
 20
229.2860971084555
 30
0.0
 11
24.95574838823768
 21
229.6342445999113
 31
0.0
  0
LINE
  5
456
  8
INSIDE
 10
24.95574838823768
 20
229.6342445999113
 30
0.0
 11
24.89144365068771
 21
229.9849699205717
 31
0.0
  0
LINE
  5
457
  8
INSIDE
 10
24.89144365068771
 20
229.9849699205717
 30
0.0
 11
24.81723338495436
 21
230.3388839133813
 31
0.0
  0
LINE
  5
458
  8
INSIDE
 10
24.81723338495436
 20
230.3388839133813
 30
0.0
 11
24.72621555440723
 21
230.7222100703683
 31
0.0
  0
LINE
  5
459
  8
INSIDE
 10
24.72621555440723
 20
230.7222100703683
 30
0.0
 11
24.62212395356758
 21
231.1114095376736
 31
0.0
  0
LINE
  5
45A
  8
INSIDE
 10
24.62212395356758
 20
231.1114095376736
 30
0.0
 11
24.50441344915711
 21
231.5066499988787
 31
0.0
  0
LINE
  5
45B
  8
INSIDE
 10
24.50441344915711
 20
231.5066499988787
 30
0.0
 11
24.37253890789746
 21
231.908099137565
 31
0.0
  0
LINE
  5
45C
  8
INSIDE
 10
24.37253890789746
 20
231.908099137565
 30
0.0
 11
24.22595519651031
 21
232.3159246373139
 31
0.0
  0
LINE
  5
45D
  8
INSIDE
 10
24.22595519651031
 20
232.3159246373139
 30
0.0
 11
24.06411718171732
 21
232.730294181707
 31
0.0
  0
LINE
  5
45E
  8
INSIDE
 10
24.06411718171732
 20
232.730294181707
 30
0.0
 11
23.88647973024015
 21
233.1513754543257
 31
0.0
  0
LINE
  5
45F
  8
INSIDE
 10
23.88647973024015
 20
233.1513754543257
 30
0.0
 11
23.69249770880048
 21
233.5793361387513
 31
0.0
  0
LINE
  5
460
  8
INSIDE
 10
23.69249770880048
 20
233.5793361387513
 30
0.0
 11
23.48162598411995
 21
234.0143439185654
 31
0.0
  0
LINE
  5
461
  8
INSIDE
 10
23.48162598411995
 20
234.0143439185654
 30
0.0
 11
23.25331942292024
 21
234.4565664773494
 31
0.0
  0
LINE
  5
462
  8
INSIDE
 10
23.25331942292024
 20
234.4565664773494
 30
0.0
 11
23.00703289192301
 21
234.9061714986848
 31
0.0
  0
LINE
  5
463
  8
INSIDE
 10
23.00703289192301
 20
234.9061714986848
 30
0.0
 11
22.74222125784993
 21
235.3633266661529
 31
0.0
  0
LINE
  5
464
  8
INSIDE
 10
22.74222125784993
 20
235.3633266661529
 30
0.0
 11
22.45833938742266
 21
235.8281996633353
 31
0.0
  0
LINE
  5
465
  8
INSIDE
 10
22.45833938742266
 20
235.8281996633353
 30
0.0
 11
22.15484214736287
 21
236.3009581738135
 31
0.0
  0
LINE
  5
466
  8
INSIDE
 10
22.15484214736287
 20
236.3009581738135
 30
0.0
 11
21.83118440439222
 21
236.7817698811687
 31
0.0
  0
LINE
  5
467
  8
INSIDE
 10
21.83118440439222
 20
236.7817698811687
 30
0.0
 11
21.48682102523237
 21
237.2708024689826
 31
0.0
  0
LINE
  5
468
  8
INSIDE
 10
21.48682102523237
 20
237.2708024689826
 30
0.0
 11
21.0660609775676
 21
237.8406259230125
 31
0.0
  0
LINE
  5
469
  8
INSIDE
 10
21.0660609775676
 20
237.8406259230125
 30
0.0
 11
20.61687676541978
 21
238.4197339147676
 31
0.0
  0
LINE
  5
46A
  8
INSIDE
 10
20.61687676541978
 20
238.4197339147676
 30
0.0
 11
20.13906877120133
 21
239.0077901373338
 31
0.0
  0
LINE
  5
46B
  8
INSIDE
 10
20.13906877120133
 20
239.0077901373338
 30
0.0
 11
19.63243737732469
 21
239.6044582837968
 31
0.0
  0
LINE
  5
46C
  8
INSIDE
 10
19.63243737732469
 20
239.6044582837968
 30
0.0
 11
19.09678296620228
 21
240.2094020472427
 31
0.0
  0
LINE
  5
46D
  8
INSIDE
 10
19.09678296620228
 20
240.2094020472427
 30
0.0
 11
18.53190592024651
 21
240.8222851207571
 31
0.0
  0
LINE
  5
46E
  8
INSIDE
 10
18.53190592024651
 20
240.8222851207571
 30
0.0
 11
17.93760662186982
 21
241.442771197426
 31
0.0
  0
LINE
  5
46F
  8
INSIDE
 10
17.93760662186982
 20
241.442771197426
 30
0.0
 11
17.31368545348462
 21
242.0705239703352
 31
0.0
  0
LINE
  5
470
  8
INSIDE
 10
17.31368545348462
 20
242.0705239703352
 30
0.0
 11
15.97617903633842
 21
243.3464843772177
 31
0.0
  0
LINE
  5
471
  8
INSIDE
 10
15.97617903633842
 20
243.3464843772177
 30
0.0
 11
14.51778972810727
 21
244.6474758860917
 31
0.0
  0
LINE
  5
472
  8
INSIDE
 10
14.51778972810727
 20
244.6474758860917
 30
0.0
 11
12.93692058809058
 21
245.9708080416436
 31
0.0
  0
LINE
  5
473
  8
INSIDE
 10
12.93692058809058
 20
245.9708080416436
 30
0.0
 11
11.23197467558774
 21
247.3137903885606
 31
0.0
  0
LINE
  5
474
  8
INSIDE
 10
11.23197467558774
 20
247.3137903885606
 30
0.0
 11
9.852036769066165
 21
248.346389626298
 31
0.0
  0
LINE
  5
475
  8
INSIDE
 10
9.852036769066165
 20
248.346389626298
 30
0.0
 11
8.400688408961752
 21
249.387655867474
 31
0.0
  0
LINE
  5
476
  8
INSIDE
 10
8.400688408961752
 20
249.387655867474
 30
0.0
 11
6.878103591572068
 21
250.4371261941884
 31
0.0
  0
LINE
  5
477
  8
INSIDE
 10
6.878103591572068
 20
250.4371261941884
 30
0.0
 11
5.284456313194688
 21
251.4943376885411
 31
0.0
  0
LINE
  5
478
  8
INSIDE
 10
5.284456313194688
 20
251.4943376885411
 30
0.0
 11
1.884670358667129
 21
253.630132508561
 31
0.0
  0
LINE
  5
479
  8
INSIDE
 10
1.884670358667129
 20
253.630132508561
 30
0.0
 11
-1.797277484240341
 21
255.7913369843327
 31
0.0
  0
LINE
  5
47A
  8
INSIDE
 10
-1.797277484240341
 20
255.7913369843327
 30
0.0
 11
-5.759995245147139
 21
257.9742477726554
 31
0.0
  0
LINE
  5
47B
  8
INSIDE
 10
-5.759995245147139
 20
257.9742477726554
 30
0.0
 11
-10.00209095367268
 21
260.1751615303279
 31
0.0
  0
LINE
  5
47C
  8
INSIDE
 10
-10.00209095367268
 20
260.1751615303279
 30
0.0
 11
-14.52217263943638
 21
262.3903749141495
 31
0.0
  0
LINE
  5
47D
  8
INSIDE
 10
-14.52217263943638
 20
262.3903749141495
 30
0.0
 11
-19.31884833205766
 21
264.6161845809193
 31
0.0
  0
ARC
  5
47E
  8
INSIDE
 10
-17.25985212640084
 20
269.1725575490916
 30
0.0
 40
5.000000000000008
 50
65.68208946677434
 51
245.6820894667739
  0
ARC
  5
47F
  8
INSIDE
 10
-218.7194674150978
 20
269.8938140623302
 30
0.0
 40
4.999999999999843
 50
62.60110692437647
 51
242.6011069243765
  0
LINE
  5
480
  8
INSIDE
 10
-216.4185542522434
 20
274.3329354412747
 30
0.0
 11
-140.1783819726625
 21
236.2176837108908
 31
0.0
  0
ARC
  5
481
  8
INSIDE
 10
-146.8860728533297
 20
222.8010193322379
 30
0.0
 40
15.00000000000006
 50
300.1790209569131
 51
63.43713982843795
  0
LINE
  5
482
  8
INSIDE
 10
-139.3455210166079
 20
209.8341354352597
 30
0.0
 11
-156.0280753192477
 21
199.9778468753327
 31
0.0
  0
LINE
  5
483
  8
INSIDE
 10
-156.0280753192477
 20
199.9778468753327
 30
0.0
 11
-165.5203596981692
 21
194.0774049764693
 31
0.0
  0
LINE
  5
484
  8
INSIDE
 10
-165.5203596981692
 20
194.0774049764693
 30
0.0
 11
-170.0855125768034
 21
191.0427019375688
 31
0.0
  0
LINE
  5
485
  8
INSIDE
 10
-170.0855125768034
 20
191.0427019375688
 30
0.0
 11
-171.9463338301427
 21
189.7319554531479
 31
0.0
  0
LINE
  5
486
  8
INSIDE
 10
-171.9463338301427
 20
189.7319554531479
 30
0.0
 11
-173.6015568780824
 21
188.5112708791851
 31
0.0
  0
LINE
  5
487
  8
INSIDE
 10
-173.6015568780824
 20
188.5112708791851
 30
0.0
 11
-175.2631019530844
 21
187.2191990444378
 31
0.0
  0
LINE
  5
488
  8
INSIDE
 10
-175.2631019530844
 20
187.2191990444378
 30
0.0
 11
-176.0115102443167
 21
186.6069343976675
 31
0.0
  0
LINE
  5
489
  8
INSIDE
 10
-176.0115102443167
 20
186.6069343976675
 30
0.0
 11
-176.7122719935323
 21
186.0105853529905
 31
0.0
  0
LINE
  5
48A
  8
INSIDE
 10
-176.7122719935323
 20
186.0105853529905
 30
0.0
 11
-177.3708344173531
 21
185.4252029766748
 31
0.0
  0
LINE
  5
48B
  8
INSIDE
 10
-177.3708344173531
 20
185.4252029766748
 30
0.0
 11
-177.9926447324009
 21
184.8458383349887
 31
0.0
  0
LINE
  5
48C
  8
INSIDE
 10
-177.9926447324009
 20
184.8458383349887
 30
0.0
 11
-178.5831501552975
 21
184.2675424942004
 31
0.0
  0
LINE
  5
48D
  8
INSIDE
 10
-178.5831501552975
 20
184.2675424942004
 30
0.0
 11
-179.1477979026649
 21
183.685366520578
 31
0.0
  0
LINE
  5
48E
  8
INSIDE
 10
-179.1477979026649
 20
183.685366520578
 30
0.0
 11
-179.3897868826689
 21
183.4262540957848
 31
0.0
  0
LINE
  5
48F
  8
INSIDE
 10
-179.3897868826689
 20
183.4262540957848
 30
0.0
 11
-179.9528868238861
 21
182.7982490821014
 31
0.0
  0
LINE
  5
490
  8
INSIDE
 10
-179.9528868238861
 20
182.7982490821014
 30
0.0
 11
-180.4806046543665
 21
182.1701385767442
 31
0.0
  0
LINE
  5
491
  8
INSIDE
 10
-180.4806046543665
 20
182.1701385767442
 30
0.0
 11
-180.7318752499765
 21
181.8540616897869
 31
0.0
  0
LINE
  5
492
  8
INSIDE
 10
-180.7318752499765
 20
181.8540616897869
 30
0.0
 11
-180.9751162841775
 21
181.5355799400299
 31
0.0
  0
LINE
  5
493
  8
INSIDE
 10
-180.9751162841775
 20
181.5355799400299
 30
0.0
 11
-181.2105997457279
 21
181.2139004975129
 31
0.0
  0
LINE
  5
494
  8
INSIDE
 10
-181.2105997457279
 20
181.2139004975129
 30
0.0
 11
-181.4385976233862
 21
180.8882305322753
 31
0.0
  0
LINE
  5
495
  8
INSIDE
 10
-181.4385976233862
 20
180.8882305322753
 30
0.0
 11
-181.6593819059107
 21
180.5577772143569
 31
0.0
  0
LINE
  5
496
  8
INSIDE
 10
-181.6593819059107
 20
180.5577772143569
 30
0.0
 11
-181.8732245820599
 21
180.2217477137971
 31
0.0
  0
LINE
  5
497
  8
INSIDE
 10
-181.8732245820599
 20
180.2217477137971
 30
0.0
 11
-182.0803976405922
 21
179.8793492006355
 31
0.0
  0
LINE
  5
498
  8
INSIDE
 10
-182.0803976405922
 20
179.8793492006355
 30
0.0
 11
-182.281173070266
 21
179.5297888449119
 31
0.0
  0
LINE
  5
499
  8
INSIDE
 10
-182.281173070266
 20
179.5297888449119
 30
0.0
 11
-182.4758228598396
 21
179.1722738166656
 31
0.0
  0
LINE
  5
49A
  8
INSIDE
 10
-182.4758228598396
 20
179.1722738166656
 30
0.0
 11
-182.6646189980715
 21
178.8060112859364
 31
0.0
  0
LINE
  5
49B
  8
INSIDE
 10
-182.6646189980715
 20
178.8060112859364
 30
0.0
 11
-182.8478334737201
 21
178.4302084227639
 31
0.0
  0
LINE
  5
49C
  8
INSIDE
 10
-182.8478334737201
 20
178.4302084227639
 30
0.0
 11
-183.0257382755437
 21
178.0440723971874
 31
0.0
  0
LINE
  5
49D
  8
INSIDE
 10
-183.0257382755437
 20
178.0440723971874
 30
0.0
 11
-183.2587267614145
 21
177.5009007445145
 31
0.0
  0
LINE
  5
49E
  8
INSIDE
 10
-183.2587267614145
 20
177.5009007445145
 30
0.0
 11
-183.4634299614026
 21
176.9823996144083
 31
0.0
  0
LINE
  5
49F
  8
INSIDE
 10
-183.4634299614026
 20
176.9823996144083
 30
0.0
 11
-183.6578691660501
 21
176.445953600184
 31
0.0
  0
LINE
  5
4A0
  8
INSIDE
 10
-183.6578691660501
 20
176.445953600184
 30
0.0
 11
-183.8421172441147
 21
175.8865509042067
 31
0.0
  0
LINE
  5
4A1
  8
INSIDE
 10
-183.8421172441147
 20
175.8865509042067
 30
0.0
 11
-184.0162470643542
 21
175.2991797288416
 31
0.0
  0
LINE
  5
4A2
  8
INSIDE
 10
-184.0162470643542
 20
175.2991797288416
 30
0.0
 11
-184.1803314955265
 21
174.6788282764536
 31
0.0
  0
LINE
  5
4A3
  8
INSIDE
 10
-184.1803314955265
 20
174.6788282764536
 30
0.0
 11
-184.3344434063893
 21
174.020484749408
 31
0.0
  0
LINE
  5
4A4
  8
INSIDE
 10
-184.3344434063893
 20
174.020484749408
 30
0.0
 11
-184.4786556657003
 21
173.3191373500698
 31
0.0
  0
LINE
  5
4A5
  8
INSIDE
 10
-184.4786556657003
 20
173.3191373500698
 30
0.0
 11
-184.6130411422175
 21
172.5697742808042
 31
0.0
  0
LINE
  5
4A6
  8
INSIDE
 10
-184.6130411422175
 20
172.5697742808042
 30
0.0
 11
-184.7773314618489
 21
171.4799807501097
 31
0.0
  0
LINE
  5
4A7
  8
INSIDE
 10
-184.7773314618489
 20
171.4799807501097
 30
0.0
 11
-184.918066405244
 21
170.2855543107554
 31
0.0
  0
LINE
  5
4A8
  8
INSIDE
 10
-184.918066405244
 20
170.2855543107554
 30
0.0
 11
-185.0336742874749
 21
168.9470084630221
 31
0.0
  0
LINE
  5
4A9
  8
INSIDE
 10
-185.0336742874749
 20
168.9470084630221
 30
0.0
 11
-185.1225834236137
 21
167.4248567071907
 31
0.0
  0
LINE
  5
4AA
  8
INSIDE
 10
-185.1225834236137
 20
167.4248567071907
 30
0.0
 11
-185.1802378133766
 21
165.7117339076187
 31
0.0
  0
LINE
  5
4AB
  8
INSIDE
 10
-185.1802378133766
 20
165.7117339076187
 30
0.0
 11
-185.2008882235065
 21
163.728928958857
 31
0.0
  0
LINE
  5
4AC
  8
INSIDE
 10
-185.2008882235065
 20
163.728928958857
 30
0.0
 11
-185.2008882235485
 21
141.7566780442491
 31
0.0
  0
ARC
  5
4AD
  8
INSIDE
 10
-200.2008882235486
 20
141.7566780442702
 30
0.0
 40
15.0000000000002
 50
303.6900697119376
 51
359.9999999999193
  0
LINE
  5
4AE
  8
INSIDE
 10
-191.8803848040024
 20
129.2759239466476
 30
0.0
 11
-215.2008647708615
 21
113.7289360169129
 31
0.0
  0
ARC
  5
4AF
  8
INSIDE
 10
-217.9743658217712
 20
117.8891874420798
 30
0.0
 40
5.000000000000028
 50
123.6900684870522
 51
303.6900684870526
  0
LINE
  5
4B0
  8
INSIDE
 10
-220.747866872681
 20
122.0494388672467
 30
0.0
 11
-197.4273870836999
 21
137.5964266783958
 31
0.0000000000000022
  0
ARC
  5
4B1
  8
INSIDE
 10
-200.2008882235486
 20
141.7566780442702
 30
0.0
 40
5.000000000000227
 50
303.6900697119369
 51
359.9999999999981
  0
LINE
  5
4B2
  8
INSIDE
 10
-195.2008882235485
 20
141.75667804427
 30
0.0
 11
-195.2008882235025
 21
163.7289200020466
 31
0.0
  0
LINE
  5
4B3
  8
INSIDE
 10
-195.2008882235025
 20
163.7289200020466
 30
0.0
 11
-195.1777748155706
 21
165.9314625298488
 31
0.0
  0
LINE
  5
4B4
  8
INSIDE
 10
-195.1777748155706
 20
165.9314625298488
 30
0.0
 11
-195.1119669984894
 21
167.8855255622311
 31
0.0
  0
LINE
  5
4B5
  8
INSIDE
 10
-195.1119669984894
 20
167.8855255622311
 30
0.0
 11
-195.0068959395555
 21
169.6720673511924
 31
0.0
  0
LINE
  5
4B6
  8
INSIDE
 10
-195.0068959395555
 20
169.6720673511924
 30
0.0
 11
-194.8651747041393
 21
171.3044674545575
 31
0.0
  0
LINE
  5
4B7
  8
INSIDE
 10
-194.8651747041393
 20
171.3044674545575
 30
0.0
 11
-194.6879362235017
 21
172.8104554387415
 31
0.0
  0
LINE
  5
4B8
  8
INSIDE
 10
-194.6879362235017
 20
172.8104554387415
 30
0.0
 11
-194.4763134289033
 21
174.2177608701594
 31
0.0
  0
LINE
  5
4B9
  8
INSIDE
 10
-194.4763134289033
 20
174.2177608701594
 30
0.0
 11
-194.2959730414136
 21
175.2192367070807
 31
0.0
  0
LINE
  5
4BA
  8
INSIDE
 10
-194.2959730414136
 20
175.2192367070807
 30
0.0
 11
-194.0964614519436
 21
176.1823327445188
 31
0.0
  0
LINE
  5
4BB
  8
INSIDE
 10
-194.0964614519436
 20
176.1823327445188
 30
0.0
 11
-193.8780062915746
 21
177.1096141334831
 31
0.0
  0
LINE
  5
4BC
  8
INSIDE
 10
-193.8780062915746
 20
177.1096141334831
 30
0.0
 11
-193.640835191388
 21
178.0036460249834
 31
0.0
  0
LINE
  5
4BD
  8
INSIDE
 10
-193.640835191388
 20
178.0036460249834
 30
0.0
 11
-193.3851757824649
 21
178.8669935700291
 31
0.0
  0
LINE
  5
4BE
  8
INSIDE
 10
-193.3851757824649
 20
178.8669935700291
 30
0.0
 11
-193.1112556958866
 21
179.7022219196298
 31
0.0
  0
LINE
  5
4BF
  8
INSIDE
 10
-193.1112556958866
 20
179.7022219196298
 30
0.0
 11
-192.8193025627342
 21
180.5118962247952
 31
0.0
  0
LINE
  5
4C0
  8
INSIDE
 10
-192.8193025627342
 20
180.5118962247952
 30
0.0
 11
-192.5095440140892
 21
181.2985816365348
 31
0.0
  0
LINE
  5
4C1
  8
INSIDE
 10
-192.5095440140892
 20
181.2985816365348
 30
0.0
 11
-192.2257180766484
 21
181.9660026100191
 31
0.0
  0
LINE
  5
4C2
  8
INSIDE
 10
-192.2257180766484
 20
181.9660026100191
 30
0.0
 11
-191.9298488652726
 21
182.6158767225801
 31
0.0
  0
LINE
  5
4C3
  8
INSIDE
 10
-191.9298488652726
 20
182.6158767225801
 30
0.0
 11
-191.622320613377
 21
183.2488054656408
 31
0.0
  0
LINE
  5
4C4
  8
INSIDE
 10
-191.622320613377
 20
183.2488054656408
 30
0.0
 11
-191.3035175543771
 21
183.8653903306244
 31
0.0
  0
LINE
  5
4C5
  8
INSIDE
 10
-191.3035175543771
 20
183.8653903306244
 30
0.0
 11
-190.9738239216878
 21
184.4662328089537
 31
0.0
  0
LINE
  5
4C6
  8
INSIDE
 10
-190.9738239216878
 20
184.4662328089537
 30
0.0
 11
-190.6336239487244
 21
185.051934392052
 31
0.0
  0
LINE
  5
4C7
  8
INSIDE
 10
-190.6336239487244
 20
185.051934392052
 30
0.0
 11
-190.2833018689022
 21
185.623096571342
 31
0.0
  0
LINE
  5
4C8
  8
INSIDE
 10
-190.2833018689022
 20
185.623096571342
 30
0.0
 11
-189.9232419156364
 21
186.180320838247
 31
0.0
  0
LINE
  5
4C9
  8
INSIDE
 10
-189.9232419156364
 20
186.180320838247
 30
0.0
 11
-189.5538283223422
 21
186.7242086841899
 31
0.0
  0
LINE
  5
4CA
  8
INSIDE
 10
-189.5538283223422
 20
186.7242086841899
 30
0.0
 11
-189.1754453224347
 21
187.2553616005936
 31
0.0
  0
LINE
  5
4CB
  8
INSIDE
 10
-189.1754453224347
 20
187.2553616005936
 30
0.0
 11
-188.7884771493293
 21
187.7743810788813
 31
0.0
  0
LINE
  5
4CC
  8
INSIDE
 10
-188.7884771493293
 20
187.7743810788813
 30
0.0
 11
-188.393308036441
 21
188.281868610476
 31
0.0
  0
LINE
  5
4CD
  8
INSIDE
 10
-188.393308036441
 20
188.281868610476
 30
0.0
 11
-187.9903222171852
 21
188.7784256868007
 31
0.0
  0
LINE
  5
4CE
  8
INSIDE
 10
-187.9903222171852
 20
188.7784256868007
 30
0.0
 11
-187.5799039249771
 21
189.2646537992784
 31
0.0
  0
LINE
  5
4CF
  8
INSIDE
 10
-187.5799039249771
 20
189.2646537992784
 30
0.0
 11
-187.1624373932318
 21
189.741154439332
 31
0.0
  0
LINE
  5
4D0
  8
INSIDE
 10
-187.1624373932318
 20
189.741154439332
 30
0.0
 11
-186.7383068553646
 21
190.2085290983848
 31
0.0
  0
LINE
  5
4D1
  8
INSIDE
 10
-186.7383068553646
 20
190.2085290983848
 30
0.0
 11
-185.9594124826513
 21
191.0290001050832
 31
0.0
  0
LINE
  5
4D2
  8
INSIDE
 10
-185.9594124826513
 20
191.0290001050832
 30
0.0
 11
-185.156631076177
 21
191.829169487457
 31
0.0
  0
LINE
  5
4D3
  8
INSIDE
 10
-185.156631076177
 20
191.829169487457
 30
0.0
 11
-184.3262612150167
 21
192.6141305535853
 31
0.0
  0
LINE
  5
4D4
  8
INSIDE
 10
-184.3262612150167
 20
192.6141305535853
 30
0.0
 11
-183.4646014782456
 21
193.3889766115469
 31
0.0
  0
LINE
  5
4D5
  8
INSIDE
 10
-183.4646014782456
 20
193.3889766115469
 30
0.0
 11
-182.5679504449388
 21
194.158800969421
 31
0.0
  0
LINE
  5
4D6
  8
INSIDE
 10
-182.5679504449388
 20
194.158800969421
 30
0.0
 11
-181.6326066941714
 21
194.9286969352864
 31
0.0
  0
LINE
  5
4D7
  8
INSIDE
 10
-181.6326066941714
 20
194.9286969352864
 30
0.0
 11
-179.6310353565552
 21
196.4890769233073
 31
0.0
  0
LINE
  5
4D8
  8
INSIDE
 10
-179.6310353565552
 20
196.4890769233073
 30
0.0
 11
-177.7937121701671
 21
197.8441230340271
 31
0.0
  0
LINE
  5
4D9
  8
INSIDE
 10
-177.7937121701671
 20
197.8441230340271
 30
0.0
 11
-175.7677407062955
 21
199.2713720730495
 31
0.0
  0
LINE
  5
4DA
  8
INSIDE
 10
-175.7677407062955
 20
199.2713720730495
 30
0.0
 11
-170.9421880758649
 21
202.4800103487818
 31
0.0
  0
LINE
  5
4DB
  8
INSIDE
 10
-170.9421880758649
 20
202.4800103487818
 30
0.0
 11
-161.2030994213707
 21
208.5346643644723
 31
0.0
  0
LINE
  5
4DC
  8
INSIDE
 10
-161.2030994213707
 20
208.5346643644723
 30
0.0
 11
-144.3725555744453
 21
218.4787246998986
 31
0.0
  0
ARC
  5
4DD
  8
INSIDE
 10
-146.8860728533297
 20
222.8010193322379
 30
0.0
 40
4.999999999999954
 50
300.1790209566105
 51
63.43713982843878
  0
LINE
  5
4DE
  8
INSIDE
 10
-144.6501758931074
 20
227.2732407917889
 30
0.0
 11
-221.0203805779522
 21
265.4546926833857
 31
0.0
  0
LINE
  5
4DF
  8
INSIDE
 10
-215.2008559207441
 20
53.7289305172639
 30
0.0
 11
-130.2008559207441
 21
53.7289305172639
 31
0.0
  0
ARC
  5
4E0
  8
INSIDE
 10
-130.2008559207441
 20
48.72893051726398
 30
0.0
 40
4.999999999999925
 50
359.9999999999991
 51
90.00000000000034
  0
LINE
  5
4E1
  8
INSIDE
 10
-125.2008559207442
 20
48.7289305172639
 30
0.0
 11
-125.2008559207442
 21
38.72893051726389
 31
0.0
  0
ARC
  5
4E2
  8
INSIDE
 10
-130.2008559207442
 20
38.72893051726398
 30
0.0
 40
5.000000000000068
 50
270.000000000001
 51
359.999999999999
  0
LINE
  5
4E3
  8
INSIDE
 10
-130.2008559207441
 20
33.7289305172639
 30
0.0
 11
-220.2008559207442
 21
33.7289305172639
 31
0.0
  0
ARC
  5
4E4
  8
INSIDE
 10
-220.2008559207442
 20
28.72893051726396
 30
0.0
 40
4.999999999999944
 50
89.99999999999969
 51
180.0000000000006
  0
LINE
  5
4E5
  8
INSIDE
 10
-225.2008559207441
 20
28.7289305172639
 30
0.0
 11
-225.2008559207441
 21
-31.27106948273609
 31
0.0
  0
ARC
  5
4E6
  8
INSIDE
 10
-220.2008559207442
 20
-31.27106948273615
 30
0.0
 40
4.999999999999951
 50
179.9999999999994
 51
270.0000000000003
  0
LINE
  5
4E7
  8
INSIDE
 10
-220.2008559207442
 20
-36.2710694827361
 30
0.0
 11
-135.2008559207441
 21
-36.2710694827361
 31
0.0
  0
ARC
  5
4E8
  8
INSIDE
 10
-135.2008559207441
 20
-46.2710694827361
 30
0.0
 40
10.0
 50
0.0
 51
89.99999999999983
  0
LINE
  5
4E9
  8
INSIDE
 10
-125.2008559207441
 20
-46.2710694827361
 30
0.0
 11
-125.2008559207441
 21
-71.2710694827361
 31
0.0
  0
ARC
  5
4EA
  8
INSIDE
 10
-130.2008559207441
 20
-71.2710694827361
 30
0.0
 40
4.999999999999998
 50
270.0000000000003
 51
0.0
  0
LINE
  5
4EB
  8
INSIDE
 10
-130.2008559207441
 20
-76.2710694827361
 30
0.0
 11
-220.2008559207441
 21
-76.2710694827361
 31
0.0
  0
ARC
  5
4EC
  8
INSIDE
 10
-220.2008559207441
 20
-81.27106948273612
 30
0.0
 40
5.000000000000028
 50
90.0
 51
179.9999999999997
  0
LINE
  5
4ED
  8
INSIDE
 10
-225.2008559207441
 20
-81.2710694827361
 30
0.0
 11
-225.2008559207441
 21
-161.2710694827361
 31
0.0
  0
ARC
  5
4EE
  8
INSIDE
 10
-220.2008559207441
 20
-161.2710694827361
 30
0.0
 40
5.000000000000018
 50
180.0000000000003
 51
270.0
  0
LINE
  5
4EF
  8
INSIDE
 10
-220.2008559207441
 20
-166.2710694827361
 30
0.0
 11
-135.2008559207441
 21
-166.2710694827361
 31
0.0
  0
ARC
  5
4F0
  8
INSIDE
 10
-135.2008559207441
 20
-176.2710694827361
 30
0.0
 40
10.0
 50
0.0
 51
89.99999999999983
  0
LINE
  5
4F1
  8
INSIDE
 10
-125.2008559207441
 20
-176.2710694827361
 30
0.0
 11
-125.2008559207441
 21
-221.2710694827361
 31
0.0
  0
ARC
  5
4F2
  8
INSIDE
 10
-130.2008559207441
 20
-221.2710694827361
 30
0.0
 40
4.999999999999998
 50
270.0000000000003
 51
0.0
  0
LINE
  5
4F3
  8
INSIDE
 10
-130.2008559207441
 20
-226.2710694827361
 30
0.0
 11
-220.2008559207441
 21
-226.2710694827361
 31
0.0
  0
ARC
  5
4F4
  8
INSIDE
 10
-220.2008559207441
 20
-231.2710694827361
 30
0.0
 40
5.000000000000023
 50
90.0
 51
179.9999999999997
  0
LINE
  5
4F5
  8
INSIDE
 10
-225.2008559207441
 20
-231.2710694827361
 30
0.0
 11
-225.2008559207441
 21
-331.2710694827361
 31
0.0
  0
ARC
  5
4F6
  8
INSIDE
 10
-220.2008559207441
 20
-331.2710694827361
 30
0.0
 40
5.000000000000014
 50
180.0
 51
270.0
  0
LINE
  5
4F7
  8
INSIDE
 10
-220.2008559207441
 20
-336.2710694827361
 30
0.0
 11
-130.2008559207441
 21
-336.2710694827361
 31
0.0
  0
ARC
  5
4F8
  8
INSIDE
 10
-130.2008559207441
 20
-341.2710694827361
 30
0.0
 40
5.0
 50
0.0
 51
90.0
  0
LINE
  5
4F9
  8
INSIDE
 10
-125.2008559207441
 20
-341.2710694827361
 30
0.0
 11
-125.2008559207441
 21
-346.2710694827361
 31
0.0
  0
ARC
  5
4FA
  8
INSIDE
 10
-120.2008559207441
 20
-346.2710694827361
 30
0.0
 40
5.0
 50
180.0
 51
0.0
  0
LINE
  5
4FB
  8
INSIDE
 10
-115.2008559207441
 20
-346.2710694827361
 30
0.0
 11
-115.2008559207441
 21
-331.2710694827361
 31
0.0
  0
ARC
  5
4FC
  8
INSIDE
 10
-120.2008559207441
 20
-331.2710694827361
 30
0.0
 40
5.000000000000011
 50
0.0
 51
90.00000000000016
  0
LINE
  5
4FD
  8
INSIDE
 10
-120.2008559207441
 20
-326.2710694827361
 30
0.0
 11
-210.2008559207441
 21
-326.2710694827361
 31
0.0
  0
ARC
  5
4FE
  8
INSIDE
 10
-210.2008559207441
 20
-321.2710694827361
 30
0.0
 40
4.999999999999986
 50
180.0
 51
270.0
  0
LINE
  5
4FF
  8
INSIDE
 10
-215.2008559207441
 20
-321.2710694827361
 30
0.0
 11
-215.2008559207441
 21
-241.2710694827361
 31
0.0
  0
ARC
  5
500
  8
INSIDE
 10
-210.2008559207441
 20
-241.2710694827361
 30
0.0
 40
5.000000000000005
 50
89.99999999999969
 51
180.0
  0
LINE
  5
501
  8
INSIDE
 10
-210.2008559207441
 20
-236.2710694827361
 30
0.0
 11
-120.2008559207441
 21
-236.2710694827361
 31
0.0
  0
ARC
  5
502
  8
INSIDE
 10
-120.2008559207441
 20
-231.2710694827361
 30
0.0
 40
4.999999999999988
 50
270.0000000000002
 51
0.0
  0
LINE
  5
503
  8
INSIDE
 10
-115.2008559207441
 20
-231.2710694827361
 30
0.0
 11
-115.2008559207441
 21
-161.2710694827361
 31
0.0
  0
ARC
  5
504
  8
INSIDE
 10
-120.2008559207441
 20
-161.2710694827361
 30
0.0
 40
4.999999999999998
 50
0.0
 51
89.99999999999983
  0
LINE
  5
505
  8
INSIDE
 10
-120.2008559207441
 20
-156.2710694827361
 30
0.0
 11
-210.2008559207441
 21
-156.2710694827361
 31
0.0
  0
ARC
  5
506
  8
INSIDE
 10
-210.2008559207441
 20
-151.2710694827361
 30
0.0
 40
4.999999999999979
 50
180.0
 51
270.0
  0
LINE
  5
507
  8
INSIDE
 10
-215.2008559207441
 20
-151.2710694827361
 30
0.0
 11
-215.2008559207441
 21
-91.2710694827361
 31
0.0
  0
ARC
  5
508
  8
INSIDE
 10
-210.2008559207441
 20
-91.2710694827361
 30
0.0
 40
5.000000000000005
 50
89.99999999999969
 51
180.0
  0
LINE
  5
509
  8
INSIDE
 10
-210.2008559207441
 20
-86.2710694827361
 30
0.0
 11
-120.2008559207441
 21
-86.2710694827361
 31
0.0
  0
ARC
  5
50A
  8
INSIDE
 10
-120.2008559207441
 20
-81.2710694827361
 30
0.0
 40
5.000000000000005
 50
270.0000000000005
 51
0.0
  0
LINE
  5
50B
  8
INSIDE
 10
-115.2008559207441
 20
-81.2710694827361
 30
0.0
 11
-115.2008559207441
 21
-31.27106948273609
 31
0.0
  0
ARC
  5
50C
  8
INSIDE
 10
-120.2008559207441
 20
-31.27106948273602
 30
0.0
 40
4.999999999999925
 50
359.9999999999993
 51
90.00000000000064
  0
LINE
  5
50D
  8
INSIDE
 10
-120.2008559207441
 20
-26.2710694827361
 30
0.0
 11
-210.2008559207441
 21
-26.27106948273611
 31
0.0
  0
ARC
  5
50E
  8
INSIDE
 10
-210.2008559207442
 20
-21.27106948273617
 30
0.0
 40
4.999999999999941
 50
179.9999999999991
 51
270.0000000000003
  0
LINE
  5
50F
  8
INSIDE
 10
-215.2008559207441
 20
-21.2710694827361
 30
0.0
 11
-215.2008559207441
 21
18.7289305172639
 31
0.0
  0
ARC
  5
510
  8
INSIDE
 10
-210.2008559207442
 20
18.72893051726397
 30
0.0
 40
4.999999999999937
 50
89.99999999999902
 51
180.0000000000008
  0
LINE
  5
511
  8
INSIDE
 10
-210.2008559207441
 20
23.7289305172639
 30
0.0
 11
-120.2008559207441
 21
23.7289305172639
 31
0.0
  0
ARC
  5
512
  8
INSIDE
 10
-120.2008559207441
 20
28.72893051726383
 30
0.0
 40
4.999999999999931
 50
269.9999999999995
 51
0.0000000000007735
  0
LINE
  5
513
  8
INSIDE
 10
-115.2008559207441
 20
28.7289305172639
 30
0.0
 11
-115.2008559207441
 21
58.72893051726392
 31
0.0
  0
ARC
  5
514
  8
INSIDE
 10
-120.2008559207441
 20
58.72893051726398
 30
0.0
 40
4.999999999999927
 50
359.9999999999993
 51
90.00000000000064
  0
LINE
  5
515
  8
INSIDE
 10
-120.2008559207441
 20
63.7289305172639
 30
0.0
 11
-215.2008559207442
 21
63.7289305172639
 31
0.0
  0
ARC
  5
516
  8
INSIDE
 10
-215.2008559207441
 20
58.7289305172639
 30
0.0
 40
5.0
 50
90.0
 51
270.0
  0
ARC
  5
517
  8
OUTSIDE
 10
-241.560529643305
 20
331.7289305172641
 30
0.0
 40
1.999999999999956
 50
89.99999999999919
 51
180.0000000000016
  0
LINE
  5
518
  8
OUTSIDE
 10
-241.5605296433049
 20
333.728930517264
 30
0.0
 11
49.4394703566951
 21
333.7289305172641
 31
0.0
  0
ARC
  5
519
  8
OUTSIDE
 10
49.43947035669501
 20
331.7289305172641
 30
0.0
 40
2.000000000000083
 50
0.0
 51
89.99999999999756
  0
LINE
  5
51A
  8
OUTSIDE
 10
51.4394703566951
 20
331.728930517264
 30
0.0
 11
51.43947035669501
 21
-404.2710694827362
 31
0.0
  0
ARC
  5
51B
  8
OUTSIDE
 10
49.43947035669498
 20
-404.2710694827361
 30
0.0
 40
2.000000000000025
 50
270.0000000000032
 51
359.9999999999968
  0
LINE
  5
51C
  8
OUTSIDE
 10
49.4394703566951
 20
-406.2710694827361
 30
0.0
 11
-241.560529643305
 21
-406.2710694827361
 31
0.0
  0
ARC
  5
51D
  8
OUTSIDE
 10
-241.560529643305
 20
-404.2710694827362
 30
0.0
 40
1.99999999999995
 50
179.9999999999984
 51
270.0000000000008
  0
LINE
  5
51E
  8
OUTSIDE
 10
-243.560529643305
 20
-404.2710694827361
 30
0.0
 11
-243.5605296433049
 21
331.728930517264
 31
0.0
  0
LINE
  5
51F
  8
INSIDE
 10
-153.560529643305
 20
303.7289305172639
 30
0.0
 11
-153.560529643305
 21
316.2289305172639
 31
0.0
  0
LINE
  5
520
  8
INSIDE
 10
-153.560529643305
 20
316.2289305172639
 30
0.0
 11
-193.560529643305
 21
316.2289305172639
 31
0.0
  0
LINE
  5
521
  8
INSIDE
 10
-193.560529643305
 20
316.2289305172639
 30
0.0
 11
-193.560529643305
 21
303.7289305172639
 31
0.0
  0
LINE
  5
522
  8
INSIDE
 10
-193.560529643305
 20
303.7289305172639
 30
0.0
 11
-153.560529643305
 21
303.7289305172639
 31
0.0
  0
LINE
  5
523
  8
INSIDE
 10
-38.56052964330492
 20
316.2289305172639
 30
0.0
 11
-38.56052964330492
 21
303.7289305172639
 31
0.0
  0
LINE
  5
524
  8
INSIDE
 10
-38.56052964330492
 20
303.7289305172639
 30
0.0
 11
1.439470356695111
 21
303.7289305172639
 31
0.0
  0
LINE
  5
525
  8
INSIDE
 10
1.439470356695111
 20
303.7289305172639
 30
0.0
 11
1.439470356695097
 21
316.2289305172639
 31
0.0
  0
LINE
  5
526
  8
INSIDE
 10
1.439470356695097
 20
316.2289305172639
 30
0.0
 11
-38.56052964330492
 21
316.2289305172639
 31
0.0
  0
LINE
  5
527
  8
INSIDE
 10
-38.56052964330503
 20
-376.2710694827362
 30
0.0
 11
-38.56052964330503
 21
-388.7710694827362
 31
0.0
  0
LINE
  5
528
  8
INSIDE
 10
-38.56052964330503
 20
-388.7710694827362
 30
0.0
 11
1.439470356694969
 21
-388.7710694827362
 31
0.0
  0
LINE
  5
529
  8
INSIDE
 10
1.439470356694969
 20
-388.7710694827362
 30
0.0
 11
1.439470356695011
 21
-376.2710694827362
 31
0.0
  0
LINE
  5
52A
  8
INSIDE
 10
1.439470356695011
 20
-376.2710694827362
 30
0.0
 11
-38.56052964330503
 21
-376.2710694827362
 31
0.0
  0
LINE
  5
52B
  8
INSIDE
 10
-193.5605296433051
 20
-388.7710694827361
 30
0.0
 11
-153.560529643305
 21
-388.7710694827361
 31
0.0
  0
LINE
  5
52C
  8
INSIDE
 10
-153.560529643305
 20
-388.7710694827361
 30
0.0
 11
-153.560529643305
 21
-376.2710694827361
 31
0.0
  0
LINE
  5
52D
  8
INSIDE
 10
-153.560529643305
 20
-376.2710694827361
 30
0.0
 11
-193.560529643305
 21
-376.2710694827361
 31
0.0
  0
LINE
  5
52E
  8
INSIDE
 10
-193.560529643305
 20
-376.2710694827361
 30
0.0
 11
-193.5605296433051
 21
-388.7710694827361
 31
0.0
  0
ARC
  5
52F
  8
OUTSIDE
 10
-271.8812193043308
 20
299.7289305172629
 30
0.0
 40
3.999999999999911
 50
0.0
 51
90.00000000000082
  0
LINE
  5
530
  8
OUTSIDE
 10
-267.8812193043309
 20
299.7289305172629
 30
0.0
 11
-267.8812193043308
 21
-372.2710694827366
 31
0.0
  0
ARC
  5
531
  8
OUTSIDE
 10
-271.8812193043308
 20
-372.2710694827366
 30
0.0
 40
3.999999999999993
 50
269.9999999999992
 51
0.0
  0
LINE
  5
532
  8
OUTSIDE
 10
-271.8812193043308
 20
-376.2710694827366
 30
0.0
 11
-282.8812193043308
 21
-376.2710694827366
 31
0.0
  0
LINE
  5
533
  8
OUTSIDE
 10
-282.8812193043308
 20
-376.2710694827366
 30
0.0
 11
-282.8812193043308
 21
-388.7710694827366
 31
0.0
  0
LINE
  5
534
  8
OUTSIDE
 10
-282.8812193043308
 20
-388.7710694827366
 30
0.0
 11
-271.8812193043308
 21
-388.7710694827366
 31
0.0
  0
ARC
  5
535
  8
OUTSIDE
 10
-271.8812193043308
 20
-392.7710694827366
 30
0.0
 40
3.999999999999989
 50
359.9999999999992
 51
90.00000000000082
  0
LINE
  5
536
  8
OUTSIDE
 10
-267.8812193043308
 20
-392.7710694827367
 30
0.0
 11
-267.8812193043308
 21
-404.2710694827367
 31
0.0
  0
ARC
  5
537
  8
OUTSIDE
 10
-269.8812193043309
 20
-404.2710694827365
 30
0.0
 40
2.000000000000103
 50
270.0
 51
359.9999999999951
  0
LINE
  5
538
  8
OUTSIDE
 10
-269.8812193043308
 20
-406.2710694827366
 30
0.0
 11
-297.8812193043308
 21
-406.2710694827367
 31
0.0
  0
LINE
  5
539
  8
OUTSIDE
 10
-297.8812193043308
 20
-406.2710694827367
 30
0.0
 11
-297.8812193043308
 21
333.7289305172629
 31
0.0
  0
LINE
  5
53A
  8
OUTSIDE
 10
-297.8812193043308
 20
333.7289305172629
 30
0.0
 11
-269.8812193043309
 21
333.7289305172629
 31
0.0
  0
ARC
  5
53B
  8
OUTSIDE
 10
-269.8812193043309
 20
331.7289305172628
 30
0.0
 40
2.000000000000032
 50
0.0000000000016284
 51
90.0
  0
LINE
  5
53C
  8
OUTSIDE
 10
-267.8812193043308
 20
331.7289305172629
 30
0.0
 11
-267.8812193043308
 21
320.228930517263
 31
0.0
  0
ARC
  5
53D
  8
OUTSIDE
 10
-271.8812193043308
 20
320.2289305172629
 30
0.0
 40
4.000000000000082
 50
270.0
 51
0.0000000000008142
  0
LINE
  5
53E
  8
OUTSIDE
 10
-271.8812193043308
 20
316.2289305172629
 30
0.0
 11
-282.8812193043308
 21
316.2289305172629
 31
0.0
  0
LINE
  5
53F
  8
OUTSIDE
 10
-282.8812193043308
 20
316.2289305172629
 30
0.0
 11
-282.8812193043308
 21
303.7289305172629
 31
0.0
  0
LINE
  5
540
  8
OUTSIDE
 10
-282.8812193043308
 20
303.7289305172629
 30
0.0
 11
-271.8812193043308
 21
303.7289305172628
 31
0.0
  0
CIRCLE
  5
542
  8
DRILL
 10
-0.560529643304406
 20
314.2289305172639
 30
0.0
 40
3.00000000000002
  0
CIRCLE
  5
543
  8
DRILL
 10
-0.560529643304406
 20
305.728935613461
 30
0.0
 40
3.000000000000009
  0
CIRCLE
  5
544
  8
DRILL
 10
-36.56052964330492
 20
314.2289305172639
 30
0.0
 40
3.000000000000012
  0
CIRCLE
  5
545
  8
DRILL
 10
-36.56052964330492
 20
305.728935613461
 30
0.0
 40
3.000000000000017
  0
CIRCLE
  5
546
  8
DRILL
 10
-0.5605296433045623
 20
-386.7710694827361
 30
0.0
 40
3.00000000000002
  0
CIRCLE
  5
547
  8
DRILL
 10
-0.5605296433045623
 20
-378.2710745789332
 30
0.0
 40
3.000000000000009
  0
CIRCLE
  5
548
  8
DRILL
 10
-36.56052964330507
 20
-386.7710694827361
 30
0.0
 40
3.000000000000012
  0
CIRCLE
  5
549
  8
DRILL
 10
-36.56052964330507
 20
-378.2710745789332
 30
0.0
 40
3.000000000000017
  0
CIRCLE
  5
54A
  8
DRILL
 10
-191.5605296433054
 20
314.2289305172639
 30
0.0
 40
3.00000000000002
  0
CIRCLE
  5
54B
  8
DRILL
 10
-191.5605296433054
 20
305.728935613461
 30
0.0
 40
3.000000000000009
  0
CIRCLE
  5
54C
  8
DRILL
 10
-155.5605296433049
 20
305.728935613461
 30
0.0
 40
3.000000000000017
  0
CIRCLE
  5
54D
  8
DRILL
 10
-155.5605296433049
 20
314.2289305172639
 30
0.0
 40
3.000000000000012
  0
CIRCLE
  5
54E
  8
DRILL
 10
-191.5605296433053
 20
-378.2710745789332
 30
0.0
 40
3.000000000000009
  0
CIRCLE
  5
54F
  8
DRILL
 10
-191.5605296433053
 20
-386.7710694827361
 30
0.0
 40
3.00000000000002
  0
CIRCLE
  5
550
  8
DRILL
 10
-155.5605296433048
 20
-386.7710694827361
 30
0.0
 40
3.000000000000012
  0
CIRCLE
  5
551
  8
DRILL
 10
-155.5605296433048
 20
-378.2710745789332
 30
0.0
 40
3.000000000000017
  0
CIRCLE
  5
552
  8
DRILL
 10
-280.8812193043308
 20
305.7289305172605
 30
0.0
 40
2.99999999999998
  0
CIRCLE
  5
553
  8
DRILL
 10
-280.8812193043308
 20
314.2289305172629
 30
0.0
 40
3.00000000000002
  0
CIRCLE
  5
554
  8
DRILL
 10
-280.8812193043308
 20
-386.7710694827367
 30
0.0
 40
3.00000000000002
  0
CIRCLE
  5
555
  8
DRILL
 10
-280.8812193043308
 20
-378.2710694827343
 30
0.0
 40
2.99999999999998
  0
CIRCLE
  5
556
  8
DRILL
 10
156.7514652514732
 20
314.8975646469336
 30
0.0
 40
3.000000000000016
  0
CIRCLE
  5
557
  8
DRILL
 10
156.7514652514732
 20
306.3975646469289
 30
0.0
 40
3.000000000000003
  0
CIRCLE
  5
558
  8
DRILL
 10
156.7514652514732
 20
-386.1024353530705
 30
0.0
 40
3.000000000000016
  0
CIRCLE
  5
559
  8
DRILL
 10
156.7514652514732
 20
-377.6024353530657
 30
0.0
 40
3.000000000000003
  0
CIRCLE
  5
55A
  8
DRILL
 10
90.42512484310498
 20
314.2289305172662
 30
0.0
 40
3.000000000000012
  0
CIRCLE
  5
55B
  8
DRILL
 10
90.42512484310498
 20
305.7289305172626
 30
0.0
 40
3.000000000000027
  0
CIRCLE
  5
55C
  8
DRILL
 10
90.42512484310302
 20
-378.2710694827361
 30
0.0
 40
2.999999999999989
  0
CIRCLE
  5
55D
  8
DRILL
 10
90.42512484310302
 20
-386.7710694827361
 30
0.0
 40
3.00000000000003
  0
CIRCLE
  5
55E
  8
DRILL
 10
-27.49424787826672
 20
458.6562103320685
 30
-0.0000000000000008
 40
3.000000000000009
  0
CIRCLE
  5
55F
  8
DRILL
 10
316.0323681262198
 20
473.3976210784152
 30
0.0
 40
2.999999999999962
  0
CIRCLE
  5
560
  8
DRILL
 10
-255.4138512388813
 20
368.7804382689584
 30
0.0000000000000112
 40
2.999999999999998
  0
CIRCLE
  5
561
  8
DRILL
 10
-214.4813510435051
 20
384.9213932517212
 30
0.0000000000000091
 40
3.000000000000001
  0
CIRCLE
  5
562
  8
DRILL
 10
-111.2198164597169
 20
425.6406205945994
 30
0.0000000000000036
 40
3.000000000000001
  0
CIRCLE
  5
563
  8
DRILL
 10
-70.28731626434137
 20
441.781575577362
 30
0.0000000000000015
 40
2.999999999999995
  0
CIRCLE
  5
564
  8
DRILL
 10
86.51646440635966
 20
559.1148885316859
 30
0.0
 40
3.000000000000015
  0
CIRCLE
  5
565
  8
DRILL
 10
127.7356471152294
 20
543.7207670298753
 30
0.0
 40
3.000000000000001
  0
CIRCLE
  5
566
  8
DRILL
 10
231.7204034944348
 20
504.8855968775758
 30
0.0
 40
3.000000000000027
  0
CIRCLE
  5
567
  8
DRILL
 10
272.9395862033076
 20
489.4914753757637
 30
0.0
 40
2.999999999999992
  0
CIRCLE
  5
568
  8
DRILL
 10
170.4986310084771
 20
511.7381200389413
 30
0.0
 40
3.000000000000017
  0
CIRCLE
  5
569
  8
DRILL
 10
178.461427668141
 20
508.7642556579111
 30
0.0
 40
2.999999999999985
  0
CIRCLE
  5
56A
  8
DRILL
 10
-172.3068894464245
 20
417.6761988380218
 30
0.0
 40
3.000000000000008
  0
CIRCLE
  5
56B
  8
DRILL
 10
-164.3994746359538
 20
420.794337868783
 30
0.0
 40
2.999999999999996
  0
CIRCLE
  5
56C
  8
DRILL
 10
-274.2782653466478
 20
509.3420617399816
 30
0.0
 40
3.000000000000001
  0
CIRCLE
  5
56D
  8
DRILL
 10
-271.1601263158867
 20
501.4346469295113
 30
0.0
 40
3.000000000000006
  0
CIRCLE
  5
56E
  8
DRILL
 10
-273.460678804294
 20
419.442063109543
 30
0.0
 40
2.999999999999987
  0
CIRCLE
  5
56F
  8
DRILL
 10
-270.3425397735325
 20
411.5346482990715
 30
0.0
 40
2.999999999999998
  0
CIRCLE
  5
570
  8
DRILL
 10
72.36752825462634
 20
516.0963364589065
 30
0.0
 40
2.999999999999991
  0
CIRCLE
  5
571
  8
DRILL
 10
69.39366387359837
 20
508.1335397992368
 30
0.0
 40
2.999999999999978
  0
CIRCLE
  5
572
  8
DRILL
 10
73.1844871936263
 20
426.1963321230449
 30
0.0
 40
3.000000000000012
  0
CIRCLE
  5
573
  8
DRILL
 10
70.21062281259447
 20
418.2335354633764
 30
0.0
 40
3.000000000000007
  0
ARC
  5
574
  8
OUTSIDE
 10
124.3889810586084
 20
551.9091628621138
 30
0.0
 40
4.000000000000045
 50
339.5208563745052
 51
69.52085637450337
  0
LINE
  5
575
  8
OUTSIDE
 10
128.1361794866878
 20
550.5096972710398
 30
0.0
 11
125.1623151056559
 21
542.5469006113713
 31
0.0
  0
LINE
  5
576
  8
OUTSIDE
 10
125.1623151056559
 20
542.5469006113713
 30
0.0
 11
169.4260965373435
 21
526.0157133168118
 31
0.0
  0
ARC
  5
577
  8
OUTSIDE
 10
168.0266309462695
 20
522.2685148887324
 30
0.0
 40
4.000000000000049
 50
339.5208563745037
 51
69.52085637450375
  0
LINE
  5
578
  8
OUTSIDE
 10
171.7738293743489
 20
520.8690492976586
 30
0.0
 11
167.925298998896
 21
510.5642536204404
 31
0.0
  0
LINE
  5
579
  8
OUTSIDE
 10
167.925298998896
 20
510.5642536204404
 30
0.0
 11
179.6352940866439
 21
506.1909236483347
 31
0.0
  0
LINE
  5
57A
  8
OUTSIDE
 10
179.6352940866439
 20
506.1909236483347
 30
0.0
 11
183.4838244620968
 21
516.495719325553
 31
0.0
  0
ARC
  5
57B
  8
OUTSIDE
 10
187.2310228901763
 20
515.096253734479
 30
0.0
 40
4.000000000000084
 50
69.52085637450527
 51
159.5208563745039
  0
LINE
  5
57C
  8
OUTSIDE
 10
188.63048848125
 20
518.8434521625586
 30
0.0
 11
232.8942699129374
 21
502.3122648679991
 31
0.0
  0
LINE
  5
57D
  8
OUTSIDE
 10
232.8942699129374
 20
502.3122648679991
 30
0.0
 11
235.8681342939694
 21
510.2750615276677
 31
0.0
  0
ARC
  5
57E
  8
OUTSIDE
 10
239.6153327220487
 20
508.8755959365937
 30
0.0
 40
4.000000000000051
 50
69.52085637450556
 51
159.5208563745019
  0
LINE
  5
57F
  8
OUTSIDE
 10
241.0147983131225
 20
512.6227943646732
 30
0.0
 11
270.9923857377573
 21
501.4270696360826
 31
0.0
  0
ARC
  5
580
  8
OUTSIDE
 10
269.5929201466835
 20
497.6798712080034
 30
0.0
 40
3.999999999999989
 50
339.5208563745035
 51
69.52085637450345
  0
LINE
  5
581
  8
OUTSIDE
 10
273.3401185747629
 20
496.2804056169295
 30
0.0
 11
270.3662541937309
 21
488.3176089572608
 31
0.0
  0
LINE
  5
582
  8
OUTSIDE
 10
270.3662541937309
 20
488.3176089572608
 30
0.0
 11
317.2062345447227
 21
470.8242890688381
 31
0.0
  0
LINE
  5
583
  8
OUTSIDE
 10
317.2062345447227
 20
470.8242890688381
 30
0.0
 11
334.87448763203
 21
518.1326692233399
 31
0.0
  0
ARC
  5
584
  8
OUTSIDE
 10
336.7480868460696
 20
517.432936427803
 30
0.0
 40
2.000000000000065
 50
69.52085637450794
 51
159.5208563745022
  0
LINE
  5
585
  8
OUTSIDE
 10
337.4478196416064
 20
519.3065356418429
 30
0.0
 11
358.5549367536066
 21
511.4236640267013
 31
0.0
  0
ARC
  5
586
  8
OUTSIDE
 10
357.8552039580695
 20
509.5500648126617
 30
0.0
 40
1.999999999999955
 50
0.520856374504031
 51
69.5208563745026
  0
LINE
  5
587
  8
OUTSIDE
 10
359.8551213185638
 20
509.5682458795753
 30
0.0
 11
361.0673862695371
 21
376.2191012730624
 31
0.0
  0
ARC
  5
588
  8
OUTSIDE
 10
346.068006065831
 20
376.0827432712101
 30
0.0
 40
15.00000000000008
 50
270.5208563745048
 51
0.5208563745039125
  0
LINE
  5
589
  8
OUTSIDE
 10
346.2043640676836
 20
361.0833630675039
 30
0.0
 11
337.6849877020575
 21
361.0059141914524
 31
0.0
  0
ARC
  5
58A
  8
OUTSIDE
 10
337.5486297002051
 20
376.0052943951586
 30
0.0
 40
15.00000000000007
 50
180.5208563745045
 51
270.5208563745039
  0
LINE
  5
58B
  8
OUTSIDE
 10
322.549249496499
 20
375.8689363933061
 30
0.0
 11
322.4761888083556
 21
383.905612089043
 31
0.0
  0
ARC
  5
58C
  8
OUTSIDE
 10
272.478254796002
 20
383.4510854162016
 30
0.0
 40
49.99999999999981
 50
0.5208563745041566
 51
69.52085637450435
  0
LINE
  5
58D
  8
OUTSIDE
 10
289.9715746844245
 20
430.2910657671934
 30
0.0
 11
158.7175947616703
 21
479.3104684273126
 31
0.0
  0
ARC
  5
58E
  8
OUTSIDE
 10
144.7229388509321
 20
441.8384841465192
 30
0.0
 40
39.99999999999988
 50
69.52085637450413
 51
180.5208563745043
  0
LINE
  5
58F
  8
OUTSIDE
 10
104.7245916410493
 20
441.4748628082459
 30
0.0
 11
105.3389604174754
 21
373.8942974016704
 31
0.0
  0
ARC
  5
590
  8
OUTSIDE
 10
90.3395802137693
 20
373.7579393998179
 30
0.0
 40
15.0
 50
270.5208563745042
 51
0.5208563745041328
  0
LINE
  5
591
  8
OUTSIDE
 10
90.47593821562168
 20
358.7585591961118
 30
0.0
 11
62.29014160258805
 21
358.5023246814467
 31
0.0
  0
ARC
  5
592
  8
OUTSIDE
 10
62.15378360073566
 20
373.5017048851528
 30
0.0
 40
15.00000000000007
 50
180.5208563745043
 51
270.5208563745041
  0
LINE
  5
593
  8
OUTSIDE
 10
47.15440339702934
 20
373.3653468833003
 30
0.0
 11
46.73895627518868
 21
419.064530285588
 31
0.0
  0
ARC
  5
594
  8
OUTSIDE
 10
50.73879099617704
 20
419.1008924194152
 30
0.0
 40
4.000000000000014
 50
69.52085637450536
 51
180.520856374504
  0
LINE
  5
595
  8
OUTSIDE
 10
52.13825658725068
 20
422.8480908474946
 30
0.0
 11
71.38448923109945
 21
415.6602034537989
 31
0.0
  0
LINE
  5
596
  8
OUTSIDE
 10
71.38448923109945
 20
415.6602034537989
 30
0.0
 11
75.75781920320526
 21
427.3701985415469
 31
0.0
  0
LINE
  5
597
  8
OUTSIDE
 10
75.75781920320526
 20
427.3701985415469
 30
0.0
 11
49.13971117736685
 21
437.3112590422421
 31
0.0
  0
ARC
  5
598
  8
OUTSIDE
 10
50.53917676844071
 20
441.0584574703215
 30
0.0
 40
4.000000000000055
 50
180.520856374504
 51
249.5208563745035
  0
LINE
  5
599
  8
OUTSIDE
 10
46.53934204745224
 20
441.0220953364941
 30
0.0
 11
45.92168243936396
 21
508.9646522259162
 31
0.0
  0
ARC
  5
59A
  8
OUTSIDE
 10
49.92151716035221
 20
509.0010143597435
 30
0.0
 40
4.000000000000058
 50
69.5208563745028
 51
180.520856374504
  0
LINE
  5
59B
  8
OUTSIDE
 10
51.32098275142619
 20
512.7482127878227
 30
0.0
 11
70.5675302921021
 21
505.5602077896597
 31
0.0
  0
LINE
  5
59C
  8
OUTSIDE
 10
70.5675302921021
 20
505.5602077896597
 30
0.0
 11
74.94086026420212
 21
517.2702028774097
 31
0.0
  0
LINE
  5
59D
  8
OUTSIDE
 10
74.94086026420212
 20
517.2702028774097
 30
0.0
 11
48.32243734154213
 21
527.2113809825701
 31
0.0
  0
ARC
  5
59E
  8
OUTSIDE
 10
49.72190293261599
 20
530.9585794106495
 30
0.0
 40
4.000000000000069
 50
180.520856374504
 51
249.5208563745034
  0
LINE
  5
59F
  8
OUTSIDE
 10
45.72206821162763
 20
530.922217276822
 30
0.0
 11
45.34539643849826
 21
572.3561123208985
 31
0.0
  0
LINE
  5
5A0
  8
OUTSIDE
 10
45.34539643849826
 20
572.3561123208985
 30
0.0
 11
87.69033082486237
 21
556.5415565221094
 31
0.0
  0
LINE
  5
5A1
  8
OUTSIDE
 10
87.69033082486237
 20
556.5415565221094
 30
0.0
 11
90.66419520589443
 21
564.504353181778
 31
0.0
  0
ARC
  5
5A2
  8
OUTSIDE
 10
94.41139363397372
 20
563.104887590704
 30
0.0
 40
4.000000000000109
 50
69.52085637450622
 51
159.5208563745023
  0
LINE
  5
5A3
  8
OUTSIDE
 10
95.81085922504747
 20
566.8520860187837
 30
0.0
 11
125.7884466496822
 21
555.656361290193
 31
0.0
  0
ARC
  5
5A4
  8
OUTSIDE
 10
-217.6785963567851
 20
376.6735073161184
 30
0.0
 40
3.999999999999912
 50
291.5208563745029
 51
21.52085637450477
  0
LINE
  5
5A5
  8
OUTSIDE
 10
-216.2112368128976
 20
372.9523709347207
 30
0.0
 11
-245.98032786408
 21
361.2134945836206
 31
0.0
  0
ARC
  5
5A6
  8
OUTSIDE
 10
-247.4476874079675
 20
364.9346309650185
 30
0.0
 40
4.000000000000012
 50
201.5208563745042
 51
291.5208563745038
  0
LINE
  5
5A7
  8
OUTSIDE
 10
-251.1688237893653
 20
363.4672714211309
 30
0.0
 11
-254.2869628201262
 21
371.3746862316012
 31
0.0
  0
LINE
  5
5A8
  8
OUTSIDE
 10
-254.2869628201262
 20
371.3746862316012
 30
0.0
 11
-296.3373850054725
 21
354.792899918521
 31
0.0
  0
LINE
  5
5A9
  8
OUTSIDE
 10
-296.3373850054725
 20
354.792899918521
 30
0.0
 11
-296.7140567786017
 21
396.2267949625975
 31
0.0
  0
ARC
  5
5AA
  8
OUTSIDE
 10
-292.7142220576133
 20
396.2631570964248
 30
0.0
 40
4.000000000000082
 50
111.5208563745064
 51
180.520856374504
  0
LINE
  5
5AB
  8
OUTSIDE
 10
-294.181581601501
 20
399.9842934778225
 30
0.0
 11
-267.7482918107301
 21
410.4077598803794
 31
0.0
  0
LINE
  5
5AC
  8
OUTSIDE
 10
-267.7482918107301
 20
410.4077598803794
 30
0.0
 11
-272.3337903853728
 21
422.0363110722497
 31
0.0
  0
LINE
  5
5AD
  8
OUTSIDE
 10
-272.3337903853728
 20
422.0363110722497
 30
0.0
 11
-291.4464767414621
 21
414.499585765933
 31
0.0
  0
ARC
  5
5AE
  8
OUTSIDE
 10
-292.9138362853496
 20
418.2207221473307
 30
0.0
 40
3.999999999999967
 50
180.520856374504
 51
291.5208563745052
  0
LINE
  5
5AF
  8
OUTSIDE
 10
-296.9136710063379
 20
418.1843600135034
 30
0.0
 11
-297.5313306144258
 21
486.1269169029255
 31
0.0
  0
ARC
  5
5B0
  8
OUTSIDE
 10
-293.5314958934375
 20
486.1632790367528
 30
0.0
 40
3.99999999999993
 50
111.5208563745019
 51
180.5208563745048
  0
LINE
  5
5B1
  8
OUTSIDE
 10
-294.9988554373249
 20
489.8844154181506
 30
0.0
 11
-268.5658783532445
 21
500.3077585107559
 31
0.0
  0
LINE
  5
5B2
  8
OUTSIDE
 10
-268.5658783532445
 20
500.3077585107559
 30
0.0
 11
-273.151376927893
 21
511.9363097026241
 31
0.0
  0
LINE
  5
5B3
  8
OUTSIDE
 10
-273.151376927893
 20
511.9363097026241
 30
0.0
 11
-292.2637505772861
 21
504.3997077062613
 31
0.0
  0
ARC
  5
5B4
  8
OUTSIDE
 10
-293.7311101211736
 20
508.120844087659
 30
0.0
 40
3.999999999999921
 50
180.5208563745016
 51
291.5208563745055
  0
LINE
  5
5B5
  8
OUTSIDE
 10
-297.7309448421619
 20
508.0844819538318
 30
0.0
 11
-298.1463919640024
 21
553.7836653561192
 31
0.0
  0
ARC
  5
5B6
  8
OUTSIDE
 10
-283.1470117602962
 20
553.9200233579716
 30
0.0
 40
15.0000000000001
 50
90.5208563745037
 51
180.5208563745039
  0
LINE
  5
5B7
  8
OUTSIDE
 10
-283.2833697621486
 20
568.9194035616779
 30
0.0
 11
-255.0975731491149
 21
569.1756380763427
 31
0.0
  0
ARC
  5
5B8
  8
OUTSIDE
 10
-254.9612151472626
 20
554.1762578726366
 30
0.0
 40
14.99999999999998
 50
0.5208563745034824
 51
90.5208563745038
  0
LINE
  5
5B9
  8
OUTSIDE
 10
-239.9618349435565
 20
554.3126158744888
 30
0.0
 11
-239.3474661671309
 21
486.7320504679131
 31
0.0
  0
ARC
  5
5BA
  8
OUTSIDE
 10
-199.3491189572479
 20
487.095671806186
 30
0.0
 40
39.99999999999995
 50
180.5208563745036
 51
291.5208563745039
  0
LINE
  5
5BB
  8
OUTSIDE
 10
-184.6755235183729
 20
449.8843079922081
 30
0.0
 11
-54.33442489014919
 21
501.2818477300728
 31
0.0
  0
ARC
  5
5BC
  8
OUTSIDE
 10
-72.67641918874313
 20
547.7960524975451
 30
0.0
 40
50.00000000000005
 50
291.5208563745038
 51
0.5208563745038287
  0
LINE
  5
5BD
  8
OUTSIDE
 10
-22.67848517638924
 20
548.2505791703863
 30
0.0
 11
-22.75154586453266
 21
556.2872548661232
 31
0.0
  0
ARC
  5
5BE
  8
OUTSIDE
 10
-7.752165660826563
 20
556.4236128679756
 30
0.0
 40
15.00000000000001
 50
90.5208563745039
 51
180.5208563745039
  0
LINE
  5
5BF
  8
OUTSIDE
 10
-7.888523662678836
 20
571.4229930716817
 30
0.0
 11
0.6308527029473225
 21
571.5004419477332
 31
0.0
  0
ARC
  5
5C0
  8
OUTSIDE
 10
0.7672107047995951
 20
556.5010617440271
 30
0.0
 40
15.00000000000001
 50
0.5208563745034817
 51
90.52085637450364
  0
LINE
  5
5C1
  8
OUTSIDE
 10
15.7665909085058
 20
556.6374197458792
 30
0.0
 11
16.97885585947836
 21
423.2882751393664
 31
0.0
  0
ARC
  5
5C2
  8
OUTSIDE
 10
14.97893849898412
 20
423.2700940724527
 30
0.0
 40
2.000000000000064
 50
291.5208563745063
 51
0.5208563745056363
  0
LINE
  5
5C3
  8
OUTSIDE
 10
15.71261827092792
 20
421.4095258817537
 30
0.0
 11
-5.247697255288926
 21
413.1442230608087
 31
0.0
  0
ARC
  5
5C4
  8
OUTSIDE
 10
-5.981377027232611
 20
415.0047912515076
 30
0.0
 40
2.00000000000004
 50
201.5208563745029
 51
291.5208563745036
  0
LINE
  5
5C5
  8
OUTSIDE
 10
-7.841945217931766
 20
414.2711114795639
 30
0.0
 11
-26.36735945951159
 21
461.2504582947111
 31
0.0
  0
LINE
  5
5C6
  8
OUTSIDE
 10
-26.36735945951159
 20
461.2504582947111
 30
0.0
 11
-72.88156422698398
 21
442.9084639961173
 31
0.0
  0
LINE
  5
5C7
  8
OUTSIDE
 10
-72.88156422698398
 20
442.9084639961173
 30
0.0
 11
-69.76342519622278
 21
435.001049185647
 31
0.0
  0
ARC
  5
5C8
  8
OUTSIDE
 10
-73.48456157762064
 20
433.5336896417594
 30
0.0
 40
3.999999999999963
 50
291.5208563745024
 51
21.52085637450447
  0
LINE
  5
5C9
  8
OUTSIDE
 10
-72.01720203373327
 20
429.8125532603617
 30
0.0
 11
-101.7862930849154
 21
418.0736769092616
 31
0.0
  0
ARC
  5
5CA
  8
OUTSIDE
 10
-103.253652628803
 20
421.7948132906593
 30
0.0
 40
4.000000000000031
 50
201.520856374504
 51
291.5208563745047
  0
LINE
  5
5CB
  8
OUTSIDE
 10
-106.9747890102009
 20
420.3274537467718
 30
0.0
 11
-110.0929280409617
 21
428.2348685572422
 31
0.0
  0
LINE
  5
5CC
  8
OUTSIDE
 10
-110.0929280409617
 20
428.2348685572422
 30
0.0
 11
-154.0488515462232
 21
410.9016839450709
 31
0.0
  0
ARC
  5
5CD
  8
OUTSIDE
 10
-155.5162110901107
 20
414.6228203264688
 30
0.0
 40
3.999999999999981
 50
201.5208563745036
 51
291.5208563745034
  0
LINE
  5
5CE
  8
OUTSIDE
 10
-159.2373474715084
 20
413.1554607825812
 30
0.0
 11
-163.2725862171992
 21
423.3885858314251
 31
0.0
  0
LINE
  5
5CF
  8
OUTSIDE
 10
-163.2725862171992
 20
423.3885858314251
 30
0.0
 11
-174.9011374090674
 21
418.8030872567767
 31
0.0
  0
LINE
  5
5D0
  8
OUTSIDE
 10
-174.9011374090674
 20
418.8030872567767
 30
0.0
 11
-170.8658986633766
 21
408.5699622079329
 31
0.0
  0
ARC
  5
5D1
  8
OUTSIDE
 10
-174.5870350447744
 20
407.1026026640453
 30
0.0
 40
4.000000000000012
 50
291.5208563745038
 51
21.52085637450417
  0
LINE
  5
5D2
  8
OUTSIDE
 10
-173.1196755008868
 20
403.3814662826475
 30
0.0
 11
-217.0755990061483
 21
386.0482816704763
 31
0.0
  0
LINE
  5
5D3
  8
OUTSIDE
 10
-217.0755990061483
 20
386.0482816704763
 30
0.0
 11
-213.9574599753873
 21
378.140866860006
 31
0.0
  0
ENDSEC
  0
EOF
