  0
SECTION
  2
HEADER
  9
$ACADVER
  1
AC1012
  9
$DWGCODEPAGE
  3
undefined
  9
$INSBASE
 10
0.0
 20
0.0
 30
0.0
  9
$EXTMIN
 10
1.000000000000000E+20
 20
1.000000000000000E+20
 30
1.000000000000000E+20
  9
$EXTMAX
 10
-1.000000000000000E+20
 20
-1.000000000000000E+20
 30
-1.000000000000000E+20
  9
$LIMMIN
 10
0.0
 20
0.0
  9
$LIMMAX
 10
12.0
 20
9.0
  9
$ORTHOMODE
 70
     0
  9
$REGENMODE
 70
     1
  9
$FILLMODE
 70
     1
  9
$QTEXTMODE
 70
     0
  9
$MIRRTEXT
 70
     1
  9
$DRAGMODE
 70
     2
  9
$LTSCALE
 40
1.0
  9
$OSMODE
 70
    37
  9
$ATTMODE
 70
     1
  9
$TEXTSIZE
 40
0.2
  9
$TRACEWID
 40
0.05
  9
$TEXTSTYLE
  7
STANDARD
  9
$CLAYER
  8
0
  9
$CELTYPE
  6
BYLAYER
  9
$CECOLOR
 62
   256
  9
$CELTSCALE
 40
1.0
  9
$DELOBJ
 70
     1
  9
$DISPSILH
 70
     0
  9
$DIMSCALE
 40
1.0
  9
$DIMASZ
 40
0.18
  9
$DIMEXO
 40
0.0625
  9
$DIMDLI
 40
0.38
  9
$DIMRND
 40
0.0
  9
$DIMDLE
 40
0.0
  9
$DIMEXE
 40
0.18
  9
$DIMTP
 40
0.0
  9
$DIMTM
 40
0.0
  9
$DIMTXT
 40
0.18
  9
$DIMCEN
 40
0.09
  9
$DIMTSZ
 40
0.0
  9
$DIMTOL
 70
     0
  9
$DIMLIM
 70
     0
  9
$DIMTIH
 70
     1
  9
$DIMTOH
 70
     1
  9
$DIMSE1
 70
     0
  9
$DIMSE2
 70
     0
  9
$DIMTAD
 70
     0
  9
$DIMZIN
 70
     0
  9
$DIMBLK
  1

  9
$DIMASO
 70
     1
  9
$DIMSHO
 70
     1
  9
$DIMPOST
  1

  9
$DIMAPOST
  1

  9
$DIMALT
 70
     0
  9
$DIMALTD
 70
     2
  9
$DIMALTF
 40
25.4
  9
$DIMLFAC
 40
1.0
  9
$DIMTOFL
 70
     0
  9
$DIMTVP
 40
0.0
  9
$DIMTIX
 70
     0
  9
$DIMSOXD
 70
     0
  9
$DIMSAH
 70
     0
  9
$DIMBLK1
  1

  9
$DIMBLK2
  1

  9
$DIMSTYLE
  2
STANDARD
  9
$DIMCLRD
 70
     0
  9
$DIMCLRE
 70
     0
  9
$DIMCLRT
 70
     0
  9
$DIMTFAC
 40
1.0
  9
$DIMGAP
 40
0.09
  9
$DIMJUST
 70
     0
  9
$DIMSD1
 70
     0
  9
$DIMSD2
 70
     0
  9
$DIMTOLJ
 70
     1
  9
$DIMTZIN
 70
     0
  9
$DIMALTZ
 70
     0
  9
$DIMALTTZ
 70
     0
  9
$DIMFIT
 70
     3
  9
$DIMUPT
 70
     0
  9
$DIMUNIT
 70
     2
  9
$DIMDEC
 70
     4
  9
$DIMTDEC
 70
     4
  9
$DIMALTU
 70
     2
  9
$DIMALTTD
 70
     2
  9
$DIMTXSTY
  7
STANDARD
  9
$DIMAUNIT
 70
     0
  9
$LUNITS
 70
     2
  9
$LUPREC
 70
     4
  9
$SKETCHINC
 40
0.1
  9
$FILLETRAD
 40
0.5
  9
$AUNITS
 70
     0
  9
$AUPREC
 70
     0
  9
$MENU
  1
.
  9
$ELEVATION
 40
0.0
  9
$PELEVATION
 40
0.0
  9
$THICKNESS
 40
0.0
  9
$LIMCHECK
 70
     0
  9
$CHAMFERA
 40
0.5
  9
$CHAMFERB
 40
0.5
  9
$CHAMFERC
 40
1.0
  9
$CHAMFERD
 40
0.0
  9
$SKPOLY
 70
     0
  9
$TDCREATE
 40
2457435.232835636
  9
$TDUPDATE
 40
2457435.232835636
  9
$TDINDWG
 40
0.0000000116
  9
$TDUSRTIMER
 40
0.0000000116
  9
$USRTIMER
 70
     1
  9
$ANGBASE
 50
0.0
  9
$ANGDIR
 70
     0
  9
$PDMODE
 70
     0
  9
$PDSIZE
 40
0.0
  9
$PLINEWID
 40
0.0
  9
$COORDS
 70
     1
  9
$SPLFRAME
 70
     0
  9
$SPLINETYPE
 70
     6
  9
$SPLINESEGS
 70
     8
  9
$ATTDIA
 70
     0
  9
$ATTREQ
 70
     1
  9
$HANDLING
 70
     1
  9
$HANDSEED
  5
57
  9
$SURFTAB1
 70
     6
  9
$SURFTAB2
 70
     6
  9
$SURFTYPE
 70
     6
  9
$SURFU
 70
     6
  9
$SURFV
 70
     6
  9
$UCSNAME
  2

  9
$UCSORG
 10
0.0
 20
0.0
 30
0.0
  9
$UCSXDIR
 10
1.0
 20
0.0
 30
0.0
  9
$UCSYDIR
 10
0.0
 20
1.0
 30
0.0
  9
$PUCSNAME
  2

  9
$PUCSORG
 10
0.0
 20
0.0
 30
0.0
  9
$PUCSXDIR
 10
1.0
 20
0.0
 30
0.0
  9
$PUCSYDIR
 10
0.0
 20
1.0
 30
0.0
  9
$USERI1
 70
     0
  9
$USERI2
 70
     0
  9
$USERI3
 70
     0
  9
$USERI4
 70
     0
  9
$USERI5
 70
     0
  9
$USERR1
 40
0.0
  9
$USERR2
 40
0.0
  9
$USERR3
 40
0.0
  9
$USERR4
 40
0.0
  9
$USERR5
 40
0.0
  9
$WORLDVIEW
 70
     1
  9
$SHADEDGE
 70
     3
  9
$SHADEDIF
 70
    70
  9
$TILEMODE
 70
     1
  9
$MAXACTVP
 70
    64
  9
$PINSBASE
 10
0.0
 20
0.0
 30
0.0
  9
$PLIMCHECK
 70
     0
  9
$PEXTMIN
 10
1.000000000000000E+20
 20
1.000000000000000E+20
 30
1.000000000000000E+20
  9
$PEXTMAX
 10
-1.000000000000000E+20
 20
-1.000000000000000E+20
 30
-1.000000000000000E+20
  9
$PLIMMIN
 10
0.0
 20
0.0
  9
$PLIMMAX
 10
12.0
 20
9.0
  9
$UNITMODE
 70
     0
  9
$VISRETAIN
 70
     1
  9
$PLINEGEN
 70
     0
  9
$PSLTSCALE
 70
     1
  9
$TREEDEPTH
 70
  3020
  9
$PICKSTYLE
 70
     1
  9
$CMLSTYLE
  2
STANDARD
  9
$CMLJUST
 70
     0
  9
$CMLSCALE
 40
1.0
  9
$SAVEIMAGES
 70
     1
  0
ENDSEC
  0
SECTION
  2
CLASSES
  0
CLASS
  1
ACDBDICTIONARYWDFLT
  2
AcDbDictionaryWithDefault
  3
ObjectDBX Classes
 90
    32768
280
     0
281
     0
  0
CLASS
  1
VISUALSTYLE
  2
AcDbVisualStyle
  3
ObjectDBX Classes
 90
     4095
280
     0
281
     0
  0
CLASS
  1
MATERIAL
  2
AcDbMaterial
  3
ObjectDBX Classes
 90
     1153
280
     0
281
     0
  0
CLASS
  1
SUN
  2
AcDbSun
  3
SCENEOE
 90
     1024
280
     0
281
     0
  0
CLASS
  1
DICTIONARYVAR
  2
AcDbDictionaryVar
  3
ObjectDBX Classes
 90
        0
280
     0
281
     0
  0
CLASS
  1
XRECORD
  2
AcDbXrecord
  3
AutoCAD 2000
 90
    32768
280
     0
281
     0
  0
CLASS
  1
LWPOLYLINE
  2
AcDbPolyline
  3
AutoCAD 2000
 90
    32768
280
     0
281
     1
  0
CLASS
  1
HATCH
  2
AcDbHatch
  3
AutoCAD 2000
 90
    32768
280
     0
281
     1
  0
CLASS
  1
ACDBPLACEHOLDER
  2
AcDbPlaceHolder
  3
ObjectDBX Classes
 90
        0
280
     0
281
     0
  0
CLASS
  1
LAYOUT
  2
AcDbLayout
  3
ObjectDBX Classes
 90
        0
280
     0
281
     0
  0
ENDSEC
  0
SECTION
  2
TABLES
  0
TABLE
  2
VPORT
  5
8
330
0
100
AcDbSymbolTable
 70
     1
  0
VPORT
  5
29
330
8
100
AcDbSymbolTableRecord
100
AcDbViewportTableRecord
  2
*ACTIVE
 70
     0
 10
0.0
 20
0.0
 11
1.0
 21
1.0
 12
0.0
 22
0.0
 13
0.0
 23
0.0
 14
0.5
 24
0.5
 15
0.5
 25
0.5
 16
0.0
 26
0.0
 36
1.0
 17
148.5000416295416
 27
-105.0007777515277
 37
0.0
 40
210.0015555030554
 41
1.414275634995294
 42
50.0
 43
0.0
 44
0.0
 50
0.0
 51
0.0
 71
     0
 72
   100
 73
     1
 74
     3
 75
     0
 76
     0
 77
     0
 78
     0
  0
ENDTAB
  0
TABLE
  2
LTYPE
  5
5
330
0
100
AcDbSymbolTable
 70
     1
  0
LTYPE
  5
14
330
5
100
AcDbSymbolTableRecord
100
AcDbLinetypeTableRecord
  2
BYBLOCK
 70
     0
  3

 72
    65
 73
     0
 40
0.0
  0
LTYPE
  5
15
330
5
100
AcDbSymbolTableRecord
100
AcDbLinetypeTableRecord
  2
BYLAYER
 70
     0
  3

 72
    65
 73
     0
 40
0.0
  0
LTYPE
  5
16
330
5
100
AcDbSymbolTableRecord
100
AcDbLinetypeTableRecord
  2
CONTINUOUS
 70
     0
  3
Solid line
 72
    65
 73
     0
 40
0.0
  0
ENDTAB
  0
TABLE
  2
LAYER
  5
2
330
0
100
AcDbSymbolTable
 70
     2
  0
LAYER
  5
10
330
2
100
AcDbSymbolTableRecord
100
AcDbLayerTableRecord
  2
0
 70
     0
 62
     7
  6
CONTINUOUS
  0
LAYER
  5
40
330
2
100
AcDbSymbolTableRecord
100
AcDbLayerTableRecord
  2
_U_30EC_U_30A4_U_30E4_U_30
 70
     0
 62
     7
  6
CONTINUOUS
  0
ENDTAB
  0
TABLE
  2
STYLE
  5
3
330
0
100
AcDbSymbolTable
 70
     1
  0
STYLE
  5
11
330
3
100
AcDbSymbolTableRecord
100
AcDbTextStyleTableRecord
  2
STANDARD
 70
     0
 40
0.0
 41
1.0
 50
0.0
 71
     0
 42
0.2
  3
txt
  4

  0
ENDTAB
  0
TABLE
  2
VIEW
  5
6
330
0
100
AcDbSymbolTable
 70
     0
  0
ENDTAB
  0
TABLE
  2
UCS
  5
7
330
0
100
AcDbSymbolTable
 70
     0
  0
ENDTAB
  0
TABLE
  2
APPID
  5
9
330
0
100
AcDbSymbolTable
 70
     1
  0
APPID
  5
12
330
9
100
AcDbSymbolTableRecord
100
AcDbRegAppTableRecord
  2
ACAD
 70
     0
  0
ENDTAB
  0
TABLE
  2
DIMSTYLE
  5
A
330
0
100
AcDbSymbolTable
 70
     1
  0
DIMSTYLE
105
27
330
A
100
AcDbSymbolTableRecord
100
AcDbDimStyleTableRecord
  2
STANDARD
 70
     0
  3

  4

  5

  6

  7

 40
1.0
 41
0.18
 42
0.0625
 43
0.38
 44
0.18
 45
0.0
 46
0.0
 47
0.0
 48
0.0
140
0.18
141
0.09
142
0.0
143
25.4
144
1.0
145
0.0
146
1.0
147
0.09
 71
     0
 72
     0
 73
     1
 74
     1
 75
     0
 76
     0
 77
     0
 78
     0
170
     0
171
     2
172
     0
173
     0
174
     0
175
     0
176
     0
177
     0
178
     0
270
     2
271
     4
272
     4
273
     2
274
     2
340
11
275
     0
280
     0
281
     0
282
     0
283
     1
284
     0
285
     0
286
     0
287
     3
288
     0
  0
ENDTAB
  0
TABLE
  2
BLOCK_RECORD
  5
1
330
0
100
AcDbSymbolTable
 70
     1
  0
BLOCK_RECORD
  5
1F
330
1
100
AcDbSymbolTableRecord
100
AcDbBlockTableRecord
  2
*MODEL_SPACE
  0
BLOCK_RECORD
  5
1B
330
1
100
AcDbSymbolTableRecord
100
AcDbBlockTableRecord
  2
*PAPER_SPACE
  0
ENDTAB
  0
ENDSEC
  0
SECTION
  2
BLOCKS
  0
BLOCK
  5
20
330
1F
100
AcDbEntity
  8
0
100
AcDbBlockBegin
  2
*MODEL_SPACE
 70
     0
 10
0.0
 20
0.0
 30
0.0
  3
*MODEL_SPACE
  1

  0
ENDBLK
  5
21
330
1F
100
AcDbEntity
  8
0
100
AcDbBlockEnd
  0
BLOCK
  5
1C
330
1B
100
AcDbEntity
 67
     1
  8
0
100
AcDbBlockBegin
  2
*PAPER_SPACE
 70
     0
 10
0.0
 20
0.0
 30
0.0
  3
*PAPER_SPACE
  1

  0
ENDBLK
  5
1D
330
1B
100
AcDbEntity
 67
     1
  8
0
100
AcDbBlockEnd
  0
ENDSEC
  0
SECTION
  2
ENTITIES
  0
SPLINE
  5
41
330
1F
100
AcDbEntity
  8
_U_30EC_U_30A4_U_30E4_U_30
100
AcDbSpline
210
0.0
220
0.0
230
1.0
 70
    11
 71
     3
 72
   149
 73
   145
 74
     0
 42
0.0000000001
 43
0.0000000001
 12
1.0
 22
0.0
 32
0.0
 13
1.0
 23
0.0
 33
0.0
 40
0.0
 40
0.0
 40
0.0
 40
0.0
 40
1.0
 40
1.0
 40
1.0
 40
2.0
 40
2.0
 40
2.0
 40
3.0
 40
3.0
 40
3.0
 40
4.0
 40
4.0
 40
4.0
 40
5.0
 40
5.0
 40
5.0
 40
6.0
 40
6.0
 40
6.0
 40
7.0
 40
7.0
 40
7.0
 40
8.0
 40
8.0
 40
8.0
 40
9.0
 40
9.0
 40
9.0
 40
10.0
 40
10.0
 40
10.0
 40
11.0
 40
11.0
 40
11.0
 40
12.0
 40
12.0
 40
12.0
 40
13.0
 40
13.0
 40
13.0
 40
14.0
 40
14.0
 40
14.0
 40
15.0
 40
15.0
 40
15.0
 40
16.0
 40
16.0
 40
16.0
 40
17.0
 40
17.0
 40
17.0
 40
18.0
 40
18.0
 40
18.0
 40
19.0
 40
19.0
 40
19.0
 40
20.0
 40
20.0
 40
20.0
 40
21.0
 40
21.0
 40
21.0
 40
22.0
 40
22.0
 40
22.0
 40
23.0
 40
23.0
 40
23.0
 40
24.0
 40
24.0
 40
24.0
 40
25.0
 40
25.0
 40
25.0
 40
26.0
 40
26.0
 40
26.0
 40
27.0
 40
27.0
 40
27.0
 40
28.0
 40
28.0
 40
28.0
 40
29.0
 40
29.0
 40
29.0
 40
30.0
 40
30.0
 40
30.0
 40
31.0
 40
31.0
 40
31.0
 40
32.0
 40
32.0
 40
32.0
 40
33.0
 40
33.0
 40
33.0
 40
34.0
 40
34.0
 40
34.0
 40
35.0
 40
35.0
 40
35.0
 40
36.0
 40
36.0
 40
36.0
 40
37.0
 40
37.0
 40
37.0
 40
38.0
 40
38.0
 40
38.0
 40
39.0
 40
39.0
 40
39.0
 40
40.0
 40
40.0
 40
40.0
 40
41.0
 40
41.0
 40
41.0
 40
42.0
 40
42.0
 40
42.0
 40
43.0
 40
43.0
 40
43.0
 40
44.0
 40
44.0
 40
44.0
 40
45.0
 40
45.0
 40
45.0
 40
46.0
 40
46.0
 40
46.0
 40
47.0
 40
47.0
 40
47.0
 40
48.0
 40
48.0
 40
48.0
 40
48.0
 10
95.63601973689524
 20
-32.31204118726998
 30
0.0
 10
95.63601973689973
 20
-32.21632674571548
 30
0.0
 10
95.63601973690294
 20
-32.14464146361088
 30
0.0
 10
95.63601973690615
 20
-32.07295618150661
 30
0.0
 10
95.63601973710155
 20
-27.71782975432088
 30
0.0
 10
95.63677987930275
 20
-23.3627023098824
 30
0.0
 10
95.63280623652871
 20
-19.00758046033313
 30
0.0
 10
95.63266954321749
 20
-18.85775848013461
 30
0.0
 10
95.68365386207027
 20
-18.75939930897822
 30
0.0
 10
95.77658942383972
 20
-18.64434295364566
 30
0.0
 10
95.99421612179876
 20
-18.37491546449197
 30
0.0
 10
96.25108969662733
 20
-18.2931171656752
 30
0.0
 10
96.59546060081645
 20
-18.30367828218476
 30
0.0
 10
97.43312984288734
 20
-18.32936797938644
 30
0.0
 10
98.2721180801125
 20
-18.31204111588593
 30
0.0
 10
99.12328893447608
 20
-18.31204111592411
 30
0.0
 10
99.12328893450561
 20
-17.65902801630648
 30
0.0
 10
99.12328893453449
 20
-17.01288747525529
 30
0.0
 10
99.12328893456464
 20
-16.34537445707551
 30
0.0
 10
99.06621546880854
 20
-16.34537445707295
 30
0.0
 10
99.0073272244138
 20
-16.34537445707038
 30
0.0
 10
98.94843898001908
 20
-16.34537445706781
 30
0.0
 10
98.0596376631584
 20
-16.34537445702771
 30
0.0
 10
97.1708266823981
 20
-16.34340098694368
 30
0.0
 10
96.28204749078128
 20
-16.34782400120923
 30
0.0
 10
96.16844898557687
 20
-16.34838755914457
 30
0.0
 10
96.0943140320566
 20
-16.30624888743355
 30
0.0
 10
96.00509182375548
 20
-16.23941742610683
 30
0.0
 10
95.69662294274944
 20
-16.00835663599594
 30
0.0
 10
95.62600119825167
 20
-15.71566864887501
 30
0.0
 10
95.62724021193563
 20
-15.33664033006925
 30
0.0
 10
95.64113232225986
 20
-11.08710421415053
 30
0.0
 10
95.63601973803907
 20
-6.837507063074845
 30
0.0
 10
95.63601973822998
 20
-2.58792618804108
 30
0.0
 10
95.63601973823319
 20
-2.515900634941986
 30
0.0
 10
95.63601973823639
 20
-2.443875081842891
 30
0.0
 10
95.63601973824088
 20
-2.345374512573001
 30
0.0
 10
95.71089194558466
 20
-2.345374512576531
 30
0.0
 10
95.7802052489388
 20
-2.345374512579419
 30
0.0
 10
95.8495184251361
 20
-2.345374512582627
 30
0.0
 10
98.88255305561648
 20
-2.345374512718667
 30
0.0
 10
101.915587304627
 20
-2.345785482905478
 30
0.0
 10
104.9486205363851
 20
-2.344041912084907
 30
0.0
 10
105.0859984655265
 20
-2.343964600893394
 30
0.0
 10
105.1716470654435
 20
-2.407325196348493
 30
0.0
 10
105.2860808621854
 20
-2.483037272875566
 30
0.0
 10
105.6282927748776
 20
-2.709447184100296
 30
0.0
 10
105.6484648939242
 20
-3.014346271430863
 30
0.0
 10
105.6412383314369
 20
-3.371363278474838
 30
0.0
 10
105.6247232354375
 20
-4.187262933433883
 30
0.0
 10
105.6360198255251
 20
-5.003724111829158
 30
0.0
 10
105.6360198254879
 20
-5.832656807101619
 30
0.0
 10
106.2890614081784
 20
-5.832656807131137
 30
0.0
 10
106.9352019492296
 20
-5.832656807160014
 30
0.0
 10
107.6026864843365
 20
-5.832656807190173
 30
0.0
 10
107.6026864843391
 20
-5.775538073693278
 30
0.0
 10
107.6026864843416
 20
-5.71664728616697
 30
0.0
 10
107.6026864843442
 20
-5.657754464135461
 30
0.0
 10
107.6026864843821
 20
-4.813394115929539
 30
0.0
 10
107.6097045101083
 20
-3.968932042463925
 30
0.0
 10
107.5977344988007
 20
-3.124742592694181
 30
0.0
 10
107.5947559831969
 20
-2.91456599847761
 30
0.0
 10
107.657047446172
 20
-2.769985920929925
 30
0.0
 10
107.8018350432594
 20
-2.618207763987621
 30
0.0
 10
107.9967325034314
 20
-2.413896648272342
 30
0.0
 10
108.1985727125933
 20
-2.336681072416406
 30
0.0
 10
108.4867064598205
 20
-2.337867188960983
 30
0.0
 10
111.4530313178195
 20
-2.350104737873612
 30
0.0
 10
114.4194263662487
 20
-2.345374513416515
 30
0.0
 10
117.3858000523732
 20
-2.345374513549667
 30
0.0
 10
117.4514169140915
 20
-2.345374513552555
 30
0.0
 10
117.5170337758098
 20
-2.345374513555443
 30
0.0
 10
117.6026864447402
 20
-2.345374513559293
 30
0.0
 10
117.602686444737
 20
-2.416462159761074
 30
0.0
 10
117.6026864447341
 20
-2.475503500672201
 30
0.0
 10
117.6026864447315
 20
-2.534544841583328
 30
0.0
 10
117.6026864445345
 20
-6.923001041585857
 30
0.0
 10
117.6020984723346
 20
-11.31145724158839
 30
0.0
 10
117.6057259949097
 20
-15.69991140708572
 30
0.0
 10
117.6058277201642
 20
-15.82298066115377
 30
0.0
 10
117.5531320009692
 20
-15.89635509119838
 30
0.0
 10
117.4841805852238
 20
-15.98814993132505
 30
0.0
 10
117.2601469760749
 20
-16.28641856619711
 30
0.0
 10
116.9792021529691
 20
-16.36756684060159
 30
0.0
 10
116.6097685606884
 20
-16.35450938620973
 30
0.0
 10
115.7834624116307
 20
-16.32530406402299
 30
0.0
 10
114.9554126916145
 20
-16.34537445778619
 30
0.0
 10
114.1153899084955
 20
-16.34537445774865
 30
0.0
 10
114.115389908466
 20
-16.99846181680593
 30
0.0
 10
114.1153899084371
 20
-17.64459116807868
 30
0.0
 10
114.1153899084069
 20
-18.31204111659725
 30
0.0
 10
114.1725534010182
 20
-18.31204111659982
 30
0.0
 10
114.2314482575549
 20
-18.31204111660238
 30
0.0
 10
114.2903431140917
 20
-18.31204111660495
 30
0.0
 10
115.1791451938917
 20
-18.31204111664506
 30
0.0
 10
116.0679554117126
 20
-18.31401865573948
 30
0.0
 10
116.9567351119558
 20
-18.30958648620069
 30
0.0
 10
117.0703622273896
 20
-18.30902089375984
 30
0.0
 10
117.1444650102962
 20
-18.35123077315318
 30
0.0
 10
117.2336678907981
 20
-18.41805714821674
 30
0.0
 10
117.5421029481551
 20
-18.64913319711647
 30
0.0
 10
117.6127124856217
 20
-18.94181101171172
 30
0.0
 10
117.6114734719377
 20
-19.32085153754868
 30
0.0
 10
117.5975696632086
 20
-23.5703876534674
 30
0.0
 10
117.6026864435964
 20
-27.81998531316915
 30
0.0
 10
117.6026864434055
 20
-32.06956669682929
 30
0.0
 10
117.6026864434022
 20
-32.14158525631686
 30
0.0
 10
117.602686443399
 20
-32.21360394296094
 30
0.0
 10
117.6026864433945
 20
-32.31204106109976
 30
0.0
 10
117.5277515478591
 20
-32.31204106109623
 30
0.0
 10
117.4584318866763
 20
-32.31204106109335
 30
0.0
 10
117.3891101909884
 20
-32.31204106109013
 30
0.0
 10
114.3560759419778
 20
-32.31204106095409
 30
0.0
 10
111.3230416929673
 20
-32.31162907351452
 30
0.0
 10
108.2900084612093
 20
-32.31337734912839
 30
0.0
 10
108.1526030662478
 20
-32.31345656766859
 30
0.0
 10
108.0669910874244
 20
-32.24999882459026
 30
0.0
 10
107.9525806874921
 20
-32.17431841005047
 30
0.0
 10
107.6103189294227
 20
-31.94791956144766
 30
0.0
 10
107.5902648116773
 20
-31.64295460701128
 30
0.0
 10
107.5974771326286
 20
-31.28597650987914
 30
0.0
 10
107.6139637455552
 20
-30.4700837213751
 30
0.0
 10
107.6026864832668
 20
-29.65362991806122
 30
0.0
 10
107.602686483304
 20
-28.82473130075078
 30
0.0
 10
106.9495716584264
 20
-28.82473130072126
 30
0.0
 10
106.303442307154
 20
-28.82473130069238
 30
0.0
 10
105.6360198244554
 20
-28.82473130066223
 30
0.0
 10
105.6360198244529
 20
-28.88193802650911
 30
0.0
 10
105.6360198244503
 20
-28.9408374606826
 30
0.0
 10
105.6360198244477
 20
-28.99973638622971
 30
0.0
 10
105.6360198244099
 20
-29.84409775168839
 30
0.0
 10
105.6290079021995
 20
-30.68855829927487
 30
0.0
 10
105.6409677409808
 20
-31.53275003786316
 30
0.0
 10
105.6439442220795
 20
-31.74292739501946
 30
0.0
 10
105.5815744306543
 20
-31.88747301313494
 30
0.0
 10
105.4368244719133
 20
-32.03926401289134
 30
0.0
 10
105.2419239599833
 20
-32.24364531903586
 30
0.0
 10
105.0400145776445
 20
-32.32072699901845
 30
0.0
 10
104.7519245722794
 20
-32.31954024669098
 30
0.0
 10
101.7856510855364
 20
-32.30732062685529
 30
0.0
 10
98.81930842561601
 20
-32.31204118741309
 30
0.0
 10
95.85298534780851
 20
-32.31204118727993
 30
0.0
 10
95.78727082984058
 20
-32.31204118727673
 30
0.0
 10
95.72155618471581
 20
-32.31204118727383
 30
0.0
 10
95.63601973689524
 20
-32.31204118726998
 30
0.0
  0
SPLINE
  5
42
330
1F
100
AcDbEntity
  8
_U_30EC_U_30A4_U_30E4_U_30
100
AcDbSpline
210
0.0
220
0.0
230
1.0
 70
    11
 71
     3
 72
   149
 73
   145
 74
     0
 42
0.0000000001
 43
0.0000000001
 12
1.0
 22
0.0
 32
0.0
 13
1.0
 23
0.0
 33
0.0
 40
0.0
 40
0.0
 40
0.0
 40
0.0
 40
1.0
 40
1.0
 40
1.0
 40
2.0
 40
2.0
 40
2.0
 40
3.0
 40
3.0
 40
3.0
 40
4.0
 40
4.0
 40
4.0
 40
5.0
 40
5.0
 40
5.0
 40
6.0
 40
6.0
 40
6.0
 40
7.0
 40
7.0
 40
7.0
 40
8.0
 40
8.0
 40
8.0
 40
9.0
 40
9.0
 40
9.0
 40
10.0
 40
10.0
 40
10.0
 40
11.0
 40
11.0
 40
11.0
 40
12.0
 40
12.0
 40
12.0
 40
13.0
 40
13.0
 40
13.0
 40
14.0
 40
14.0
 40
14.0
 40
15.0
 40
15.0
 40
15.0
 40
16.0
 40
16.0
 40
16.0
 40
17.0
 40
17.0
 40
17.0
 40
18.0
 40
18.0
 40
18.0
 40
19.0
 40
19.0
 40
19.0
 40
20.0
 40
20.0
 40
20.0
 40
21.0
 40
21.0
 40
21.0
 40
22.0
 40
22.0
 40
22.0
 40
23.0
 40
23.0
 40
23.0
 40
24.0
 40
24.0
 40
24.0
 40
25.0
 40
25.0
 40
25.0
 40
26.0
 40
26.0
 40
26.0
 40
27.0
 40
27.0
 40
27.0
 40
28.0
 40
28.0
 40
28.0
 40
29.0
 40
29.0
 40
29.0
 40
30.0
 40
30.0
 40
30.0
 40
31.0
 40
31.0
 40
31.0
 40
32.0
 40
32.0
 40
32.0
 40
33.0
 40
33.0
 40
33.0
 40
34.0
 40
34.0
 40
34.0
 40
35.0
 40
35.0
 40
35.0
 40
36.0
 40
36.0
 40
36.0
 40
37.0
 40
37.0
 40
37.0
 40
38.0
 40
38.0
 40
38.0
 40
39.0
 40
39.0
 40
39.0
 40
40.0
 40
40.0
 40
40.0
 40
41.0
 40
41.0
 40
41.0
 40
42.0
 40
42.0
 40
42.0
 40
43.0
 40
43.0
 40
43.0
 40
44.0
 40
44.0
 40
44.0
 40
45.0
 40
45.0
 40
45.0
 40
46.0
 40
46.0
 40
46.0
 40
47.0
 40
47.0
 40
47.0
 40
48.0
 40
48.0
 40
48.0
 40
48.0
 10
95.63601973689524
 20
-63.12291958884698
 30
0.0
 10
95.63601973689973
 20
-63.02720514729248
 30
0.0
 10
95.63601973690294
 20
-62.95551986518788
 30
0.0
 10
95.63601973690615
 20
-62.88383458308361
 30
0.0
 10
95.63601973710155
 20
-58.52870815589788
 30
0.0
 10
95.63677987930275
 20
-54.17358071145939
 30
0.0
 10
95.63280623652871
 20
-49.81845886191013
 30
0.0
 10
95.63266954321749
 20
-49.66863688171161
 30
0.0
 10
95.68365386207027
 20
-49.57027771055522
 30
0.0
 10
95.77658942383972
 20
-49.45522135522266
 30
0.0
 10
95.99421612179876
 20
-49.18579386606896
 30
0.0
 10
96.25108969662733
 20
-49.10399556725221
 30
0.0
 10
96.59546060081645
 20
-49.11455668376176
 30
0.0
 10
97.43312984288734
 20
-49.14024638096344
 30
0.0
 10
98.2721180801125
 20
-49.12291951746293
 30
0.0
 10
99.12328893447608
 20
-49.12291951750111
 30
0.0
 10
99.12328893450561
 20
-48.46990641788349
 30
0.0
 10
99.12328893453449
 20
-47.82376587683229
 30
0.0
 10
99.12328893456464
 20
-47.15625285865251
 30
0.0
 10
99.06621546880854
 20
-47.15625285864994
 30
0.0
 10
99.0073272244138
 20
-47.15625285864738
 30
0.0
 10
98.94843898001908
 20
-47.15625285864481
 30
0.0
 10
98.0596376631584
 20
-47.1562528586047
 30
0.0
 10
97.1708266823981
 20
-47.15427938852068
 30
0.0
 10
96.28204749078128
 20
-47.15870240278623
 30
0.0
 10
96.16844898557687
 20
-47.15926596072156
 30
0.0
 10
96.0943140320566
 20
-47.11712728901055
 30
0.0
 10
96.00509182375548
 20
-47.05029582768383
 30
0.0
 10
95.69662294274944
 20
-46.81923503757294
 30
0.0
 10
95.62600119825167
 20
-46.526547050452
 30
0.0
 10
95.62724021193563
 20
-46.14751873164625
 30
0.0
 10
95.64113232225986
 20
-41.89798261572754
 30
0.0
 10
95.63601973803907
 20
-37.64838546465185
 30
0.0
 10
95.63601973822998
 20
-33.39880458961808
 30
0.0
 10
95.63601973823319
 20
-33.32677903651899
 30
0.0
 10
95.63601973823639
 20
-33.25475348341989
 30
0.0
 10
95.63601973824088
 20
-33.15625291415
 30
0.0
 10
95.71089194558466
 20
-33.15625291415353
 30
0.0
 10
95.7802052489388
 20
-33.15625291415642
 30
0.0
 10
95.8495184251361
 20
-33.15625291415962
 30
0.0
 10
98.88255305561648
 20
-33.15625291429566
 30
0.0
 10
101.915587304627
 20
-33.15666388448248
 30
0.0
 10
104.9486205363851
 20
-33.1549203136619
 30
0.0
 10
105.0859984655265
 20
-33.15484300247039
 30
0.0
 10
105.1716470654435
 20
-33.21820359792549
 30
0.0
 10
105.2860808621854
 20
-33.29391567445256
 30
0.0
 10
105.6282927748776
 20
-33.5203255856773
 30
0.0
 10
105.6484648939242
 20
-33.82522467300786
 30
0.0
 10
105.6412383314369
 20
-34.18224168005184
 30
0.0
 10
105.6247232354375
 20
-34.99814133501089
 30
0.0
 10
105.6360198255251
 20
-35.81460251340616
 30
0.0
 10
105.6360198254879
 20
-36.64353520867862
 30
0.0
 10
106.2890614081784
 20
-36.64353520870814
 30
0.0
 10
106.9352019492296
 20
-36.64353520873701
 30
0.0
 10
107.6026864843365
 20
-36.64353520876718
 30
0.0
 10
107.6026864843391
 20
-36.58641647527028
 30
0.0
 10
107.6026864843416
 20
-36.52752568774397
 30
0.0
 10
107.6026864843442
 20
-36.46863286571246
 30
0.0
 10
107.6026864843821
 20
-35.62427251750654
 30
0.0
 10
107.6097045101083
 20
-34.77981044404093
 30
0.0
 10
107.5977344988007
 20
-33.93562099427118
 30
0.0
 10
107.5947559831969
 20
-33.72544440005461
 30
0.0
 10
107.657047446172
 20
-33.58086432250693
 30
0.0
 10
107.8018350432594
 20
-33.42908616556462
 30
0.0
 10
107.9967325034314
 20
-33.22477504984934
 30
0.0
 10
108.1985727125933
 20
-33.1475594739934
 30
0.0
 10
108.4867064598205
 20
-33.14874559053798
 30
0.0
 10
111.4530313178195
 20
-33.16098313945061
 30
0.0
 10
114.4194263662487
 20
-33.15625291499352
 30
0.0
 10
117.3858000523732
 20
-33.15625291512666
 30
0.0
 10
117.4514169140915
 20
-33.15625291512956
 30
0.0
 10
117.5170337758098
 20
-33.15625291513244
 30
0.0
 10
117.6026864447402
 20
-33.15625291513629
 30
0.0
 10
117.602686444737
 20
-33.22734056133807
 30
0.0
 10
117.6026864447341
 20
-33.2863819022492
 30
0.0
 10
117.6026864447315
 20
-33.34542324316033
 30
0.0
 10
117.6026864445345
 20
-37.73387944316286
 30
0.0
 10
117.6020984723346
 20
-42.12233564316539
 30
0.0
 10
117.6057259949097
 20
-46.51078980866271
 30
0.0
 10
117.6058277201642
 20
-46.63385906273077
 30
0.0
 10
117.5531320009692
 20
-46.70723349277538
 30
0.0
 10
117.4841805852238
 20
-46.79902833290205
 30
0.0
 10
117.2601469760749
 20
-47.09729696777411
 30
0.0
 10
116.9792021529691
 20
-47.17844524217859
 30
0.0
 10
116.6097685606884
 20
-47.16538778778673
 30
0.0
 10
115.7834624116307
 20
-47.13618246559999
 30
0.0
 10
114.9554126916145
 20
-47.15625285936319
 30
0.0
 10
114.1153899084955
 20
-47.15625285932565
 30
0.0
 10
114.115389908466
 20
-47.80934021838293
 30
0.0
 10
114.1153899084371
 20
-48.45546956965568
 30
0.0
 10
114.1153899084069
 20
-49.12291951817425
 30
0.0
 10
114.1725534010182
 20
-49.12291951817681
 30
0.0
 10
114.2314482575549
 20
-49.12291951817939
 30
0.0
 10
114.2903431140917
 20
-49.12291951818195
 30
0.0
 10
115.1791451938917
 20
-49.12291951822206
 30
0.0
 10
116.0679554117126
 20
-49.12489705731648
 30
0.0
 10
116.9567351119558
 20
-49.12046488777769
 30
0.0
 10
117.0703622273896
 20
-49.11989929533684
 30
0.0
 10
117.1444650102962
 20
-49.16210917473018
 30
0.0
 10
117.2336678907981
 20
-49.22893554979374
 30
0.0
 10
117.5421029481551
 20
-49.46001159869347
 30
0.0
 10
117.6127124856217
 20
-49.75268941328873
 30
0.0
 10
117.6114734719377
 20
-50.13172993912568
 30
0.0
 10
117.5975696632086
 20
-54.3812660550444
 30
0.0
 10
117.6026864435964
 20
-58.63086371474615
 30
0.0
 10
117.6026864434055
 20
-62.88044509840629
 30
0.0
 10
117.6026864434022
 20
-62.95246365789386
 30
0.0
 10
117.602686443399
 20
-63.02448234453794
 30
0.0
 10
117.6026864433945
 20
-63.12291946267676
 30
0.0
 10
117.5277515478591
 20
-63.12291946267323
 30
0.0
 10
117.4584318866763
 20
-63.12291946267035
 30
0.0
 10
117.3891101909884
 20
-63.12291946266713
 30
0.0
 10
114.3560759419778
 20
-63.12291946253109
 30
0.0
 10
111.3230416929673
 20
-63.12250747509152
 30
0.0
 10
108.2900084612093
 20
-63.12425575070539
 30
0.0
 10
108.1526030662478
 20
-63.12433496924559
 30
0.0
 10
108.0669910874244
 20
-63.06087722616726
 30
0.0
 10
107.9525806874921
 20
-62.98519681162747
 30
0.0
 10
107.6103189294227
 20
-62.75879796302466
 30
0.0
 10
107.5902648116773
 20
-62.45383300858828
 30
0.0
 10
107.5974771326286
 20
-62.09685491145613
 30
0.0
 10
107.6139637455552
 20
-61.2809621229521
 30
0.0
 10
107.6026864832668
 20
-60.46450831963821
 30
0.0
 10
107.602686483304
 20
-59.63560970232778
 30
0.0
 10
106.9495716584264
 20
-59.63560970229826
 30
0.0
 10
106.303442307154
 20
-59.63560970226938
 30
0.0
 10
105.6360198244554
 20
-59.63560970223922
 30
0.0
 10
105.6360198244529
 20
-59.69281642808611
 30
0.0
 10
105.6360198244503
 20
-59.7517158622596
 30
0.0
 10
105.6360198244477
 20
-59.81061478780671
 30
0.0
 10
105.6360198244099
 20
-60.65497615326539
 30
0.0
 10
105.6290079021995
 20
-61.49943670085187
 30
0.0
 10
105.6409677409808
 20
-62.34362843944016
 30
0.0
 10
105.6439442220795
 20
-62.55380579659646
 30
0.0
 10
105.5815744306543
 20
-62.69835141471194
 30
0.0
 10
105.4368244719133
 20
-62.85014241446834
 30
0.0
 10
105.2419239599833
 20
-63.05452372061286
 30
0.0
 10
105.0400145776445
 20
-63.13160540059545
 30
0.0
 10
104.7519245722794
 20
-63.13041864826798
 30
0.0
 10
101.7856510855364
 20
-63.11819902843229
 30
0.0
 10
98.81930842561601
 20
-63.12291958899009
 30
0.0
 10
95.85298534780851
 20
-63.12291958885693
 30
0.0
 10
95.78727082984058
 20
-63.12291958885372
 30
0.0
 10
95.72155618471581
 20
-63.12291958885083
 30
0.0
 10
95.63601973689524
 20
-63.12291958884698
 30
0.0
  0
SPLINE
  5
43
330
1F
100
AcDbEntity
  8
_U_30EC_U_30A4_U_30E4_U_30
100
AcDbSpline
210
0.0
220
0.0
230
1.0
 70
    11
 71
     3
 72
   149
 73
   145
 74
     0
 42
0.0000000001
 43
0.0000000001
 12
1.0
 22
0.0
 32
0.0
 13
1.0
 23
0.0
 33
0.0
 40
0.0
 40
0.0
 40
0.0
 40
0.0
 40
1.0
 40
1.0
 40
1.0
 40
2.0
 40
2.0
 40
2.0
 40
3.0
 40
3.0
 40
3.0
 40
4.0
 40
4.0
 40
4.0
 40
5.0
 40
5.0
 40
5.0
 40
6.0
 40
6.0
 40
6.0
 40
7.0
 40
7.0
 40
7.0
 40
8.0
 40
8.0
 40
8.0
 40
9.0
 40
9.0
 40
9.0
 40
10.0
 40
10.0
 40
10.0
 40
11.0
 40
11.0
 40
11.0
 40
12.0
 40
12.0
 40
12.0
 40
13.0
 40
13.0
 40
13.0
 40
14.0
 40
14.0
 40
14.0
 40
15.0
 40
15.0
 40
15.0
 40
16.0
 40
16.0
 40
16.0
 40
17.0
 40
17.0
 40
17.0
 40
18.0
 40
18.0
 40
18.0
 40
19.0
 40
19.0
 40
19.0
 40
20.0
 40
20.0
 40
20.0
 40
21.0
 40
21.0
 40
21.0
 40
22.0
 40
22.0
 40
22.0
 40
23.0
 40
23.0
 40
23.0
 40
24.0
 40
24.0
 40
24.0
 40
25.0
 40
25.0
 40
25.0
 40
26.0
 40
26.0
 40
26.0
 40
27.0
 40
27.0
 40
27.0
 40
28.0
 40
28.0
 40
28.0
 40
29.0
 40
29.0
 40
29.0
 40
30.0
 40
30.0
 40
30.0
 40
31.0
 40
31.0
 40
31.0
 40
32.0
 40
32.0
 40
32.0
 40
33.0
 40
33.0
 40
33.0
 40
34.0
 40
34.0
 40
34.0
 40
35.0
 40
35.0
 40
35.0
 40
36.0
 40
36.0
 40
36.0
 40
37.0
 40
37.0
 40
37.0
 40
38.0
 40
38.0
 40
38.0
 40
39.0
 40
39.0
 40
39.0
 40
40.0
 40
40.0
 40
40.0
 40
41.0
 40
41.0
 40
41.0
 40
42.0
 40
42.0
 40
42.0
 40
43.0
 40
43.0
 40
43.0
 40
44.0
 40
44.0
 40
44.0
 40
45.0
 40
45.0
 40
45.0
 40
46.0
 40
46.0
 40
46.0
 40
47.0
 40
47.0
 40
47.0
 40
48.0
 40
48.0
 40
48.0
 40
48.0
 10
79.33237315529475
 20
-94.1918753416117
 30
0.0
 10
79.33237315529924
 20
-94.0961609000572
 30
0.0
 10
79.33237315530245
 20
-94.0244756179526
 30
0.0
 10
79.33237315530566
 20
-93.95279033584833
 30
0.0
 10
79.33237315550105
 20
-89.5976639086626
 30
0.0
 10
79.33313329770225
 20
-85.24253646422412
 30
0.0
 10
79.32915965492822
 20
-80.88741461467485
 30
0.0
 10
79.329022961617
 20
-80.73759263447633
 30
0.0
 10
79.38000728046978
 20
-80.63923346331994
 30
0.0
 10
79.47294284223923
 20
-80.52417710798738
 30
0.0
 10
79.69056954019827
 20
-80.25474961883369
 30
0.0
 10
79.94744311502684
 20
-80.17295132001692
 30
0.0
 10
80.29181401921595
 20
-80.18351243652647
 30
0.0
 10
81.12948326128685
 20
-80.20920213372816
 30
0.0
 10
81.968471498512
 20
-80.19187527022764
 30
0.0
 10
82.81964235287559
 20
-80.19187527026583
 30
0.0
 10
82.8196423529051
 20
-79.5388621706482
 30
0.0
 10
82.81964235293398
 20
-78.892721629597
 30
0.0
 10
82.81964235296415
 20
-78.22520861141723
 30
0.0
 10
82.76256888720803
 20
-78.22520861141466
 30
0.0
 10
82.70368064281331
 20
-78.2252086114121
 30
0.0
 10
82.64479239841857
 20
-78.22520861140953
 30
0.0
 10
81.75599108155791
 20
-78.22520861136942
 30
0.0
 10
80.86718010079761
 20
-78.2232351412854
 30
0.0
 10
79.97840090918078
 20
-78.22765815555094
 30
0.0
 10
79.86480240397638
 20
-78.22822171348628
 30
0.0
 10
79.7906674504561
 20
-78.18608304177526
 30
0.0
 10
79.70144524215497
 20
-78.11925158044855
 30
0.0
 10
79.39297636114894
 20
-77.88819079033766
 30
0.0
 10
79.32235461665117
 20
-77.59550280321672
 30
0.0
 10
79.32359363033513
 20
-77.21647448441097
 30
0.0
 10
79.33748574065937
 20
-72.96693836849225
 30
0.0
 10
79.33237315643858
 20
-68.71734121741656
 30
0.0
 10
79.33237315662947
 20
-64.4677603423828
 30
0.0
 10
79.33237315663268
 20
-64.39573478928371
 30
0.0
 10
79.3323731566359
 20
-64.32370923618461
 30
0.0
 10
79.33237315664039
 20
-64.22520866691472
 30
0.0
 10
79.40724536398417
 20
-64.22520866691825
 30
0.0
 10
79.47655866733831
 20
-64.22520866692113
 30
0.0
 10
79.54587184353561
 20
-64.22520866692435
 30
0.0
 10
82.578906474016
 20
-64.22520866706039
 30
0.0
 10
85.6119407230265
 20
-64.22561963724719
 30
0.0
 10
88.64497395478459
 20
-64.22387606642663
 30
0.0
 10
88.78235188392597
 20
-64.22379875523511
 30
0.0
 10
88.86800048384302
 20
-64.2871593506902
 30
0.0
 10
88.98243428058494
 20
-64.36287142721729
 30
0.0
 10
89.3246461932771
 20
-64.589281338442
 30
0.0
 10
89.34481831232374
 20
-64.89418042577257
 30
0.0
 10
89.33759174983643
 20
-65.25119743281655
 30
0.0
 10
89.32107665383703
 20
-66.0670970877756
 30
0.0
 10
89.33237324392465
 20
-66.88355826617088
 30
0.0
 10
89.33237324388743
 20
-67.71249096144334
 30
0.0
 10
89.98541482657785
 20
-67.71249096147285
 30
0.0
 10
90.63155536762905
 20
-67.71249096150173
 30
0.0
 10
91.29903990273603
 20
-67.71249096153188
 30
0.0
 10
91.29903990273858
 20
-67.65537222803499
 30
0.0
 10
91.29903990274116
 20
-67.59648144050868
 30
0.0
 10
91.29903990274373
 20
-67.53758861847717
 30
0.0
 10
91.29903990278159
 20
-66.69322827027125
 30
0.0
 10
91.30605792850785
 20
-65.84876619680564
 30
0.0
 10
91.29408791720023
 20
-65.0045767470359
 30
0.0
 10
91.29110940159637
 20
-64.79440015281932
 30
0.0
 10
91.35340086457147
 20
-64.64982007527165
 30
0.0
 10
91.49818846165888
 20
-64.49804191832933
 30
0.0
 10
91.69308592183091
 20
-64.29373080261406
 30
0.0
 10
91.89492613099284
 20
-64.21651522675812
 30
0.0
 10
92.18305987821999
 20
-64.21770134330269
 30
0.0
 10
95.149384736219
 20
-64.22993889221533
 30
0.0
 10
98.11577978464824
 20
-64.22520866775824
 30
0.0
 10
101.0821534707727
 20
-64.22520866789138
 30
0.0
 10
101.147770332491
 20
-64.22520866789428
 30
0.0
 10
101.2133871942094
 20
-64.22520866789716
 30
0.0
 10
101.2990398631397
 20
-64.22520866790101
 30
0.0
 10
101.2990398631365
 20
-64.29629631410279
 30
0.0
 10
101.2990398631336
 20
-64.35533765501391
 30
0.0
 10
101.299039863131
 20
-64.41437899592505
 30
0.0
 10
101.299039862934
 20
-68.80283519592757
 30
0.0
 10
101.2984518907342
 20
-73.19129139593011
 30
0.0
 10
101.3020794133092
 20
-77.57974556142743
 30
0.0
 10
101.3021811385638
 20
-77.70281481549549
 30
0.0
 10
101.2494854193687
 20
-77.7761892455401
 30
0.0
 10
101.1805340036233
 20
-77.86798408566678
 30
0.0
 10
100.9565003944744
 20
-78.16625272053884
 30
0.0
 10
100.6755555713686
 20
-78.2474009949433
 30
0.0
 10
100.3061219790878
 20
-78.23434354055145
 30
0.0
 10
99.47981583003019
 20
-78.20513821836471
 30
0.0
 10
98.651766110014
 20
-78.22520861212791
 30
0.0
 10
97.811743326895
 20
-78.22520861209037
 30
0.0
 10
97.81174332686548
 20
-78.87829597114765
 30
0.0
 10
97.8117433268366
 20
-79.5244253224204
 30
0.0
 10
97.81174332680645
 20
-80.19187527093897
 30
0.0
 10
97.86890681941775
 20
-80.19187527094154
 30
0.0
 10
97.92780167595446
 20
-80.1918752709441
 30
0.0
 10
97.98669653249117
 20
-80.19187527094667
 30
0.0
 10
98.87549861229125
 20
-80.19187527098677
 30
0.0
 10
99.76430883011214
 20
-80.1938528100812
 30
0.0
 10
100.6530885303553
 20
-80.18942064054241
 30
0.0
 10
100.7667156457891
 20
-80.18885504810156
 30
0.0
 10
100.8408184286957
 20
-80.2310649274949
 30
0.0
 10
100.9300213091976
 20
-80.29789130255845
 30
0.0
 10
101.2384563665546
 20
-80.52896735145818
 30
0.0
 10
101.3090659040212
 20
-80.82164516605344
 30
0.0
 10
101.3078268903372
 20
-81.2006856918904
 30
0.0
 10
101.2939230816082
 20
-85.45022180780911
 30
0.0
 10
101.2990398619959
 20
-89.69981946751086
 30
0.0
 10
101.299039861805
 20
-93.949400851171
 30
0.0
 10
101.2990398618017
 20
-94.02141941065858
 30
0.0
 10
101.2990398617985
 20
-94.09343809730267
 30
0.0
 10
101.2990398617941
 20
-94.19187521544148
 30
0.0
 10
101.2241049662586
 20
-94.19187521543795
 30
0.0
 10
101.1547853050758
 20
-94.19187521543506
 30
0.0
 10
101.0854636093879
 20
-94.19187521543185
 30
0.0
 10
98.05242936037736
 20
-94.19187521529581
 30
0.0
 10
95.01939511136683
 20
-94.19146322785625
 30
0.0
 10
91.98636187960876
 20
-94.19321150347011
 30
0.0
 10
91.84895648464733
 20
-94.1932907220103
 30
0.0
 10
91.76334450582388
 20
-94.12983297893197
 30
0.0
 10
91.64893410589161
 20
-94.05415256439218
 30
0.0
 10
91.3066723478222
 20
-93.82775371578938
 30
0.0
 10
91.28661823007685
 20
-93.522788761353
 30
0.0
 10
91.2938305510281
 20
-93.16581066422086
 30
0.0
 10
91.31031716395469
 20
-92.34991787571681
 30
0.0
 10
91.2990399016663
 20
-91.53346407240294
 30
0.0
 10
91.29903990170352
 20
-90.70456545509249
 30
0.0
 10
90.64592507682589
 20
-90.70456545506298
 30
0.0
 10
89.99979572555345
 20
-90.7045654550341
 30
0.0
 10
89.33237324285493
 20
-90.70456545500394
 30
0.0
 10
89.33237324285237
 20
-90.76177218085083
 30
0.0
 10
89.3323732428498
 20
-90.82067161502432
 30
0.0
 10
89.33237324284723
 20
-90.87957054057142
 30
0.0
 10
89.33237324280937
 20
-91.72393190603012
 30
0.0
 10
89.32536132059903
 20
-92.56839245361658
 30
0.0
 10
89.33732115938032
 20
-93.41258419220487
 30
0.0
 10
89.34029764047898
 20
-93.62276154936119
 30
0.0
 10
89.27792784905384
 20
-93.76730716747666
 30
0.0
 10
89.13317789031278
 20
-93.91909816723306
 30
0.0
 10
88.9382773783828
 20
-94.12347947337759
 30
0.0
 10
88.73636799604405
 20
-94.20056115336017
 30
0.0
 10
88.44827799067887
 20
-94.1993744010327
 30
0.0
 10
85.48200450393593
 20
-94.18715478119701
 30
0.0
 10
82.51566184401551
 20
-94.1918753417548
 30
0.0
 10
79.54933876620802
 20
-94.19187534162165
 30
0.0
 10
79.48362424824009
 20
-94.19187534161844
 30
0.0
 10
79.41790960311532
 20
-94.19187534161556
 30
0.0
 10
79.33237315529475
 20
-94.1918753416117
 30
0.0
  0
SPLINE
  5
44
330
1F
100
AcDbEntity
  8
_U_30EC_U_30A4_U_30E4_U_30
100
AcDbSpline
210
0.0
220
0.0
230
1.0
 70
    11
 71
     3
 72
   149
 73
   145
 74
     0
 42
0.0000000001
 43
0.0000000001
 12
1.0
 22
0.0
 32
0.0
 13
1.0
 23
0.0
 33
0.0
 40
0.0
 40
0.0
 40
0.0
 40
0.0
 40
1.0
 40
1.0
 40
1.0
 40
2.0
 40
2.0
 40
2.0
 40
3.0
 40
3.0
 40
3.0
 40
4.0
 40
4.0
 40
4.0
 40
5.0
 40
5.0
 40
5.0
 40
6.0
 40
6.0
 40
6.0
 40
7.0
 40
7.0
 40
7.0
 40
8.0
 40
8.0
 40
8.0
 40
9.0
 40
9.0
 40
9.0
 40
10.0
 40
10.0
 40
10.0
 40
11.0
 40
11.0
 40
11.0
 40
12.0
 40
12.0
 40
12.0
 40
13.0
 40
13.0
 40
13.0
 40
14.0
 40
14.0
 40
14.0
 40
15.0
 40
15.0
 40
15.0
 40
16.0
 40
16.0
 40
16.0
 40
17.0
 40
17.0
 40
17.0
 40
18.0
 40
18.0
 40
18.0
 40
19.0
 40
19.0
 40
19.0
 40
20.0
 40
20.0
 40
20.0
 40
21.0
 40
21.0
 40
21.0
 40
22.0
 40
22.0
 40
22.0
 40
23.0
 40
23.0
 40
23.0
 40
24.0
 40
24.0
 40
24.0
 40
25.0
 40
25.0
 40
25.0
 40
26.0
 40
26.0
 40
26.0
 40
27.0
 40
27.0
 40
27.0
 40
28.0
 40
28.0
 40
28.0
 40
29.0
 40
29.0
 40
29.0
 40
30.0
 40
30.0
 40
30.0
 40
31.0
 40
31.0
 40
31.0
 40
32.0
 40
32.0
 40
32.0
 40
33.0
 40
33.0
 40
33.0
 40
34.0
 40
34.0
 40
34.0
 40
35.0
 40
35.0
 40
35.0
 40
36.0
 40
36.0
 40
36.0
 40
37.0
 40
37.0
 40
37.0
 40
38.0
 40
38.0
 40
38.0
 40
39.0
 40
39.0
 40
39.0
 40
40.0
 40
40.0
 40
40.0
 40
41.0
 40
41.0
 40
41.0
 40
42.0
 40
42.0
 40
42.0
 40
43.0
 40
43.0
 40
43.0
 40
44.0
 40
44.0
 40
44.0
 40
45.0
 40
45.0
 40
45.0
 40
46.0
 40
46.0
 40
46.0
 40
47.0
 40
47.0
 40
47.0
 40
48.0
 40
48.0
 40
48.0
 40
48.0
 10
68.34024021881005
 20
-63.12291958884698
 30
0.0
 10
68.34024021881454
 20
-63.02720514729248
 30
0.0
 10
68.34024021881775
 20
-62.95551986518788
 30
0.0
 10
68.34024021882097
 20
-62.88383458308361
 30
0.0
 10
68.34024021901637
 20
-58.52870815589788
 30
0.0
 10
68.34100036121757
 20
-54.17358071145939
 30
0.0
 10
68.33702671844352
 20
-49.81845886191013
 30
0.0
 10
68.3368900251323
 20
-49.66863688171161
 30
0.0
 10
68.38787434398509
 20
-49.57027771055522
 30
0.0
 10
68.48080990575454
 20
-49.45522135522266
 30
0.0
 10
68.69843660371357
 20
-49.18579386606896
 30
0.0
 10
68.95531017854215
 20
-49.10399556725221
 30
0.0
 10
69.29968108273127
 20
-49.11455668376176
 30
0.0
 10
70.13735032480217
 20
-49.14024638096344
 30
0.0
 10
70.97633856202732
 20
-49.12291951746293
 30
0.0
 10
71.82750941639091
 20
-49.12291951750111
 30
0.0
 10
71.82750941642043
 20
-48.46990641788349
 30
0.0
 10
71.8275094164493
 20
-47.82376587683229
 30
0.0
 10
71.82750941647946
 20
-47.15625285865251
 30
0.0
 10
71.77043595072335
 20
-47.15625285864994
 30
0.0
 10
71.71154770632862
 20
-47.15625285864738
 30
0.0
 10
71.6526594619339
 20
-47.15625285864481
 30
0.0
 10
70.76385814507321
 20
-47.1562528586047
 30
0.0
 10
69.87504716431292
 20
-47.15427938852068
 30
0.0
 10
68.9862679726961
 20
-47.15870240278623
 30
0.0
 10
68.87266946749169
 20
-47.15926596072156
 30
0.0
 10
68.79853451397142
 20
-47.11712728901055
 30
0.0
 10
68.7093123056703
 20
-47.05029582768383
 30
0.0
 10
68.40084342466426
 20
-46.81923503757294
 30
0.0
 10
68.33022168016649
 20
-46.526547050452
 30
0.0
 10
68.33146069385045
 20
-46.14751873164625
 30
0.0
 10
68.34535280417468
 20
-41.89798261572754
 30
0.0
 10
68.34024021995388
 20
-37.64838546465185
 30
0.0
 10
68.34024022014479
 20
-33.39880458961808
 30
0.0
 10
68.340240220148
 20
-33.32677903651899
 30
0.0
 10
68.3402402201512
 20
-33.25475348341989
 30
0.0
 10
68.3402402201557
 20
-33.15625291415
 30
0.0
 10
68.41511242749948
 20
-33.15625291415353
 30
0.0
 10
68.48442573085362
 20
-33.15625291415642
 30
0.0
 10
68.55373890705093
 20
-33.15625291415962
 30
0.0
 10
71.5867735375313
 20
-33.15625291429566
 30
0.0
 10
74.61980778654183
 20
-33.15666388448248
 30
0.0
 10
77.6528410182999
 20
-33.1549203136619
 30
0.0
 10
77.79021894744128
 20
-33.15484300247039
 30
0.0
 10
77.87586754735833
 20
-33.21820359792549
 30
0.0
 10
77.99030134410026
 20
-33.29391567445256
 30
0.0
 10
78.33251325679241
 20
-33.5203255856773
 30
0.0
 10
78.35268537583906
 20
-33.82522467300786
 30
0.0
 10
78.34545881335174
 20
-34.18224168005184
 30
0.0
 10
78.32894371735233
 20
-34.99814133501089
 30
0.0
 10
78.34024030743996
 20
-35.81460251340616
 30
0.0
 10
78.34024030740274
 20
-36.64353520867862
 30
0.0
 10
78.99328189009317
 20
-36.64353520870814
 30
0.0
 10
79.63942243114437
 20
-36.64353520873701
 30
0.0
 10
80.30690696625133
 20
-36.64353520876718
 30
0.0
 10
80.3069069662539
 20
-36.58641647527028
 30
0.0
 10
80.30690696625646
 20
-36.52752568774397
 30
0.0
 10
80.30690696625904
 20
-36.46863286571246
 30
0.0
 10
80.30690696629689
 20
-35.62427251750654
 30
0.0
 10
80.31392499202316
 20
-34.77981044404093
 30
0.0
 10
80.30195498071554
 20
-33.93562099427118
 30
0.0
 10
80.29897646511168
 20
-33.72544440005461
 30
0.0
 10
80.36126792808678
 20
-33.58086432250693
 30
0.0
 10
80.50605552517419
 20
-33.42908616556462
 30
0.0
 10
80.70095298534622
 20
-33.22477504984934
 30
0.0
 10
80.90279319450816
 20
-33.1475594739934
 30
0.0
 10
81.1909269417353
 20
-33.14874559053798
 30
0.0
 10
84.15725179973433
 20
-33.16098313945061
 30
0.0
 10
87.12364684816356
 20
-33.15625291499352
 30
0.0
 10
90.09002053428803
 20
-33.15625291512666
 30
0.0
 10
90.15563739600634
 20
-33.15625291512956
 30
0.0
 10
90.22125425772467
 20
-33.15625291513244
 30
0.0
 10
90.306906926655
 20
-33.15625291513629
 30
0.0
 10
90.30690692665179
 20
-33.22734056133807
 30
0.0
 10
90.3069069266489
 20
-33.2863819022492
 30
0.0
 10
90.30690692664635
 20
-33.34542324316033
 30
0.0
 10
90.30690692644934
 20
-37.73387944316286
 30
0.0
 10
90.30631895424946
 20
-42.12233564316539
 30
0.0
 10
90.3099464768245
 20
-46.51078980866271
 30
0.0
 10
90.31004820207906
 20
-46.63385906273077
 30
0.0
 10
90.25735248288397
 20
-46.70723349277538
 30
0.0
 10
90.1884010671386
 20
-46.79902833290205
 30
0.0
 10
89.96436745798968
 20
-47.09729696777411
 30
0.0
 10
89.68342263488391
 20
-47.17844524217859
 30
0.0
 10
89.31398904260317
 20
-47.16538778778673
 30
0.0
 10
88.48768289354551
 20
-47.13618246559999
 30
0.0
 10
87.65963317352931
 20
-47.15625285936319
 30
0.0
 10
86.81961039041032
 20
-47.15625285932565
 30
0.0
 10
86.81961039038079
 20
-47.80934021838293
 30
0.0
 10
86.81961039035191
 20
-48.45546956965568
 30
0.0
 10
86.81961039032176
 20
-49.12291951817425
 30
0.0
 10
86.87677388293305
 20
-49.12291951817681
 30
0.0
 10
86.93566873946976
 20
-49.12291951817939
 30
0.0
 10
86.99456359600647
 20
-49.12291951818195
 30
0.0
 10
87.88336567580656
 20
-49.12291951822206
 30
0.0
 10
88.77217589362745
 20
-49.12489705731648
 30
0.0
 10
89.66095559387065
 20
-49.12046488777769
 30
0.0
 10
89.77458270930437
 20
-49.11989929533684
 30
0.0
 10
89.84868549221099
 20
-49.16210917473018
 30
0.0
 10
89.93788837271288
 20
-49.22893554979374
 30
0.0
 10
90.24632343006992
 20
-49.46001159869347
 30
0.0
 10
90.31693296753649
 20
-49.75268941328873
 30
0.0
 10
90.31569395385253
 20
-50.13172993912568
 30
0.0
 10
90.30179014512346
 20
-54.3812660550444
 30
0.0
 10
90.30690692551117
 20
-58.63086371474615
 30
0.0
 10
90.30690692532028
 20
-62.88044509840629
 30
0.0
 10
90.30690692531707
 20
-62.95246365789386
 30
0.0
 10
90.30690692531385
 20
-63.02448234453794
 30
0.0
 10
90.30690692530936
 20
-63.12291946267676
 30
0.0
 10
90.23197202977391
 20
-63.12291946267323
 30
0.0
 10
90.16265236859115
 20
-63.12291946267035
 30
0.0
 10
90.09333067290318
 20
-63.12291946266713
 30
0.0
 10
87.06029642389267
 20
-63.12291946253109
 30
0.0
 10
84.02726217488215
 20
-63.12250747509152
 30
0.0
 10
80.99422894312407
 20
-63.12425575070539
 30
0.0
 10
80.85682354816265
 20
-63.12433496924559
 30
0.0
 10
80.7712115693392
 20
-63.06087722616726
 30
0.0
 10
80.65680116940692
 20
-62.98519681162747
 30
0.0
 10
80.3145394113375
 20
-62.75879796302466
 30
0.0
 10
80.29448529359216
 20
-62.45383300858828
 30
0.0
 10
80.3016976145434
 20
-62.09685491145613
 30
0.0
 10
80.31818422747001
 20
-61.2809621229521
 30
0.0
 10
80.30690696518162
 20
-60.46450831963821
 30
0.0
 10
80.30690696521884
 20
-59.63560970232778
 30
0.0
 10
79.65379214034121
 20
-59.63560970229826
 30
0.0
 10
79.00766278906877
 20
-59.63560970226938
 30
0.0
 10
78.34024030637025
 20
-59.63560970223922
 30
0.0
 10
78.34024030636768
 20
-59.69281642808611
 30
0.0
 10
78.34024030636512
 20
-59.7517158622596
 30
0.0
 10
78.34024030636255
 20
-59.81061478780671
 30
0.0
 10
78.34024030632469
 20
-60.65497615326539
 30
0.0
 10
78.33322838411434
 20
-61.49943670085187
 30
0.0
 10
78.34518822289564
 20
-62.34362843944016
 30
0.0
 10
78.3481647039943
 20
-62.55380579659646
 30
0.0
 10
78.28579491256914
 20
-62.69835141471194
 30
0.0
 10
78.1410449538281
 20
-62.85014241446834
 30
0.0
 10
77.94614444189811
 20
-63.05452372061286
 30
0.0
 10
77.74423505955937
 20
-63.13160540059545
 30
0.0
 10
77.4561450541942
 20
-63.13041864826798
 30
0.0
 10
74.48987156745123
 20
-63.11819902843229
 30
0.0
 10
71.52352890753083
 20
-63.12291958899009
 30
0.0
 10
68.55720582972333
 20
-63.12291958885693
 30
0.0
 10
68.4914913117554
 20
-63.12291958885372
 30
0.0
 10
68.42577666663063
 20
-63.12291958885083
 30
0.0
 10
68.34024021881005
 20
-63.12291958884698
 30
0.0
  0
SPLINE
  5
45
330
1F
100
AcDbEntity
  8
_U_30EC_U_30A4_U_30E4_U_30
100
AcDbSpline
210
0.0
220
0.0
230
1.0
 70
    11
 71
     3
 72
   155
 73
   151
 74
     0
 42
0.0000000001
 43
0.0000000001
 12
1.0
 22
0.0
 32
0.0
 13
1.0
 23
0.0
 33
0.0
 40
0.0
 40
0.0
 40
0.0
 40
0.0
 40
1.0
 40
1.0
 40
1.0
 40
2.0
 40
2.0
 40
2.0
 40
3.0
 40
3.0
 40
3.0
 40
4.0
 40
4.0
 40
4.0
 40
5.0
 40
5.0
 40
5.0
 40
6.0
 40
6.0
 40
6.0
 40
7.0
 40
7.0
 40
7.0
 40
8.0
 40
8.0
 40
8.0
 40
9.0
 40
9.0
 40
9.0
 40
10.0
 40
10.0
 40
10.0
 40
11.0
 40
11.0
 40
11.0
 40
12.0
 40
12.0
 40
12.0
 40
13.0
 40
13.0
 40
13.0
 40
14.0
 40
14.0
 40
14.0
 40
15.0
 40
15.0
 40
15.0
 40
16.0
 40
16.0
 40
16.0
 40
17.0
 40
17.0
 40
17.0
 40
18.0
 40
18.0
 40
18.0
 40
19.0
 40
19.0
 40
19.0
 40
20.0
 40
20.0
 40
20.0
 40
21.0
 40
21.0
 40
21.0
 40
22.0
 40
22.0
 40
22.0
 40
23.0
 40
23.0
 40
23.0
 40
24.0
 40
24.0
 40
24.0
 40
25.0
 40
25.0
 40
25.0
 40
26.0
 40
26.0
 40
26.0
 40
27.0
 40
27.0
 40
27.0
 40
28.0
 40
28.0
 40
28.0
 40
29.0
 40
29.0
 40
29.0
 40
30.0
 40
30.0
 40
30.0
 40
31.0
 40
31.0
 40
31.0
 40
32.0
 40
32.0
 40
32.0
 40
33.0
 40
33.0
 40
33.0
 40
34.0
 40
34.0
 40
34.0
 40
35.0
 40
35.0
 40
35.0
 40
36.0
 40
36.0
 40
36.0
 40
37.0
 40
37.0
 40
37.0
 40
38.0
 40
38.0
 40
38.0
 40
39.0
 40
39.0
 40
39.0
 40
40.0
 40
40.0
 40
40.0
 40
41.0
 40
41.0
 40
41.0
 40
42.0
 40
42.0
 40
42.0
 40
43.0
 40
43.0
 40
43.0
 40
44.0
 40
44.0
 40
44.0
 40
45.0
 40
45.0
 40
45.0
 40
46.0
 40
46.0
 40
46.0
 40
47.0
 40
47.0
 40
47.0
 40
48.0
 40
48.0
 40
48.0
 40
49.0
 40
49.0
 40
49.0
 40
50.0
 40
50.0
 40
50.0
 40
50.0
 10
1.811567852124187
 20
-2.345369239040564
 30
0.0
 10
1.907320440651441
 20
-2.345369239040564
 30
0.0
 10
1.979011190488419
 20
-2.345369239040564
 30
0.0
 10
2.050701940325398
 20
-2.345369239040564
 30
0.0
 10
6.405900338132863
 20
-2.345369239040564
 30
0.0
 10
10.7611000075058
 20
-2.346133958682506
 30
0.0
 10
15.11629408198951
 20
-2.342139080565469
 30
0.0
 10
15.26621677019561
 20
-2.342001497151262
 30
0.0
 10
15.36444064675827
 20
-2.39330726782119
 30
0.0
 10
15.47945122572815
 20
-2.486136781002071
 30
0.0
 10
15.74903944080229
 20
-2.703729400986566
 30
0.0
 10
15.83044101111656
 20
-2.960840758607333
 30
0.0
 10
15.81991142945285
 20
-3.305096077469897
 30
0.0
 10
15.79428887096095
 20
-4.14275196810128
 30
0.0
 10
15.81156792362664
 20
-4.981719605961082
 30
0.0
 10
15.81156792362664
 20
-5.83275440278928
 30
0.0
 10
16.46484550892029
 20
-5.83275440278928
 30
0.0
 10
17.11097994645589
 20
-5.83275440278928
 30
0.0
 10
17.77823458247524
 20
-5.83275440278928
 30
0.0
 10
17.77823458247524
 20
-5.775273018740681
 30
0.0
 10
17.77823458247524
 20
-5.716348661878409
 30
0.0
 10
17.77823458247524
 20
-5.657424813642516
 30
0.0
 10
17.77823458247524
 20
-4.768608746619377
 30
0.0
 10
17.78023043207667
 20
-3.879782507069917
 30
0.0
 10
17.77575858964654
 20
-2.990989073917012
 30
0.0
 10
17.77518689368527
 20
-2.877240778267205
 30
0.0
 10
17.817693810834
 20
-2.803262100175876
 30
0.0
 10
17.88450899611526
 20
-2.71416069061809
 30
0.0
 10
18.11566744246197
 20
-2.405899201975375
 30
0.0
 10
18.40828625640289
 20
-2.335296022324282
 30
0.0
 10
18.78739798992185
 20
-2.336541902446243
 30
0.0
 10
23.03700531352322
 20
-2.350510560838099
 30
0.0
 10
27.2866716377754
 20
-2.345369239040564
 30
0.0
 10
31.53632372049117
 20
-2.345369239040564
 30
0.0
 10
31.60827806590826
 20
-2.345369239040564
 30
0.0
 10
31.68023037682014
 20
-2.345369239040564
 30
0.0
 10
31.77823452682117
 20
-2.345369239040564
 30
0.0
 10
31.77823452682117
 20
-2.409723181655912
 30
0.0
 10
31.77823452682117
 20
-2.467954408027476
 30
0.0
 10
31.77823452682117
 20
-2.526185761555875
 30
0.0
 10
31.77823452682117
 20
-6.920269657255314
 30
0.0
 10
31.77780728072912
 20
-11.31435431589416
 30
0.0
 10
31.78058438032745
 20
-15.70843694002813
 30
0.0
 10
31.78065762251466
 20
-15.8236296072136
 30
0.0
 10
31.73180508364637
 20
-15.89497767008069
 30
0.0
 10
31.66568163013319
 20
-15.98262110234963
 30
0.0
 10
31.43776821958087
 20
-16.28471155525013
 30
0.0
 10
31.15178596160315
 20
-16.36921269423713
 30
0.0
 10
30.77673306595868
 20
-16.35441472066331
 30
0.0
 10
30.01131965754309
 20
-16.32421249096566
 30
0.0
 10
29.24387988194805
 20
-16.34536931054302
 30
0.0
 10
28.47727628799031
 20
-16.34536931054302
 30
0.0
 10
28.41732348874948
 20
-16.34536931054302
 30
0.0
 10
28.35737068950864
 20
-16.34536931054302
 30
0.0
 10
28.28789844043585
 20
-16.34536931054302
 30
0.0
 10
28.28789844043585
 20
-17.00064071093291
 30
0.0
 10
28.28789844043585
 20
-17.64286076046324
 30
0.0
 10
28.28789844043585
 20
-18.31203596939161
 30
0.0
 10
28.34162565376394
 20
-18.31203596939161
 30
0.0
 10
28.39974129480895
 20
-18.31203596939161
 30
0.0
 10
28.45785490134877
 20
-18.31203596939161
 30
0.0
 10
29.35222542188193
 20
-18.31203596939161
 30
0.0
 10
30.24660408043589
 20
-18.3136472975102
 30
0.0
 10
31.14096035943265
 20
-18.30991601497296
 30
0.0
 10
31.24808519624638
 20
-18.3094684238289
 30
0.0
 10
31.31854214583608
 20
-18.34998559489179
 30
0.0
 10
31.40312263052589
 20
-18.41289046117819
 30
0.0
 10
31.71722785388661
 20
-18.64649234827038
 30
0.0
 10
31.78875291870644
 20
-18.94371117846906
 30
0.0
 10
31.78742235230548
 20
-19.32954491716963
 30
0.0
 10
31.77279629442091
 20
-23.5791461372554
 30
0.0
 10
31.77823452682117
 20
-27.82881449601278
 30
0.0
 10
31.77823452682117
 20
-32.07846657872855
 30
0.0
 10
31.77823452682117
 20
-32.14972715787236
 30
0.0
 10
31.77823452682117
 20
-32.22098570251096
 30
0.0
 10
31.77823452682117
 20
-32.31203591373755
 30
0.0
 10
31.70715705314539
 20
-32.31203591373755
 30
0.0
 10
31.64811774673947
 20
-32.31203591373755
 30
0.0
 10
31.58907640582834
 20
-32.31203591373755
 30
0.0
 10
27.2005469636386
 20
-32.31203591373755
 30
0.0
 10
22.81201752144886
 20
-32.31144387272428
 30
0.0
 10
18.42349011376432
 20
-32.31508970604312
 30
0.0
 10
18.30032523795186
 20
-32.31519346580833
 30
0.0
 10
18.22708711975342
 20
-32.26223326094073
 30
0.0
 10
18.13532076269634
 20
-32.19336729441763
 30
0.0
 10
17.83686495333591
 20
-31.96938658241739
 30
0.0
 10
17.75608492436016
 20
-31.68823220527985
 30
0.0
 10
17.76911389566254
 20
-31.31889016573247
 30
0.0
 10
17.79826632067685
 20
-30.49259215469432
 30
0.0
 10
17.77823458247524
 20
-29.66455871072037
 30
0.0
 10
17.77823458247524
 20
-28.82464375637699
 30
0.0
 10
17.12494377289762
 20
-28.82464375637699
 30
0.0
 10
16.47880933536202
 20
-28.82464375637699
 30
0.0
 10
15.81156792362664
 20
-28.82464375637699
 30
0.0
 10
15.81156792362664
 20
-28.88214701135673
 30
0.0
 10
15.81156792362664
 20
-28.94107441997664
 30
0.0
 10
15.81156792362664
 20
-28.99999979409135
 30
0.0
 10
15.81156792362664
 20
-29.88881611542784
 30
0.0
 10
15.80957003952
 20
-30.77764057478513
 30
0.0
 10
15.8140449337081
 20
-31.66643451656442
 30
0.0
 10
15.81461866417457
 20
-31.78019184033095
 30
0.0
 10
15.77209140197351
 20
-31.85416034589628
 30
0.0
 10
15.70528130295541
 20
-31.94325946663583
 30
0.0
 10
15.47412183935594
 20
-32.25151955655624
 30
0.0
 10
15.18149692189974
 20
-32.32211078348917
 30
0.0
 10
14.80238417112802
 20
-32.32086566630662
 30
0.0
 10
10.55277989928429
 20
-32.30689471909653
 30
0.0
 10
6.303111031900856
 20
-32.31203591373755
 30
0.0
 10
2.053459712124491
 20
-32.31203591373755
 30
0.0
 10
1.981508545621881
 20
-32.31203591373755
 30
0.0
 10
1.90955737911895
 20
-32.31203591373755
 30
0.0
 10
1.811569123689978
 20
-32.31203591373755
 30
0.0
 10
1.811569123689978
 20
-32.24766823821218
 30
0.0
 10
1.811569250846492
 20
-32.18943459586555
 30
0.0
 10
1.811569250846492
 20
-32.13120095351892
 30
0.0
 10
1.811568869376627
 20
-27.73711731213251
 30
0.0
 10
1.811995479685784
 20
-23.3430336707461
 30
0.0
 10
1.809219015870343
 20
-18.94895206386489
 30
0.0
 10
1.809146155153
 20
-18.83375837942699
 30
0.0
 10
1.858016241628689
 20
-18.76241642007518
 30
0.0
 10
1.924134863192061
 20
-18.6747719705538
 30
0.0
 10
2.152045476299762
 20
-18.37266218985373
 30
0.0
 10
2.438046299137314
 20
-18.28819970646553
 30
0.0
 10
2.813089276568816
 20
-18.30299259377652
 30
0.0
 10
3.578501667731969
 20
-18.33318668545336
 30
0.0
 10
4.345939917447865
 20
-18.31203596939161
 30
0.0
 10
5.112543511405923
 20
-18.31203596939161
 30
0.0
 10
5.172494784767618
 20
-18.31203596939161
 30
0.0
 10
5.232446058129636
 20
-18.31203596939161
 30
0.0
 10
5.30190915192886
 20
-18.31203596939161
 30
0.0
 10
5.30190915192886
 20
-17.65673913768687
 30
0.0
 10
5.30190915192886
 20
-17.01452824342979
 30
0.0
 10
5.30190915192886
 20
-16.34537032779578
 30
0.0
 10
5.248159559043893
 20
-16.34537032779578
 30
0.0
 10
5.190042900746117
 20
-16.34537134504821
 30
0.0
 10
5.131926242448341
 20
-16.34537134504821
 30
0.0
 10
4.237555213289123
 20
-16.34537032779578
 30
0.0
 10
3.343177571987602
 20
-16.34375594791922
 30
0.0
 10
2.448822055930255
 20
-16.34749129946687
 30
0.0
 10
2.341689208252558
 20
-16.34793889061093
 30
0.0
 10
2.271241032466229
 20
-16.30739527098043
 30
0.0
 10
2.18666537972655
 20
-16.2444995599676
 30
0.0
 10
1.872547186394903
 20
-16.01090275913824
 30
0.0
 10
1.801053656405833
 20
-15.7136666356452
 30
0.0
 10
1.802381425362183
 20
-15.32784001771299
 30
0.0
 10
1.817005575898064
 20
-11.07825202191118
 30
0.0
 10
1.811567852124187
 20
-6.828595870184688
 30
0.0
 10
1.811567852124187
 20
-2.578958283318666
 30
0.0
 10
1.811567852124187
 20
-2.507780228792149
 30
0.0
 10
1.811567852124187
 20
-2.436602174265311
 30
0.0
 10
1.811567852124187
 20
-2.345369239040564
 30
0.0
  0
SPLINE
  5
46
330
1F
100
AcDbEntity
  8
_U_30EC_U_30A4_U_30E4_U_30
100
AcDbSpline
210
0.0
220
0.0
230
1.0
 70
    11
 71
     3
 72
   155
 73
   151
 74
     0
 42
0.0000000001
 43
0.0000000001
 12
1.0
 22
0.0
 32
0.0
 13
1.0
 23
0.0
 33
0.0
 40
0.0
 40
0.0
 40
0.0
 40
0.0
 40
1.0
 40
1.0
 40
1.0
 40
2.0
 40
2.0
 40
2.0
 40
3.0
 40
3.0
 40
3.0
 40
4.0
 40
4.0
 40
4.0
 40
5.0
 40
5.0
 40
5.0
 40
6.0
 40
6.0
 40
6.0
 40
7.0
 40
7.0
 40
7.0
 40
8.0
 40
8.0
 40
8.0
 40
9.0
 40
9.0
 40
9.0
 40
10.0
 40
10.0
 40
10.0
 40
11.0
 40
11.0
 40
11.0
 40
12.0
 40
12.0
 40
12.0
 40
13.0
 40
13.0
 40
13.0
 40
14.0
 40
14.0
 40
14.0
 40
15.0
 40
15.0
 40
15.0
 40
16.0
 40
16.0
 40
16.0
 40
17.0
 40
17.0
 40
17.0
 40
18.0
 40
18.0
 40
18.0
 40
19.0
 40
19.0
 40
19.0
 40
20.0
 40
20.0
 40
20.0
 40
21.0
 40
21.0
 40
21.0
 40
22.0
 40
22.0
 40
22.0
 40
23.0
 40
23.0
 40
23.0
 40
24.0
 40
24.0
 40
24.0
 40
25.0
 40
25.0
 40
25.0
 40
26.0
 40
26.0
 40
26.0
 40
27.0
 40
27.0
 40
27.0
 40
28.0
 40
28.0
 40
28.0
 40
29.0
 40
29.0
 40
29.0
 40
30.0
 40
30.0
 40
30.0
 40
31.0
 40
31.0
 40
31.0
 40
32.0
 40
32.0
 40
32.0
 40
33.0
 40
33.0
 40
33.0
 40
34.0
 40
34.0
 40
34.0
 40
35.0
 40
35.0
 40
35.0
 40
36.0
 40
36.0
 40
36.0
 40
37.0
 40
37.0
 40
37.0
 40
38.0
 40
38.0
 40
38.0
 40
39.0
 40
39.0
 40
39.0
 40
40.0
 40
40.0
 40
40.0
 40
41.0
 40
41.0
 40
41.0
 40
42.0
 40
42.0
 40
42.0
 40
43.0
 40
43.0
 40
43.0
 40
44.0
 40
44.0
 40
44.0
 40
45.0
 40
45.0
 40
45.0
 40
46.0
 40
46.0
 40
46.0
 40
47.0
 40
47.0
 40
47.0
 40
48.0
 40
48.0
 40
48.0
 40
49.0
 40
49.0
 40
49.0
 40
50.0
 40
50.0
 40
50.0
 40
50.0
 10
32.94033100080901
 20
-2.345369239040564
 30
0.0
 10
33.03608358933626
 20
-2.345369239040564
 30
0.0
 10
33.10777433917325
 20
-2.345369239040564
 30
0.0
 10
33.17946508901022
 20
-2.345369239040564
 30
0.0
 10
37.53466348681768
 20
-2.345369239040564
 30
0.0
 10
41.88986315619062
 20
-2.346133958682506
 30
0.0
 10
46.24505723067433
 20
-2.342139080565469
 30
0.0
 10
46.39497991888043
 20
-2.342001497151262
 30
0.0
 10
46.49320379544309
 20
-2.39330726782119
 30
0.0
 10
46.60821437441297
 20
-2.486136781002071
 30
0.0
 10
46.87780258948712
 20
-2.703729400986566
 30
0.0
 10
46.95920415980138
 20
-2.960840758607333
 30
0.0
 10
46.94867457813767
 20
-3.305096077469897
 30
0.0
 10
46.92305201964578
 20
-4.14275196810128
 30
0.0
 10
46.94033107231147
 20
-4.981719605961082
 30
0.0
 10
46.94033107231147
 20
-5.83275440278928
 30
0.0
 10
47.59360865760512
 20
-5.83275440278928
 30
0.0
 10
48.23974309514072
 20
-5.83275440278928
 30
0.0
 10
48.90699773116006
 20
-5.83275440278928
 30
0.0
 10
48.90699773116006
 20
-5.775273018740681
 30
0.0
 10
48.90699773116006
 20
-5.716348661878409
 30
0.0
 10
48.90699773116006
 20
-5.657424813642516
 30
0.0
 10
48.90699773116006
 20
-4.768608746619377
 30
0.0
 10
48.9089935807615
 20
-3.879782507069917
 30
0.0
 10
48.90452173833136
 20
-2.990989073917012
 30
0.0
 10
48.90395004237009
 20
-2.877240778267205
 30
0.0
 10
48.94645695951882
 20
-2.803262100175876
 30
0.0
 10
49.01327214480009
 20
-2.71416069061809
 30
0.0
 10
49.24443059114679
 20
-2.405899201975375
 30
0.0
 10
49.53704940508771
 20
-2.335296022324282
 30
0.0
 10
49.91616113860668
 20
-2.336541902446243
 30
0.0
 10
54.16576846220804
 20
-2.350510560838099
 30
0.0
 10
58.41543478646022
 20
-2.345369239040564
 30
0.0
 10
62.66508686917599
 20
-2.345369239040564
 30
0.0
 10
62.73704121459308
 20
-2.345369239040564
 30
0.0
 10
62.80899352550497
 20
-2.345369239040564
 30
0.0
 10
62.906997675506
 20
-2.345369239040564
 30
0.0
 10
62.906997675506
 20
-2.409723181655912
 30
0.0
 10
62.906997675506
 20
-2.467954408027476
 30
0.0
 10
62.906997675506
 20
-2.526185761555875
 30
0.0
 10
62.906997675506
 20
-6.920269657255314
 30
0.0
 10
62.90657042941395
 20
-11.31435431589416
 30
0.0
 10
62.90934752901228
 20
-15.70843694002813
 30
0.0
 10
62.90942077119949
 20
-15.8236296072136
 30
0.0
 10
62.86056823233119
 20
-15.89497767008069
 30
0.0
 10
62.79444477881801
 20
-15.98262110234963
 30
0.0
 10
62.5665313682657
 20
-16.28471155525013
 30
0.0
 10
62.28054911028798
 20
-16.36921269423713
 30
0.0
 10
61.90549621464351
 20
-16.35441472066331
 30
0.0
 10
61.14008280622791
 20
-16.32421249096566
 30
0.0
 10
60.37264303063287
 20
-16.34536931054302
 30
0.0
 10
59.60603943667514
 20
-16.34536931054302
 30
0.0
 10
59.5460866374343
 20
-16.34536931054302
 30
0.0
 10
59.48613383819347
 20
-16.34536931054302
 30
0.0
 10
59.41666158912068
 20
-16.34536931054302
 30
0.0
 10
59.41666158912068
 20
-17.00064071093291
 30
0.0
 10
59.41666158912068
 20
-17.64286076046324
 30
0.0
 10
59.41666158912068
 20
-18.31203596939161
 30
0.0
 10
59.47038880244877
 20
-18.31203596939161
 30
0.0
 10
59.52850444349378
 20
-18.31203596939161
 30
0.0
 10
59.58661805003359
 20
-18.31203596939161
 30
0.0
 10
60.48098857056675
 20
-18.31203596939161
 30
0.0
 10
61.37536722912071
 20
-18.3136472975102
 30
0.0
 10
62.26972350811747
 20
-18.30991601497296
 30
0.0
 10
62.3768483449312
 20
-18.3094684238289
 30
0.0
 10
62.44730529452091
 20
-18.34998559489179
 30
0.0
 10
62.53188577921072
 20
-18.41289046117819
 30
0.0
 10
62.84599100257143
 20
-18.64649234827038
 30
0.0
 10
62.91751606739127
 20
-18.94371117846906
 30
0.0
 10
62.9161855009903
 20
-19.32954491716963
 30
0.0
 10
62.90155944310574
 20
-23.5791461372554
 30
0.0
 10
62.906997675506
 20
-27.82881449601278
 30
0.0
 10
62.906997675506
 20
-32.07846657872855
 30
0.0
 10
62.906997675506
 20
-32.14972715787236
 30
0.0
 10
62.906997675506
 20
-32.22098570251096
 30
0.0
 10
62.906997675506
 20
-32.31203591373755
 30
0.0
 10
62.83592020183021
 20
-32.31203591373755
 30
0.0
 10
62.77688089542429
 20
-32.31203591373755
 30
0.0
 10
62.71783955451316
 20
-32.31203591373755
 30
0.0
 10
58.32931011232343
 20
-32.31203591373755
 30
0.0
 10
53.94078067013368
 20
-32.31144387272428
 30
0.0
 10
49.55225326244915
 20
-32.31508970604312
 30
0.0
 10
49.42908838663668
 20
-32.31519346580833
 30
0.0
 10
49.35585026843824
 20
-32.26223326094073
 30
0.0
 10
49.26408391138116
 20
-32.19336729441763
 30
0.0
 10
48.96562810202074
 20
-31.96938658241739
 30
0.0
 10
48.88484807304499
 20
-31.68823220527985
 30
0.0
 10
48.89787704434736
 20
-31.31889016573247
 30
0.0
 10
48.92702946936168
 20
-30.49259215469432
 30
0.0
 10
48.90699773116006
 20
-29.66455871072037
 30
0.0
 10
48.90699773116006
 20
-28.82464375637699
 30
0.0
 10
48.25370692158244
 20
-28.82464375637699
 30
0.0
 10
47.60757248404685
 20
-28.82464375637699
 30
0.0
 10
46.94033107231147
 20
-28.82464375637699
 30
0.0
 10
46.94033107231147
 20
-28.88214701135673
 30
0.0
 10
46.94033107231147
 20
-28.94107441997664
 30
0.0
 10
46.94033107231147
 20
-28.99999979409135
 30
0.0
 10
46.94033107231147
 20
-29.88881611542784
 30
0.0
 10
46.93833318820482
 20
-30.77764057478513
 30
0.0
 10
46.94280808239292
 20
-31.66643451656442
 30
0.0
 10
46.94338181285939
 20
-31.78019184033095
 30
0.0
 10
46.90085455065834
 20
-31.85416034589628
 30
0.0
 10
46.83404445164023
 20
-31.94325946663583
 30
0.0
 10
46.60288498804077
 20
-32.25151955655624
 30
0.0
 10
46.31026007058457
 20
-32.32211078348917
 30
0.0
 10
45.93114731981284
 20
-32.32086566630662
 30
0.0
 10
41.68154304796911
 20
-32.30689471909653
 30
0.0
 10
37.43187418058568
 20
-32.31203591373755
 30
0.0
 10
33.18222286080932
 20
-32.31203591373755
 30
0.0
 10
33.1102716943067
 20
-32.31203591373755
 30
0.0
 10
33.03832052780378
 20
-32.31203591373755
 30
0.0
 10
32.9403322723748
 20
-32.31203591373755
 30
0.0
 10
32.9403322723748
 20
-32.24766823821218
 30
0.0
 10
32.94033239953131
 20
-32.18943459586555
 30
0.0
 10
32.94033239953131
 20
-32.13120095351892
 30
0.0
 10
32.94033201806145
 20
-27.73711731213251
 30
0.0
 10
32.94075862837061
 20
-23.3430336707461
 30
0.0
 10
32.93798216455517
 20
-18.94895206386489
 30
0.0
 10
32.93790930383783
 20
-18.83375837942699
 30
0.0
 10
32.98677939031352
 20
-18.76241642007518
 30
0.0
 10
33.05289801187688
 20
-18.6747719705538
 30
0.0
 10
33.28080862498459
 20
-18.37266218985373
 30
0.0
 10
33.56680944782214
 20
-18.28819970646553
 30
0.0
 10
33.94185242525364
 20
-18.30299259377652
 30
0.0
 10
34.7072648164168
 20
-18.33318668545336
 30
0.0
 10
35.47470306613269
 20
-18.31203596939161
 30
0.0
 10
36.24130666009075
 20
-18.31203596939161
 30
0.0
 10
36.30125793345244
 20
-18.31203596939161
 30
0.0
 10
36.36120920681446
 20
-18.31203596939161
 30
0.0
 10
36.43067230061369
 20
-18.31203596939161
 30
0.0
 10
36.43067230061369
 20
-17.65673913768687
 30
0.0
 10
36.43067230061369
 20
-17.01452824342979
 30
0.0
 10
36.43067230061369
 20
-16.34537032779578
 30
0.0
 10
36.37692270772872
 20
-16.34537032779578
 30
0.0
 10
36.31880604943094
 20
-16.34537134504821
 30
0.0
 10
36.26068939113316
 20
-16.34537134504821
 30
0.0
 10
35.36631836197395
 20
-16.34537032779578
 30
0.0
 10
34.47194072067243
 20
-16.34375594791922
 30
0.0
 10
33.57758520461508
 20
-16.34749129946687
 30
0.0
 10
33.47045235693739
 20
-16.34793889061093
 30
0.0
 10
33.40000418115105
 20
-16.30739527098043
 30
0.0
 10
33.31542852841137
 20
-16.2444995599676
 30
0.0
 10
33.00131033507973
 20
-16.01090275913824
 30
0.0
 10
32.92981680509066
 20
-15.7136666356452
 30
0.0
 10
32.93114457404701
 20
-15.32784001771299
 30
0.0
 10
32.94576872458289
 20
-11.07825202191118
 30
0.0
 10
32.94033100080901
 20
-6.828595870184688
 30
0.0
 10
32.94033100080901
 20
-2.578958283318666
 30
0.0
 10
32.94033100080901
 20
-2.507780228792149
 30
0.0
 10
32.94033100080901
 20
-2.436602174265311
 30
0.0
 10
32.94033100080901
 20
-2.345369239040564
 30
0.0
  0
SPLINE
  5
47
330
1F
100
AcDbEntity
  8
_U_30EC_U_30A4_U_30E4_U_30
100
AcDbSpline
210
0.0
220
0.0
230
1.0
 70
    11
 71
     3
 72
   155
 73
   151
 74
     0
 42
0.0000000001
 43
0.0000000001
 12
1.0
 22
0.0
 32
0.0
 13
1.0
 23
0.0
 33
0.0
 40
0.0
 40
0.0
 40
0.0
 40
0.0
 40
1.0
 40
1.0
 40
1.0
 40
2.0
 40
2.0
 40
2.0
 40
3.0
 40
3.0
 40
3.0
 40
4.0
 40
4.0
 40
4.0
 40
5.0
 40
5.0
 40
5.0
 40
6.0
 40
6.0
 40
6.0
 40
7.0
 40
7.0
 40
7.0
 40
8.0
 40
8.0
 40
8.0
 40
9.0
 40
9.0
 40
9.0
 40
10.0
 40
10.0
 40
10.0
 40
11.0
 40
11.0
 40
11.0
 40
12.0
 40
12.0
 40
12.0
 40
13.0
 40
13.0
 40
13.0
 40
14.0
 40
14.0
 40
14.0
 40
15.0
 40
15.0
 40
15.0
 40
16.0
 40
16.0
 40
16.0
 40
17.0
 40
17.0
 40
17.0
 40
18.0
 40
18.0
 40
18.0
 40
19.0
 40
19.0
 40
19.0
 40
20.0
 40
20.0
 40
20.0
 40
21.0
 40
21.0
 40
21.0
 40
22.0
 40
22.0
 40
22.0
 40
23.0
 40
23.0
 40
23.0
 40
24.0
 40
24.0
 40
24.0
 40
25.0
 40
25.0
 40
25.0
 40
26.0
 40
26.0
 40
26.0
 40
27.0
 40
27.0
 40
27.0
 40
28.0
 40
28.0
 40
28.0
 40
29.0
 40
29.0
 40
29.0
 40
30.0
 40
30.0
 40
30.0
 40
31.0
 40
31.0
 40
31.0
 40
32.0
 40
32.0
 40
32.0
 40
33.0
 40
33.0
 40
33.0
 40
34.0
 40
34.0
 40
34.0
 40
35.0
 40
35.0
 40
35.0
 40
36.0
 40
36.0
 40
36.0
 40
37.0
 40
37.0
 40
37.0
 40
38.0
 40
38.0
 40
38.0
 40
39.0
 40
39.0
 40
39.0
 40
40.0
 40
40.0
 40
40.0
 40
41.0
 40
41.0
 40
41.0
 40
42.0
 40
42.0
 40
42.0
 40
43.0
 40
43.0
 40
43.0
 40
44.0
 40
44.0
 40
44.0
 40
45.0
 40
45.0
 40
45.0
 40
46.0
 40
46.0
 40
46.0
 40
47.0
 40
47.0
 40
47.0
 40
48.0
 40
48.0
 40
48.0
 40
49.0
 40
49.0
 40
49.0
 40
50.0
 40
50.0
 40
50.0
 40
50.0
 10
64.34024200454893
 20
-2.345369239040564
 30
0.0
 10
64.43599459307619
 20
-2.345369239040564
 30
0.0
 10
64.50768534291316
 20
-2.345369239040564
 30
0.0
 10
64.57937609275014
 20
-2.345369239040564
 30
0.0
 10
68.93457449055761
 20
-2.345369239040564
 30
0.0
 10
73.28977415993054
 20
-2.346133958682506
 30
0.0
 10
77.64496823441426
 20
-2.342139080565469
 30
0.0
 10
77.79489092262035
 20
-2.342001497151262
 30
0.0
 10
77.89311479918301
 20
-2.39330726782119
 30
0.0
 10
78.0081253781529
 20
-2.486136781002071
 30
0.0
 10
78.27771359322703
 20
-2.703729400986566
 30
0.0
 10
78.3591151635413
 20
-2.960840758607333
 30
0.0
 10
78.34858558187759
 20
-3.305096077469897
 30
0.0
 10
78.3229630233857
 20
-4.14275196810128
 30
0.0
 10
78.34024207605138
 20
-4.981719605961082
 30
0.0
 10
78.34024207605138
 20
-5.83275440278928
 30
0.0
 10
78.99351966134505
 20
-5.83275440278928
 30
0.0
 10
79.63965409888064
 20
-5.83275440278928
 30
0.0
 10
80.30690873489998
 20
-5.83275440278928
 30
0.0
 10
80.30690873489998
 20
-5.775273018740681
 30
0.0
 10
80.30690873489998
 20
-5.716348661878409
 30
0.0
 10
80.30690873489998
 20
-5.657424813642516
 30
0.0
 10
80.30690873489998
 20
-4.768608746619377
 30
0.0
 10
80.30890458450142
 20
-3.879782507069917
 30
0.0
 10
80.30443274207128
 20
-2.990989073917012
 30
0.0
 10
80.30386104611001
 20
-2.877240778267205
 30
0.0
 10
80.34636796325874
 20
-2.803262100175876
 30
0.0
 10
80.41318314854001
 20
-2.71416069061809
 30
0.0
 10
80.64434159488671
 20
-2.405899201975375
 30
0.0
 10
80.93696040882763
 20
-2.335296022324282
 30
0.0
 10
81.3160721423466
 20
-2.336541902446243
 30
0.0
 10
85.56567946594797
 20
-2.350510560838099
 30
0.0
 10
89.81534579020014
 20
-2.345369239040564
 30
0.0
 10
94.06499787291591
 20
-2.345369239040564
 30
0.0
 10
94.13695221833301
 20
-2.345369239040564
 30
0.0
 10
94.20890452924489
 20
-2.345369239040564
 30
0.0
 10
94.30690867924592
 20
-2.345369239040564
 30
0.0
 10
94.30690867924592
 20
-2.409723181655912
 30
0.0
 10
94.30690867924592
 20
-2.467954408027476
 30
0.0
 10
94.30690867924592
 20
-2.526185761555875
 30
0.0
 10
94.30690867924592
 20
-6.920269657255314
 30
0.0
 10
94.30648143315386
 20
-11.31435431589416
 30
0.0
 10
94.3092585327522
 20
-15.70843694002813
 30
0.0
 10
94.30933177493941
 20
-15.8236296072136
 30
0.0
 10
94.2604792360711
 20
-15.89497767008069
 30
0.0
 10
94.19435578255793
 20
-15.98262110234963
 30
0.0
 10
93.96644237200562
 20
-16.28471155525013
 30
0.0
 10
93.6804601140279
 20
-16.36921269423713
 30
0.0
 10
93.30540721838342
 20
-16.35441472066331
 30
0.0
 10
92.53999380996784
 20
-16.32421249096566
 30
0.0
 10
91.7725540343728
 20
-16.34536931054302
 30
0.0
 10
91.00595044041506
 20
-16.34536931054302
 30
0.0
 10
90.94599764117422
 20
-16.34536931054302
 30
0.0
 10
90.88604484193338
 20
-16.34536931054302
 30
0.0
 10
90.8165725928606
 20
-16.34536931054302
 30
0.0
 10
90.8165725928606
 20
-17.00064071093291
 30
0.0
 10
90.8165725928606
 20
-17.64286076046324
 30
0.0
 10
90.8165725928606
 20
-18.31203596939161
 30
0.0
 10
90.87029980618868
 20
-18.31203596939161
 30
0.0
 10
90.9284154472337
 20
-18.31203596939161
 30
0.0
 10
90.98652905377351
 20
-18.31203596939161
 30
0.0
 10
91.88089957430667
 20
-18.31203596939161
 30
0.0
 10
92.77527823286063
 20
-18.3136472975102
 30
0.0
 10
93.6696345118574
 20
-18.30991601497296
 30
0.0
 10
93.77675934867112
 20
-18.3094684238289
 30
0.0
 10
93.84721629826083
 20
-18.34998559489179
 30
0.0
 10
93.93179678295064
 20
-18.41289046117819
 30
0.0
 10
94.24590200631135
 20
-18.64649234827038
 30
0.0
 10
94.31742707113119
 20
-18.94371117846906
 30
0.0
 10
94.31609650473023
 20
-19.32954491716963
 30
0.0
 10
94.30147044684566
 20
-23.5791461372554
 30
0.0
 10
94.30690867924592
 20
-27.82881449601278
 30
0.0
 10
94.30690867924592
 20
-32.07846657872855
 30
0.0
 10
94.30690867924592
 20
-32.14972715787236
 30
0.0
 10
94.30690867924592
 20
-32.22098570251096
 30
0.0
 10
94.30690867924592
 20
-32.31203591373755
 30
0.0
 10
94.23583120557014
 20
-32.31203591373755
 30
0.0
 10
94.17679189916421
 20
-32.31203591373755
 30
0.0
 10
94.11775055825308
 20
-32.31203591373755
 30
0.0
 10
89.72922111606334
 20
-32.31203591373755
 30
0.0
 10
85.34069167387361
 20
-32.31144387272428
 30
0.0
 10
80.95216426618907
 20
-32.31508970604312
 30
0.0
 10
80.82899939037661
 20
-32.31519346580833
 30
0.0
 10
80.75576127217816
 20
-32.26223326094073
 30
0.0
 10
80.66399491512108
 20
-32.19336729441763
 30
0.0
 10
80.36553910576066
 20
-31.96938658241739
 30
0.0
 10
80.28475907678491
 20
-31.68823220527985
 30
0.0
 10
80.29778804808728
 20
-31.31889016573247
 30
0.0
 10
80.3269404731016
 20
-30.49259215469432
 30
0.0
 10
80.30690873489998
 20
-29.66455871072037
 30
0.0
 10
80.30690873489998
 20
-28.82464375637699
 30
0.0
 10
79.65361792532237
 20
-28.82464375637699
 30
0.0
 10
79.00748348778677
 20
-28.82464375637699
 30
0.0
 10
78.34024207605138
 20
-28.82464375637699
 30
0.0
 10
78.34024207605138
 20
-28.88214701135673
 30
0.0
 10
78.34024207605138
 20
-28.94107441997664
 30
0.0
 10
78.34024207605138
 20
-28.99999979409135
 30
0.0
 10
78.34024207605138
 20
-29.88881611542784
 30
0.0
 10
78.33824419194474
 20
-30.77764057478513
 30
0.0
 10
78.34271908613285
 20
-31.66643451656442
 30
0.0
 10
78.34329281659932
 20
-31.78019184033095
 30
0.0
 10
78.30076555439825
 20
-31.85416034589628
 30
0.0
 10
78.23395545538015
 20
-31.94325946663583
 30
0.0
 10
78.00279599178069
 20
-32.25151955655624
 30
0.0
 10
77.71017107432449
 20
-32.32211078348917
 30
0.0
 10
77.33105832355277
 20
-32.32086566630662
 30
0.0
 10
73.08145405170903
 20
-32.30689471909653
 30
0.0
 10
68.8317851843256
 20
-32.31203591373755
 30
0.0
 10
64.58213386454923
 20
-32.31203591373755
 30
0.0
 10
64.51018269804663
 20
-32.31203591373755
 30
0.0
 10
64.43823153154369
 20
-32.31203591373755
 30
0.0
 10
64.34024327611472
 20
-32.31203591373755
 30
0.0
 10
64.34024327611472
 20
-32.24766823821218
 30
0.0
 10
64.34024340327124
 20
-32.18943459586555
 30
0.0
 10
64.34024340327124
 20
-32.13120095351892
 30
0.0
 10
64.34024302180137
 20
-27.73711731213251
 30
0.0
 10
64.34066963211053
 20
-23.3430336707461
 30
0.0
 10
64.3378931682951
 20
-18.94895206386489
 30
0.0
 10
64.33782030757774
 20
-18.83375837942699
 30
0.0
 10
64.38669039405343
 20
-18.76241642007518
 30
0.0
 10
64.45280901561681
 20
-18.6747719705538
 30
0.0
 10
64.6807196287245
 20
-18.37266218985373
 30
0.0
 10
64.96672045156205
 20
-18.28819970646553
 30
0.0
 10
65.34176342899356
 20
-18.30299259377652
 30
0.0
 10
66.10717582015671
 20
-18.33318668545336
 30
0.0
 10
66.8746140698726
 20
-18.31203596939161
 30
0.0
 10
67.64121766383067
 20
-18.31203596939161
 30
0.0
 10
67.70116893719236
 20
-18.31203596939161
 30
0.0
 10
67.76112021055438
 20
-18.31203596939161
 30
0.0
 10
67.83058330435361
 20
-18.31203596939161
 30
0.0
 10
67.83058330435361
 20
-17.65673913768687
 30
0.0
 10
67.83058330435361
 20
-17.01452824342979
 30
0.0
 10
67.83058330435361
 20
-16.34537032779578
 30
0.0
 10
67.77683371146864
 20
-16.34537032779578
 30
0.0
 10
67.71871705317086
 20
-16.34537134504821
 30
0.0
 10
67.66060039487309
 20
-16.34537134504821
 30
0.0
 10
66.76622936571387
 20
-16.34537032779578
 30
0.0
 10
65.87185172441235
 20
-16.34375594791922
 30
0.0
 10
64.977496208355
 20
-16.34749129946687
 30
0.0
 10
64.8703633606773
 20
-16.34793889061093
 30
0.0
 10
64.79991518489098
 20
-16.30739527098043
 30
0.0
 10
64.71533953215129
 20
-16.2444995599676
 30
0.0
 10
64.40122133881965
 20
-16.01090275913824
 30
0.0
 10
64.32972780883058
 20
-15.7136666356452
 30
0.0
 10
64.33105557778693
 20
-15.32784001771299
 30
0.0
 10
64.3456797283228
 20
-11.07825202191118
 30
0.0
 10
64.34024200454893
 20
-6.828595870184688
 30
0.0
 10
64.34024200454893
 20
-2.578958283318666
 30
0.0
 10
64.34024200454893
 20
-2.507780228792149
 30
0.0
 10
64.34024200454893
 20
-2.436602174265311
 30
0.0
 10
64.34024200454893
 20
-2.345369239040564
 30
0.0
  0
SPLINE
  5
48
330
1F
100
AcDbEntity
  8
_U_30EC_U_30A4_U_30E4_U_30
100
AcDbSpline
210
0.0
220
0.0
230
1.0
 70
    11
 71
     3
 72
   155
 73
   151
 74
     0
 42
0.0000000001
 43
0.0000000001
 12
1.0
 22
0.0
 32
0.0
 13
1.0
 23
0.0
 33
0.0
 40
0.0
 40
0.0
 40
0.0
 40
0.0
 40
1.0
 40
1.0
 40
1.0
 40
2.0
 40
2.0
 40
2.0
 40
3.0
 40
3.0
 40
3.0
 40
4.0
 40
4.0
 40
4.0
 40
5.0
 40
5.0
 40
5.0
 40
6.0
 40
6.0
 40
6.0
 40
7.0
 40
7.0
 40
7.0
 40
8.0
 40
8.0
 40
8.0
 40
9.0
 40
9.0
 40
9.0
 40
10.0
 40
10.0
 40
10.0
 40
11.0
 40
11.0
 40
11.0
 40
12.0
 40
12.0
 40
12.0
 40
13.0
 40
13.0
 40
13.0
 40
14.0
 40
14.0
 40
14.0
 40
15.0
 40
15.0
 40
15.0
 40
16.0
 40
16.0
 40
16.0
 40
17.0
 40
17.0
 40
17.0
 40
18.0
 40
18.0
 40
18.0
 40
19.0
 40
19.0
 40
19.0
 40
20.0
 40
20.0
 40
20.0
 40
21.0
 40
21.0
 40
21.0
 40
22.0
 40
22.0
 40
22.0
 40
23.0
 40
23.0
 40
23.0
 40
24.0
 40
24.0
 40
24.0
 40
25.0
 40
25.0
 40
25.0
 40
26.0
 40
26.0
 40
26.0
 40
27.0
 40
27.0
 40
27.0
 40
28.0
 40
28.0
 40
28.0
 40
29.0
 40
29.0
 40
29.0
 40
30.0
 40
30.0
 40
30.0
 40
31.0
 40
31.0
 40
31.0
 40
32.0
 40
32.0
 40
32.0
 40
33.0
 40
33.0
 40
33.0
 40
34.0
 40
34.0
 40
34.0
 40
35.0
 40
35.0
 40
35.0
 40
36.0
 40
36.0
 40
36.0
 40
37.0
 40
37.0
 40
37.0
 40
38.0
 40
38.0
 40
38.0
 40
39.0
 40
39.0
 40
39.0
 40
40.0
 40
40.0
 40
40.0
 40
41.0
 40
41.0
 40
41.0
 40
42.0
 40
42.0
 40
42.0
 40
43.0
 40
43.0
 40
43.0
 40
44.0
 40
44.0
 40
44.0
 40
45.0
 40
45.0
 40
45.0
 40
46.0
 40
46.0
 40
46.0
 40
47.0
 40
47.0
 40
47.0
 40
48.0
 40
48.0
 40
48.0
 40
49.0
 40
49.0
 40
49.0
 40
50.0
 40
50.0
 40
50.0
 40
50.0
 10
1.811567852124187
 20
-33.15491872194894
 30
0.0
 10
1.907320440651441
 20
-33.15491872194894
 30
0.0
 10
1.979011190488419
 20
-33.15491872194894
 30
0.0
 10
2.050701940325398
 20
-33.15491872194894
 30
0.0
 10
6.405900338132863
 20
-33.15491872194894
 30
0.0
 10
10.7611000075058
 20
-33.15568344159088
 30
0.0
 10
15.11629408198951
 20
-33.15168856347384
 30
0.0
 10
15.26621677019561
 20
-33.15155098005963
 30
0.0
 10
15.36444064675827
 20
-33.20285675072956
 30
0.0
 10
15.47945122572815
 20
-33.29568626391044
 30
0.0
 10
15.74903944080229
 20
-33.51327888389494
 30
0.0
 10
15.83044101111656
 20
-33.77039024151571
 30
0.0
 10
15.81991142945285
 20
-34.11464556037827
 30
0.0
 10
15.79428887096095
 20
-34.95230145100965
 30
0.0
 10
15.81156792362664
 20
-35.79126908886946
 30
0.0
 10
15.81156792362664
 20
-36.64230388569765
 30
0.0
 10
16.46484550892029
 20
-36.64230388569765
 30
0.0
 10
17.11097994645589
 20
-36.64230388569765
 30
0.0
 10
17.77823458247524
 20
-36.64230388569765
 30
0.0
 10
17.77823458247524
 20
-36.58482250164906
 30
0.0
 10
17.77823458247524
 20
-36.52589814478678
 30
0.0
 10
17.77823458247524
 20
-36.46697429655089
 30
0.0
 10
17.77823458247524
 20
-35.57815822952775
 30
0.0
 10
17.78023043207667
 20
-34.68933198997829
 30
0.0
 10
17.77575858964654
 20
-33.80053855682539
 30
0.0
 10
17.77518689368527
 20
-33.68679026117558
 30
0.0
 10
17.817693810834
 20
-33.61281158308424
 30
0.0
 10
17.88450899611526
 20
-33.52371017352646
 30
0.0
 10
18.11566744246197
 20
-33.21544868488375
 30
0.0
 10
18.40828625640289
 20
-33.14484550523265
 30
0.0
 10
18.78739798992185
 20
-33.14609138535462
 30
0.0
 10
23.03700531352322
 20
-33.16006004374647
 30
0.0
 10
27.2866716377754
 20
-33.15491872194894
 30
0.0
 10
31.53632372049117
 20
-33.15491872194894
 30
0.0
 10
31.60827806590826
 20
-33.15491872194894
 30
0.0
 10
31.68023037682014
 20
-33.15491872194894
 30
0.0
 10
31.77823452682117
 20
-33.15491872194894
 30
0.0
 10
31.77823452682117
 20
-33.21927266456429
 30
0.0
 10
31.77823452682117
 20
-33.27750389093585
 30
0.0
 10
31.77823452682117
 20
-33.33573524446425
 30
0.0
 10
31.77823452682117
 20
-37.72981914016368
 30
0.0
 10
31.77780728072912
 20
-42.12390379880254
 30
0.0
 10
31.78058438032745
 20
-46.5179864229365
 30
0.0
 10
31.78065762251466
 20
-46.63317909012197
 30
0.0
 10
31.73180508364637
 20
-46.70452715298906
 30
0.0
 10
31.66568163013319
 20
-46.792170585258
 30
0.0
 10
31.43776821958087
 20
-47.09426103815851
 30
0.0
 10
31.15178596160315
 20
-47.17876217714551
 30
0.0
 10
30.77673306595868
 20
-47.16396420357168
 30
0.0
 10
30.01131965754309
 20
-47.13376197387404
 30
0.0
 10
29.24387988194805
 20
-47.15491879345139
 30
0.0
 10
28.47727628799031
 20
-47.15491879345139
 30
0.0
 10
28.41732348874948
 20
-47.15491879345139
 30
0.0
 10
28.35737068950864
 20
-47.15491879345139
 30
0.0
 10
28.28789844043585
 20
-47.15491879345139
 30
0.0
 10
28.28789844043585
 20
-47.81019019384129
 30
0.0
 10
28.28789844043585
 20
-48.45241024337161
 30
0.0
 10
28.28789844043585
 20
-49.12158545229998
 30
0.0
 10
28.34162565376394
 20
-49.12158545229998
 30
0.0
 10
28.39974129480895
 20
-49.12158545229998
 30
0.0
 10
28.45785490134877
 20
-49.12158545229998
 30
0.0
 10
29.35222542188193
 20
-49.12158545229998
 30
0.0
 10
30.24660408043589
 20
-49.12319678041858
 30
0.0
 10
31.14096035943265
 20
-49.11946549788133
 30
0.0
 10
31.24808519624638
 20
-49.11901790673728
 30
0.0
 10
31.31854214583608
 20
-49.15953507780016
 30
0.0
 10
31.40312263052589
 20
-49.22243994408656
 30
0.0
 10
31.71722785388661
 20
-49.45604183117876
 30
0.0
 10
31.78875291870644
 20
-49.75326066137743
 30
0.0
 10
31.78742235230548
 20
-50.13909440007801
 30
0.0
 10
31.77279629442091
 20
-54.38869562016377
 30
0.0
 10
31.77823452682117
 20
-58.63836397892115
 30
0.0
 10
31.77823452682117
 20
-62.88801606163693
 30
0.0
 10
31.77823452682117
 20
-62.95927664078073
 30
0.0
 10
31.77823452682117
 20
-63.03053518541933
 30
0.0
 10
31.77823452682117
 20
-63.12158539664592
 30
0.0
 10
31.70715705314539
 20
-63.12158539664592
 30
0.0
 10
31.64811774673947
 20
-63.12158539664592
 30
0.0
 10
31.58907640582834
 20
-63.12158539664592
 30
0.0
 10
27.2005469636386
 20
-63.12158539664592
 30
0.0
 10
22.81201752144886
 20
-63.12099335563265
 30
0.0
 10
18.42349011376432
 20
-63.12463918895149
 30
0.0
 10
18.30032523795186
 20
-63.1247429487167
 30
0.0
 10
18.22708711975342
 20
-63.07178274384911
 30
0.0
 10
18.13532076269634
 20
-63.00291677732599
 30
0.0
 10
17.83686495333591
 20
-62.77893606532576
 30
0.0
 10
17.75608492436016
 20
-62.49778168818822
 30
0.0
 10
17.76911389566254
 20
-62.12843964864084
 30
0.0
 10
17.79826632067685
 20
-61.30214163760269
 30
0.0
 10
17.77823458247524
 20
-60.47410819362874
 30
0.0
 10
17.77823458247524
 20
-59.63419323928536
 30
0.0
 10
17.12494377289762
 20
-59.63419323928536
 30
0.0
 10
16.47880933536202
 20
-59.63419323928536
 30
0.0
 10
15.81156792362664
 20
-59.63419323928536
 30
0.0
 10
15.81156792362664
 20
-59.6916964942651
 30
0.0
 10
15.81156792362664
 20
-59.75062390288501
 30
0.0
 10
15.81156792362664
 20
-59.80954927699973
 30
0.0
 10
15.81156792362664
 20
-60.69836559833622
 30
0.0
 10
15.80957003952
 20
-61.5871900576935
 30
0.0
 10
15.8140449337081
 20
-62.47598399947279
 30
0.0
 10
15.81461866417457
 20
-62.58974132323932
 30
0.0
 10
15.77209140197351
 20
-62.66370982880465
 30
0.0
 10
15.70528130295541
 20
-62.7528089495442
 30
0.0
 10
15.47412183935594
 20
-63.06106903946461
 30
0.0
 10
15.18149692189974
 20
-63.13166026639754
 30
0.0
 10
14.80238417112802
 20
-63.13041514921498
 30
0.0
 10
10.55277989928429
 20
-63.1164442020049
 30
0.0
 10
6.303111031900856
 20
-63.12158539664592
 30
0.0
 10
2.053459712124491
 20
-63.12158539664592
 30
0.0
 10
1.981508545621881
 20
-63.12158539664592
 30
0.0
 10
1.90955737911895
 20
-63.12158539664592
 30
0.0
 10
1.811569123689978
 20
-63.12158539664592
 30
0.0
 10
1.811569123689978
 20
-63.05721772112055
 30
0.0
 10
1.811569250846492
 20
-62.99898407877392
 30
0.0
 10
1.811569250846492
 20
-62.94075043642729
 30
0.0
 10
1.811568869376627
 20
-58.54666679504088
 30
0.0
 10
1.811995479685784
 20
-54.15258315365448
 30
0.0
 10
1.809219015870343
 20
-49.75850154677327
 30
0.0
 10
1.809146155153
 20
-49.64330786233536
 30
0.0
 10
1.858016241628689
 20
-49.57196590298355
 30
0.0
 10
1.924134863192061
 20
-49.48432145346217
 30
0.0
 10
2.152045476299762
 20
-49.1822116727621
 30
0.0
 10
2.438046299137314
 20
-49.09774918937391
 30
0.0
 10
2.813089276568816
 20
-49.11254207668489
 30
0.0
 10
3.578501667731969
 20
-49.14273616836174
 30
0.0
 10
4.345939917447865
 20
-49.12158545229998
 30
0.0
 10
5.112543511405923
 20
-49.12158545229998
 30
0.0
 10
5.172494784767618
 20
-49.12158545229998
 30
0.0
 10
5.232446058129636
 20
-49.12158545229998
 30
0.0
 10
5.30190915192886
 20
-49.12158545229998
 30
0.0
 10
5.30190915192886
 20
-48.46628862059524
 30
0.0
 10
5.30190915192886
 20
-47.82407772633816
 30
0.0
 10
5.30190915192886
 20
-47.15491981070415
 30
0.0
 10
5.248159559043893
 20
-47.15491981070415
 30
0.0
 10
5.190042900746117
 20
-47.15492082795659
 30
0.0
 10
5.131926242448341
 20
-47.15492082795659
 30
0.0
 10
4.237555213289123
 20
-47.15491981070415
 30
0.0
 10
3.343177571987602
 20
-47.15330543082759
 30
0.0
 10
2.448822055930255
 20
-47.15704078237524
 30
0.0
 10
2.341689208252558
 20
-47.1574883735193
 30
0.0
 10
2.271241032466229
 20
-47.1169447538888
 30
0.0
 10
2.18666537972655
 20
-47.05404904287597
 30
0.0
 10
1.872547186394903
 20
-46.82045224204661
 30
0.0
 10
1.801053656405833
 20
-46.52321611855358
 30
0.0
 10
1.802381425362183
 20
-46.13738950062136
 30
0.0
 10
1.817005575898064
 20
-41.88780150481956
 30
0.0
 10
1.811567852124187
 20
-37.63814535309306
 30
0.0
 10
1.811567852124187
 20
-33.38850776622704
 30
0.0
 10
1.811567852124187
 20
-33.31732971170052
 30
0.0
 10
1.811567852124187
 20
-33.24615165717368
 30
0.0
 10
1.811567852124187
 20
-33.15491872194894
 30
0.0
  0
SPLINE
  5
49
330
1F
100
AcDbEntity
  8
_U_30EC_U_30A4_U_30E4_U_30
100
AcDbSpline
210
0.0
220
0.0
230
1.0
 70
    11
 71
     3
 72
   155
 73
   151
 74
     0
 42
0.0000000001
 43
0.0000000001
 12
1.0
 22
0.0
 32
0.0
 13
1.0
 23
0.0
 33
0.0
 40
0.0
 40
0.0
 40
0.0
 40
0.0
 40
1.0
 40
1.0
 40
1.0
 40
2.0
 40
2.0
 40
2.0
 40
3.0
 40
3.0
 40
3.0
 40
4.0
 40
4.0
 40
4.0
 40
5.0
 40
5.0
 40
5.0
 40
6.0
 40
6.0
 40
6.0
 40
7.0
 40
7.0
 40
7.0
 40
8.0
 40
8.0
 40
8.0
 40
9.0
 40
9.0
 40
9.0
 40
10.0
 40
10.0
 40
10.0
 40
11.0
 40
11.0
 40
11.0
 40
12.0
 40
12.0
 40
12.0
 40
13.0
 40
13.0
 40
13.0
 40
14.0
 40
14.0
 40
14.0
 40
15.0
 40
15.0
 40
15.0
 40
16.0
 40
16.0
 40
16.0
 40
17.0
 40
17.0
 40
17.0
 40
18.0
 40
18.0
 40
18.0
 40
19.0
 40
19.0
 40
19.0
 40
20.0
 40
20.0
 40
20.0
 40
21.0
 40
21.0
 40
21.0
 40
22.0
 40
22.0
 40
22.0
 40
23.0
 40
23.0
 40
23.0
 40
24.0
 40
24.0
 40
24.0
 40
25.0
 40
25.0
 40
25.0
 40
26.0
 40
26.0
 40
26.0
 40
27.0
 40
27.0
 40
27.0
 40
28.0
 40
28.0
 40
28.0
 40
29.0
 40
29.0
 40
29.0
 40
30.0
 40
30.0
 40
30.0
 40
31.0
 40
31.0
 40
31.0
 40
32.0
 40
32.0
 40
32.0
 40
33.0
 40
33.0
 40
33.0
 40
34.0
 40
34.0
 40
34.0
 40
35.0
 40
35.0
 40
35.0
 40
36.0
 40
36.0
 40
36.0
 40
37.0
 40
37.0
 40
37.0
 40
38.0
 40
38.0
 40
38.0
 40
39.0
 40
39.0
 40
39.0
 40
40.0
 40
40.0
 40
40.0
 40
41.0
 40
41.0
 40
41.0
 40
42.0
 40
42.0
 40
42.0
 40
43.0
 40
43.0
 40
43.0
 40
44.0
 40
44.0
 40
44.0
 40
45.0
 40
45.0
 40
45.0
 40
46.0
 40
46.0
 40
46.0
 40
47.0
 40
47.0
 40
47.0
 40
48.0
 40
48.0
 40
48.0
 40
49.0
 40
49.0
 40
49.0
 40
50.0
 40
50.0
 40
50.0
 40
50.0
 10
32.94033100080901
 20
-33.15491872194894
 30
0.0
 10
33.03608358933626
 20
-33.15491872194894
 30
0.0
 10
33.10777433917325
 20
-33.15491872194894
 30
0.0
 10
33.17946508901022
 20
-33.15491872194894
 30
0.0
 10
37.53466348681768
 20
-33.15491872194894
 30
0.0
 10
41.88986315619062
 20
-33.15568344159088
 30
0.0
 10
46.24505723067433
 20
-33.15168856347384
 30
0.0
 10
46.39497991888043
 20
-33.15155098005963
 30
0.0
 10
46.49320379544309
 20
-33.20285675072956
 30
0.0
 10
46.60821437441297
 20
-33.29568626391044
 30
0.0
 10
46.87780258948712
 20
-33.51327888389494
 30
0.0
 10
46.95920415980138
 20
-33.77039024151571
 30
0.0
 10
46.94867457813767
 20
-34.11464556037827
 30
0.0
 10
46.92305201964578
 20
-34.95230145100965
 30
0.0
 10
46.94033107231147
 20
-35.79126908886946
 30
0.0
 10
46.94033107231147
 20
-36.64230388569765
 30
0.0
 10
47.59360865760512
 20
-36.64230388569765
 30
0.0
 10
48.23974309514072
 20
-36.64230388569765
 30
0.0
 10
48.90699773116006
 20
-36.64230388569765
 30
0.0
 10
48.90699773116006
 20
-36.58482250164906
 30
0.0
 10
48.90699773116006
 20
-36.52589814478678
 30
0.0
 10
48.90699773116006
 20
-36.46697429655089
 30
0.0
 10
48.90699773116006
 20
-35.57815822952775
 30
0.0
 10
48.9089935807615
 20
-34.68933198997829
 30
0.0
 10
48.90452173833136
 20
-33.80053855682539
 30
0.0
 10
48.90395004237009
 20
-33.68679026117558
 30
0.0
 10
48.94645695951882
 20
-33.61281158308424
 30
0.0
 10
49.01327214480009
 20
-33.52371017352646
 30
0.0
 10
49.24443059114679
 20
-33.21544868488375
 30
0.0
 10
49.53704940508771
 20
-33.14484550523265
 30
0.0
 10
49.91616113860668
 20
-33.14609138535462
 30
0.0
 10
54.16576846220804
 20
-33.16006004374647
 30
0.0
 10
58.41543478646022
 20
-33.15491872194894
 30
0.0
 10
62.66508686917599
 20
-33.15491872194894
 30
0.0
 10
62.73704121459308
 20
-33.15491872194894
 30
0.0
 10
62.80899352550497
 20
-33.15491872194894
 30
0.0
 10
62.906997675506
 20
-33.15491872194894
 30
0.0
 10
62.906997675506
 20
-33.21927266456429
 30
0.0
 10
62.906997675506
 20
-33.27750389093585
 30
0.0
 10
62.906997675506
 20
-33.33573524446425
 30
0.0
 10
62.906997675506
 20
-37.72981914016368
 30
0.0
 10
62.90657042941395
 20
-42.12390379880254
 30
0.0
 10
62.90934752901228
 20
-46.5179864229365
 30
0.0
 10
62.90942077119949
 20
-46.63317909012197
 30
0.0
 10
62.86056823233119
 20
-46.70452715298906
 30
0.0
 10
62.79444477881801
 20
-46.792170585258
 30
0.0
 10
62.5665313682657
 20
-47.09426103815851
 30
0.0
 10
62.28054911028798
 20
-47.17876217714551
 30
0.0
 10
61.90549621464351
 20
-47.16396420357168
 30
0.0
 10
61.14008280622791
 20
-47.13376197387404
 30
0.0
 10
60.37264303063287
 20
-47.15491879345139
 30
0.0
 10
59.60603943667514
 20
-47.15491879345139
 30
0.0
 10
59.5460866374343
 20
-47.15491879345139
 30
0.0
 10
59.48613383819347
 20
-47.15491879345139
 30
0.0
 10
59.41666158912068
 20
-47.15491879345139
 30
0.0
 10
59.41666158912068
 20
-47.81019019384129
 30
0.0
 10
59.41666158912068
 20
-48.45241024337161
 30
0.0
 10
59.41666158912068
 20
-49.12158545229998
 30
0.0
 10
59.47038880244877
 20
-49.12158545229998
 30
0.0
 10
59.52850444349378
 20
-49.12158545229998
 30
0.0
 10
59.58661805003359
 20
-49.12158545229998
 30
0.0
 10
60.48098857056675
 20
-49.12158545229998
 30
0.0
 10
61.37536722912071
 20
-49.12319678041858
 30
0.0
 10
62.26972350811747
 20
-49.11946549788133
 30
0.0
 10
62.3768483449312
 20
-49.11901790673728
 30
0.0
 10
62.44730529452091
 20
-49.15953507780016
 30
0.0
 10
62.53188577921072
 20
-49.22243994408656
 30
0.0
 10
62.84599100257143
 20
-49.45604183117876
 30
0.0
 10
62.91751606739127
 20
-49.75326066137743
 30
0.0
 10
62.9161855009903
 20
-50.13909440007801
 30
0.0
 10
62.90155944310574
 20
-54.38869562016377
 30
0.0
 10
62.906997675506
 20
-58.63836397892115
 30
0.0
 10
62.906997675506
 20
-62.88801606163693
 30
0.0
 10
62.906997675506
 20
-62.95927664078073
 30
0.0
 10
62.906997675506
 20
-63.03053518541933
 30
0.0
 10
62.906997675506
 20
-63.12158539664592
 30
0.0
 10
62.83592020183021
 20
-63.12158539664592
 30
0.0
 10
62.77688089542429
 20
-63.12158539664592
 30
0.0
 10
62.71783955451316
 20
-63.12158539664592
 30
0.0
 10
58.32931011232343
 20
-63.12158539664592
 30
0.0
 10
53.94078067013368
 20
-63.12099335563265
 30
0.0
 10
49.55225326244915
 20
-63.12463918895149
 30
0.0
 10
49.42908838663668
 20
-63.1247429487167
 30
0.0
 10
49.35585026843824
 20
-63.07178274384911
 30
0.0
 10
49.26408391138116
 20
-63.00291677732599
 30
0.0
 10
48.96562810202074
 20
-62.77893606532576
 30
0.0
 10
48.88484807304499
 20
-62.49778168818822
 30
0.0
 10
48.89787704434736
 20
-62.12843964864084
 30
0.0
 10
48.92702946936168
 20
-61.30214163760269
 30
0.0
 10
48.90699773116006
 20
-60.47410819362874
 30
0.0
 10
48.90699773116006
 20
-59.63419323928536
 30
0.0
 10
48.25370692158244
 20
-59.63419323928536
 30
0.0
 10
47.60757248404685
 20
-59.63419323928536
 30
0.0
 10
46.94033107231147
 20
-59.63419323928536
 30
0.0
 10
46.94033107231147
 20
-59.6916964942651
 30
0.0
 10
46.94033107231147
 20
-59.75062390288501
 30
0.0
 10
46.94033107231147
 20
-59.80954927699973
 30
0.0
 10
46.94033107231147
 20
-60.69836559833622
 30
0.0
 10
46.93833318820482
 20
-61.5871900576935
 30
0.0
 10
46.94280808239292
 20
-62.47598399947279
 30
0.0
 10
46.94338181285939
 20
-62.58974132323932
 30
0.0
 10
46.90085455065834
 20
-62.66370982880465
 30
0.0
 10
46.83404445164023
 20
-62.7528089495442
 30
0.0
 10
46.60288498804077
 20
-63.06106903946461
 30
0.0
 10
46.31026007058457
 20
-63.13166026639754
 30
0.0
 10
45.93114731981284
 20
-63.13041514921498
 30
0.0
 10
41.68154304796911
 20
-63.1164442020049
 30
0.0
 10
37.43187418058568
 20
-63.12158539664592
 30
0.0
 10
33.18222286080932
 20
-63.12158539664592
 30
0.0
 10
33.1102716943067
 20
-63.12158539664592
 30
0.0
 10
33.03832052780378
 20
-63.12158539664592
 30
0.0
 10
32.9403322723748
 20
-63.12158539664592
 30
0.0
 10
32.9403322723748
 20
-63.05721772112055
 30
0.0
 10
32.94033239953131
 20
-62.99898407877392
 30
0.0
 10
32.94033239953131
 20
-62.94075043642729
 30
0.0
 10
32.94033201806145
 20
-58.54666679504088
 30
0.0
 10
32.94075862837061
 20
-54.15258315365448
 30
0.0
 10
32.93798216455517
 20
-49.75850154677327
 30
0.0
 10
32.93790930383783
 20
-49.64330786233536
 30
0.0
 10
32.98677939031352
 20
-49.57196590298355
 30
0.0
 10
33.05289801187688
 20
-49.48432145346217
 30
0.0
 10
33.28080862498459
 20
-49.1822116727621
 30
0.0
 10
33.56680944782214
 20
-49.09774918937391
 30
0.0
 10
33.94185242525364
 20
-49.11254207668489
 30
0.0
 10
34.7072648164168
 20
-49.14273616836174
 30
0.0
 10
35.47470306613269
 20
-49.12158545229998
 30
0.0
 10
36.24130666009075
 20
-49.12158545229998
 30
0.0
 10
36.30125793345244
 20
-49.12158545229998
 30
0.0
 10
36.36120920681446
 20
-49.12158545229998
 30
0.0
 10
36.43067230061369
 20
-49.12158545229998
 30
0.0
 10
36.43067230061369
 20
-48.46628862059524
 30
0.0
 10
36.43067230061369
 20
-47.82407772633816
 30
0.0
 10
36.43067230061369
 20
-47.15491981070415
 30
0.0
 10
36.37692270772872
 20
-47.15491981070415
 30
0.0
 10
36.31880604943094
 20
-47.15492082795659
 30
0.0
 10
36.26068939113316
 20
-47.15492082795659
 30
0.0
 10
35.36631836197395
 20
-47.15491981070415
 30
0.0
 10
34.47194072067243
 20
-47.15330543082759
 30
0.0
 10
33.57758520461508
 20
-47.15704078237524
 30
0.0
 10
33.47045235693739
 20
-47.1574883735193
 30
0.0
 10
33.40000418115105
 20
-47.1169447538888
 30
0.0
 10
33.31542852841137
 20
-47.05404904287597
 30
0.0
 10
33.00131033507973
 20
-46.82045224204661
 30
0.0
 10
32.92981680509066
 20
-46.52321611855358
 30
0.0
 10
32.93114457404701
 20
-46.13738950062136
 30
0.0
 10
32.94576872458289
 20
-41.88780150481956
 30
0.0
 10
32.94033100080901
 20
-37.63814535309306
 30
0.0
 10
32.94033100080901
 20
-33.38850776622704
 30
0.0
 10
32.94033100080901
 20
-33.31732971170052
 30
0.0
 10
32.94033100080901
 20
-33.24615165717368
 30
0.0
 10
32.94033100080901
 20
-33.15491872194894
 30
0.0
  0
SPLINE
  5
4A
330
1F
100
AcDbEntity
  8
_U_30EC_U_30A4_U_30E4_U_30
100
AcDbSpline
210
0.0
220
0.0
230
1.0
 70
    11
 71
     3
 72
   275
 73
   271
 74
     0
 42
0.0000000001
 43
0.0000000001
 12
1.0
 22
0.0
 32
0.0
 13
1.0
 23
0.0
 33
0.0
 40
0.0
 40
0.0
 40
0.0
 40
0.0
 40
1.0
 40
1.0
 40
1.0
 40
2.0
 40
2.0
 40
2.0
 40
3.0
 40
3.0
 40
3.0
 40
4.0
 40
4.0
 40
4.0
 40
5.0
 40
5.0
 40
5.0
 40
6.0
 40
6.0
 40
6.0
 40
7.0
 40
7.0
 40
7.0
 40
8.0
 40
8.0
 40
8.0
 40
9.0
 40
9.0
 40
9.0
 40
10.0
 40
10.0
 40
10.0
 40
11.0
 40
11.0
 40
11.0
 40
12.0
 40
12.0
 40
12.0
 40
13.0
 40
13.0
 40
13.0
 40
14.0
 40
14.0
 40
14.0
 40
15.0
 40
15.0
 40
15.0
 40
16.0
 40
16.0
 40
16.0
 40
17.0
 40
17.0
 40
17.0
 40
18.0
 40
18.0
 40
18.0
 40
19.0
 40
19.0
 40
19.0
 40
20.0
 40
20.0
 40
20.0
 40
21.0
 40
21.0
 40
21.0
 40
22.0
 40
22.0
 40
22.0
 40
23.0
 40
23.0
 40
23.0
 40
24.0
 40
24.0
 40
24.0
 40
25.0
 40
25.0
 40
25.0
 40
26.0
 40
26.0
 40
26.0
 40
27.0
 40
27.0
 40
27.0
 40
28.0
 40
28.0
 40
28.0
 40
29.0
 40
29.0
 40
29.0
 40
30.0
 40
30.0
 40
30.0
 40
31.0
 40
31.0
 40
31.0
 40
32.0
 40
32.0
 40
32.0
 40
33.0
 40
33.0
 40
33.0
 40
34.0
 40
34.0
 40
34.0
 40
35.0
 40
35.0
 40
35.0
 40
36.0
 40
36.0
 40
36.0
 40
37.0
 40
37.0
 40
37.0
 40
38.0
 40
38.0
 40
38.0
 40
39.0
 40
39.0
 40
39.0
 40
40.0
 40
40.0
 40
40.0
 40
41.0
 40
41.0
 40
41.0
 40
42.0
 40
42.0
 40
42.0
 40
43.0
 40
43.0
 40
43.0
 40
44.0
 40
44.0
 40
44.0
 40
45.0
 40
45.0
 40
45.0
 40
46.0
 40
46.0
 40
46.0
 40
47.0
 40
47.0
 40
47.0
 40
48.0
 40
48.0
 40
48.0
 40
49.0
 40
49.0
 40
49.0
 40
50.0
 40
50.0
 40
50.0
 40
51.0
 40
51.0
 40
51.0
 40
52.0
 40
52.0
 40
52.0
 40
53.0
 40
53.0
 40
53.0
 40
54.0
 40
54.0
 40
54.0
 40
55.0
 40
55.0
 40
55.0
 40
56.0
 40
56.0
 40
56.0
 40
57.0
 40
57.0
 40
57.0
 40
58.0
 40
58.0
 40
58.0
 40
59.0
 40
59.0
 40
59.0
 40
60.0
 40
60.0
 40
60.0
 40
61.0
 40
61.0
 40
61.0
 40
62.0
 40
62.0
 40
62.0
 40
63.0
 40
63.0
 40
63.0
 40
64.0
 40
64.0
 40
64.0
 40
65.0
 40
65.0
 40
65.0
 40
66.0
 40
66.0
 40
66.0
 40
67.0
 40
67.0
 40
67.0
 40
68.0
 40
68.0
 40
68.0
 40
69.0
 40
69.0
 40
69.0
 40
70.0
 40
70.0
 40
70.0
 40
71.0
 40
71.0
 40
71.0
 40
72.0
 40
72.0
 40
72.0
 40
73.0
 40
73.0
 40
73.0
 40
74.0
 40
74.0
 40
74.0
 40
75.0
 40
75.0
 40
75.0
 40
76.0
 40
76.0
 40
76.0
 40
77.0
 40
77.0
 40
77.0
 40
78.0
 40
78.0
 40
78.0
 40
79.0
 40
79.0
 40
79.0
 40
80.0
 40
80.0
 40
80.0
 40
81.0
 40
81.0
 40
81.0
 40
82.0
 40
82.0
 40
82.0
 40
83.0
 40
83.0
 40
83.0
 40
84.0
 40
84.0
 40
84.0
 40
85.0
 40
85.0
 40
85.0
 40
86.0
 40
86.0
 40
86.0
 40
87.0
 40
87.0
 40
87.0
 40
88.0
 40
88.0
 40
88.0
 40
89.0
 40
89.0
 40
89.0
 40
90.0
 40
90.0
 40
90.0
 40
90.0
 10
38.77938555453323
 20
-67.69464272115023
 30
0.0
 10
39.46734534997547
 20
-67.69464272115023
 30
0.0
 10
40.1278271181832
 20
-67.69464272115023
 30
0.0
 10
40.81271887978347
 20
-67.69464272115023
 30
0.0
 10
40.81271887978347
 20
-67.63245323775492
 30
0.0
 10
40.81271887978347
 20
-67.5739919851392
 30
0.0
 10
40.81271887978347
 20
-67.51553073252317
 30
0.0
 10
40.81271887978347
 20
-66.61557371502317
 30
0.0
 10
40.81039140583439
 20
-65.71560016716886
 30
0.0
 10
40.81689775346478
 20
-64.81569032475801
 30
0.0
 10
40.81745113887924
 20
-64.7390995963029
 30
0.0
 10
40.8651765618666
 20
-64.65487438708374
 30
0.0
 10
40.91104244710094
 20
-64.58794005609158
 30
0.0
 10
41.13396318189185
 20
-64.26262521770389
 30
0.0
 10
41.44019690463281
 20
-64.18836399770275
 30
0.0
 10
41.83389400593234
 20
-64.18918600138191
 30
0.0
 10
48.25578118743472
 20
-64.20259434432603
 30
0.0
 10
54.67770499003071
 20
-64.19904483211276
 30
0.0
 10
61.0996206546059
 20
-64.19628680600063
 30
0.0
 10
61.23565581031512
 20
-64.19622837755446
 30
0.0
 10
61.32621570578845
 20
-64.24366827045264
 30
0.0
 10
61.43443917541031
 20
-64.32679268520197
 30
0.0
 10
61.75054431738287
 20
-64.56958080832108
 30
0.0
 10
61.83655505922845
 20
-64.86871537947897
 30
0.0
 10
61.82180896553707
 20
-65.26024573274023
 30
0.0
 10
61.79153552815742
 20
-66.06406589454318
 30
0.0
 10
61.81271879630238
 20
-66.86982379539299
 30
0.0
 10
61.81271879630238
 20
-67.68672340965843
 30
0.0
 10
62.47843331188513
 20
-67.68672340965843
 30
0.0
 10
63.13569242385567
 20
-67.68672340965843
 30
0.0
 10
63.81271878835179
 20
-67.68672340965843
 30
0.0
 10
63.81271878835179
 20
-67.62705874721662
 30
0.0
 10
63.81271878835179
 20
-67.5679497590075
 30
0.0
 10
63.81271878835179
 20
-67.50884051648536
 30
0.0
 10
63.81271878835179
 20
-66.61999418619725
 30
0.0
 10
63.81483060474965
 20
-65.73113666613037
 30
0.0
 10
63.81011462169548
 20
-64.84231538568756
 30
0.0
 10
63.80950833914581
 20
-64.72782576720546
 30
0.0
 10
63.85405993402079
 20
-64.65472192635023
 30
0.0
 10
63.9204946668296
 20
-64.56610828941412
 30
0.0
 10
64.15171211382712
 20
-64.25769599307324
 30
0.0
 10
64.44466458662087
 20
-64.18843043701321
 30
0.0
 10
64.82392890802986
 20
-64.18970403726857
 30
0.0
 10
69.0625722831071
 20
-64.2039385164805
 30
0.0
 10
73.30126855531955
 20
-64.19869025600327
 30
0.0
 10
77.53995668951121
 20
-64.19869025600327
 30
0.0
 10
77.61170961891347
 20
-64.19869025600327
 30
0.0
 10
77.68345441029493
 20
-64.19869019242502
 30
0.0
 10
77.7793853994969
 20
-64.19869019242502
 30
0.0
 10
77.7793853994969
 20
-64.2705767633876
 30
0.0
 10
77.7793853994969
 20
-64.33462324140436
 30
0.0
 10
77.7793853994969
 20
-64.39866971942145
 30
0.0
 10
77.7793853994969
 20
-66.28191282767801
 30
0.0
 10
77.77822980054317
 20
-68.16515866980062
 30
0.0
 10
77.78206280834043
 20
-70.04839383077149
 30
0.0
 10
77.78231508698526
 20
-70.16919155978331
 30
0.0
 10
77.7345530429043
 20
-70.24535580508608
 30
0.0
 10
77.66480206661907
 20
-70.3384756167277
 30
0.0
 10
77.43649803106833
 20
-70.64330197049648
 30
0.0
 10
77.14748436034223
 20
-70.72149309160476
 30
0.0
 10
76.77455955713722
 20
-70.70727240888142
 30
0.0
 10
76.02014061482375
 20
-70.67850297947113
 30
0.0
 10
75.26384992772606
 20
-70.69869137457285
 30
0.0
 10
74.50833235260446
 20
-70.69869137457285
 30
0.0
 10
74.44850976169644
 20
-70.69869137457285
 30
0.0
 10
74.38868717078842
 20
-70.69869086594679
 30
0.0
 10
74.32116601220267
 20
-70.69869086594679
 30
0.0
 10
74.32116601220267
 20
-71.36755988184237
 30
0.0
 10
74.32116601220267
 20
-72.02088782113965
 30
0.0
 10
74.32116601220267
 20
-72.69868933211738
 30
0.0
 10
74.37893782186885
 20
-72.69868933211738
 30
0.0
 10
74.4374013633031
 20
-72.69868933211738
 30
0.0
 10
74.49585676671656
 20
-72.69868933211738
 30
0.0
 10
75.38469953662064
 20
-72.69869034936983
 30
0.0
 10
76.27356672058714
 20
-72.6963333750955
 30
0.0
 10
77.16236066236642
 20
-72.70287125755632
 30
0.0
 10
77.23896385216608
 20
-72.70343379824436
 30
0.0
 10
77.32318422943544
 20
-72.75112972090615
 30
0.0
 10
77.39011945052351
 20
-72.79699764064569
 30
0.0
 10
77.715428694022
 20
-73.01991125466824
 30
0.0
 10
77.79472556870677
 20
-73.32548681497708
 30
0.0
 10
77.78949282133173
 20
-73.71995397649506
 30
0.0
 10
77.76619366777852
 20
-75.47511652648376
 30
0.0
 10
77.7793853994969
 20
-77.23076227145769
 30
0.0
 10
77.7793853994969
 20
-78.98623406623716
 30
0.0
 10
77.7793853994969
 20
-79.05145521669387
 30
0.0
 10
77.7793853994969
 20
-79.11667636715057
 30
0.0
 10
77.7793853994969
 20
-79.19869032353044
 30
0.0
 10
77.69916079044083
 20
-79.19869032353044
 30
0.0
 10
77.63412986622018
 20
-79.19869032353044
 30
0.0
 10
77.56909894199953
 20
-79.19869032353044
 30
0.0
 10
73.20264388123245
 20
-79.19869032353044
 30
0.0
 10
68.83618068244458
 20
-79.19815016239961
 30
0.0
 10
64.4697256216775
 20
-79.20138299116313
 30
0.0
 10
64.34287829145259
 20
-79.20147759565478
 30
0.0
 10
64.26313382562377
 20
-79.1498408364201
 30
0.0
 10
64.16607165153044
 20
-79.07691298026454
 30
0.0
 10
63.87214261624057
 20
-78.85605828550464
 30
0.0
 10
63.791201861354
 20
-78.57971144415528
 30
0.0
 10
63.80424303968757
 20
-78.21726739448917
 30
0.0
 10
63.83198962160852
 20
-77.44608107756804
 30
0.0
 10
63.81271878835179
 20
-76.67320205232
 30
0.0
 10
63.81271878835179
 20
-75.90101679334553
 30
0.0
 10
63.81271878835179
 20
-75.8407618700823
 30
0.0
 10
63.81271878835179
 20
-75.78050694681907
 30
0.0
 10
63.81271878835179
 20
-75.70951390510926
 30
0.0
 10
63.14466459178875
 20
-75.70951390510926
 30
0.0
 10
62.48741768684942
 20
-75.70951390510926
 30
0.0
 10
61.81271879630238
 20
-75.70951390510926
 30
0.0
 10
61.81271879630238
 20
-75.77293553571651
 30
0.0
 10
61.81271879630238
 20
-75.83235529459489
 30
0.0
 10
61.81271879630238
 20
-75.89177505347327
 30
0.0
 10
61.81271879630238
 20
-76.76951044223678
 30
0.0
 10
61.81122953849579
 20
-77.64725295176832
 30
0.0
 10
61.81465971426341
 20
-78.52497511624787
 30
0.0
 10
61.81507475332426
 20
-78.63107354518792
 30
0.0
 10
61.7773224748285
 20
-78.70264133461696
 30
0.0
 10
61.71413888132967
 20
-78.78807834599607
 30
0.0
 10
61.45966703989336
 20
-79.13218234853441
 30
0.0
 10
61.13373930681401
 20
-79.20946099406054
 30
0.0
 10
60.71209624208392
 20
-79.20852919067883
 30
0.0
 10
54.30687572718195
 20
-79.19436801723268
 30
0.0
 10
47.90161859118637
 20
-79.19821526656602
 30
0.0
 10
41.4963695932116
 20
-79.2017217362788
 30
0.0
 10
41.35200110420217
 20
-79.20180108198161
 30
0.0
 10
41.25926835717497
 20
-79.14642693669408
 30
0.0
 10
41.14891679511366
 20
-79.06106723651259
 30
0.0
 10
40.86729244727486
 20
-78.84321954043833
 30
0.0
 10
40.79212154913618
 20
-78.57710727749897
 30
0.0
 10
40.80429602825446
 20
-78.22725478051717
 30
0.0
 10
40.83133053335532
 20
-77.45045526374857
 30
0.0
 10
40.81271887978347
 20
-76.67206679841826
 30
0.0
 10
40.81271887978347
 20
-75.89432632299437
 30
0.0
 10
40.81271887978347
 20
-75.83450271483359
 30
0.0
 10
40.81271887978347
 20
-75.77468012392556
 30
0.0
 10
40.81271887978347
 20
-75.70714879281414
 30
0.0
 10
40.1327546897782
 20
-75.70714879281414
 30
0.0
 10
39.46831784346119
 20
-75.70714879281414
 30
0.0
 10
38.77938555453323
 20
-75.70714879281414
 30
0.0
 10
38.77938555453323
 20
-75.76488601589159
 30
0.0
 10
38.77938555453323
 20
-75.82334141930504
 30
0.0
 10
38.77938555453323
 20
-75.88179783997126
 30
0.0
 10
38.77938555453323
 20
-76.78175511178429
 30
0.0
 10
38.78171302848231
 20
-77.68172865963892
 30
0.0
 10
38.77521074986232
 20
-78.5816381205796
 30
0.0
 10
38.77465736444785
 20
-78.65823418961119
 30
0.0
 10
38.7269685625541
 20
-78.74247694643776
 30
0.0
 10
38.68110267731976
 20
-78.80940606401025
 30
0.0
 10
38.45817787351846
 20
-79.13467563465747
 30
0.0
 10
38.1519889098919
 20
-79.20902357544249
 30
0.0
 10
37.75826332551957
 20
-79.20820163534158
 30
0.0
 10
31.33637614401718
 20
-79.19478407354596
 30
0.0
 10
24.9144523414212
 20
-79.19833733687804
 30
0.0
 10
18.49253871135121
 20
-79.20108900516152
 30
0.0
 10
18.35653000420959
 20
-79.2011469885599
 30
0.0
 10
18.26593755665306
 20
-79.15378167299265
 30
0.0
 10
18.15770187999999
 20
-79.07062839370099
 30
0.0
 10
17.84165166966784
 20
-78.82781935332522
 30
0.0
 10
17.75552903003624
 20
-78.52875217515196
 30
0.0
 10
17.77028529625363
 20
-78.13718926980751
 30
0.0
 10
17.80058111319048
 20
-77.33336440321128
 30
0.0
 10
17.77938563801433
 20
-76.52760065315921
 30
0.0
 10
17.77938563801433
 20
-75.71067662483136
 30
0.0
 10
17.11370774352517
 20
-75.71067662483136
 30
0.0
 10
16.45644863155463
 20
-75.71067662483136
 30
0.0
 10
15.7793856459649
 20
-75.71067662483136
 30
0.0
 10
15.7793856459649
 20
-75.77027745467224
 30
0.0
 10
15.7793856459649
 20
-75.82938084799213
 30
0.0
 10
15.7793856459649
 20
-75.88848424131203
 30
0.0
 10
15.7793856459649
 20
-76.77733108022652
 30
0.0
 10
15.77727586407225
 20
-77.66618809166668
 30
0.0
 10
15.78198777811602
 20
-78.55500949926633
 30
0.0
 10
15.78259406066569
 20
-78.66947788260052
 30
0.0
 10
15.73809943193632
 20
-78.74260613751814
 30
0.0
 10
15.6716545266015
 20
-78.83123325305124
 30
0.0
 10
15.44043911410919
 20
-79.13963677558812
 30
0.0
 10
15.14751105537783
 20
-79.20894931600252
 30
0.0
 10
14.76823249243245
 20
-79.20767673299993
 30
0.0
 10
10.52959420361836
 20
-79.19344231736625
 30
0.0
 10
6.290890810637551
 20
-79.19869032353044
 30
0.0
 10
2.0522047109511
 20
-79.19869032353044
 30
0.0
 10
1.980479247368881
 20
-79.19869032353044
 30
0.0
 10
1.908753783786984
 20
-79.19869032353044
 30
0.0
 10
1.812719289132821
 20
-79.19869032353044
 30
0.0
 10
1.812719289132821
 20
-79.12685194490976
 30
0.0
 10
1.812719543446172
 20
-79.06281080746888
 30
0.0
 10
1.812719543446172
 20
-78.99876967002831
 30
0.0
 10
1.812719797759202
 20
-77.11552687966334
 30
0.0
 10
1.813867513005491
 20
-75.23228103754009
 30
0.0
 10
1.810041117349888
 20
-73.34904536794316
 30
0.0
 10
1.809795705160068
 20
-73.22827713925659
 30
0.0
 10
1.857474843154204
 20
-73.15207067797131
 30
0.0
 10
1.927253793885847
 20
-73.05893916792488
 30
0.0
 10
2.155588347014609
 20
-72.75418961672733
 30
0.0
 10
2.444520891846036
 20
-72.67586320102306
 30
0.0
 10
2.817486385155057
 20
-72.69010066841439
 30
0.0
 10
3.571906344720962
 20
-72.71890010677663
 30
0.0
 10
4.328197031818654
 20
-72.69869034936983
 30
0.0
 10
5.083716641445453
 20
-72.69869034936983
 30
0.0
 10
5.143542284111435
 20
-72.69869034936983
 30
0.0
 10
5.203367926777096
 20
-72.69869034936983
 30
0.0
 10
5.27091604255683
 20
-72.69869034936983
 30
0.0
 10
5.27091604255683
 20
-72.02986304083069
 30
0.0
 10
5.27091604255683
 20
-71.37653561015946
 30
0.0
 10
5.27091604255683
 20
-70.69869137457285
 30
0.0
 10
5.213217983704245
 20
-70.69869137457285
 30
0.0
 10
5.154765123422369
 20
-70.69869137457285
 30
0.0
 10
5.096312263140173
 20
-70.69869137457285
 30
0.0
 10
4.20746593285206
 20
-70.69869086594679
 30
0.0
 10
3.318602309269586
 20
-70.70104733159472
 30
0.0
 10
2.429803789853519
 20
-70.69451199226548
 30
0.0
 10
2.353200600053873
 20
-70.6939489429514
 30
0.0
 10
2.268951739711703
 20
-70.6462993052825
 30
0.0
 10
2.202028217028765
 20
-70.60042782515895
 30
0.0
 10
1.876785603575525
 20
-70.37749996959967
 30
0.0
 10
1.797363861134128
 20
-70.07199103933638
 30
0.0
 10
1.80260423790358
 20
-69.67748623947236
 30
0.0
 10
1.825919667498395
 20
-67.92232470673609
 30
0.0
 10
1.812719034819792
 20
-66.16667743588334
 30
0.0
 10
1.812719034819792
 20
-64.4112059589955
 30
0.0
 10
1.812719034819792
 20
-64.34597940438434
 30
0.0
 10
1.812719034819792
 20
-64.28075284977285
 30
0.0
 10
1.812719034819792
 20
-64.19869038315979
 30
0.0
 10
1.89289456143804
 20
-64.19869038315979
 30
0.0
 10
1.957919382143089
 20
-64.19869038315979
 30
0.0
 10
2.022943948534788
 20
-64.19869038315979
 30
0.0
 10
6.389402061059822
 20
-64.19869038315979
 30
0.0
 10
10.75585966495848
 20
-64.199229145568
 30
0.0
 10
15.12231574297799
 20
-64.19600547207837
 30
0.0
 10
15.2491305211197
 20
-64.19591182126089
 30
0.0
 10
15.32891567705253
 20
-64.24745175076394
 30
0.0
 10
15.42599209268225
 20
-64.32041711810872
 30
0.0
 10
15.71986619633172
 20
-64.54129877006292
 30
0.0
 10
15.8009168144991
 20
-64.8175752938262
 30
0.0
 10
15.78786749814473
 20
-65.18005062400972
 30
0.0
 10
15.76010260567698
 20
-65.95123605083492
 30
0.0
 10
15.7793856459649
 20
-66.72411558470904
 30
0.0
 10
15.7793856459649
 20
-67.49630084368381
 30
0.0
 10
15.7793856459649
 20
-67.55656136183595
 30
0.0
 10
15.7793856459649
 20
-67.61682213430143
 30
0.0
 10
15.7793856459649
 20
-67.68784416771074
 30
0.0
 10
16.44738897989794
 20
-67.68784416771074
 30
0.0
 10
17.10463588483728
 20
-67.68784416771074
 30
0.0
 10
17.77938563801433
 20
-67.68784416771074
 30
0.0
 10
17.77938563801433
 20
-67.6244985767353
 30
0.0
 10
17.77938563801433
 20
-67.56508466705918
 30
0.0
 10
17.77938563801433
 20
-67.50567075738337
 30
0.0
 10
17.77938563801433
 20
-66.62237964354438
 30
0.0
 10
17.77670009115
 20
-65.73906665877455
 30
0.0
 10
17.78387172198087
 20
-64.85583390980378
 30
0.0
 10
17.78453293617094
 20
-64.77451715292472
 30
0.0
 10
17.83613205705957
 20
-64.6856684034813
 30
0.0
 10
17.8844210379874
 20
-64.6140269903955
 30
0.0
 10
18.12368698755709
 20
-64.25904003807119
 30
0.0
 10
18.45825526422187
 20
-64.18790674265908
 30
0.0
 10
18.87994512257157
 20
-64.18884007191961
 30
0.0
 10
25.28520022406195
 20
-64.20301688562479
 30
0.0
 10
31.69050008466673
 20
-64.19916613948536
 30
0.0
 10
38.09578773824031
 20
-64.19565464708799
 30
0.0
 10
38.24017657230174
 20
-64.19557549211996
 30
0.0
 10
38.33288083625613
 20
-64.25102453263035
 30
0.0
 10
38.44322019128625
 20
-64.33635416028164
 30
0.0
 10
38.72488929823945
 20
-64.55418685188009
 30
0.0
 10
38.79997881617012
 20
-64.82034654422196
 30
0.0
 10
38.78780840606225
 20
-65.17017831468188
 30
0.0
 10
38.76078610799259
 20
-65.94697884870325
 30
0.0
 10
38.77938555453323
 20
-66.72536655109415
 30
0.0
 10
38.77938555453323
 20
-67.50310702651804
 30
0.0
 10
38.77938555453323
 20
-67.56275134390785
 30
0.0
 10
38.77938555453323
 20
-67.62239566129766
 30
0.0
 10
38.77938555453323
 20
-67.69464272115023
 30
0.0
  0
SPLINE
  5
4B
330
1F
100
AcDbEntity
  8
_U_30EC_U_30A4_U_30E4_U_30
100
AcDbSpline
210
0.0
220
0.0
230
1.0
 70
    11
 71
     3
 72
   275
 73
   271
 74
     0
 42
0.0000000001
 43
0.0000000001
 12
1.0
 22
0.0
 32
0.0
 13
1.0
 23
0.0
 33
0.0
 40
0.0
 40
0.0
 40
0.0
 40
0.0
 40
1.0
 40
1.0
 40
1.0
 40
2.0
 40
2.0
 40
2.0
 40
3.0
 40
3.0
 40
3.0
 40
4.0
 40
4.0
 40
4.0
 40
5.0
 40
5.0
 40
5.0
 40
6.0
 40
6.0
 40
6.0
 40
7.0
 40
7.0
 40
7.0
 40
8.0
 40
8.0
 40
8.0
 40
9.0
 40
9.0
 40
9.0
 40
10.0
 40
10.0
 40
10.0
 40
11.0
 40
11.0
 40
11.0
 40
12.0
 40
12.0
 40
12.0
 40
13.0
 40
13.0
 40
13.0
 40
14.0
 40
14.0
 40
14.0
 40
15.0
 40
15.0
 40
15.0
 40
16.0
 40
16.0
 40
16.0
 40
17.0
 40
17.0
 40
17.0
 40
18.0
 40
18.0
 40
18.0
 40
19.0
 40
19.0
 40
19.0
 40
20.0
 40
20.0
 40
20.0
 40
21.0
 40
21.0
 40
21.0
 40
22.0
 40
22.0
 40
22.0
 40
23.0
 40
23.0
 40
23.0
 40
24.0
 40
24.0
 40
24.0
 40
25.0
 40
25.0
 40
25.0
 40
26.0
 40
26.0
 40
26.0
 40
27.0
 40
27.0
 40
27.0
 40
28.0
 40
28.0
 40
28.0
 40
29.0
 40
29.0
 40
29.0
 40
30.0
 40
30.0
 40
30.0
 40
31.0
 40
31.0
 40
31.0
 40
32.0
 40
32.0
 40
32.0
 40
33.0
 40
33.0
 40
33.0
 40
34.0
 40
34.0
 40
34.0
 40
35.0
 40
35.0
 40
35.0
 40
36.0
 40
36.0
 40
36.0
 40
37.0
 40
37.0
 40
37.0
 40
38.0
 40
38.0
 40
38.0
 40
39.0
 40
39.0
 40
39.0
 40
40.0
 40
40.0
 40
40.0
 40
41.0
 40
41.0
 40
41.0
 40
42.0
 40
42.0
 40
42.0
 40
43.0
 40
43.0
 40
43.0
 40
44.0
 40
44.0
 40
44.0
 40
45.0
 40
45.0
 40
45.0
 40
46.0
 40
46.0
 40
46.0
 40
47.0
 40
47.0
 40
47.0
 40
48.0
 40
48.0
 40
48.0
 40
49.0
 40
49.0
 40
49.0
 40
50.0
 40
50.0
 40
50.0
 40
51.0
 40
51.0
 40
51.0
 40
52.0
 40
52.0
 40
52.0
 40
53.0
 40
53.0
 40
53.0
 40
54.0
 40
54.0
 40
54.0
 40
55.0
 40
55.0
 40
55.0
 40
56.0
 40
56.0
 40
56.0
 40
57.0
 40
57.0
 40
57.0
 40
58.0
 40
58.0
 40
58.0
 40
59.0
 40
59.0
 40
59.0
 40
60.0
 40
60.0
 40
60.0
 40
61.0
 40
61.0
 40
61.0
 40
62.0
 40
62.0
 40
62.0
 40
63.0
 40
63.0
 40
63.0
 40
64.0
 40
64.0
 40
64.0
 40
65.0
 40
65.0
 40
65.0
 40
66.0
 40
66.0
 40
66.0
 40
67.0
 40
67.0
 40
67.0
 40
68.0
 40
68.0
 40
68.0
 40
69.0
 40
69.0
 40
69.0
 40
70.0
 40
70.0
 40
70.0
 40
71.0
 40
71.0
 40
71.0
 40
72.0
 40
72.0
 40
72.0
 40
73.0
 40
73.0
 40
73.0
 40
74.0
 40
74.0
 40
74.0
 40
75.0
 40
75.0
 40
75.0
 40
76.0
 40
76.0
 40
76.0
 40
77.0
 40
77.0
 40
77.0
 40
78.0
 40
78.0
 40
78.0
 40
79.0
 40
79.0
 40
79.0
 40
80.0
 40
80.0
 40
80.0
 40
81.0
 40
81.0
 40
81.0
 40
82.0
 40
82.0
 40
82.0
 40
83.0
 40
83.0
 40
83.0
 40
84.0
 40
84.0
 40
84.0
 40
85.0
 40
85.0
 40
85.0
 40
86.0
 40
86.0
 40
86.0
 40
87.0
 40
87.0
 40
87.0
 40
88.0
 40
88.0
 40
88.0
 40
89.0
 40
89.0
 40
89.0
 40
90.0
 40
90.0
 40
90.0
 40
90.0
 10
38.77938555453323
 20
-83.57890141129809
 30
0.0
 10
39.46734534997547
 20
-83.57890141129809
 30
0.0
 10
40.1278271181832
 20
-83.57890141129809
 30
0.0
 10
40.81271887978347
 20
-83.57890141129809
 30
0.0
 10
40.81271887978347
 20
-83.51671192790278
 30
0.0
 10
40.81271887978347
 20
-83.45825067528706
 30
0.0
 10
40.81271887978347
 20
-83.39978942267103
 30
0.0
 10
40.81271887978347
 20
-82.49983240517103
 30
0.0
 10
40.81039140583439
 20
-81.59985885731672
 30
0.0
 10
40.81689775346478
 20
-80.69994901490587
 30
0.0
 10
40.81745113887924
 20
-80.62335828645077
 30
0.0
 10
40.8651765618666
 20
-80.5391330772316
 30
0.0
 10
40.91104244710094
 20
-80.47219874623944
 30
0.0
 10
41.13396318189185
 20
-80.14688390785174
 30
0.0
 10
41.44019690463281
 20
-80.07262268785061
 30
0.0
 10
41.83389400593234
 20
-80.07344469152977
 30
0.0
 10
48.25578118743472
 20
-80.08685303447389
 30
0.0
 10
54.67770499003071
 20
-80.08330352226062
 30
0.0
 10
61.0996206546059
 20
-80.08054549614849
 30
0.0
 10
61.23565581031512
 20
-80.08048706770232
 30
0.0
 10
61.32621570578845
 20
-80.1279269606005
 30
0.0
 10
61.43443917541031
 20
-80.21105137534983
 30
0.0
 10
61.75054431738287
 20
-80.45383949846894
 30
0.0
 10
61.83655505922845
 20
-80.75297406962683
 30
0.0
 10
61.82180896553707
 20
-81.14450442288809
 30
0.0
 10
61.79153552815742
 20
-81.94832458469104
 30
0.0
 10
61.81271879630238
 20
-82.75408248554085
 30
0.0
 10
61.81271879630238
 20
-83.57098209980629
 30
0.0
 10
62.47843331188513
 20
-83.57098209980629
 30
0.0
 10
63.13569242385567
 20
-83.57098209980629
 30
0.0
 10
63.81271878835179
 20
-83.57098209980629
 30
0.0
 10
63.81271878835179
 20
-83.51131743736448
 30
0.0
 10
63.81271878835179
 20
-83.45220844915536
 30
0.0
 10
63.81271878835179
 20
-83.39309920663322
 30
0.0
 10
63.81271878835179
 20
-82.5042528763451
 30
0.0
 10
63.81483060474965
 20
-81.61539535627823
 30
0.0
 10
63.81011462169548
 20
-80.72657407583542
 30
0.0
 10
63.80950833914581
 20
-80.61208445735332
 30
0.0
 10
63.85405993402079
 20
-80.5389806164981
 30
0.0
 10
63.9204946668296
 20
-80.45036697956198
 30
0.0
 10
64.15171211382712
 20
-80.1419546832211
 30
0.0
 10
64.44466458662087
 20
-80.07268912716107
 30
0.0
 10
64.82392890802986
 20
-80.07396272741643
 30
0.0
 10
69.0625722831071
 20
-80.08819720662837
 30
0.0
 10
73.30126855531955
 20
-80.08294894615113
 30
0.0
 10
77.53995668951121
 20
-80.08294894615113
 30
0.0
 10
77.61170961891347
 20
-80.08294894615113
 30
0.0
 10
77.68345441029493
 20
-80.08294888257288
 30
0.0
 10
77.7793853994969
 20
-80.08294888257288
 30
0.0
 10
77.7793853994969
 20
-80.15483545353545
 30
0.0
 10
77.7793853994969
 20
-80.21888193155222
 30
0.0
 10
77.7793853994969
 20
-80.28292840956931
 30
0.0
 10
77.7793853994969
 20
-82.16617151782587
 30
0.0
 10
77.77822980054317
 20
-84.04941735994848
 30
0.0
 10
77.78206280834043
 20
-85.93265252091935
 30
0.0
 10
77.78231508698526
 20
-86.05345024993117
 30
0.0
 10
77.7345530429043
 20
-86.12961449523394
 30
0.0
 10
77.66480206661907
 20
-86.22273430687557
 30
0.0
 10
77.43649803106833
 20
-86.52756066064434
 30
0.0
 10
77.14748436034223
 20
-86.60575178175262
 30
0.0
 10
76.77455955713722
 20
-86.59153109902928
 30
0.0
 10
76.02014061482375
 20
-86.562761669619
 30
0.0
 10
75.26384992772606
 20
-86.5829500647207
 30
0.0
 10
74.50833235260446
 20
-86.5829500647207
 30
0.0
 10
74.44850976169644
 20
-86.5829500647207
 30
0.0
 10
74.38868717078842
 20
-86.58294955609465
 30
0.0
 10
74.32116601220267
 20
-86.58294955609465
 30
0.0
 10
74.32116601220267
 20
-87.25181857199023
 30
0.0
 10
74.32116601220267
 20
-87.90514651128751
 30
0.0
 10
74.32116601220267
 20
-88.58294802226524
 30
0.0
 10
74.37893782186885
 20
-88.58294802226524
 30
0.0
 10
74.4374013633031
 20
-88.58294802226524
 30
0.0
 10
74.49585676671656
 20
-88.58294802226524
 30
0.0
 10
75.38469953662064
 20
-88.58294903951769
 30
0.0
 10
76.27356672058714
 20
-88.58059206524337
 30
0.0
 10
77.16236066236642
 20
-88.58712994770418
 30
0.0
 10
77.23896385216608
 20
-88.58769248839222
 30
0.0
 10
77.32318422943544
 20
-88.63538841105401
 30
0.0
 10
77.39011945052351
 20
-88.68125633079354
 30
0.0
 10
77.715428694022
 20
-88.9041699448161
 30
0.0
 10
77.79472556870677
 20
-89.20974550512494
 30
0.0
 10
77.78949282133173
 20
-89.60421266664292
 30
0.0
 10
77.76619366777852
 20
-91.35937521663162
 30
0.0
 10
77.7793853994969
 20
-93.11502096160555
 30
0.0
 10
77.7793853994969
 20
-94.87049275638502
 30
0.0
 10
77.7793853994969
 20
-94.93571390684173
 30
0.0
 10
77.7793853994969
 20
-95.00093505729843
 30
0.0
 10
77.7793853994969
 20
-95.0829490136783
 30
0.0
 10
77.69916079044083
 20
-95.0829490136783
 30
0.0
 10
77.63412986622018
 20
-95.0829490136783
 30
0.0
 10
77.56909894199953
 20
-95.0829490136783
 30
0.0
 10
73.20264388123245
 20
-95.0829490136783
 30
0.0
 10
68.83618068244458
 20
-95.08240885254747
 30
0.0
 10
64.4697256216775
 20
-95.08564168131099
 30
0.0
 10
64.34287829145259
 20
-95.08573628580264
 30
0.0
 10
64.26313382562377
 20
-95.03409952656796
 30
0.0
 10
64.16607165153044
 20
-94.9611716704124
 30
0.0
 10
63.87214261624057
 20
-94.7403169756525
 30
0.0
 10
63.791201861354
 20
-94.46397013430314
 30
0.0
 10
63.80424303968757
 20
-94.10152608463703
 30
0.0
 10
63.83198962160852
 20
-93.3303397677159
 30
0.0
 10
63.81271878835179
 20
-92.55746074246785
 30
0.0
 10
63.81271878835179
 20
-91.7852754834934
 30
0.0
 10
63.81271878835179
 20
-91.72502056023016
 30
0.0
 10
63.81271878835179
 20
-91.66476563696693
 30
0.0
 10
63.81271878835179
 20
-91.59377259525712
 30
0.0
 10
63.14466459178875
 20
-91.59377259525712
 30
0.0
 10
62.48741768684942
 20
-91.59377259525712
 30
0.0
 10
61.81271879630238
 20
-91.59377259525712
 30
0.0
 10
61.81271879630238
 20
-91.65719422586437
 30
0.0
 10
61.81271879630238
 20
-91.71661398474275
 30
0.0
 10
61.81271879630238
 20
-91.77603374362113
 30
0.0
 10
61.81271879630238
 20
-92.65376913238464
 30
0.0
 10
61.81122953849579
 20
-93.53151164191618
 30
0.0
 10
61.81465971426341
 20
-94.40923380639573
 30
0.0
 10
61.81507475332426
 20
-94.51533223533578
 30
0.0
 10
61.7773224748285
 20
-94.58690002476482
 30
0.0
 10
61.71413888132967
 20
-94.67233703614393
 30
0.0
 10
61.45966703989336
 20
-95.01644103868227
 30
0.0
 10
61.13373930681401
 20
-95.0937196842084
 30
0.0
 10
60.71209624208392
 20
-95.09278788082669
 30
0.0
 10
54.30687572718195
 20
-95.07862670738054
 30
0.0
 10
47.90161859118637
 20
-95.08247395671388
 30
0.0
 10
41.4963695932116
 20
-95.08598042642666
 30
0.0
 10
41.35200110420217
 20
-95.08605977212947
 30
0.0
 10
41.25926835717497
 20
-95.03068562684194
 30
0.0
 10
41.14891679511366
 20
-94.94532592666044
 30
0.0
 10
40.86729244727486
 20
-94.72747823058619
 30
0.0
 10
40.79212154913618
 20
-94.46136596764683
 30
0.0
 10
40.80429602825446
 20
-94.11151347066503
 30
0.0
 10
40.83133053335532
 20
-93.33471395389643
 30
0.0
 10
40.81271887978347
 20
-92.55632548856612
 30
0.0
 10
40.81271887978347
 20
-91.77858501314223
 30
0.0
 10
40.81271887978347
 20
-91.71876140498145
 30
0.0
 10
40.81271887978347
 20
-91.65893881407342
 30
0.0
 10
40.81271887978347
 20
-91.591407482962
 30
0.0
 10
40.1327546897782
 20
-91.591407482962
 30
0.0
 10
39.46831784346119
 20
-91.591407482962
 30
0.0
 10
38.77938555453323
 20
-91.591407482962
 30
0.0
 10
38.77938555453323
 20
-91.64914470603945
 30
0.0
 10
38.77938555453323
 20
-91.7076001094529
 30
0.0
 10
38.77938555453323
 20
-91.76605653011912
 30
0.0
 10
38.77938555453323
 20
-92.66601380193215
 30
0.0
 10
38.78171302848231
 20
-93.56598734978678
 30
0.0
 10
38.77521074986232
 20
-94.46589681072746
 30
0.0
 10
38.77465736444785
 20
-94.54249287975905
 30
0.0
 10
38.7269685625541
 20
-94.62673563658562
 30
0.0
 10
38.68110267731976
 20
-94.6936647541581
 30
0.0
 10
38.45817787351846
 20
-95.01893432480533
 30
0.0
 10
38.1519889098919
 20
-95.09328226559035
 30
0.0
 10
37.75826332551957
 20
-95.09246032548944
 30
0.0
 10
31.33637614401718
 20
-95.07904276369382
 30
0.0
 10
24.9144523414212
 20
-95.0825960270259
 30
0.0
 10
18.49253871135121
 20
-95.08534769530938
 30
0.0
 10
18.35653000420959
 20
-95.08540567870776
 30
0.0
 10
18.26593755665306
 20
-95.03804036314051
 30
0.0
 10
18.15770187999999
 20
-94.95488708384885
 30
0.0
 10
17.84165166966784
 20
-94.71207804347308
 30
0.0
 10
17.75552903003624
 20
-94.41301086529982
 30
0.0
 10
17.77028529625363
 20
-94.02144795995537
 30
0.0
 10
17.80058111319048
 20
-93.21762309335914
 30
0.0
 10
17.77938563801433
 20
-92.41185934330707
 30
0.0
 10
17.77938563801433
 20
-91.59493531497922
 30
0.0
 10
17.11370774352517
 20
-91.59493531497922
 30
0.0
 10
16.45644863155463
 20
-91.59493531497922
 30
0.0
 10
15.7793856459649
 20
-91.59493531497922
 30
0.0
 10
15.7793856459649
 20
-91.6545361448201
 30
0.0
 10
15.7793856459649
 20
-91.71363953813999
 30
0.0
 10
15.7793856459649
 20
-91.77274293145989
 30
0.0
 10
15.7793856459649
 20
-92.66158977037438
 30
0.0
 10
15.77727586407225
 20
-93.55044678181454
 30
0.0
 10
15.78198777811602
 20
-94.4392681894142
 30
0.0
 10
15.78259406066569
 20
-94.55373657274838
 30
0.0
 10
15.73809943193632
 20
-94.626864827666
 30
0.0
 10
15.6716545266015
 20
-94.7154919431991
 30
0.0
 10
15.44043911410919
 20
-95.02389546573598
 30
0.0
 10
15.14751105537783
 20
-95.09320800615038
 30
0.0
 10
14.76823249243245
 20
-95.09193542314779
 30
0.0
 10
10.52959420361836
 20
-95.07770100751411
 30
0.0
 10
6.290890810637551
 20
-95.0829490136783
 30
0.0
 10
2.0522047109511
 20
-95.0829490136783
 30
0.0
 10
1.980479247368881
 20
-95.0829490136783
 30
0.0
 10
1.908753783786984
 20
-95.0829490136783
 30
0.0
 10
1.812719289132821
 20
-95.0829490136783
 30
0.0
 10
1.812719289132821
 20
-95.01111063505762
 30
0.0
 10
1.812719543446172
 20
-94.94706949761674
 30
0.0
 10
1.812719543446172
 20
-94.88302836017617
 30
0.0
 10
1.812719797759202
 20
-92.9997855698112
 30
0.0
 10
1.813867513005491
 20
-91.11653972768795
 30
0.0
 10
1.810041117349888
 20
-89.23330405809102
 30
0.0
 10
1.809795705160068
 20
-89.11253582940445
 30
0.0
 10
1.857474843154204
 20
-89.03632936811917
 30
0.0
 10
1.927253793885847
 20
-88.94319785807274
 30
0.0
 10
2.155588347014609
 20
-88.63844830687519
 30
0.0
 10
2.444520891846036
 20
-88.56012189117092
 30
0.0
 10
2.817486385155057
 20
-88.57435935856225
 30
0.0
 10
3.571906344720962
 20
-88.60315879692449
 30
0.0
 10
4.328197031818654
 20
-88.58294903951769
 30
0.0
 10
5.083716641445453
 20
-88.58294903951769
 30
0.0
 10
5.143542284111435
 20
-88.58294903951769
 30
0.0
 10
5.203367926777096
 20
-88.58294903951769
 30
0.0
 10
5.27091604255683
 20
-88.58294903951769
 30
0.0
 10
5.27091604255683
 20
-87.91412173097855
 30
0.0
 10
5.27091604255683
 20
-87.26079430030732
 30
0.0
 10
5.27091604255683
 20
-86.5829500647207
 30
0.0
 10
5.213217983704245
 20
-86.5829500647207
 30
0.0
 10
5.154765123422369
 20
-86.5829500647207
 30
0.0
 10
5.096312263140173
 20
-86.5829500647207
 30
0.0
 10
4.20746593285206
 20
-86.58294955609465
 30
0.0
 10
3.318602309269586
 20
-86.58530602174258
 30
0.0
 10
2.429803789853519
 20
-86.57877068241334
 30
0.0
 10
2.353200600053873
 20
-86.57820763309925
 30
0.0
 10
2.268951739711703
 20
-86.53055799543036
 30
0.0
 10
2.202028217028765
 20
-86.4846865153068
 30
0.0
 10
1.876785603575525
 20
-86.26175865974753
 30
0.0
 10
1.797363861134128
 20
-85.95624972948424
 30
0.0
 10
1.80260423790358
 20
-85.56174492962022
 30
0.0
 10
1.825919667498395
 20
-83.80658339688395
 30
0.0
 10
1.812719034819792
 20
-82.0509361260312
 30
0.0
 10
1.812719034819792
 20
-80.29546464914336
 30
0.0
 10
1.812719034819792
 20
-80.2302380945322
 30
0.0
 10
1.812719034819792
 20
-80.16501153992071
 30
0.0
 10
1.812719034819792
 20
-80.08294907330765
 30
0.0
 10
1.89289456143804
 20
-80.08294907330765
 30
0.0
 10
1.957919382143089
 20
-80.08294907330765
 30
0.0
 10
2.022943948534788
 20
-80.08294907330765
 30
0.0
 10
6.389402061059822
 20
-80.08294907330765
 30
0.0
 10
10.75585966495848
 20
-80.08348783571586
 30
0.0
 10
15.12231574297799
 20
-80.08026416222623
 30
0.0
 10
15.2491305211197
 20
-80.08017051140875
 30
0.0
 10
15.32891567705253
 20
-80.1317104409118
 30
0.0
 10
15.42599209268225
 20
-80.20467580825658
 30
0.0
 10
15.71986619633172
 20
-80.42555746021078
 30
0.0
 10
15.8009168144991
 20
-80.70183398397405
 30
0.0
 10
15.78786749814473
 20
-81.06430931415758
 30
0.0
 10
15.76010260567698
 20
-81.83549474098278
 30
0.0
 10
15.7793856459649
 20
-82.6083742748569
 30
0.0
 10
15.7793856459649
 20
-83.38055953383167
 30
0.0
 10
15.7793856459649
 20
-83.4408200519838
 30
0.0
 10
15.7793856459649
 20
-83.50108082444929
 30
0.0
 10
15.7793856459649
 20
-83.5721028578586
 30
0.0
 10
16.44738897989794
 20
-83.5721028578586
 30
0.0
 10
17.10463588483728
 20
-83.5721028578586
 30
0.0
 10
17.77938563801433
 20
-83.5721028578586
 30
0.0
 10
17.77938563801433
 20
-83.50875726688317
 30
0.0
 10
17.77938563801433
 20
-83.44934335720704
 30
0.0
 10
17.77938563801433
 20
-83.38992944753123
 30
0.0
 10
17.77938563801433
 20
-82.50663833369224
 30
0.0
 10
17.77670009115
 20
-81.6233253489224
 30
0.0
 10
17.78387172198087
 20
-80.74009259995164
 30
0.0
 10
17.78453293617094
 20
-80.65877584307258
 30
0.0
 10
17.83613205705957
 20
-80.56992709362916
 30
0.0
 10
17.8844210379874
 20
-80.49828568054336
 30
0.0
 10
18.12368698755709
 20
-80.14329872821905
 30
0.0
 10
18.45825526422187
 20
-80.07216543280694
 30
0.0
 10
18.87994512257157
 20
-80.07309876206747
 30
0.0
 10
25.28520022406195
 20
-80.08727557577265
 30
0.0
 10
31.69050008466673
 20
-80.08342482963322
 30
0.0
 10
38.09578773824031
 20
-80.07991333723585
 30
0.0
 10
38.24017657230174
 20
-80.07983418226782
 30
0.0
 10
38.33288083625613
 20
-80.13528322277821
 30
0.0
 10
38.44322019128625
 20
-80.2206128504295
 30
0.0
 10
38.72488929823945
 20
-80.43844554202795
 30
0.0
 10
38.79997881617012
 20
-80.70460523436982
 30
0.0
 10
38.78780840606225
 20
-81.05443700482974
 30
0.0
 10
38.76078610799259
 20
-81.83123753885111
 30
0.0
 10
38.77938555453323
 20
-82.60962524124201
 30
0.0
 10
38.77938555453323
 20
-83.3873657166659
 30
0.0
 10
38.77938555453323
 20
-83.44701003405571
 30
0.0
 10
38.77938555453323
 20
-83.50665435144552
 30
0.0
 10
38.77938555453323
 20
-83.57890141129809
 30
0.0
  0
ENDSEC
  0
SECTION
  2
OBJECTS
  0
DICTIONARY
  5
C
330
0
100
AcDbDictionary
  3
ACAD_GROUP
350
D
  3
ACAD_LAYOUT
350
1A
  3
ACAD_MATERIAL
350
3B
  3
ACAD_MLEADERSTYLE
350
4E
  3
ACAD_MLINESTYLE
350
17
  3
ACAD_PLOTSETTINGS
350
19
  3
ACAD_VISUALSTYLE
350
2A
  3
ACDBVARIABLEDICTIONARY
350
4C
1001
ACAD
1000
TREAT_AS_HARD
1070
     0
  0
DICTIONARY
  5
D
102
{ACAD_REACTORS
330
C
102
}
330
C
100
AcDbDictionary
1001
ACAD
1000
TREAT_AS_HARD
1070
     0
  0
DICTIONARY
  5
1A
102
{ACAD_REACTORS
330
C
102
}
330
C
100
AcDbDictionary
1001
ACAD
1000
TREAT_AS_HARD
1070
     0
  0
DICTIONARY
  5
3B
102
{ACAD_REACTORS
330
C
102
}
330
C
100
AcDbDictionary
  3
BYBLOCK
350
3D
  3
BYLAYER
350
3C
  3
GLOBAL
350
3E
1001
ACAD
1000
TREAT_AS_HARD
1070
     0
  0
DICTIONARY
  5
4E
102
{ACAD_REACTORS
330
C
102
}
330
C
100
AcDbDictionary
1001
ACAD
1000
TREAT_AS_HARD
1070
     0
  0
DICTIONARY
  5
17
102
{ACAD_REACTORS
330
C
102
}
330
C
100
AcDbDictionary
  3
STANDARD
350
18
1001
ACAD
1000
TREAT_AS_HARD
1070
     0
  0
DICTIONARY
  5
19
102
{ACAD_REACTORS
330
C
102
}
330
C
100
AcDbDictionary
1001
ACAD
1000
TREAT_AS_HARD
1070
     0
  0
DICTIONARY
  5
2A
102
{ACAD_REACTORS
330
C
102
}
330
C
100
AcDbDictionary
  3
2DWIREFRAME
350
2F
  3
3DWIREFRAME
350
30
  3
3D_HIDDEN
350
31
  3
BASIC
350
32
  3
BRIGHTEN
350
36
  3
COLORCHANGE
350
3A
  3
CONCEPTUAL
350
34
  3
DIM
350
35
  3
FACEPATTERN
350
39
  3
FLAT
350
2B
  3
FLATWITHEDGES
350
2C
  3
GOURAUD
350
2D
  3
GOURAUDWITHEDGES
350
2E
  3
LINEPATTERN
350
38
  3
REALISTIC
350
33
  3
THICKEN
350
37
1001
ACAD
1000
TREAT_AS_HARD
1070
     0
  0
DICTIONARY
  5
4C
102
{ACAD_REACTORS
330
C
102
}
330
C
100
AcDbDictionary
  3
DIMASSOC
350
4F
  3
HIDETEXT
350
50
1001
ACAD
1000
TREAT_AS_HARD
1070
     0
  0
MATERIAL
  5
3D
102
{ACAD_REACTORS
330
3B
102
}
102
{ACAD_XDICTIONARY
360
53
102
}
330
3B
100
AcDbMaterial
  1
ByBlock
  0
MATERIAL
  5
3C
102
{ACAD_REACTORS
330
3B
102
}
102
{ACAD_XDICTIONARY
360
51
102
}
330
3B
100
AcDbMaterial
  1
ByLayer
  0
MATERIAL
  5
3E
102
{ACAD_REACTORS
330
3B
102
}
102
{ACAD_XDICTIONARY
360
55
102
}
330
3B
100
AcDbMaterial
  1
Global
  0
MLINESTYLE
  5
18
102
{ACAD_REACTORS
330
17
102
}
330
17
100
AcDbMlineStyle
  2
Standard
 70
     0
  3

 62
   256
 51
90.0
 52
90.0
 71
     2
 49
0.5
 62
   256
  6
BYLAYER
 49
-0.5
 62
   256
  6
BYLAYER
  0
ACAD_PROXY_OBJECT
  5
2F
102
{ACAD_REACTORS
330
2A
102
}
330
2A
100
AcDbZombieObject
 90
      499
 91
      501
 93
      436
310
42CC9915DA5C99599C985B595049028333333333333E3BF0000000000000FB0107901411070040501600405405064090741402480A0340
1001
ACAD
1000
AcDbSavedByObjectVersion
1070
     0
  0
ACAD_PROXY_OBJECT
  5
30
102
{ACAD_REACTORS
330
2A
102
}
330
2A
100
AcDbZombieObject
 90
      499
 91
      501
 93
      436
310
42CCD915DA5C99599C985B595059028333333333333E3BF0000000000000FB0107901411070040501600405405064090741402480A0340
1001
ACAD
1000
AcDbSavedByObjectVersion
1070
     0
  0
ACAD_PROXY_OBJECT
  5
31
102
{ACAD_REACTORS
330
2A
102
}
330
2A
100
AcDbZombieObject
 90
      499
 91
      501
 93
      500
310
424CD108121A5919195B90640502408333333333333E3BF0000000000000FB01079024090700405020000000000001110200405405064090740C02480A0340
1001
ACAD
1000
AcDbSavedByObjectVersion
1070
     0
  0
ACAD_PROXY_OBJECT
  5
32
102
{ACAD_REACTORS
330
2A
102
}
330
2A
100
AcDbZombieObject
 90
      499
 91
      501
 93
      388
310
4150985CDA58D07406404333333333333E3BF0000000000000FB0107A41107004050150841D405064090741402480A0350
1001
ACAD
1000
AcDbSavedByObjectVersion
1070
     0
  0
ACAD_PROXY_OBJECT
  5
36
102
{ACAD_REACTORS
330
2A
102
}
330
2A
100
AcDbZombieObject
 90
      499
 91
      501
 93
      428
310
42109C9A59DA1D195B90C409028333333333333E3BF0000000000000FB010790141107004050150841D405064090741402480A029950
1001
ACAD
1000
AcDbSavedByObjectVersion
1070
     0
  0
ACAD_PROXY_OBJECT
  5
3A
102
{ACAD_REACTORS
330
2A
102
}
330
2A
100
AcDbZombieObject
 90
      499
 91
      501
 93
      452
310
42D0DBDB1BDC90DA185B99D95104090240C333333333333E3BF0000000000000FB0108901411070040501508421405064090741402480A0350
1001
ACAD
1000
AcDbSavedByObjectVersion
1070
     0
  0
ACAD_PROXY_OBJECT
  5
34
102
{ACAD_REACTORS
330
2A
102
}
330
2A
100
AcDbZombieObject
 90
      499
 91
      501
 93
      500
310
4290DBDB98D95C1D1D585B10940D028333333333333E3BF0000000000000FB0107902409070040501000000000000111010841D405064090740C02480A0340
1001
ACAD
1000
AcDbSavedByObjectVersion
1070
     0
  0
ACAD_PROXY_OBJECT
  5
35
102
{ACAD_REACTORS
330
2A
102
}
330
2A
100
AcDbZombieObject
 90
      499
 91
      501
 93
      412
310
40D11A5B50B409028333333333333E3BF0000000000000FB010790141107004050150841D405064090741402480A02677FFFFFD0
1001
ACAD
1000
AcDbSavedByObjectVersion
1070
     0
  0
ACAD_PROXY_OBJECT
  5
39
102
{ACAD_REACTORS
330
2A
102
}
330
2A
100
AcDbZombieObject
 90
      499
 91
      501
 93
      444
310
42D19858D95C185D1D195C9B90F409028333333333333E3BF0000000000000FB010790141107004050150841D405064090741402480A0350
1001
ACAD
1000
AcDbSavedByObjectVersion
1070
     0
  0
ACAD_PROXY_OBJECT
  5
2B
102
{ACAD_REACTORS
330
2A
102
}
330
2A
100
AcDbZombieObject
 90
      499
 91
      501
 93
      388
310
41119B185D240901404333333333333E3BF0000000000000F9010740A41107004050150841D405064090741402480A1B50
1001
ACAD
1000
AcDbSavedByObjectVersion
1070
     0
  0
ACAD_PROXY_OBJECT
  5
2C
102
{ACAD_REACTORS
330
2A
102
}
330
2A
100
AcDbZombieObject
 90
      499
 91
      501
 93
      476
310
43519B185D15DA5D1A115919D95CD0140901404333333333333E3BF0000000000000F9010740901411070040501600405405064090741402480A1B50
1001
ACAD
1000
AcDbSavedByObjectVersion
1070
     0
  0
ACAD_PROXY_OBJECT
  5
2D
102
{ACAD_REACTORS
330
2A
102
}
330
2A
100
AcDbZombieObject
 90
      499
 91
      501
 93
      412
310
41D1DBDD5C985D5910240902404333333333333E3BF0000000000000F9010740A411070040501641D405064090741402480A1B50
1001
ACAD
1000
AcDbSavedByObjectVersion
1070
     0
  0
ACAD_PROXY_OBJECT
  5
2E
102
{ACAD_REACTORS
330
2A
102
}
330
2A
100
AcDbZombieObject
 90
      499
 91
      501
 93
      500
310
4411DBDD5C985D5915DA5D1A115919D95CD0340902404333333333333E3BF0000000000000F9010740901411070040501600405405064090741402480A1B50
1001
ACAD
1000
AcDbSavedByObjectVersion
1070
     0
  0
ACAD_PROXY_OBJECT
  5
38
102
{ACAD_REACTORS
330
2A
102
}
330
2A
100
AcDbZombieObject
 90
      499
 91
      501
 93
      444
310
42D31A5B995C185D1D195C9B90E409028333333333333E3BF0000000000000FB010790141107004050750841D405064090741402483A0350
1001
ACAD
1000
AcDbSavedByObjectVersion
1070
     0
  0
ACAD_PROXY_OBJECT
  5
33
102
{ACAD_REACTORS
330
2A
102
}
330
2A
100
AcDbZombieObject
 90
      499
 91
      501
 93
      420
310
425499585B1A5CDD1A58D08409028333333333333E3BF0000000000000FB01079019070040501508421405064090741402480A1B40
1001
ACAD
1000
AcDbSavedByObjectVersion
1070
     0
  0
ACAD_PROXY_OBJECT
  5
37
102
{ACAD_REACTORS
330
2A
102
}
330
2A
100
AcDbZombieObject
 90
      499
 91
      501
 93
      412
310
41D51A1A58DAD95B90D409028333333333333E3BF0000000000000FB010790141107004050150C41D405064090741402480A0350
1001
ACAD
1000
AcDbSavedByObjectVersion
1070
     0
  0
DICTIONARYVAR
  5
4F
102
{ACAD_REACTORS
330
4C
102
}
330
4C
100
DictionaryVariables
280
     0
  1
2
  0
DICTIONARYVAR
  5
50
102
{ACAD_REACTORS
330
4C
102
}
330
4C
100
DictionaryVariables
280
     0
  1
1
  0
DICTIONARY
  5
53
330
3D
100
AcDbDictionary
  3
ACAD_XREC_ROUNDTRIP
360
54
1001
ACAD
1000
TREAT_AS_HARD
1070
     1
  0
DICTIONARY
  5
51
330
3C
100
AcDbDictionary
  3
ACAD_XREC_ROUNDTRIP
360
52
1001
ACAD
1000
TREAT_AS_HARD
1070
     1
  0
DICTIONARY
  5
55
330
3E
100
AcDbDictionary
  3
ACAD_XREC_ROUNDTRIP
360
56
1001
ACAD
1000
TREAT_AS_HARD
1070
     1
  0
XRECORD
  5
54
102
{ACAD_REACTORS
330
53
102
}
330
53
100
AcDbXrecord
102
MATERIAL
148
0.0
149
0.0
149
0.0
 93
        0
 94
      127
282
     0
 72
     1
 77
     1
171
     1
175
     1
179
     1
273
     0
  0
XRECORD
  5
52
102
{ACAD_REACTORS
330
51
102
}
330
51
100
AcDbXrecord
102
MATERIAL
148
0.0
149
0.0
149
0.0
 93
        0
 94
      127
282
     0
 72
     1
 77
     1
171
     1
175
     1
179
     1
273
     0
  0
XRECORD
  5
56
102
{ACAD_REACTORS
330
55
102
}
330
55
100
AcDbXrecord
102
MATERIAL
148
0.0
149
0.0
149
0.0
 93
        0
 94
      127
282
     0
 72
     1
 77
     1
171
     1
175
     1
179
     1
273
     0
  0
ENDSEC
  0
EOF
