  0
SECTION
  2
HEADER
  9
$ACADVER
  1
AC1014
  9
$HANDSEED
  5
FFFF
  9
$MEASUREMENT
 70
     1
  0
ENDSEC
  0
SECTION
  2
TABLES
  0
TABLE
  2
VPORT
  5
8
330
0
100
AcDbSymbolTable
 70
     4
  0
VPORT
  5
2E
330
8
100
AcDbSymbolTableRecord
100
AcDbViewportTableRecord
  2
*ACTIVE
 70
     0
 10
0.0
 20
0.0
 11
1.0
 21
1.0
 12
210.0
 22
148.5
 13
0.0
 23
0.0
 14
10.0
 24
10.0
 15
10.0
 25
10.0
 16
0.0
 26
0.0
 36
1.0
 17
0.0
 27
0.0
 37
0.0
 40
341.0
 41
1.24
 42
50.0
 43
0.0
 44
0.0
 50
0.0
 51
0.0
 71
     0
 72
   100
 73
     1
 74
     3
 75
     0
 76
     0
 77
     0
 78
     0
  0
ENDTAB
  0
TABLE
  2
LTYPE
  5
5
330
0
100
AcDbSymbolTable
 70
     1
  0
LTYPE
  5
14
330
5
100
AcDbSymbolTableRecord
100
AcDbLinetypeTableRecord
  2
BYBLOCK
 70
     0
  3

 72
    65
 73
     0
 40
0.0
  0
LTYPE
  5
15
330
5
100
AcDbSymbolTableRecord
100
AcDbLinetypeTableRecord
  2
BYLAYER
 70
     0
  3

 72
    65
 73
     0
 40
0.0
  0
LTYPE
  5
16
330
5
100
AcDbSymbolTableRecord
100
AcDbLinetypeTableRecord
  2
CONTINUOUS
 70
     0
  3
Solid line
 72
    65
 73
     0
 40
0.0
  0
ENDTAB
  0
TABLE
  2
LAYER
  5
2
100
AcDbSymbolTable
 70
2
  0
LAYER
  5
50
100
AcDbSymbolTableRecord
100
AcDbLayerTableRecord
  2
0
 70
0
  6
CONTINUOUS
  0
LAYER
  5
51
100
AcDbSymbolTableRecord
100
AcDbLayerTableRecord
  2
Layer_1
 70
0
  6
CONTINUOUS
  0
ENDTAB
  0
TABLE
  2
STYLE
  5
3
330
0
100
AcDbSymbolTable
 70
     1
  0
STYLE
  5
11
330
3
100
AcDbSymbolTableRecord
100
AcDbTextStyleTableRecord
  2
STANDARD
 70
     0
 40
0.0
 41
1.0
 50
0.0
 71
     0
 42
2.5
  3
txt
  4

  0
ENDTAB
  0
TABLE
  2
VIEW
  5
6
330
0
100
AcDbSymbolTable
 70
     0
  0
ENDTAB
  0
TABLE
  2
UCS
  5
7
330
0
100
AcDbSymbolTable
 70
     0
  0
ENDTAB
  0
TABLE
  2
APPID
  5
9
330
0
100
AcDbSymbolTable
 70
     2
  0
APPID
  5
12
330
9
100
AcDbSymbolTableRecord
100
AcDbRegAppTableRecord
  2
ACAD
 70
     0
  0
ENDTAB
  0
TABLE
  2
DIMSTYLE
  5
A
330
0
100
AcDbSymbolTable
 70
     1
  0
DIMSTYLE
105
27
330
A
100
AcDbSymbolTableRecord
100
AcDbDimStyleTableRecord
  2
ISO-25
 70
     0
  3

  4

  5

  6

  7

 40
1.0
 41
2.5
 42
0.625
 43
3.75
 44
1.25
 45
0.0
 46
0.0
 47
0.0
 48
0.0
140
2.5
141
2.5
142
0.0
143
0.03937007874016
144
1.0
145
0.0
146
1.0
147
0.625
 71
     0
 72
     0
 73
     0
 74
     0
 75
     0
 76
     0
 77
     1
 78
     8
170
     0
171
     3
172
     1
173
     0
174
     0
175
     0
176
     0
177
     0
178
     0
270
     2
271
     2
272
     2
273
     2
274
     3
340
11
275
     0
280
     0
281
     0
282
     0
283
     0
284
     8
285
     0
286
     0
287
     3
288
     0
  0
ENDTAB
  0
TABLE
  2
BLOCK_RECORD
  5
1
330
0
100
AcDbSymbolTable
 70
     1
  0
BLOCK_RECORD
  5
1F
330
1
100
AcDbSymbolTableRecord
100
AcDbBlockTableRecord
  2
*MODEL_SPACE
  0
BLOCK_RECORD
  5
1B
330
1
100
AcDbSymbolTableRecord
100
AcDbBlockTableRecord
  2
*PAPER_SPACE
  0
ENDTAB
  0
ENDSEC
  0
SECTION
  2
BLOCKS
  0
BLOCK
  5
20
330
1F
100
AcDbEntity
  8
0
100
AcDbBlockBegin
  2
*MODEL_SPACE
 70
     0
 10
0.0
 20
0.0
 30
0.0
  3
*MODEL_SPACE
  1

  0
ENDBLK
  5
21
330
1F
100
AcDbEntity
  8
0
100
AcDbBlockEnd
  0
BLOCK
  5
1C
330
1B
100
AcDbEntity
 67
     1
  8
0
100
AcDbBlockBegin
  2
*PAPER_SPACE
  1

  0
ENDBLK
  5
1D
330
1B
100
AcDbEntity
 67
     1
  8
0
100
AcDbBlockEnd
  0
ENDSEC
  0
SECTION
  2
ENTITIES
  0
SPLINE
  5
100
100
AcDbEntity
  8
Layer_1
 62
7
100
AcDbSpline
 70
8
 71
3
 72
8
 73
4
 74
0
 40
0
 40
0
 40
0
 40
0
 40
1
 40
1
 40
1
 40
1
 10
85.419704
 20
807.652142
 30
0.0
 10
50.485812
 20
806.767085
 30
0.0
 10
22.444705
 20
778.149326
 30
0.0
 10
22.444705
 20
743.002140
 30
0.0
  0
SPLINE
  5
101
100
AcDbEntity
  8
Layer_1
 62
7
100
AcDbSpline
 70
8
 71
3
 72
8
 73
4
 74
0
 40
0
 40
0
 40
0
 40
0
 40
1
 40
1
 40
1
 40
1
 10
22.444705
 20
743.002140
 30
0.0
 10
22.444705
 20
707.297060
 30
0.0
 10
51.389627
 20
678.352140
 30
0.0
 10
87.094704
 20
678.352140
 30
0.0
  0
SPLINE
  5
102
100
AcDbEntity
  8
Layer_1
 62
7
100
AcDbSpline
 70
8
 71
3
 72
8
 73
4
 74
0
 40
0
 40
0
 40
0
 40
0
 40
1
 40
1
 40
1
 40
1
 10
87.094704
 20
678.352140
 30
0.0
 10
104.820512
 20
678.352140
 30
0.0
 10
120.865672
 20
685.498932
 30
0.0
 10
132.544704
 20
697.052140
 30
0.0
  0
SPLINE
  5
103
100
AcDbEntity
  8
Layer_1
 62
7
100
AcDbSpline
 70
8
 71
3
 72
8
 73
4
 74
0
 40
0
 40
0
 40
0
 40
0
 40
1
 40
1
 40
1
 40
1
 10
132.544704
 20
697.052140
 30
0.0
 10
138.540344
 20
694.802012
 30
0.0
 10
145.046944
 20
693.552140
 30
0.0
 10
151.844704
 20
693.552140
 30
0.0
  0
SPLINE
  5
104
100
AcDbEntity
  8
Layer_1
 62
7
100
AcDbSpline
 70
8
 71
3
 72
8
 73
4
 74
0
 40
0
 40
0
 40
0
 40
0
 40
1
 40
1
 40
1
 40
1
 10
151.844704
 20
693.552140
 30
0.0
 10
181.786568
 20
693.552140
 30
0.0
 10
206.069704
 20
717.460740
 30
0.0
 10
206.069704
 20
746.952140
 30
0.0
  0
SPLINE
  5
105
100
AcDbEntity
  8
Layer_1
 62
7
100
AcDbSpline
 70
8
 71
3
 72
8
 73
4
 74
0
 40
0
 40
0
 40
0
 40
0
 40
1
 40
1
 40
1
 40
1
 10
206.069704
 20
746.952140
 30
0.0
 10
206.069704
 20
776.443542
 30
0.0
 10
181.786568
 20
800.352142
 30
0.0
 10
151.844704
 20
800.352142
 30
0.0
  0
SPLINE
  5
106
100
AcDbEntity
  8
Layer_1
 62
7
100
AcDbSpline
 70
8
 71
3
 72
8
 73
4
 74
0
 40
0
 40
0
 40
0
 40
0
 40
1
 40
1
 40
1
 40
1
 10
151.844704
 20
800.352142
 30
0.0
 10
142.718808
 20
800.352142
 30
0.0
 10
134.115592
 20
798.125126
 30
0.0
 10
126.569704
 20
794.202142
 30
0.0
  0
SPLINE
  5
107
100
AcDbEntity
  8
Layer_1
 62
7
100
AcDbSpline
 70
8
 71
3
 72
8
 73
4
 74
0
 40
0
 40
0
 40
0
 40
0
 40
1
 40
1
 40
1
 40
1
 10
126.569704
 20
794.202142
 30
0.0
 10
115.646912
 20
802.641358
 30
0.0
 10
101.965736
 20
807.652142
 30
0.0
 10
87.094704
 20
807.652142
 30
0.0
  0
SPLINE
  5
108
100
AcDbEntity
  8
Layer_1
 62
7
100
AcDbSpline
 70
8
 71
3
 72
8
 73
4
 74
0
 40
0
 40
0
 40
0
 40
0
 40
1
 40
1
 40
1
 40
1
 10
87.094704
 20
807.652142
 30
0.0
 10
86.536816
 20
807.652142
 30
0.0
 10
85.974208
 20
807.666190
 30
0.0
 10
85.419704
 20
807.652142
 30
0.0
  0
LWPOLYLINE
  5
109
100
AcDbEntity
  8
Layer_1
 62
7
100
AcDbPolyline
 90
2
 70
1
 10
85.419704
 20
807.652142
 30
0.0
 10
85.419704
 20
807.652142
 30
0.0
  0
LWPOLYLINE
  5
10a
100
AcDbEntity
  8
Layer_1
 62
7
100
AcDbPolyline
 90
12
 70
1
 10
233.258248
 20
754.060316
 30
0.0
 10
247.677848
 20
823.613685
 30
0.0
 10
255.311752
 20
779.506669
 30
0.0
 10
273.124200
 20
831.247589
 30
0.0
 10
284.999168
 20
786.292365
 30
0.0
 10
296.025920
 20
814.283357
 30
0.0
 10
307.900888
 20
781.203093
 30
0.0
 10
318.079424
 20
825.310109
 30
0.0
 10
329.106176
 20
784.595941
 30
0.0
 10
338.436512
 20
817.676205
 30
0.0
 10
362.186440
 20
753.212108
 30
0.0
 10
233.258248
 20
754.060316
 30
0.0
  0
LWPOLYLINE
  5
10b
100
AcDbEntity
  8
Layer_1
 62
7
100
AcDbPolyline
 90
14
 70
1
 10
232.410032
 20
659.908812
 30
0.0
 10
240.359288
 20
738.792508
 30
0.0
 10
254.089800
 20
687.051588
 30
0.0
 10
263.484368
 20
723.524700
 30
0.0
 10
278.660200
 20
691.292644
 30
0.0
 10
297.449328
 20
745.578204
 30
0.0
 10
310.457192
 20
700.622980
 30
0.0
 10
322.019728
 20
740.488932
 30
0.0
 10
335.750248
 20
687.899796
 30
0.0
 10
350.203432
 20
726.917540
 30
0.0
 10
363.933944
 20
683.658740
 30
0.0
 10
376.219144
 20
720.980060
 30
0.0
 10
386.336376
 20
663.301660
 30
0.0
 10
232.410032
 20
659.908812
 30
0.0
  0
LWPOLYLINE
  5
10c
100
AcDbEntity
  8
Layer_1
 62
7
100
AcDbPolyline
 90
12
 70
1
 10
368.929392
 20
731.863412
 30
0.0
 10
372.767808
 20
831.290341
 30
0.0
 10
386.586104
 20
781.203095
 30
0.0
 10
398.101352
 20
823.814633
 30
0.0
 10
412.687336
 20
772.232241
 30
0.0
 10
423.434896
 20
813.348641
 30
0.0
 10
433.414776
 20
788.678804
 30
0.0
 10
446.465392
 20
827.552487
 30
0.0
 10
467.192840
 20
771.484674
 30
0.0
 10
486.384920
 20
814.096213
 30
0.0
 10
505.577000
 20
731.115844
 30
0.0
 10
368.929392
 20
731.863412
 30
0.0
  0
SPLINE
  5
10d
100
AcDbEntity
  8
Layer_1
 62
7
100
AcDbSpline
 70
8
 71
3
 72
8
 73
4
 74
0
 40
0
 40
0
 40
0
 40
0
 40
1
 40
1
 40
1
 40
1
 10
86.100000
 20
609.639764
 30
0.0
 10
60.569232
 20
609.639764
 30
0.0
 10
39.875000
 20
600.954924
 30
0.0
 10
39.875000
 20
590.239764
 30
0.0
  0
SPLINE
  5
10e
100
AcDbEntity
  8
Layer_1
 62
7
100
AcDbSpline
 70
8
 71
3
 72
8
 73
4
 74
0
 40
0
 40
0
 40
0
 40
0
 40
1
 40
1
 40
1
 40
1
 10
39.875000
 20
590.239764
 30
0.0
 10
39.875000
 20
579.524604
 30
0.0
 10
60.569232
 20
570.839764
 30
0.0
 10
86.100000
 20
570.839764
 30
0.0
  0
SPLINE
  5
10f
100
AcDbEntity
  8
Layer_1
 62
7
100
AcDbSpline
 70
8
 71
3
 72
8
 73
4
 74
0
 40
0
 40
0
 40
0
 40
0
 40
1
 40
1
 40
1
 40
1
 10
86.100000
 20
570.839764
 30
0.0
 10
108.273280
 20
570.839764
 30
0.0
 10
126.785560
 20
577.397156
 30
0.0
 10
131.275000
 20
586.139764
 30
0.0
  0
LWPOLYLINE
  5
110
100
AcDbEntity
  8
Layer_1
 62
7
100
AcDbPolyline
 90
12
 70
1
 10
401.117784
 20
663.853284
 30
0.0
 10
412.900472
 20
716.172332
 30
0.0
 10
419.138360
 20
682.994404
 30
0.0
 10
433.693440
 20
721.914668
 30
0.0
 10
443.396832
 20
688.098700
 30
0.0
 10
452.407120
 20
709.153932
 30
0.0
 10
462.110504
 20
684.270476
 30
0.0
 10
470.427688
 20
717.448412
 30
0.0
 10
479.437976
 20
686.822628
 30
0.0
 10
487.062072
 20
711.706076
 30
0.0
 10
506.468848
 20
663.215252
 30
0.0
 10
401.117784
 20
663.853284
 30
0.0
  0
SPLINE
  5
111
100
AcDbEntity
  8
Layer_1
 62
7
100
AcDbSpline
 70
8
 71
3
 72
8
 73
4
 74
0
 40
0
 40
0
 40
0
 40
0
 40
1
 40
1
 40
1
 40
1
 10
130.075000
 20
596.239764
 30
0.0
 10
124.058504
 20
604.021636
 30
0.0
 10
106.647000
 20
609.639764
 30
0.0
 10
86.100000
 20
609.639764
 30
0.0
  0
LWPOLYLINE
  5
112
100
AcDbEntity
  8
Layer_1
 62
7
100
AcDbPolyline
 90
7
 70
0
 10
131.275000
 20
586.139764
 30
0.0
 10
133.450000
 20
584.864764
 30
0.0
 10
144.975000
 20
578.214764
 30
0.0
 10
144.975000
 20
591.539764
 30
0.0
 10
144.975000
 20
604.839764
 30
0.0
 10
133.450000
 20
598.189764
 30
0.0
 10
130.075000
 20
596.239764
 30
0.0
  0
LWPOLYLINE
  5
113
100
AcDbEntity
  8
Layer_1
 62
7
100
AcDbPolyline
 90
2
 70
0
 10
86.100000
 20
609.639764
 30
0.0
 10
86.100000
 20
609.639764
 30
0.0
  0
ENDSEC
  0
SECTION
  2
OBJECTS
  0
DICTIONARY
  5
C
330
0
100
AcDbDictionary
  3
ACAD_GROUP
350
D
  3
ACAD_MLINESTYLE
350
17
  0
DICTIONARY
  5
D
330
C
100
AcDbDictionary
  0
DICTIONARY
  5
1A
330
C
100
AcDbDictionary
  0
DICTIONARY
  5
17
330
C
100
AcDbDictionary
  3
STANDARD
350
18
  0
DICTIONARY
  5
19
330
C
100
AcDbDictionary
  0
ENDSEC
  0
EOF
