0
SECTION
2
HEADER
9
$INSUNITS
70
4
9
$ACADVER
1
AC1014
9
$HANDSEED
5
FFFF
0
ENDSEC
0
SECTION
2
TABLES
0
TABLE
2
VPORT
5
8
100
AcDbSymbolTable
0
ENDTAB
0
TABLE
2
LTYPE
5
5
100
AcDbSymbolTable
0
LTYPE
5
14
100
AcDbSymbolTableRecord
100
AcDbLinetypeTableRecord
2
BYBLOCK
70
0
0
LTYPE
5
15
100
AcDbSymbolTableRecord
100
AcDbLinetypeTableRecord
2
BYLAYER
70
0
0
ENDTAB
0
TABLE
2
LAYER
5
2
100
AcDbSymbolTable
70
2
0
LAYER
5
50
100
AcDbSymbolTableRecord
100
AcDbLayerTableRecord
2
0
70
0
6
CONTINUOUS
0
ENDTAB
0
TABLE
2
STYLE
5
3
100
AcDbSymbolTable
70
1
0
STYLE
5
11
100
AcDbSymbolTableRecord
100
AcDbTextStyleTableRecord
2
STANDARD
70
0
0
ENDTAB
0
TABLE
2
VIEW
5
6
100
AcDbSymbolTable
70
0
0
ENDTAB
0
TABLE
2
UCS
5
7
100
AcDbSymbolTable
70
0
0
ENDTAB
0
TABLE
2
APPID
5
9
100
AcDbSymbolTable
70
2
0
APPID
5
12
100
AcDbSymbolTableRecord
100
AcDbRegAppTableRecord
2
ACAD
70
0
0
ENDTAB
0
TABLE
2
DIMSTYLE
5
A
100
AcDbSymbolTable
70
1
0
ENDTAB
0
TABLE
2
BLOCK_RECORD
5
1
100
AcDbSymbolTable
70
1
0
BLOCK_RECORD
5
1F
100
AcDbSymbolTableRecord
100
AcDbBlockTableRecord
2
*MODEL_SPACE
0
BLOCK_RECORD
5
1B
100
AcDbSymbolTableRecord
100
AcDbBlockTableRecord
2
*PAPER_SPACE
0
ENDTAB
0
ENDSEC
0
SECTION
2
BLOCKS
0
BLOCK
5
20
100
AcDbEntity
100
AcDbBlockBegin
2
*MODEL_SPACE
0
ENDBLK
5
21
100
AcDbEntity
100
AcDbBlockEnd
0
BLOCK
5
1C
100
AcDbEntity
100
AcDbBlockBegin
2
*PAPER_SPACE
0
ENDBLK
5
1D
100
AcDbEntity
100
AcDbBlockEnd
0
ENDSEC
0
SECTION
2
ENTITIES
0
LINE
5
100
100
AcDbEntity
8
0
100
AcDbLine
10
-500
20
-10
30
0
11
-500
21
1460
31
0
0
LINE
5
101
100
AcDbEntity
8
0
100
AcDbLine
10
-200
20
0
30
0
11
-200
21
2400
31
0
0
LINE
5
102
100
AcDbEntity
8
0
100
AcDbLine
10
-170
20
2400
30
0
11
-140
21
2400
31
0
0
LINE
5
103
100
AcDbEntity
8
0
100
AcDbLine
10
-170
20
2385
30
0
11
-140
21
2385
31
0
0
LINE
5
104
100
AcDbEntity
8
0
100
AcDbLine
10
-170
20
2370
30
0
11
-140
21
2370
31
0
0
LINE
5
105
100
AcDbEntity
8
0
100
AcDbLine
10
-170
20
2355
30
0
11
-140
21
2355
31
0
0
LINE
5
106
100
AcDbEntity
8
0
100
AcDbLine
10
-170
20
2340
30
0
11
-140
21
2340
31
0
0
LINE
5
107
100
AcDbEntity
8
0
100
AcDbLine
10
-170
20
2325
30
0
11
-140
21
2325
31
0
0
LINE
5
108
100
AcDbEntity
8
0
100
AcDbLine
10
-170
20
2310
30
0
11
-140
21
2310
31
0
0
LINE
5
109
100
AcDbEntity
8
0
100
AcDbLine
10
-170
20
2295
30
0
11
-140
21
2295
31
0
0
LINE
5
110
100
AcDbEntity
8
0
100
AcDbLine
10
-170
20
2280
30
0
11
-140
21
2280
31
0
0
LINE
5
111
100
AcDbEntity
8
0
100
AcDbLine
10
-170
20
2265
30
0
11
-140
21
2265
31
0
0
LINE
5
112
100
AcDbEntity
8
0
100
AcDbLine
10
-170
20
2250
30
0
11
-140
21
2250
31
0
0
LINE
5
113
100
AcDbEntity
8
0
100
AcDbLine
10
-170
20
2235
30
0
11
-140
21
2235
31
0
0
LINE
5
114
100
AcDbEntity
8
0
100
AcDbLine
10
-170
20
2220
30
0
11
-140
21
2220
31
0
0
LINE
5
115
100
AcDbEntity
8
0
100
AcDbLine
10
-170
20
2205
30
0
11
-140
21
2205
31
0
0
LINE
5
116
100
AcDbEntity
8
0
100
AcDbLine
10
-170
20
2190
30
0
11
-140
21
2190
31
0
0
LINE
5
117
100
AcDbEntity
8
0
100
AcDbLine
10
-170
20
2175
30
0
11
-140
21
2175
31
0
0
LINE
5
118
100
AcDbEntity
8
0
100
AcDbLine
10
-170
20
2160
30
0
11
-140
21
2160
31
0
0
LINE
5
119
100
AcDbEntity
8
0
100
AcDbLine
10
-170
20
2145
30
0
11
-140
21
2145
31
0
0
LINE
5
120
100
AcDbEntity
8
0
100
AcDbLine
10
-170
20
2130
30
0
11
-140
21
2130
31
0
0
LINE
5
121
100
AcDbEntity
8
0
100
AcDbLine
10
-170
20
2115
30
0
11
-140
21
2115
31
0
0
LINE
5
122
100
AcDbEntity
8
0
100
AcDbLine
10
-170
20
2100
30
0
11
-140
21
2100
31
0
0
LINE
5
123
100
AcDbEntity
8
0
100
AcDbLine
10
-170
20
2085
30
0
11
-140
21
2085
31
0
0
LINE
5
124
100
AcDbEntity
8
0
100
AcDbLine
10
-170
20
2070
30
0
11
-140
21
2070
31
0
0
LINE
5
125
100
AcDbEntity
8
0
100
AcDbLine
10
-170
20
2055
30
0
11
-140
21
2055
31
0
0
LINE
5
126
100
AcDbEntity
8
0
100
AcDbLine
10
-170
20
2040
30
0
11
-140
21
2040
31
0
0
LINE
5
127
100
AcDbEntity
8
0
100
AcDbLine
10
-170
20
2025
30
0
11
-140
21
2025
31
0
0
LINE
5
128
100
AcDbEntity
8
0
100
AcDbLine
10
-170
20
2010
30
0
11
-140
21
2010
31
0
0
LINE
5
129
100
AcDbEntity
8
0
100
AcDbLine
10
-170
20
1995
30
0
11
-140
21
1995
31
0
0
LINE
5
130
100
AcDbEntity
8
0
100
AcDbLine
10
-170
20
1980
30
0
11
-140
21
1980
31
0
0
LINE
5
131
100
AcDbEntity
8
0
100
AcDbLine
10
-170
20
1965
30
0
11
-140
21
1965
31
0
0
LINE
5
132
100
AcDbEntity
8
0
100
AcDbLine
10
-170
20
1950
30
0
11
-140
21
1950
31
0
0
LINE
5
133
100
AcDbEntity
8
0
100
AcDbLine
10
-170
20
1935
30
0
11
-140
21
1935
31
0
0
LINE
5
134
100
AcDbEntity
8
0
100
AcDbLine
10
-170
20
1920
30
0
11
-140
21
1920
31
0
0
LINE
5
135
100
AcDbEntity
8
0
100
AcDbLine
10
-170
20
1905
30
0
11
-140
21
1905
31
0
0
LINE
5
136
100
AcDbEntity
8
0
100
AcDbLine
10
-170
20
1890
30
0
11
-140
21
1890
31
0
0
LINE
5
137
100
AcDbEntity
8
0
100
AcDbLine
10
-170
20
1875
30
0
11
-140
21
1875
31
0
0
LINE
5
138
100
AcDbEntity
8
0
100
AcDbLine
10
-170
20
1860
30
0
11
-140
21
1860
31
0
0
LINE
5
139
100
AcDbEntity
8
0
100
AcDbLine
10
-170
20
1845
30
0
11
-140
21
1845
31
0
0
LINE
5
140
100
AcDbEntity
8
0
100
AcDbLine
10
-170
20
1830
30
0
11
-140
21
1830
31
0
0
LINE
5
141
100
AcDbEntity
8
0
100
AcDbLine
10
-170
20
1815
30
0
11
-140
21
1815
31
0
0
LINE
5
142
100
AcDbEntity
8
0
100
AcDbLine
10
-170
20
1800
30
0
11
-140
21
1800
31
0
0
LINE
5
143
100
AcDbEntity
8
0
100
AcDbLine
10
-170
20
1785
30
0
11
-140
21
1785
31
0
0
LINE
5
144
100
AcDbEntity
8
0
100
AcDbLine
10
-170
20
1770
30
0
11
-140
21
1770
31
0
0
LINE
5
145
100
AcDbEntity
8
0
100
AcDbLine
10
-170
20
1755
30
0
11
-140
21
1755
31
0
0
LINE
5
146
100
AcDbEntity
8
0
100
AcDbLine
10
-170
20
1740
30
0
11
-140
21
1740
31
0
0
LINE
5
147
100
AcDbEntity
8
0
100
AcDbLine
10
-170
20
1725
30
0
11
-140
21
1725
31
0
0
LINE
5
148
100
AcDbEntity
8
0
100
AcDbLine
10
-170
20
1710
30
0
11
-140
21
1710
31
0
0
LINE
5
149
100
AcDbEntity
8
0
100
AcDbLine
10
-170
20
1695
30
0
11
-140
21
1695
31
0
0
LINE
5
150
100
AcDbEntity
8
0
100
AcDbLine
10
-170
20
1680
30
0
11
-140
21
1680
31
0
0
LINE
5
151
100
AcDbEntity
8
0
100
AcDbLine
10
-170
20
1665
30
0
11
-140
21
1665
31
0
0
LINE
5
152
100
AcDbEntity
8
0
100
AcDbLine
10
-170
20
1650
30
0
11
-140
21
1650
31
0
0
LINE
5
153
100
AcDbEntity
8
0
100
AcDbLine
10
-170
20
1635
30
0
11
-140
21
1635
31
0
0
LINE
5
154
100
AcDbEntity
8
0
100
AcDbLine
10
-170
20
1620
30
0
11
-140
21
1620
31
0
0
LINE
5
155
100
AcDbEntity
8
0
100
AcDbLine
10
-170
20
1605
30
0
11
-140
21
1605
31
0
0
LINE
5
156
100
AcDbEntity
8
0
100
AcDbLine
10
-170
20
1590
30
0
11
-140
21
1590
31
0
0
LINE
5
157
100
AcDbEntity
8
0
100
AcDbLine
10
-170
20
1575
30
0
11
-140
21
1575
31
0
0
LINE
5
158
100
AcDbEntity
8
0
100
AcDbLine
10
-170
20
1560
30
0
11
-140
21
1560
31
0
0
LINE
5
159
100
AcDbEntity
8
0
100
AcDbLine
10
-170
20
1545
30
0
11
-140
21
1545
31
0
0
LINE
5
160
100
AcDbEntity
8
0
100
AcDbLine
10
-170
20
1530
30
0
11
-140
21
1530
31
0
0
LINE
5
161
100
AcDbEntity
8
0
100
AcDbLine
10
-170
20
1515
30
0
11
-140
21
1515
31
0
0
LINE
5
162
100
AcDbEntity
8
0
100
AcDbLine
10
-170
20
1500
30
0
11
-140
21
1500
31
0
0
LINE
5
163
100
AcDbEntity
8
0
100
AcDbLine
10
-170
20
1485
30
0
11
-140
21
1485
31
0
0
LINE
5
164
100
AcDbEntity
8
0
100
AcDbLine
10
-170
20
1470
30
0
11
-140
21
1470
31
0
0
LINE
5
165
100
AcDbEntity
8
0
100
AcDbLine
10
-170
20
1455
30
0
11
-140
21
1455
31
0
0
LINE
5
166
100
AcDbEntity
8
0
100
AcDbLine
10
-170
20
1440
30
0
11
-140
21
1440
31
0
0
LINE
5
167
100
AcDbEntity
8
0
100
AcDbLine
10
-170
20
1425
30
0
11
-140
21
1425
31
0
0
LINE
5
168
100
AcDbEntity
8
0
100
AcDbLine
10
-170
20
1410
30
0
11
-140
21
1410
31
0
0
LINE
5
169
100
AcDbEntity
8
0
100
AcDbLine
10
-170
20
1395
30
0
11
-140
21
1395
31
0
0
LINE
5
170
100
AcDbEntity
8
0
100
AcDbLine
10
-170
20
1380
30
0
11
-140
21
1380
31
0
0
LINE
5
171
100
AcDbEntity
8
0
100
AcDbLine
10
-170
20
1365
30
0
11
-140
21
1365
31
0
0
LINE
5
172
100
AcDbEntity
8
0
100
AcDbLine
10
-170
20
1350
30
0
11
-140
21
1350
31
0
0
LINE
5
173
100
AcDbEntity
8
0
100
AcDbLine
10
-170
20
1335
30
0
11
-140
21
1335
31
0
0
LINE
5
174
100
AcDbEntity
8
0
100
AcDbLine
10
-170
20
1320
30
0
11
-140
21
1320
31
0
0
LINE
5
175
100
AcDbEntity
8
0
100
AcDbLine
10
-170
20
1305
30
0
11
-140
21
1305
31
0
0
LINE
5
176
100
AcDbEntity
8
0
100
AcDbLine
10
-170
20
1290
30
0
11
-140
21
1290
31
0
0
LINE
5
177
100
AcDbEntity
8
0
100
AcDbLine
10
-170
20
1275
30
0
11
-140
21
1275
31
0
0
LINE
5
178
100
AcDbEntity
8
0
100
AcDbLine
10
-170
20
1260
30
0
11
-140
21
1260
31
0
0
LINE
5
179
100
AcDbEntity
8
0
100
AcDbLine
10
-170
20
1245
30
0
11
-140
21
1245
31
0
0
LINE
5
180
100
AcDbEntity
8
0
100
AcDbLine
10
-170
20
1230
30
0
11
-140
21
1230
31
0
0
LINE
5
181
100
AcDbEntity
8
0
100
AcDbLine
10
-170
20
1215
30
0
11
-140
21
1215
31
0
0
LINE
5
182
100
AcDbEntity
8
0
100
AcDbLine
10
-170
20
1200
30
0
11
-140
21
1200
31
0
0
LINE
5
183
100
AcDbEntity
8
0
100
AcDbLine
10
-170
20
1185
30
0
11
-140
21
1185
31
0
0
LINE
5
184
100
AcDbEntity
8
0
100
AcDbLine
10
-170
20
1170
30
0
11
-140
21
1170
31
0
0
LINE
5
185
100
AcDbEntity
8
0
100
AcDbLine
10
-170
20
1155
30
0
11
-140
21
1155
31
0
0
LINE
5
186
100
AcDbEntity
8
0
100
AcDbLine
10
-170
20
1140
30
0
11
-140
21
1140
31
0
0
LINE
5
187
100
AcDbEntity
8
0
100
AcDbLine
10
-170
20
1125
30
0
11
-140
21
1125
31
0
0
LINE
5
188
100
AcDbEntity
8
0
100
AcDbLine
10
-170
20
1110
30
0
11
-140
21
1110
31
0
0
LINE
5
189
100
AcDbEntity
8
0
100
AcDbLine
10
-170
20
1095
30
0
11
-140
21
1095
31
0
0
LINE
5
190
100
AcDbEntity
8
0
100
AcDbLine
10
-170
20
1080
30
0
11
-140
21
1080
31
0
0
LINE
5
191
100
AcDbEntity
8
0
100
AcDbLine
10
-170
20
1065
30
0
11
-140
21
1065
31
0
0
LINE
5
192
100
AcDbEntity
8
0
100
AcDbLine
10
-170
20
1050
30
0
11
-140
21
1050
31
0
0
LINE
5
193
100
AcDbEntity
8
0
100
AcDbLine
10
-170
20
1035
30
0
11
-140
21
1035
31
0
0
LINE
5
194
100
AcDbEntity
8
0
100
AcDbLine
10
-170
20
1020
30
0
11
-140
21
1020
31
0
0
LINE
5
195
100
AcDbEntity
8
0
100
AcDbLine
10
-170
20
1005
30
0
11
-140
21
1005
31
0
0
LINE
5
196
100
AcDbEntity
8
0
100
AcDbLine
10
-170
20
990
30
0
11
-140
21
990
31
0
0
LINE
5
197
100
AcDbEntity
8
0
100
AcDbLine
10
-170
20
975
30
0
11
-140
21
975
31
0
0
LINE
5
198
100
AcDbEntity
8
0
100
AcDbLine
10
-170
20
960
30
0
11
-140
21
960
31
0
0
LINE
5
199
100
AcDbEntity
8
0
100
AcDbLine
10
-170
20
945
30
0
11
-140
21
945
31
0
0
LINE
5
200
100
AcDbEntity
8
0
100
AcDbLine
10
-170
20
930
30
0
11
-140
21
930
31
0
0
LINE
5
201
100
AcDbEntity
8
0
100
AcDbLine
10
-170
20
915
30
0
11
-140
21
915
31
0
0
LINE
5
202
100
AcDbEntity
8
0
100
AcDbLine
10
-170
20
900
30
0
11
-140
21
900
31
0
0
LINE
5
203
100
AcDbEntity
8
0
100
AcDbLine
10
-170
20
885
30
0
11
-140
21
885
31
0
0
LINE
5
204
100
AcDbEntity
8
0
100
AcDbLine
10
-170
20
870
30
0
11
-140
21
870
31
0
0
LINE
5
205
100
AcDbEntity
8
0
100
AcDbLine
10
-170
20
855
30
0
11
-140
21
855
31
0
0
LINE
5
206
100
AcDbEntity
8
0
100
AcDbLine
10
-170
20
840
30
0
11
-140
21
840
31
0
0
LINE
5
207
100
AcDbEntity
8
0
100
AcDbLine
10
-170
20
825
30
0
11
-140
21
825
31
0
0
LINE
5
208
100
AcDbEntity
8
0
100
AcDbLine
10
-170
20
810
30
0
11
-140
21
810
31
0
0
LINE
5
209
100
AcDbEntity
8
0
100
AcDbLine
10
-170
20
795
30
0
11
-140
21
795
31
0
0
LINE
5
210
100
AcDbEntity
8
0
100
AcDbLine
10
-170
20
780
30
0
11
-140
21
780
31
0
0
LINE
5
211
100
AcDbEntity
8
0
100
AcDbLine
10
-170
20
765
30
0
11
-140
21
765
31
0
0
LINE
5
212
100
AcDbEntity
8
0
100
AcDbLine
10
-170
20
750
30
0
11
-140
21
750
31
0
0
LINE
5
213
100
AcDbEntity
8
0
100
AcDbLine
10
-170
20
735
30
0
11
-140
21
735
31
0
0
LINE
5
214
100
AcDbEntity
8
0
100
AcDbLine
10
-170
20
720
30
0
11
-140
21
720
31
0
0
LINE
5
215
100
AcDbEntity
8
0
100
AcDbLine
10
-170
20
705
30
0
11
-140
21
705
31
0
0
LINE
5
216
100
AcDbEntity
8
0
100
AcDbLine
10
-170
20
690
30
0
11
-140
21
690
31
0
0
LINE
5
217
100
AcDbEntity
8
0
100
AcDbLine
10
-170
20
675
30
0
11
-140
21
675
31
0
0
LINE
5
218
100
AcDbEntity
8
0
100
AcDbLine
10
-170
20
660
30
0
11
-140
21
660
31
0
0
LINE
5
219
100
AcDbEntity
8
0
100
AcDbLine
10
-170
20
645
30
0
11
-140
21
645
31
0
0
LINE
5
220
100
AcDbEntity
8
0
100
AcDbLine
10
-170
20
630
30
0
11
-140
21
630
31
0
0
LINE
5
221
100
AcDbEntity
8
0
100
AcDbLine
10
-170
20
615
30
0
11
-140
21
615
31
0
0
LINE
5
222
100
AcDbEntity
8
0
100
AcDbLine
10
-170
20
600
30
0
11
-140
21
600
31
0
0
LINE
5
223
100
AcDbEntity
8
0
100
AcDbLine
10
-170
20
585
30
0
11
-140
21
585
31
0
0
LINE
5
224
100
AcDbEntity
8
0
100
AcDbLine
10
-170
20
570
30
0
11
-140
21
570
31
0
0
LINE
5
225
100
AcDbEntity
8
0
100
AcDbLine
10
-170
20
555
30
0
11
-140
21
555
31
0
0
LINE
5
226
100
AcDbEntity
8
0
100
AcDbLine
10
-170
20
540
30
0
11
-140
21
540
31
0
0
LINE
5
227
100
AcDbEntity
8
0
100
AcDbLine
10
-170
20
525
30
0
11
-140
21
525
31
0
0
LINE
5
228
100
AcDbEntity
8
0
100
AcDbLine
10
-170
20
510
30
0
11
-140
21
510
31
0
0
LINE
5
229
100
AcDbEntity
8
0
100
AcDbLine
10
-170
20
495
30
0
11
-140
21
495
31
0
0
LINE
5
230
100
AcDbEntity
8
0
100
AcDbLine
10
-170
20
480
30
0
11
-140
21
480
31
0
0
LINE
5
231
100
AcDbEntity
8
0
100
AcDbLine
10
-170
20
465
30
0
11
-140
21
465
31
0
0
LINE
5
232
100
AcDbEntity
8
0
100
AcDbLine
10
-170
20
450
30
0
11
-140
21
450
31
0
0
LINE
5
233
100
AcDbEntity
8
0
100
AcDbLine
10
-170
20
435
30
0
11
-140
21
435
31
0
0
LINE
5
234
100
AcDbEntity
8
0
100
AcDbLine
10
-170
20
420
30
0
11
-140
21
420
31
0
0
LINE
5
235
100
AcDbEntity
8
0
100
AcDbLine
10
-170
20
405
30
0
11
-140
21
405
31
0
0
LINE
5
236
100
AcDbEntity
8
0
100
AcDbLine
10
-170
20
390
30
0
11
-140
21
390
31
0
0
LINE
5
237
100
AcDbEntity
8
0
100
AcDbLine
10
-170
20
375
30
0
11
-140
21
375
31
0
0
LINE
5
238
100
AcDbEntity
8
0
100
AcDbLine
10
-170
20
360
30
0
11
-140
21
360
31
0
0
LINE
5
239
100
AcDbEntity
8
0
100
AcDbLine
10
-170
20
345
30
0
11
-140
21
345
31
0
0
LINE
5
240
100
AcDbEntity
8
0
100
AcDbLine
10
-170
20
330
30
0
11
-140
21
330
31
0
0
LINE
5
241
100
AcDbEntity
8
0
100
AcDbLine
10
-170
20
315
30
0
11
-140
21
315
31
0
0
LINE
5
242
100
AcDbEntity
8
0
100
AcDbLine
10
-170
20
300
30
0
11
-140
21
300
31
0
0
LINE
5
243
100
AcDbEntity
8
0
100
AcDbLine
10
-170
20
285
30
0
11
-140
21
285
31
0
0
LINE
5
244
100
AcDbEntity
8
0
100
AcDbLine
10
-170
20
270
30
0
11
-140
21
270
31
0
0
LINE
5
245
100
AcDbEntity
8
0
100
AcDbLine
10
-170
20
255
30
0
11
-140
21
255
31
0
0
LINE
5
246
100
AcDbEntity
8
0
100
AcDbLine
10
-170
20
240
30
0
11
-140
21
240
31
0
0
LINE
5
247
100
AcDbEntity
8
0
100
AcDbLine
10
-170
20
225
30
0
11
-140
21
225
31
0
0
LINE
5
248
100
AcDbEntity
8
0
100
AcDbLine
10
-170
20
210
30
0
11
-140
21
210
31
0
0
LINE
5
249
100
AcDbEntity
8
0
100
AcDbLine
10
-170
20
195
30
0
11
-140
21
195
31
0
0
LINE
5
250
100
AcDbEntity
8
0
100
AcDbLine
10
-170
20
180
30
0
11
-140
21
180
31
0
0
LINE
5
251
100
AcDbEntity
8
0
100
AcDbLine
10
-170
20
165
30
0
11
-140
21
165
31
0
0
LINE
5
252
100
AcDbEntity
8
0
100
AcDbLine
10
-170
20
150
30
0
11
-140
21
150
31
0
0
LINE
5
253
100
AcDbEntity
8
0
100
AcDbLine
10
-170
20
135
30
0
11
-140
21
135
31
0
0
LINE
5
254
100
AcDbEntity
8
0
100
AcDbLine
10
-170
20
120
30
0
11
-140
21
120
31
0
0
LINE
5
255
100
AcDbEntity
8
0
100
AcDbLine
10
-170
20
105
30
0
11
-140
21
105
31
0
0
LINE
5
256
100
AcDbEntity
8
0
100
AcDbLine
10
-170
20
90
30
0
11
-140
21
90
31
0
0
LINE
5
257
100
AcDbEntity
8
0
100
AcDbLine
10
-170
20
75
30
0
11
-140
21
75
31
0
0
LINE
5
258
100
AcDbEntity
8
0
100
AcDbLine
10
-170
20
60
30
0
11
-140
21
60
31
0
0
LINE
5
259
100
AcDbEntity
8
0
100
AcDbLine
10
-170
20
45
30
0
11
-140
21
45
31
0
0
LINE
5
260
100
AcDbEntity
8
0
100
AcDbLine
10
-170
20
30
30
0
11
-140
21
30
31
0
0
LINE
5
261
100
AcDbEntity
8
0
100
AcDbLine
10
-170
20
15
30
0
11
-140
21
15
31
0
0
LWPOLYLINE
5
262
100
AcDbEntity
8
0
100
AcDbPolyline
90
45
70
1
43
0.0
10
100
20
2400
10
0
20
2400
10
0
20
2385
10
50
20
2385
10
50
20
2370
10
0
20
2370
10
0
20
75
10
50
20
75.000000000000014
10
50
20
60
10
0
20
60
10
0
20
30
10
0
20
15
10
100
20
15
10
100
20
150
10
50
20
150
10
50
20
165
10
100
20
165
10
100
20
300
10
50
20
300
10
50
20
315
10
100
20
315
10
100
20
450
10
50
20
450
10
50
20
465
10
100
20
465
10
100
20
600
10
50
20
600
10
50
20
615
10
100
20
615
10
100
20
750
10
50
20
750
10
50
20
765
10
100
20
765
10
100
20
900
10
50
20
900
10
50
20
915
10
100
20
915
10
100
20
1050
10
50
20
1050
10
50
20
1065
10
100
20
1065
10
100
20
1200
10
50
20
1200
10
50
20
1215
10
100
20
1215
0
LINE
5
263
100
AcDbEntity
8
0
100
AcDbLine
10
-125
20
2400
30
0
11
-95
21
2400
31
0
0
LINE
5
264
100
AcDbEntity
8
0
100
AcDbLine
10
-125
20
2250
30
0
11
-95
21
2250
31
0
0
LINE
5
265
100
AcDbEntity
8
0
100
AcDbLine
10
-125
20
2100
30
0
11
-95
21
2100
31
0
0
LINE
5
266
100
AcDbEntity
8
0
100
AcDbLine
10
-125
20
1950
30
0
11
-95
21
1950
31
0
0
LINE
5
267
100
AcDbEntity
8
0
100
AcDbLine
10
-125
20
1800
30
0
11
-95
21
1800
31
0
0
LINE
5
268
100
AcDbEntity
8
0
100
AcDbLine
10
-125
20
1650
30
0
11
-95
21
1650
31
0
0
LINE
5
269
100
AcDbEntity
8
0
100
AcDbLine
10
-125
20
1500
30
0
11
-95
21
1500
31
0
0
LINE
5
270
100
AcDbEntity
8
0
100
AcDbLine
10
-125
20
1350
30
0
11
-95
21
1350
31
0
0
LINE
5
271
100
AcDbEntity
8
0
100
AcDbLine
10
-125
20
1200
30
0
11
-95
21
1200
31
0
0
LINE
5
272
100
AcDbEntity
8
0
100
AcDbLine
10
-125
20
1050
30
0
11
-95
21
1050
31
0
0
LINE
5
273
100
AcDbEntity
8
0
100
AcDbLine
10
-125
20
900
30
0
11
-95
21
900
31
0
0
LINE
5
274
100
AcDbEntity
8
0
100
AcDbLine
10
-125
20
750
30
0
11
-95
21
750
31
0
0
LINE
5
275
100
AcDbEntity
8
0
100
AcDbLine
10
-125
20
600
30
0
11
-95
21
600
31
0
0
LINE
5
276
100
AcDbEntity
8
0
100
AcDbLine
10
-125
20
450
30
0
11
-95
21
450
31
0
0
LINE
5
277
100
AcDbEntity
8
0
100
AcDbLine
10
-125
20
300
30
0
11
-95
21
300
31
0
0
LINE
5
278
100
AcDbEntity
8
0
100
AcDbLine
10
-125
20
150
30
0
11
-95
21
150
31
0
0
LINE
5
279
100
AcDbEntity
8
0
100
AcDbLine
10
-125
20
0
30
0
11
-95
21
0
31
0
0
LINE
5
280
100
AcDbEntity
8
0
100
AcDbLine
10
0
20
2400
30
0
11
50
21
2400
31
0
0
LINE
5
281
100
AcDbEntity
8
0
100
AcDbLine
10
205
20
2370
30
0
11
255
21
2370
31
0
0
LINE
5
282
100
AcDbEntity
8
0
100
AcDbLine
10
305
20
150
30
0
11
305
21
15
31
0
0
LINE
5
283
100
AcDbEntity
8
0
100
AcDbLine
10
205
20
2400
30
0
11
305
21
2400
31
0
0
LINE
5
284
100
AcDbEntity
8
0
100
AcDbLine
10
255
20
150
30
0
11
305
21
150
31
0
0
LINE
5
285
100
AcDbEntity
8
0
100
AcDbLine
10
305
20
450
30
0
11
305
21
315
31
0
0
LINE
5
286
100
AcDbEntity
8
0
100
AcDbLine
10
305
20
600
30
0
11
305
21
465
31
0
0
LINE
5
287
100
AcDbEntity
8
0
100
AcDbLine
10
205
20
2385
30
0
11
255
21
2385
31
0
0
LINE
5
288
100
AcDbEntity
8
0
100
AcDbLine
10
255
20
315
30
0
11
255
21
300
31
0
0
LINE
5
289
100
AcDbEntity
8
0
100
AcDbLine
10
255
20
1215
30
0
11
255
21
1200
31
0
0
LINE
5
290
100
AcDbEntity
8
0
100
AcDbLine
10
205
20
2400
30
0
11
255
21
2400
31
0
0
LINE
5
291
100
AcDbEntity
8
0
100
AcDbLine
10
305
20
1050
30
0
11
305
21
915
31
0
0
LINE
5
292
100
AcDbEntity
8
0
100
AcDbLine
10
255
20
2385
30
0
11
255
21
2370
31
0
0
LINE
5
293
100
AcDbEntity
8
0
100
AcDbLine
10
255
20
165
30
0
11
305
21
165
31
0
0
LINE
5
294
100
AcDbEntity
8
0
100
AcDbLine
10
305
20
300
30
0
11
305
21
165
31
0
0
LINE
5
295
100
AcDbEntity
8
0
100
AcDbLine
10
305
20
1200
30
0
11
305
21
1065
31
0
0
LINE
5
296
100
AcDbEntity
8
0
100
AcDbLine
10
205
20
2385
30
0
11
205
21
2400
31
0
0
LINE
5
297
100
AcDbEntity
8
0
100
AcDbLine
10
255
20
165
30
0
11
255
21
150
31
0
0
LINE
5
298
100
AcDbEntity
8
0
100
AcDbLine
10
255
20
1065
30
0
11
305
21
1065
31
0
0
LINE
5
299
100
AcDbEntity
8
0
100
AcDbLine
10
255
20
1200
30
0
11
305
21
1200
31
0
0
LINE
5
300
100
AcDbEntity
8
0
100
AcDbLine
10
255
20
1065
30
0
11
255
21
1050
31
0
0
LINE
5
301
100
AcDbEntity
8
0
100
AcDbLine
10
305
20
2400
30
0
11
305
21
1215
31
0
0
LINE
5
302
100
AcDbEntity
8
0
100
AcDbLine
10
255
20
900
30
0
11
305
21
900
31
0
0
LINE
5
303
100
AcDbEntity
8
0
100
AcDbLine
10
255
20
615
30
0
11
305
21
615
31
0
0
LINE
5
304
100
AcDbEntity
8
0
100
AcDbLine
10
255
20
765
30
0
11
305
21
765
31
0
0
LINE
5
305
100
AcDbEntity
8
0
100
AcDbLine
10
305
20
900
30
0
11
305
21
765
31
0
0
LINE
5
306
100
AcDbEntity
8
0
100
AcDbLine
10
255
20
615
30
0
11
255
21
600
31
0
0
LINE
5
307
100
AcDbEntity
8
0
100
AcDbLine
10
305
20
750
30
0
11
305
21
615
31
0
0
LINE
5
308
100
AcDbEntity
8
0
100
AcDbLine
10
255
20
465
30
0
11
305
21
465
31
0
0
LINE
5
309
100
AcDbEntity
8
0
100
AcDbLine
10
255
20
315
30
0
11
305
21
315
31
0
0
LINE
5
310
100
AcDbEntity
8
0
100
AcDbLine
10
255
20
300
30
0
11
305
21
300
31
0
0
LINE
5
311
100
AcDbEntity
8
0
100
AcDbLine
10
255
20
750
30
0
11
305
21
750
31
0
0
LINE
5
312
100
AcDbEntity
8
0
100
AcDbLine
10
255
20
915
30
0
11
305
21
915
31
0
0
LINE
5
313
100
AcDbEntity
8
0
100
AcDbLine
10
255
20
915
30
0
11
255
21
900
31
0
0
LINE
5
314
100
AcDbEntity
8
0
100
AcDbLine
10
255
20
765
30
0
11
255
21
750
31
0
0
LINE
5
315
100
AcDbEntity
8
0
100
AcDbLine
10
255
20
1050
30
0
11
305
21
1050
31
0
0
LINE
5
316
100
AcDbEntity
8
0
100
AcDbLine
10
255
20
1215
30
0
11
305
21
1215
31
0
0
LINE
5
317
100
AcDbEntity
8
0
100
AcDbLine
10
255
20
600
30
0
11
305
21
600
31
0
0
LINE
5
318
100
AcDbEntity
8
0
100
AcDbLine
10
255
20
450
30
0
11
305
21
450
31
0
0
LINE
5
319
100
AcDbEntity
8
0
100
AcDbLine
10
255
20
465
30
0
11
255
21
450
31
0
0
LINE
5
320
100
AcDbEntity
8
0
100
AcDbLine
10
305
20
150
30
0
11
305
21
15
31
0
0
LINE
5
321
100
AcDbEntity
8
0
100
AcDbLine
10
255
20
765
30
0
11
305
21
765
31
0
0
LINE
5
322
100
AcDbEntity
8
0
100
AcDbLine
10
255
20
615
30
0
11
255
21
600
31
0
0
LINE
5
323
100
AcDbEntity
8
0
100
AcDbLine
10
255
20
1215
30
0
11
255
21
1200
31
0
0
LINE
5
324
100
AcDbEntity
8
0
100
AcDbLine
10
255
20
1200
30
0
11
305
21
1200
31
0
0
LINE
5
325
100
AcDbEntity
8
0
100
AcDbLine
10
305
20
1050
30
0
11
305
21
915
31
0
0
LINE
5
326
100
AcDbEntity
8
0
100
AcDbLine
10
305
20
900
30
0
11
305
21
765
31
0
0
LINE
5
327
100
AcDbEntity
8
0
100
AcDbLine
10
305
20
750
30
0
11
305
21
615
31
0
0
LINE
5
328
100
AcDbEntity
8
0
100
AcDbLine
10
255
20
750
30
0
11
305
21
750
31
0
0
LINE
5
329
100
AcDbEntity
8
0
100
AcDbLine
10
255
20
915
30
0
11
305
21
915
31
0
0
LINE
5
330
100
AcDbEntity
8
0
100
AcDbLine
10
255
20
915
30
0
11
255
21
900
31
0
0
LINE
5
331
100
AcDbEntity
8
0
100
AcDbLine
10
255
20
765
30
0
11
255
21
750
31
0
0
LINE
5
332
100
AcDbEntity
8
0
100
AcDbLine
10
255
20
600
30
0
11
305
21
600
31
0
0
LINE
5
333
100
AcDbEntity
8
0
100
AcDbLine
10
255
20
1065
30
0
11
255
21
1050
31
0
0
LINE
5
334
100
AcDbEntity
8
0
100
AcDbLine
10
305
20
1200
30
0
11
305
21
1065
31
0
0
LINE
5
335
100
AcDbEntity
8
0
100
AcDbLine
10
255
20
1065
30
0
11
305
21
1065
31
0
0
LINE
5
336
100
AcDbEntity
8
0
100
AcDbLine
10
255
20
1050
30
0
11
305
21
1050
31
0
0
LINE
5
337
100
AcDbEntity
8
0
100
AcDbLine
10
255
20
1215
30
0
11
305
21
1215
31
0
0
LINE
5
338
100
AcDbEntity
8
0
100
AcDbLine
10
255
20
900
30
0
11
305
21
900
31
0
0
LINE
5
339
100
AcDbEntity
8
0
100
AcDbLine
10
255
20
615
30
0
11
305
21
615
31
0
0
LINE
5
340
100
AcDbEntity
8
0
100
AcDbLine
10
255
20
315
30
0
11
305
21
315
31
0
0
LINE
5
341
100
AcDbEntity
8
0
100
AcDbLine
10
305
20
450
30
0
11
305
21
315
31
0
0
LINE
5
342
100
AcDbEntity
8
0
100
AcDbLine
10
255
20
465
30
0
11
255
21
450
31
0
0
LINE
5
343
100
AcDbEntity
8
0
100
AcDbLine
10
255
20
450
30
0
11
305
21
450
31
0
0
LINE
5
344
100
AcDbEntity
8
0
100
AcDbLine
10
255
20
300
30
0
11
305
21
300
31
0
0
LINE
5
345
100
AcDbEntity
8
0
100
AcDbLine
10
255
20
465
30
0
11
305
21
465
31
0
0
LINE
5
346
100
AcDbEntity
8
0
100
AcDbLine
10
255
20
165
30
0
11
255
21
150
31
0
0
LINE
5
347
100
AcDbEntity
8
0
100
AcDbLine
10
255
20
315
30
0
11
255
21
300
31
0
0
LINE
5
348
100
AcDbEntity
8
0
100
AcDbLine
10
255
20
150
30
0
11
305
21
150
31
0
0
LINE
5
349
100
AcDbEntity
8
0
100
AcDbLine
10
305
20
300
30
0
11
305
21
165
31
0
0
LINE
5
350
100
AcDbEntity
8
0
100
AcDbLine
10
305
20
600
30
0
11
305
21
465
31
0
0
LINE
5
351
100
AcDbEntity
8
0
100
AcDbLine
10
255
20
165
30
0
11
305
21
165
31
0
0
LINE
5
352
100
AcDbEntity
8
0
100
AcDbLine
10
255
20
165
30
0
11
305
21
165
31
0
0
LINE
5
353
100
AcDbEntity
8
0
100
AcDbLine
10
450
20
165
30
0
11
500
21
165
31
0
0
LINE
5
354
100
AcDbEntity
8
0
100
AcDbLine
10
255
20
150
30
0
11
305
21
150
31
0
0
LINE
5
355
100
AcDbEntity
8
0
100
AcDbLine
10
450
20
149.99999999999997
30
0
11
500
21
150
31
0
0
LINE
5
356
100
AcDbEntity
8
0
100
AcDbLine
10
450
20
149.99999999999997
30
0
11
450
21
165
31
0
0
LINE
5
357
100
AcDbEntity
8
0
100
AcDbLine
10
500
20
285.00000000000006
30
0
11
500
21
165
31
0
0
LINE
5
358
100
AcDbEntity
8
0
100
AcDbLine
10
450
20
315
30
0
11
500
21
315
31
0
0
LINE
5
359
100
AcDbEntity
8
0
100
AcDbLine
10
450
20
300
30
0
11
500
21
300
31
0
0
LINE
5
360
100
AcDbEntity
8
0
100
AcDbLine
10
450
20
300
30
0
11
450
21
315
31
0
0
LINE
5
361
100
AcDbEntity
8
0
100
AcDbLine
10
450
20
465
30
0
11
500
21
465
31
0
0
LINE
5
362
100
AcDbEntity
8
0
100
AcDbLine
10
450
20
450
30
0
11
500
21
450
31
0
0
LINE
5
363
100
AcDbEntity
8
0
100
AcDbLine
10
450
20
450
30
0
11
450
21
465
31
0
0
LINE
5
364
100
AcDbEntity
8
0
100
AcDbLine
10
450
20
615
30
0
11
500
21
615
31
0
0
LINE
5
365
100
AcDbEntity
8
0
100
AcDbLine
10
450
20
600
30
0
11
500
21
600
31
0
0
LINE
5
366
100
AcDbEntity
8
0
100
AcDbLine
10
450
20
600
30
0
11
450
21
615
31
0
0
LINE
5
367
100
AcDbEntity
8
0
100
AcDbLine
10
450
20
765
30
0
11
500
21
765
31
0
0
LINE
5
368
100
AcDbEntity
8
0
100
AcDbLine
10
450
20
750
30
0
11
500
21
750
31
0
0
LINE
5
369
100
AcDbEntity
8
0
100
AcDbLine
10
450
20
750
30
0
11
450
21
765
31
0
0
LINE
5
370
100
AcDbEntity
8
0
100
AcDbLine
10
450
20
915
30
0
11
500
21
915
31
0
0
LINE
5
371
100
AcDbEntity
8
0
100
AcDbLine
10
450
20
900
30
0
11
500
21
900
31
0
0
LINE
5
372
100
AcDbEntity
8
0
100
AcDbLine
10
450
20
900
30
0
11
450
21
915
31
0
0
LINE
5
373
100
AcDbEntity
8
0
100
AcDbLine
10
450
20
1065
30
0
11
500
21
1065
31
0
0
LINE
5
374
100
AcDbEntity
8
0
100
AcDbLine
10
450
20
1050
30
0
11
500
21
1050
31
0
0
LINE
5
375
100
AcDbEntity
8
0
100
AcDbLine
10
450
20
1050
30
0
11
450
21
1065
31
0
0
LINE
5
376
100
AcDbEntity
8
0
100
AcDbLine
10
450
20
1215
30
0
11
500
21
1215
31
0
0
LINE
5
377
100
AcDbEntity
8
0
100
AcDbLine
10
450
20
1200
30
0
11
500
21
1200
31
0
0
LINE
5
378
100
AcDbEntity
8
0
100
AcDbLine
10
450
20
1200
30
0
11
450
21
1215
31
0
0
LINE
5
379
100
AcDbEntity
8
0
100
AcDbLine
10
450
20
1365
30
0
11
500
21
1365
31
0
0
LINE
5
380
100
AcDbEntity
8
0
100
AcDbLine
10
450
20
1350
30
0
11
500
21
1350
31
0
0
LINE
5
381
100
AcDbEntity
8
0
100
AcDbLine
10
450
20
1350
30
0
11
450
21
1365
31
0
0
LINE
5
382
100
AcDbEntity
8
0
100
AcDbLine
10
400
20
1490
30
0
11
400
21
1500
31
0
0
LINE
5
383
100
AcDbEntity
8
0
100
AcDbLine
10
400
20
1500
30
0
11
500
21
1500
31
0
0
LINE
5
384
100
AcDbEntity
8
0
100
AcDbLine
10
500
20
1500
30
0
11
500
21
1490
31
0
0
LINE
5
385
100
AcDbEntity
8
0
100
AcDbLine
10
500
20
1365
30
0
11
500
21
1490
31
0
0
LINE
5
386
100
AcDbEntity
8
0
100
AcDbLine
10
500
20
1215
30
0
11
500
21
1350
31
0
0
LINE
5
387
100
AcDbEntity
8
0
100
AcDbLine
10
500
20
1065
30
0
11
500
21
1200
31
0
0
LINE
5
388
100
AcDbEntity
8
0
100
AcDbLine
10
500
20
915
30
0
11
500
21
1050
31
0
0
LINE
5
389
100
AcDbEntity
8
0
100
AcDbLine
10
500
20
765
30
0
11
500
21
900
31
0
0
LINE
5
390
100
AcDbEntity
8
0
100
AcDbLine
10
500
20
615
30
0
11
500
21
750
31
0
0
LINE
5
391
100
AcDbEntity
8
0
100
AcDbLine
10
500
20
465
30
0
11
500
21
600
31
0
0
LINE
5
392
100
AcDbEntity
8
0
100
AcDbLine
10
500
20
165
30
0
11
500
21
300
31
0
0
LINE
5
393
100
AcDbEntity
8
0
100
AcDbLine
10
500
20
315
30
0
11
500
21
450
31
0
0
LINE
5
394
100
AcDbEntity
8
0
100
AcDbLine
10
500
20
165
30
0
11
500
21
285.00000000000006
31
0
0
LINE
5
395
100
AcDbEntity
8
0
100
AcDbLine
10
205
20
30
30
0
11
205
21
15
31
0
0
LINE
5
396
100
AcDbEntity
8
0
100
AcDbLine
10
205
20
75
30
0
11
255
21
75
31
0
0
LINE
5
397
100
AcDbEntity
8
0
100
AcDbLine
10
400
20
75
30
0
11
450
21
74.999999999999986
31
0
0
LINE
5
398
100
AcDbEntity
8
0
100
AcDbLine
10
205
20
60
30
0
11
255
21
60
31
0
0
LINE
5
399
100
AcDbEntity
8
0
100
AcDbLine
10
400
20
60
30
0
11
450
21
60
31
0
0
LINE
5
400
100
AcDbEntity
8
0
100
AcDbLine
10
255
20
75
30
0
11
255
21
60
31
0
0
LINE
5
401
100
AcDbEntity
8
0
100
AcDbLine
10
450
20
74.999999999999986
30
0
11
450
21
60
31
0
0
LINE
5
402
100
AcDbEntity
8
0
100
AcDbLine
10
400
20
60
30
0
11
400
21
15
31
0
0
LINE
5
403
100
AcDbEntity
8
0
100
AcDbLine
10
205
20
30
30
0
11
205
21
60
31
0
0
LINE
5
404
100
AcDbEntity
8
0
100
AcDbLine
10
205
20
75
30
0
11
205
21
2370
31
0
0
LINE
5
405
100
AcDbEntity
8
0
100
AcDbLine
10
400
20
1455
30
0
11
450
21
1455
31
0
0
LINE
5
406
100
AcDbEntity
8
0
100
AcDbLine
10
400
20
1440
30
0
11
450
21
1440
31
0
0
LINE
5
407
100
AcDbEntity
8
0
100
AcDbLine
10
450
20
1440
30
0
11
450
21
1455
31
0
0
LINE
5
408
100
AcDbEntity
8
0
100
AcDbLine
10
400
20
1490
30
0
11
400
21
1455
31
0
0
LINE
5
409
100
AcDbEntity
8
0
100
AcDbLine
10
400
20
1440
30
0
11
400
21
75
31
0
0
LINE
5
410
100
AcDbEntity
8
0
100
AcDbLine
10
254.16666666666663
20
60
30
0
11
255
21
60.762711864406789
31
0
0
LINE
5
411
100
AcDbEntity
8
0
100
AcDbLine
10
205
20
15
30
0
11
305
21
15
31
0
0
LINE
5
412
100
AcDbEntity
8
0
100
AcDbLine
10
400
20
15
30
0
11
500
21
15
31
0
0
LINE
5
413
100
AcDbEntity
8
0
100
AcDbLine
10
500
20
15
30
0
11
500
21
150
31
0
0
LINE
5
414
100
AcDbEntity
8
0
100
AcDbLine
10
630
20
1215
30
0
11
630
21
1350
31
0
0
LINE
5
415
100
AcDbEntity
8
0
100
AcDbLine
10
630
20
15
30
0
11
630
21
150
31
0
0
LINE
5
416
100
AcDbEntity
8
0
100
AcDbLine
10
530
20
1440
30
0
11
580
21
1440
31
0
0
LINE
5
417
100
AcDbEntity
8
0
100
AcDbLine
10
580
20
1440
30
0
11
580
21
1455
31
0
0
LINE
5
418
100
AcDbEntity
8
0
100
AcDbLine
10
580
20
465
30
0
11
630
21
465
31
0
0
LINE
5
419
100
AcDbEntity
8
0
100
AcDbLine
10
580
20
450
30
0
11
630
21
450
31
0
0
LINE
5
420
100
AcDbEntity
8
0
100
AcDbLine
10
580
20
450
30
0
11
580
21
465
31
0
0
LINE
5
421
100
AcDbEntity
8
0
100
AcDbLine
10
630
20
315
30
0
11
630
21
450
31
0
0
LINE
5
422
100
AcDbEntity
8
0
100
AcDbLine
10
630
20
165
30
0
11
630
21
300
31
0
0
LINE
5
423
100
AcDbEntity
8
0
100
AcDbLine
10
580
20
300
30
0
11
580
21
315
31
0
0
LINE
5
424
100
AcDbEntity
8
0
100
AcDbLine
10
530
20
1455
30
0
11
580
21
1455
31
0
0
LINE
5
425
100
AcDbEntity
8
0
100
AcDbLine
10
630
20
1065
30
0
11
630
21
1200
31
0
0
LINE
5
426
100
AcDbEntity
8
0
100
AcDbLine
10
530
20
60
30
0
11
530
21
15
31
0
0
LINE
5
427
100
AcDbEntity
8
0
100
AcDbLine
10
580
20
1200
30
0
11
580
21
1215
31
0
0
LINE
5
428
100
AcDbEntity
8
0
100
AcDbLine
10
580
20
1200
30
0
11
630
21
1200
31
0
0
LINE
5
429
100
AcDbEntity
8
0
100
AcDbLine
10
580
20
1215
30
0
11
630
21
1215
31
0
0
LINE
5
430
100
AcDbEntity
8
0
100
AcDbLine
10
580
20
1350
30
0
11
580
21
1365
31
0
0
LINE
5
431
100
AcDbEntity
8
0
100
AcDbLine
10
530
20
15
30
0
11
630
21
15
31
0
0
LINE
5
432
100
AcDbEntity
8
0
100
AcDbLine
10
580
20
1350
30
0
11
630
21
1350
31
0
0
LINE
5
433
100
AcDbEntity
8
0
100
AcDbLine
10
580
20
1365
30
0
11
630
21
1365
31
0
0
LINE
5
434
100
AcDbEntity
8
0
100
AcDbLine
10
580
20
915
30
0
11
630
21
915
31
0
0
LINE
5
435
100
AcDbEntity
8
0
100
AcDbLine
10
580
20
750
30
0
11
580
21
765
31
0
0
LINE
5
436
100
AcDbEntity
8
0
100
AcDbLine
10
630
20
615
30
0
11
630
21
750
31
0
0
LINE
5
437
100
AcDbEntity
8
0
100
AcDbLine
10
580
20
750
30
0
11
630
21
750
31
0
0
LINE
5
438
100
AcDbEntity
8
0
100
AcDbLine
10
530
20
1440
30
0
11
530
21
75
31
0
0
LINE
5
439
100
AcDbEntity
8
0
100
AcDbLine
10
630
20
465
30
0
11
630
21
600
31
0
0
LINE
5
440
100
AcDbEntity
8
0
100
AcDbLine
10
580
20
765
30
0
11
630
21
765
31
0
0
LINE
5
441
100
AcDbEntity
8
0
100
AcDbLine
10
580
20
600
30
0
11
580
21
615
31
0
0
LINE
5
442
100
AcDbEntity
8
0
100
AcDbLine
10
580
20
600
30
0
11
630
21
600
31
0
0
LINE
5
443
100
AcDbEntity
8
0
100
AcDbLine
10
580
20
615
30
0
11
630
21
615
31
0
0
LINE
5
444
100
AcDbEntity
8
0
100
AcDbLine
10
530
20
75
30
0
11
580
21
74.999999999999986
31
0
0
LINE
5
445
100
AcDbEntity
8
0
100
AcDbLine
10
530
20
1500
30
0
11
630
21
1500
31
0
0
LINE
5
446
100
AcDbEntity
8
0
100
AcDbLine
10
630
20
1365
30
0
11
630
21
1490
31
0
0
LINE
5
447
100
AcDbEntity
8
0
100
AcDbLine
10
630
20
1500
30
0
11
630
21
1490
31
0
0
LINE
5
448
100
AcDbEntity
8
0
100
AcDbLine
10
580
20
74.999999999999986
30
0
11
580
21
60
31
0
0
LINE
5
449
100
AcDbEntity
8
0
100
AcDbLine
10
630
20
165
30
0
11
630
21
285.00000000000006
31
0
0
LINE
5
450
100
AcDbEntity
8
0
100
AcDbLine
10
530
20
60
30
0
11
580
21
60
31
0
0
LINE
5
451
100
AcDbEntity
8
0
100
AcDbLine
10
530
20
1490
30
0
11
530
21
1500
31
0
0
LINE
5
452
100
AcDbEntity
8
0
100
AcDbLine
10
530
20
1490
30
0
11
530
21
1455
31
0
0
LINE
5
453
100
AcDbEntity
8
0
100
AcDbLine
10
630
20
765
30
0
11
630
21
900
31
0
0
LINE
5
454
100
AcDbEntity
8
0
100
AcDbLine
10
580
20
165
30
0
11
630
21
165
31
0
0
LINE
5
455
100
AcDbEntity
8
0
100
AcDbLine
10
580
20
1065
30
0
11
630
21
1065
31
0
0
LINE
5
456
100
AcDbEntity
8
0
100
AcDbLine
10
630
20
285.00000000000006
30
0
11
630
21
165
31
0
0
LINE
5
457
100
AcDbEntity
8
0
100
AcDbLine
10
580
20
315
30
0
11
630
21
315
31
0
0
LINE
5
458
100
AcDbEntity
8
0
100
AcDbLine
10
580
20
149.99999999999997
30
0
11
630
21
150
31
0
0
LINE
5
459
100
AcDbEntity
8
0
100
AcDbLine
10
580
20
300
30
0
11
630
21
300
31
0
0
LINE
5
460
100
AcDbEntity
8
0
100
AcDbLine
10
580
20
900
30
0
11
580
21
915
31
0
0
LINE
5
461
100
AcDbEntity
8
0
100
AcDbLine
10
580
20
900
30
0
11
630
21
900
31
0
0
LINE
5
462
100
AcDbEntity
8
0
100
AcDbLine
10
580
20
1050
30
0
11
580
21
1065
31
0
0
LINE
5
463
100
AcDbEntity
8
0
100
AcDbLine
10
630
20
915
30
0
11
630
21
1050
31
0
0
LINE
5
464
100
AcDbEntity
8
0
100
AcDbLine
10
580
20
1050
30
0
11
630
21
1050
31
0
0
LINE
5
465
100
AcDbEntity
8
0
100
AcDbLine
10
580
20
149.99999999999997
30
0
11
580
21
165
31
0
0
LINE
5
466
100
AcDbEntity
8
0
100
AcDbLine
10
500
20
1992.2194739114709
30
0
11
500
21
2127.2194739114711
31
0
0
LINE
5
467
100
AcDbEntity
8
0
100
AcDbLine
10
450
20
2277.2194739114711
30
0
11
450
21
2292.2194739114711
31
0
0
LINE
5
468
100
AcDbEntity
8
0
100
AcDbLine
10
500
20
1812.2194739114709
30
0
11
500
21
1692.2194739114709
31
0
0
LINE
5
469
100
AcDbEntity
8
0
100
AcDbLine
10
450
20
1677.2194739114709
30
0
11
450
21
1692.2194739114709
31
0
0
LINE
5
470
100
AcDbEntity
8
0
100
AcDbLine
10
500
20
2142.2194739114711
30
0
11
500
21
2277.2194739114711
31
0
0
LINE
5
471
100
AcDbEntity
8
0
100
AcDbLine
10
450
20
1842.2194739114709
30
0
11
500
21
1842.2194739114709
31
0
0
LINE
5
472
100
AcDbEntity
8
0
100
AcDbLine
10
450
20
1827.2194739114709
30
0
11
500
21
1827.2194739114709
31
0
0
LINE
5
473
100
AcDbEntity
8
0
100
AcDbLine
10
450
20
2292.2194739114711
30
0
11
500
21
2292.2194739114711
31
0
0
LINE
5
474
100
AcDbEntity
8
0
100
AcDbLine
10
450
20
2127.2194739114711
30
0
11
500
21
2127.2194739114711
31
0
0
LINE
5
475
100
AcDbEntity
8
0
100
AcDbLine
10
450
20
2277.2194739114711
30
0
11
500
21
2277.2194739114711
31
0
0
LINE
5
476
100
AcDbEntity
8
0
100
AcDbLine
10
450
20
2142.2194739114711
30
0
11
500
21
2142.2194739114711
31
0
0
LINE
5
477
100
AcDbEntity
8
0
100
AcDbLine
10
450
20
1692.2194739114709
30
0
11
500
21
1692.2194739114709
31
0
0
LINE
5
478
100
AcDbEntity
8
0
100
AcDbLine
10
450
20
1677.2194739114709
30
0
11
500
21
1677.2194739114709
31
0
0
LINE
5
479
100
AcDbEntity
8
0
100
AcDbLine
10
450
20
2127.2194739114711
30
0
11
450
21
2142.2194739114711
31
0
0
LINE
5
480
100
AcDbEntity
8
0
100
AcDbLine
10
400
20
1587.2194739114709
30
0
11
400
21
1542.2194739114709
31
0
0
LINE
5
481
100
AcDbEntity
8
0
100
AcDbLine
10
400
20
1542.2194739114709
30
0
11
500
21
1542.2194739114709
31
0
0
LINE
5
482
100
AcDbEntity
8
0
100
AcDbLine
10
450
20
1977.2194739114709
30
0
11
450
21
1992.2194739114709
31
0
0
LINE
5
483
100
AcDbEntity
8
0
100
AcDbLine
10
500
20
1842.2194739114709
30
0
11
500
21
1977.2194739114709
31
0
0
LINE
5
484
100
AcDbEntity
8
0
100
AcDbLine
10
450
20
1992.2194739114709
30
0
11
500
21
1992.2194739114709
31
0
0
LINE
5
485
100
AcDbEntity
8
0
100
AcDbLine
10
500
20
1542.2194739114709
30
0
11
500
21
1677.2194739114709
31
0
0
LINE
5
486
100
AcDbEntity
8
0
100
AcDbLine
10
450
20
1977.2194739114709
30
0
11
500
21
1977.2194739114709
31
0
0
LINE
5
487
100
AcDbEntity
8
0
100
AcDbLine
10
450
20
1827.2194739114709
30
0
11
450
21
1842.2194739114709
31
0
0
LINE
5
488
100
AcDbEntity
8
0
100
AcDbLine
10
450
20
2427.2194739114711
30
0
11
500
21
2427.2194739114711
31
0
0
LINE
5
489
100
AcDbEntity
8
0
100
AcDbLine
10
500
20
2292.2194739114711
30
0
11
500
21
2427.2194739114711
31
0
0
LINE
5
490
100
AcDbEntity
8
0
100
AcDbLine
10
450
20
1602.2194739114709
30
0
11
450
21
1587.2194739114709
31
0
0
LINE
5
491
100
AcDbEntity
8
0
100
AcDbLine
10
400
20
1587.2194739114709
30
0
11
450
21
1587.2194739114709
31
0
0
LINE
5
492
100
AcDbEntity
8
0
100
AcDbLine
10
500
20
1692.2194739114709
30
0
11
500
21
1827.2194739114709
31
0
0
LINE
5
493
100
AcDbEntity
8
0
100
AcDbLine
10
500
20
1692.2194739114709
30
0
11
500
21
1812.2194739114709
31
0
0
LINE
5
494
100
AcDbEntity
8
0
100
AcDbLine
10
400
20
1602.2194739114709
30
0
11
450
21
1602.2194739114709
31
0
0
LINE
5
495
100
AcDbEntity
8
0
100
AcDbLine
10
500
20
2427.2194739114711
30
0
11
400
21
2427.2194739114711
31
0
0
LINE
5
496
100
AcDbEntity
8
0
100
AcDbLine
10
450
20
2382.2194739114711
30
0
11
400
21
2382.2194739114711
31
0
0
LINE
5
497
100
AcDbEntity
8
0
100
AcDbLine
10
450
20
2382.2194739114711
30
0
11
450
21
2367.2194739114711
31
0
0
LINE
5
498
100
AcDbEntity
8
0
100
AcDbLine
10
450
20
2367.2194739114711
30
0
11
400
21
2367.2194739114711
31
0
0
LINE
5
499
100
AcDbEntity
8
0
100
AcDbLine
10
400
20
2427.2194739114711
30
0
11
400
21
2382.2194739114711
31
0
0
LINE
5
500
100
AcDbEntity
8
0
100
AcDbLine
10
400
20
2367.2194739114711
30
0
11
400
21
1602.2194739114709
31
0
0
LINE
5
501
100
AcDbEntity
8
0
100
AcDbLine
10
530
20
1440
30
0
11
580
21
1440
31
0
0
LINE
5
502
100
AcDbEntity
8
0
100
AcDbLine
10
580
20
1440
30
0
11
580
21
1455
31
0
0
LINE
5
503
100
AcDbEntity
8
0
100
AcDbLine
10
400
20
1455
30
0
11
450
21
1455
31
0
0
LINE
5
504
100
AcDbEntity
8
0
100
AcDbLine
10
580
20
1200
30
0
11
630
21
1200
31
0
0
LINE
5
505
100
AcDbEntity
8
0
100
AcDbLine
10
580
20
1365
30
0
11
630
21
1365
31
0
0
LINE
5
506
100
AcDbEntity
8
0
100
AcDbLine
10
630
20
1215
30
0
11
630
21
1350
31
0
0
LINE
5
507
100
AcDbEntity
8
0
100
AcDbLine
10
450
20
1215
30
0
11
500
21
1215
31
0
0
LINE
5
508
100
AcDbEntity
8
0
100
AcDbLine
10
400
20
1500
30
0
11
500
21
1500
31
0
0
LINE
5
509
100
AcDbEntity
8
0
100
AcDbLine
10
400
20
1440
30
0
11
450
21
1440
31
0
0
LINE
5
510
100
AcDbEntity
8
0
100
AcDbLine
10
450
20
1440
30
0
11
450
21
1455
31
0
0
LINE
5
511
100
AcDbEntity
8
0
100
AcDbLine
10
400
20
1490
30
0
11
400
21
1455
31
0
0
LINE
5
512
100
AcDbEntity
8
0
100
AcDbLine
10
450
20
1350
30
0
11
500
21
1350
31
0
0
LINE
5
513
100
AcDbEntity
8
0
100
AcDbLine
10
450
20
1200
30
0
11
500
21
1200
31
0
0
LINE
5
514
100
AcDbEntity
8
0
100
AcDbLine
10
400
20
1490
30
0
11
400
21
1500
31
0
0
LINE
5
515
100
AcDbEntity
8
0
100
AcDbLine
10
500
20
1500
30
0
11
500
21
1490
31
0
0
LINE
5
516
100
AcDbEntity
8
0
100
AcDbLine
10
450
20
1200
30
0
11
450
21
1215
31
0
0
LINE
5
517
100
AcDbEntity
8
0
100
AcDbLine
10
500
20
1215
30
0
11
500
21
1350
31
0
0
LINE
5
518
100
AcDbEntity
8
0
100
AcDbLine
10
530
20
1455
30
0
11
580
21
1455
31
0
0
LINE
5
519
100
AcDbEntity
8
0
100
AcDbLine
10
450
20
1365
30
0
11
500
21
1365
31
0
0
LINE
5
520
100
AcDbEntity
8
0
100
AcDbLine
10
580
20
1200
30
0
11
580
21
1215
31
0
0
LINE
5
521
100
AcDbEntity
8
0
100
AcDbLine
10
450
20
1350
30
0
11
450
21
1365
31
0
0
LINE
5
522
100
AcDbEntity
8
0
100
AcDbLine
10
500
20
1365
30
0
11
500
21
1490
31
0
0
LINE
5
523
100
AcDbEntity
8
0
100
AcDbLine
10
580
20
1215
30
0
11
630
21
1215
31
0
0
LINE
5
524
100
AcDbEntity
8
0
100
AcDbLine
10
580
20
1350
30
0
11
580
21
1365
31
0
0
LINE
5
525
100
AcDbEntity
8
0
100
AcDbLine
10
580
20
1350
30
0
11
630
21
1350
31
0
0
LINE
5
526
100
AcDbEntity
8
0
100
AcDbLine
10
630
20
1500
30
0
11
630
21
1490
31
0
0
LINE
5
527
100
AcDbEntity
8
0
100
AcDbLine
10
530
20
1490
30
0
11
530
21
1455
31
0
0
LINE
5
528
100
AcDbEntity
8
0
100
AcDbLine
10
530
20
1500
30
0
11
630
21
1500
31
0
0
LINE
5
529
100
AcDbEntity
8
0
100
AcDbLine
10
630
20
1365
30
0
11
630
21
1490
31
0
0
LINE
5
530
100
AcDbEntity
8
0
100
AcDbLine
10
530
20
1490
30
0
11
530
21
1500
31
0
0
LINE
5
531
100
AcDbEntity
8
0
100
AcDbLine
10
530
20
1440
30
0
11
580
21
1440
31
0
0
LINE
5
532
100
AcDbEntity
8
0
100
AcDbLine
10
530
20
1455
30
0
11
580
21
1455
31
0
0
LINE
5
533
100
AcDbEntity
8
0
100
AcDbLine
10
530
20
1490
30
0
11
530
21
1500
31
0
0
LINE
5
534
100
AcDbEntity
8
0
100
AcDbLine
10
530
20
1500
30
0
11
630
21
1500
31
0
0
LINE
5
535
100
AcDbEntity
8
0
100
AcDbLine
10
630
20
1500
30
0
11
630
21
1490
31
0
0
LINE
5
536
100
AcDbEntity
8
0
100
AcDbLine
10
530
20
1490
30
0
11
530
21
1455
31
0
0
LINE
5
537
100
AcDbEntity
8
0
100
AcDbLine
10
580
20
1440
30
0
11
580
21
1455
31
0
0
LINE
5
538
100
AcDbEntity
8
0
100
AcDbLine
10
630
20
1365
30
0
11
630
21
1490
31
0
0
LINE
5
539
100
AcDbEntity
8
0
100
AcDbLine
10
530
20
1440
30
0
11
580
21
1440
31
0
0
LINE
5
540
100
AcDbEntity
8
0
100
AcDbLine
10
630
20
1215
30
0
11
630
21
1350
31
0
0
LINE
5
541
100
AcDbEntity
8
0
100
AcDbLine
10
580
20
1365
30
0
11
630
21
1365
31
0
0
LINE
5
542
100
AcDbEntity
8
0
100
AcDbLine
10
580
20
1365
30
0
11
630
21
1365
31
0
0
LINE
5
543
100
AcDbEntity
8
0
100
AcDbLine
10
580
20
1350
30
0
11
630
21
1350
31
0
0
LINE
5
544
100
AcDbEntity
8
0
100
AcDbLine
10
530
20
1440
30
0
11
530
21
75
31
0
0
LINE
5
545
100
AcDbEntity
8
0
100
AcDbLine
10
580
20
1350
30
0
11
580
21
1365
31
0
0
LINE
5
546
100
AcDbEntity
8
0
100
AcDbLine
10
530
20
1455
30
0
11
580
21
1455
31
0
0
LINE
5
547
100
AcDbEntity
8
0
100
AcDbLine
10
530
20
1490
30
0
11
530
21
1455
31
0
0
LINE
5
548
100
AcDbEntity
8
0
100
AcDbLine
10
580
20
1440
30
0
11
580
21
1455
31
0
0
LINE
5
549
100
AcDbEntity
8
0
100
AcDbLine
10
530
20
1500
30
0
11
630
21
1500
31
0
0
LINE
5
550
100
AcDbEntity
8
0
100
AcDbLine
10
630
20
1365
30
0
11
630
21
1490
31
0
0
LINE
5
551
100
AcDbEntity
8
0
100
AcDbLine
10
630
20
1500
30
0
11
630
21
1490
31
0
0
LINE
5
552
100
AcDbEntity
8
0
100
AcDbLine
10
580
20
1350
30
0
11
580
21
1365
31
0
0
LINE
5
553
100
AcDbEntity
8
0
100
AcDbLine
10
630
20
1215
30
0
11
630
21
1350
31
0
0
LINE
5
554
100
AcDbEntity
8
0
100
AcDbLine
10
580
20
1350
30
0
11
630
21
1350
31
0
0
LINE
5
555
100
AcDbEntity
8
0
100
AcDbLine
10
530
20
1490
30
0
11
530
21
1500
31
0
0
LINE
5
556
100
AcDbEntity
8
0
100
AcDbLine
10
530
20
1500
30
0
11
630
21
1500
31
0
0
LINE
5
557
100
AcDbEntity
8
0
100
AcDbLine
10
530
20
1490
30
0
11
530
21
1455
31
0
0
LINE
5
558
100
AcDbEntity
8
0
100
AcDbLine
10
530
20
1490
30
0
11
530
21
1500
31
0
0
LINE
5
559
100
AcDbEntity
8
0
100
AcDbLine
10
630
20
1365
30
0
11
630
21
1490
31
0
0
LINE
5
560
100
AcDbEntity
8
0
100
AcDbLine
10
630
20
1500
30
0
11
630
21
1490
31
0
0
LINE
5
561
100
AcDbEntity
8
0
100
AcDbLine
10
580
20
1440
30
0
11
580
21
1455
31
0
0
LINE
5
562
100
AcDbEntity
8
0
100
AcDbLine
10
530
20
1500
30
0
11
630
21
1500
31
0
0
LINE
5
563
100
AcDbEntity
8
0
100
AcDbLine
10
530
20
1490
30
0
11
530
21
1455
31
0
0
LINE
5
564
100
AcDbEntity
8
0
100
AcDbLine
10
530
20
1455
30
0
11
580
21
1455
31
0
0
LINE
5
565
100
AcDbEntity
8
0
100
AcDbLine
10
530
20
1440
30
0
11
580
21
1440
31
0
0
LINE
5
566
100
AcDbEntity
8
0
100
AcDbLine
10
630
20
1365
30
0
11
630
21
1490
31
0
0
LINE
5
567
100
AcDbEntity
8
0
100
AcDbLine
10
580
20
1440
30
0
11
580
21
1455
31
0
0
LINE
5
568
100
AcDbEntity
8
0
100
AcDbLine
10
630
20
1500
30
0
11
630
21
1490
31
0
0
LINE
5
569
100
AcDbEntity
8
0
100
AcDbLine
10
530
20
1490
30
0
11
530
21
1500
31
0
0
LINE
5
570
100
AcDbEntity
8
0
100
AcDbLine
10
530
20
1455
30
0
11
580
21
1455
31
0
0
LINE
5
571
100
AcDbEntity
8
0
100
AcDbLine
10
530
20
1440
30
0
11
580
21
1440
31
0
0
LINE
5
572
100
AcDbEntity
8
0
100
AcDbLine
10
530
20
1490
30
0
11
530
21
1500
31
0
0
LINE
5
573
100
AcDbEntity
8
0
100
AcDbLine
10
580
20
1440
30
0
11
580
21
1455
31
0
0
LINE
5
574
100
AcDbEntity
8
0
100
AcDbLine
10
530
20
1490
30
0
11
530
21
1455
31
0
0
LINE
5
575
100
AcDbEntity
8
0
100
AcDbLine
10
530
20
1440
30
0
11
580
21
1440
31
0
0
LINE
5
576
100
AcDbEntity
8
0
100
AcDbLine
10
530
20
1455
30
0
11
580
21
1455
31
0
0
LINE
5
577
100
AcDbEntity
8
0
100
AcDbLine
10
630
20
1365
30
0
11
630
21
1490
31
0
0
LINE
5
578
100
AcDbEntity
8
0
100
AcDbLine
10
630
20
1500
30
0
11
630
21
1490
31
0
0
LINE
5
579
100
AcDbEntity
8
0
100
AcDbLine
10
530
20
1500
30
0
11
630
21
1500
31
0
0
LINE
5
580
100
AcDbEntity
8
0
100
AcDbLine
10
530
20
1490
30
0
11
530
21
1500
31
0
0
LINE
5
581
100
AcDbEntity
8
0
100
AcDbLine
10
530
20
1440
30
0
11
580
21
1440
31
0
0
LINE
5
582
100
AcDbEntity
8
0
100
AcDbLine
10
530
20
1490
30
0
11
530
21
1455
31
0
0
LINE
5
583
100
AcDbEntity
8
0
100
AcDbLine
10
530
20
1455
30
0
11
580
21
1455
31
0
0
LINE
5
584
100
AcDbEntity
8
0
100
AcDbLine
10
630
20
1500
30
0
11
630
21
1490
31
0
0
LINE
5
585
100
AcDbEntity
8
0
100
AcDbLine
10
530
20
1500
30
0
11
630
21
1500
31
0
0
LINE
5
586
100
AcDbEntity
8
0
100
AcDbLine
10
580
20
1440
30
0
11
580
21
1455
31
0
0
LINE
5
587
100
AcDbEntity
8
0
100
AcDbLine
10
630
20
1365
30
0
11
630
21
1490
31
0
0
LINE
5
588
100
AcDbEntity
8
0
100
AcDbLine
10
580
20
1065
30
0
11
630
21
1065
31
0
0
LINE
5
589
100
AcDbEntity
8
0
100
AcDbLine
10
630
20
615
30
0
11
630
21
750
31
0
0
LINE
5
590
100
AcDbEntity
8
0
100
AcDbLine
10
580
20
900
30
0
11
580
21
915
31
0
0
LINE
5
591
100
AcDbEntity
8
0
100
AcDbLine
10
580
20
750
30
0
11
630
21
750
31
0
0
LINE
5
592
100
AcDbEntity
8
0
100
AcDbLine
10
630
20
915
30
0
11
630
21
1050
31
0
0
LINE
5
593
100
AcDbEntity
8
0
100
AcDbLine
10
580
20
600
30
0
11
630
21
600
31
0
0
LINE
5
594
100
AcDbEntity
8
0
100
AcDbLine
10
580
20
1050
30
0
11
630
21
1050
31
0
0
LINE
5
595
100
AcDbEntity
8
0
100
AcDbLine
10
630
20
765
30
0
11
630
21
900
31
0
0
LINE
5
596
100
AcDbEntity
8
0
100
AcDbLine
10
580
20
1050
30
0
11
580
21
1065
31
0
0
LINE
5
597
100
AcDbEntity
8
0
100
AcDbLine
10
580
20
915
30
0
11
630
21
915
31
0
0
LINE
5
598
100
AcDbEntity
8
0
100
AcDbLine
10
580
20
900
30
0
11
630
21
900
31
0
0
LINE
5
599
100
AcDbEntity
8
0
100
AcDbLine
10
580
20
615
30
0
11
630
21
615
31
0
0
LINE
5
600
100
AcDbEntity
8
0
100
AcDbLine
10
580
20
765
30
0
11
630
21
765
31
0
0
LINE
5
601
100
AcDbEntity
8
0
100
AcDbLine
10
580
20
750
30
0
11
580
21
765
31
0
0
LINE
5
602
100
AcDbEntity
8
0
100
AcDbLine
10
630
20
1065
30
0
11
630
21
1200
31
0
0
LINE
5
603
100
AcDbEntity
8
0
100
AcDbLine
10
580
20
600
30
0
11
580
21
615
31
0
0
LINE
5
604
100
AcDbEntity
8
0
100
AcDbLine
10
630
20
465
30
0
11
630
21
600
31
0
0
LINE
5
605
100
AcDbEntity
8
0
100
AcDbLine
10
630
20
1215
30
0
11
630
21
1350
31
0
0
LINE
5
606
100
AcDbEntity
8
0
100
AcDbLine
10
580
20
1365
30
0
11
630
21
1365
31
0
0
LINE
5
607
100
AcDbEntity
8
0
100
AcDbLine
10
580
20
165
30
0
11
630
21
165
31
0
0
LINE
5
608
100
AcDbEntity
8
0
100
AcDbLine
10
580
20
300
30
0
11
580
21
315
31
0
0
LINE
5
609
100
AcDbEntity
8
0
100
AcDbLine
10
630
20
315
30
0
11
630
21
450
31
0
0
LINE
5
610
100
AcDbEntity
8
0
100
AcDbLine
10
580
20
1200
30
0
11
630
21
1200
31
0
0
LINE
5
611
100
AcDbEntity
8
0
100
AcDbLine
10
580
20
1200
30
0
11
580
21
1215
31
0
0
LINE
5
612
100
AcDbEntity
8
0
100
AcDbLine
10
580
20
149.99999999999997
30
0
11
630
21
150
31
0
0
LINE
5
613
100
AcDbEntity
8
0
100
AcDbLine
10
530
20
60
30
0
11
580
21
60
31
0
0
LINE
5
614
100
AcDbEntity
8
0
100
AcDbLine
10
530
20
75
30
0
11
580
21
74.999999999999986
31
0
0
LINE
5
615
100
AcDbEntity
8
0
100
AcDbLine
10
530
20
1440
30
0
11
530
21
75
31
0
0
LINE
5
616
100
AcDbEntity
8
0
100
AcDbLine
10
580
20
149.99999999999997
30
0
11
580
21
165
31
0
0
LINE
5
617
100
AcDbEntity
8
0
100
AcDbLine
10
630
20
165
30
0
11
630
21
285.00000000000006
31
0
0
LINE
5
618
100
AcDbEntity
8
0
100
AcDbLine
10
630
20
165
30
0
11
630
21
300
31
0
0
LINE
5
619
100
AcDbEntity
8
0
100
AcDbLine
10
580
20
465
30
0
11
630
21
465
31
0
0
LINE
5
620
100
AcDbEntity
8
0
100
AcDbLine
10
580
20
1365
30
0
11
630
21
1365
31
0
0
LINE
5
621
100
AcDbEntity
8
0
100
AcDbLine
10
580
20
1350
30
0
11
580
21
1365
31
0
0
LINE
5
622
100
AcDbEntity
8
0
100
AcDbLine
10
580
20
1200
30
0
11
580
21
1215
31
0
0
LINE
5
623
100
AcDbEntity
8
0
100
AcDbLine
10
580
20
1200
30
0
11
630
21
1200
31
0
0
LINE
5
624
100
AcDbEntity
8
0
100
AcDbLine
10
530
20
1440
30
0
11
530
21
75
31
0
0
LINE
5
625
100
AcDbEntity
8
0
100
AcDbLine
10
580
20
1365
30
0
11
630
21
1365
31
0
0
LINE
5
626
100
AcDbEntity
8
0
100
AcDbLine
10
580
20
450
30
0
11
580
21
465
31
0
0
LINE
5
627
100
AcDbEntity
8
0
100
AcDbLine
10
580
20
1350
30
0
11
630
21
1350
31
0
0
LINE
5
628
100
AcDbEntity
8
0
100
AcDbLine
10
580
20
1365
30
0
11
630
21
1365
31
0
0
LINE
5
629
100
AcDbEntity
8
0
100
AcDbLine
10
580
20
1350
30
0
11
630
21
1350
31
0
0
LINE
5
630
100
AcDbEntity
8
0
100
AcDbLine
10
580
20
1215
30
0
11
630
21
1215
31
0
0
LINE
5
631
100
AcDbEntity
8
0
100
AcDbLine
10
580
20
1350
30
0
11
580
21
1365
31
0
0
LINE
5
632
100
AcDbEntity
8
0
100
AcDbLine
10
580
20
1350
30
0
11
580
21
1365
31
0
0
LINE
5
633
100
AcDbEntity
8
0
100
AcDbLine
10
630
20
1215
30
0
11
630
21
1350
31
0
0
LINE
5
634
100
AcDbEntity
8
0
100
AcDbLine
10
630
20
1215
30
0
11
630
21
1350
31
0
0
LINE
5
635
100
AcDbEntity
8
0
100
AcDbLine
10
580
20
315
30
0
11
630
21
315
31
0
0
LINE
5
636
100
AcDbEntity
8
0
100
AcDbLine
10
580
20
300
30
0
11
630
21
300
31
0
0
LINE
5
637
100
AcDbEntity
8
0
100
AcDbLine
10
580
20
74.999999999999986
30
0
11
580
21
60
31
0
0
LINE
5
638
100
AcDbEntity
8
0
100
AcDbLine
10
530
20
15
30
0
11
630
21
15
31
0
0
LINE
5
639
100
AcDbEntity
8
0
100
AcDbLine
10
580
20
450
30
0
11
630
21
450
31
0
0
LINE
5
640
100
AcDbEntity
8
0
100
AcDbLine
10
630
20
15
30
0
11
630
21
150
31
0
0
LINE
5
641
100
AcDbEntity
8
0
100
AcDbLine
10
580
20
1350
30
0
11
580
21
1365
31
0
0
LINE
5
642
100
AcDbEntity
8
0
100
AcDbLine
10
630
20
285.00000000000006
30
0
11
630
21
165
31
0
0
LINE
5
643
100
AcDbEntity
8
0
100
AcDbLine
10
530
20
60
30
0
11
530
21
15
31
0
0
LINE
5
644
100
AcDbEntity
8
0
100
AcDbLine
10
580
20
1350
30
0
11
630
21
1350
31
0
0
LINE
5
645
100
AcDbEntity
8
0
100
AcDbLine
10
580
20
1350
30
0
11
630
21
1350
31
0
0
LINE
5
646
100
AcDbEntity
8
0
100
AcDbLine
10
580
20
1215
30
0
11
630
21
1215
31
0
0
LINE
5
647
100
AcDbEntity
8
0
100
AcDbLine
10
630
20
1215
30
0
11
630
21
1350
31
0
0
LINE
5
648
100
AcDbEntity
8
0
100
AcDbLine
10
-400
20
-10
30
0
11
-400
21
740
31
0
0
LINE
5
649
100
AcDbEntity
8
0
100
AcDbLine
10
1201.1668513293662
20
1405.3457324753235
30
0
11
1336.166851329366
21
1405.3457324753235
31
0
0
LINE
5
650
100
AcDbEntity
8
0
100
AcDbLine
10
1201.1668513293662
20
1405.3457324753235
30
0
11
1336.166851329366
21
1405.3457324753235
31
0
0
LINE
5
651
100
AcDbEntity
8
0
100
AcDbLine
10
1201.1668513293662
20
1455.3457324753235
30
0
11
1201.1668513293662
21
1405.3457324753235
31
0
0
LINE
5
652
100
AcDbEntity
8
0
100
AcDbLine
10
1351.166851329366
20
1405.3457324753235
30
0
11
1486.166851329366
21
1405.3457324753235
31
0
0
LINE
5
653
100
AcDbEntity
8
0
100
AcDbLine
10
1351.166851329366
20
1455.3457324753235
30
0
11
1351.166851329366
21
1405.3457324753235
31
0
0
LINE
5
654
100
AcDbEntity
8
0
100
AcDbLine
10
1786.1668513293653
20
1405.3457324753235
30
0
11
1651.1668513293653
21
1405.3457324753235
31
0
0
LINE
5
655
100
AcDbEntity
8
0
100
AcDbLine
10
1186.1668513293662
20
1855.3457324753231
30
0
11
1186.1668513293662
21
1905.3457324753231
31
0
0
LINE
5
656
100
AcDbEntity
8
0
100
AcDbLine
10
1921.1668513293653
20
1405.3457324753235
30
0
11
1801.1668513293653
21
1405.3457324753235
31
0
0
LINE
5
657
100
AcDbEntity
8
0
100
AcDbLine
10
1186.1668513293662
20
1855.3457324753231
30
0
11
1186.1668513293662
21
1905.3457324753231
31
0
0
LINE
5
658
100
AcDbEntity
8
0
100
AcDbLine
10
1036.1668513293666
20
1855.3457324753231
30
0
11
1051.1668513293666
21
1855.3457324753231
31
0
0
LINE
5
659
100
AcDbEntity
8
0
100
AcDbLine
10
1786.1668513293653
20
1405.3457324753235
30
0
11
1786.1668513293653
21
1455.3457324753235
31
0
0
LINE
5
660
100
AcDbEntity
8
0
100
AcDbLine
10
1186.1668513293662
20
1855.3457324753231
30
0
11
1186.1668513293662
21
1905.3457324753231
31
0
0
LINE
5
661
100
AcDbEntity
8
0
100
AcDbLine
10
1636.1668513293657
20
1405.3457324753235
30
0
11
1501.166851329366
21
1405.3457324753235
31
0
0
LINE
5
662
100
AcDbEntity
8
0
100
AcDbLine
10
1186.1668513293662
20
1855.3457324753231
30
0
11
1186.1668513293662
21
1905.3457324753231
31
0
0
LINE
5
663
100
AcDbEntity
8
0
100
AcDbLine
10
1921.1668513293653
20
1505.6639801687597
30
0
11
1921.1668513293653
21
1405.3457324753235
31
0
0
LINE
5
664
100
AcDbEntity
8
0
100
AcDbLine
10
1036.1668513293666
20
1855.3457324753231
30
0
11
1036.1668513293666
21
1905.3457324753231
31
0
0
LINE
5
665
100
AcDbEntity
8
0
100
AcDbLine
10
1786.1668513293653
20
1455.3457324753235
30
0
11
1801.1668513293653
21
1455.3457324753235
31
0
0
LINE
5
666
100
AcDbEntity
8
0
100
AcDbLine
10
1636.1668513293657
20
1405.3457324753235
30
0
11
1636.1668513293653
21
1455.3457324753235
31
0
0
LINE
5
667
100
AcDbEntity
8
0
100
AcDbLine
10
1051.1668513293666
20
1905.3457324753231
30
0
11
1051.1668513293666
21
1855.3457324753231
31
0
0
LINE
5
668
100
AcDbEntity
8
0
100
AcDbLine
10
1636.1668513293653
20
1455.3457324753235
30
0
11
1651.1668513293653
21
1455.3457324753235
31
0
0
LINE
5
669
100
AcDbEntity
8
0
100
AcDbLine
10
1801.1668513293653
20
1455.3457324753235
30
0
11
1801.1668513293653
21
1405.3457324753235
31
0
0
LINE
5
670
100
AcDbEntity
8
0
100
AcDbLine
10
1651.1668513293653
20
1455.3457324753235
30
0
11
1651.1668513293653
21
1405.3457324753235
31
0
0
LINE
5
671
100
AcDbEntity
8
0
100
AcDbLine
10
1036.1668513293666
20
1905.3457324753231
30
0
11
901.16685132936652
21
1905.3457324753231
31
0
0
LINE
5
672
100
AcDbEntity
8
0
100
AcDbLine
10
1036.1668513293666
20
1455.3457324753235
30
0
11
1051.1668513293666
21
1455.3457324753235
31
0
0
LINE
5
673
100
AcDbEntity
8
0
100
AcDbLine
10
1186.1668513293662
20
1455.3457324753235
30
0
11
1201.1668513293662
21
1455.3457324753235
31
0
0
LINE
5
674
100
AcDbEntity
8
0
100
AcDbLine
10
1186.1668513293662
20
1405.3457324753235
30
0
11
1186.1668513293662
21
1455.3457324753235
31
0
0
LINE
5
675
100
AcDbEntity
8
0
100
AcDbLine
10
1186.1668513293662
20
1455.3457324753235
30
0
11
1201.1668513293662
21
1455.3457324753235
31
0
0
LINE
5
676
100
AcDbEntity
8
0
100
AcDbLine
10
886.16685132936652
20
1855.3457324753231
30
0
11
901.16685132936652
21
1855.3457324753231
31
0
0
LINE
5
677
100
AcDbEntity
8
0
100
AcDbLine
10
901.16685132936652
20
1905.3457324753231
30
0
11
901.16685132936652
21
1855.3457324753231
31
0
0
LINE
5
678
100
AcDbEntity
8
0
100
AcDbLine
10
901.16685132936652
20
1905.3457324753231
30
0
11
901.16685132936652
21
1855.3457324753231
31
0
0
LINE
5
679
100
AcDbEntity
8
0
100
AcDbLine
10
886.16685132936686
20
1455.3457324753235
30
0
11
901.16685132936686
21
1455.3457324753235
31
0
0
LINE
5
680
100
AcDbEntity
8
0
100
AcDbLine
10
1201.1668513293662
20
1455.3457324753235
30
0
11
1201.1668513293662
21
1405.3457324753235
31
0
0
LINE
5
681
100
AcDbEntity
8
0
100
AcDbLine
10
1051.1668513293666
20
1405.3457324753235
30
0
11
1186.1668513293662
21
1405.3457324753235
31
0
0
LINE
5
682
100
AcDbEntity
8
0
100
AcDbLine
10
901.16685132936686
20
1455.3457324753235
30
0
11
901.16685132936686
21
1405.3457324753235
31
0
0
LINE
5
683
100
AcDbEntity
8
0
100
AcDbLine
10
886.16685132936686
20
1405.3457324753235
30
0
11
886.16685132936686
21
1455.3457324753235
31
0
0
LINE
5
684
100
AcDbEntity
8
0
100
AcDbLine
10
1186.1668513293662
20
1405.3457324753235
30
0
11
1186.1668513293662
21
1455.3457324753235
31
0
0
LINE
5
685
100
AcDbEntity
8
0
100
AcDbLine
10
1186.1668513293662
20
1405.3457324753235
30
0
11
1186.1668513293662
21
1455.3457324753235
31
0
0
LINE
5
686
100
AcDbEntity
8
0
100
AcDbLine
10
886.16685132936652
20
1855.3457324753231
30
0
11
886.16685132936652
21
1905.3457324753231
31
0
0
LINE
5
687
100
AcDbEntity
8
0
100
AcDbLine
10
1036.1668513293666
20
1405.3457324753235
30
0
11
1036.1668513293666
21
1455.3457324753235
31
0
0
LINE
5
688
100
AcDbEntity
8
0
100
AcDbLine
10
886.16685132936652
20
1855.3457324753231
30
0
11
886.16685132936652
21
1905.3457324753231
31
0
0
LINE
5
689
100
AcDbEntity
8
0
100
AcDbLine
10
901.16685132936686
20
1405.3457324753235
30
0
11
1036.1668513293666
21
1405.3457324753235
31
0
0
LINE
5
690
100
AcDbEntity
8
0
100
AcDbLine
10
1036.1668513293666
20
1405.3457324753235
30
0
11
1036.1668513293666
21
1455.3457324753235
31
0
0
LINE
5
691
100
AcDbEntity
8
0
100
AcDbLine
10
1036.1668513293666
20
1405.3457324753235
30
0
11
1036.1668513293666
21
1455.3457324753235
31
0
0
LINE
5
692
100
AcDbEntity
8
0
100
AcDbLine
10
1051.1668513293666
20
1455.3457324753235
30
0
11
1051.1668513293666
21
1405.3457324753235
31
0
0
LINE
5
693
100
AcDbEntity
8
0
100
AcDbLine
10
1051.1668513293666
20
1455.3457324753235
30
0
11
1051.1668513293666
21
1405.3457324753235
31
0
0
LINE
5
694
100
AcDbEntity
8
0
100
AcDbLine
10
901.16685132936686
20
1405.3457324753235
30
0
11
1036.1668513293666
21
1405.3457324753235
31
0
0
LINE
5
695
100
AcDbEntity
8
0
100
AcDbLine
10
1051.1668513293666
20
1455.3457324753235
30
0
11
1051.1668513293666
21
1405.3457324753235
31
0
0
LINE
5
696
100
AcDbEntity
8
0
100
AcDbLine
10
1186.1668513293662
20
1405.3457324753235
30
0
11
1186.1668513293662
21
1455.3457324753235
31
0
0
LINE
5
697
100
AcDbEntity
8
0
100
AcDbLine
10
1051.1668513293666
20
1405.3457324753235
30
0
11
1186.1668513293662
21
1405.3457324753235
31
0
0
LINE
5
698
100
AcDbEntity
8
0
100
AcDbLine
10
901.16685132936652
20
1905.3457324753231
30
0
11
901.16685132936652
21
1855.3457324753231
31
0
0
LINE
5
699
100
AcDbEntity
8
0
100
AcDbLine
10
1036.1668513293666
20
1455.3457324753235
30
0
11
1051.1668513293666
21
1455.3457324753235
31
0
0
LINE
5
700
100
AcDbEntity
8
0
100
AcDbLine
10
886.16685132936652
20
1905.3457324753231
30
0
11
736.16685132936686
21
1905.3457324753228
31
0
0
LINE
5
701
100
AcDbEntity
8
0
100
AcDbLine
10
1051.1668513293666
20
1405.3457324753235
30
0
11
1186.1668513293662
21
1405.3457324753235
31
0
0
LINE
5
702
100
AcDbEntity
8
0
100
AcDbLine
10
886.16685132936652
20
1855.3457324753231
30
0
11
886.16685132936652
21
1905.3457324753231
31
0
0
LINE
5
703
100
AcDbEntity
8
0
100
AcDbLine
10
886.16685132936652
20
1855.3457324753231
30
0
11
886.16685132936652
21
1905.3457324753231
31
0
0
LINE
5
704
100
AcDbEntity
8
0
100
AcDbLine
10
901.16685132936652
20
1905.3457324753231
30
0
11
901.16685132936652
21
1855.3457324753231
31
0
0
LINE
5
705
100
AcDbEntity
8
0
100
AcDbLine
10
886.16685132936686
20
1405.3457324753235
30
0
11
886.16685132936686
21
1455.3457324753235
31
0
0
LINE
5
706
100
AcDbEntity
8
0
100
AcDbLine
10
1051.1668513293666
20
1405.3457324753235
30
0
11
1186.1668513293662
21
1405.3457324753235
31
0
0
LINE
5
707
100
AcDbEntity
8
0
100
AcDbLine
10
886.16685132936686
20
1455.3457324753235
30
0
11
901.16685132936686
21
1455.3457324753235
31
0
0
LINE
5
708
100
AcDbEntity
8
0
100
AcDbLine
10
901.16685132936686
20
1405.3457324753235
30
0
11
1036.1668513293666
21
1405.3457324753235
31
0
0
LINE
5
709
100
AcDbEntity
8
0
100
AcDbLine
10
901.16685132936686
20
1405.3457324753235
30
0
11
1036.1668513293666
21
1405.3457324753235
31
0
0
LINE
5
710
100
AcDbEntity
8
0
100
AcDbLine
10
1051.1668513293666
20
1455.3457324753235
30
0
11
1051.1668513293666
21
1405.3457324753235
31
0
0
LINE
5
711
100
AcDbEntity
8
0
100
AcDbLine
10
901.16685132936686
20
1455.3457324753235
30
0
11
901.16685132936686
21
1405.3457324753235
31
0
0
LINE
5
712
100
AcDbEntity
8
0
100
AcDbLine
10
1186.1668513293662
20
1455.3457324753235
30
0
11
1201.1668513293662
21
1455.3457324753235
31
0
0
LINE
5
713
100
AcDbEntity
8
0
100
AcDbLine
10
1036.1668513293666
20
1405.3457324753235
30
0
11
1036.1668513293666
21
1455.3457324753235
31
0
0
LINE
5
714
100
AcDbEntity
8
0
100
AcDbLine
10
886.16685132936686
20
1455.3457324753235
30
0
11
901.16685132936686
21
1455.3457324753235
31
0
0
LINE
5
715
100
AcDbEntity
8
0
100
AcDbLine
10
1036.1668513293666
20
1455.3457324753235
30
0
11
1051.1668513293666
21
1455.3457324753235
31
0
0
LINE
5
716
100
AcDbEntity
8
0
100
AcDbLine
10
901.16685132936686
20
1455.3457324753235
30
0
11
901.16685132936686
21
1405.3457324753235
31
0
0
LINE
5
717
100
AcDbEntity
8
0
100
AcDbLine
10
886.16685132936686
20
1405.3457324753235
30
0
11
886.16685132936686
21
1455.3457324753235
31
0
0
LINE
5
718
100
AcDbEntity
8
0
100
AcDbLine
10
1201.1668513293662
20
1455.3457324753235
30
0
11
1201.1668513293662
21
1405.3457324753235
31
0
0
LINE
5
719
100
AcDbEntity
8
0
100
AcDbLine
10
886.16685132936686
20
1405.3457324753235
30
0
11
886.16685132936686
21
1455.3457324753235
31
0
0
LINE
5
720
100
AcDbEntity
8
0
100
AcDbLine
10
1201.1668513293662
20
1405.3457324753235
30
0
11
1336.166851329366
21
1405.3457324753235
31
0
0
LINE
5
721
100
AcDbEntity
8
0
100
AcDbLine
10
1201.1668513293662
20
1455.3457324753235
30
0
11
1201.1668513293662
21
1405.3457324753235
31
0
0
LINE
5
722
100
AcDbEntity
8
0
100
AcDbLine
10
736.16685132936686
20
1905.3457324753228
30
0
11
736.16685132936686
21
1405.3457324753233
31
0
0
LINE
5
723
100
AcDbEntity
8
0
100
AcDbLine
10
1351.166851329366
20
1455.3457324753235
30
0
11
1351.166851329366
21
1405.3457324753235
31
0
0
LINE
5
724
100
AcDbEntity
8
0
100
AcDbLine
10
1336.166851329366
20
1405.3457324753235
30
0
11
1336.166851329366
21
1455.3457324753235
31
0
0
LINE
5
725
100
AcDbEntity
8
0
100
AcDbLine
10
1336.166851329366
20
1405.3457324753235
30
0
11
1336.166851329366
21
1455.3457324753235
31
0
0
LINE
5
726
100
AcDbEntity
8
0
100
AcDbLine
10
1336.166851329366
20
1405.3457324753235
30
0
11
1336.166851329366
21
1455.3457324753235
31
0
0
LINE
5
727
100
AcDbEntity
8
0
100
AcDbLine
10
1336.166851329366
20
1455.3457324753235
30
0
11
1351.166851329366
21
1455.3457324753235
31
0
0
LINE
5
728
100
AcDbEntity
8
0
100
AcDbLine
10
1336.166851329366
20
1455.3457324753235
30
0
11
1351.166851329366
21
1455.3457324753235
31
0
0
LINE
5
729
100
AcDbEntity
8
0
100
AcDbLine
10
886.16685132936686
20
1455.3457324753235
30
0
11
901.16685132936686
21
1455.3457324753235
31
0
0
LINE
5
730
100
AcDbEntity
8
0
100
AcDbLine
10
1201.1668513293662
20
1405.3457324753235
30
0
11
1336.166851329366
21
1405.3457324753235
31
0
0
LINE
5
731
100
AcDbEntity
8
0
100
AcDbLine
10
1351.166851329366
20
1455.3457324753235
30
0
11
1351.166851329366
21
1405.3457324753235
31
0
0
LINE
5
732
100
AcDbEntity
8
0
100
AcDbLine
10
1336.166851329366
20
1405.3457324753235
30
0
11
1336.166851329366
21
1455.3457324753235
31
0
0
LINE
5
733
100
AcDbEntity
8
0
100
AcDbLine
10
1336.166851329366
20
1455.3457324753235
30
0
11
1351.166851329366
21
1455.3457324753235
31
0
0
LINE
5
734
100
AcDbEntity
8
0
100
AcDbLine
10
1351.166851329366
20
1455.3457324753235
30
0
11
1351.166851329366
21
1405.3457324753235
31
0
0
LINE
5
735
100
AcDbEntity
8
0
100
AcDbLine
10
736.16685132936686
20
1405.3457324753233
30
0
11
886.16685132936686
21
1405.3457324753235
31
0
0
LINE
5
736
100
AcDbEntity
8
0
100
AcDbLine
10
1336.166851329366
20
1455.3457324753235
30
0
11
1351.166851329366
21
1455.3457324753235
31
0
0
LINE
5
737
100
AcDbEntity
8
0
100
AcDbLine
10
901.16685132936686
20
1455.3457324753235
30
0
11
901.16685132936686
21
1405.3457324753235
31
0
0
LINE
5
738
100
AcDbEntity
8
0
100
AcDbLine
10
1186.1668513293662
20
1905.3457324753231
30
0
11
1051.1668513293666
21
1905.3457324753231
31
0
0
LINE
5
739
100
AcDbEntity
8
0
100
AcDbLine
10
1186.1668513293662
20
1455.3457324753235
30
0
11
1201.1668513293662
21
1455.3457324753235
31
0
0
LINE
5
740
100
AcDbEntity
8
0
100
AcDbLine
10
1036.1668513293666
20
1455.3457324753235
30
0
11
1051.1668513293666
21
1455.3457324753235
31
0
0
LWPOLYLINE
5
741
100
AcDbEntity
8
0
100
AcDbPolyline
90
13
70
1
43
0.0
10
883.98435639787635
20
1106.7839146877036
10
833.98435639787692
20
1106.7839146877036
10
833.98435639787692
20
1121.7839146877036
10
883.98435639787635
20
1121.7839146877036
10
883.98435639787635
20
1256.7839146877036
10
783.98435639787692
20
1256.7839146877036
10
783.98435639787692
20
821.78391468770428
10
833.98435639787692
20
821.78391468770428
10
883.98435639787635
20
821.78391468770428
10
883.98435639787635
20
956.78391468770428
10
833.98435639787692
20
956.78391468770428
10
833.98435639787692
20
971.78391468770428
10
883.98435639787635
20
971.78391468770428
0
LINE
5
742
100
AcDbEntity
8
0
100
AcDbLine
10
833.98435639787692
20
1256.7839146877036
30
0
11
883.98435639787635
21
1256.7839146877036
31
0
0
LWPOLYLINE
5
743
100
AcDbEntity
8
0
100
AcDbPolyline
90
13
70
1
43
0.0
10
1013.9843563978764
20
821.78391468770428
10
963.98435639787692
20
821.78391468770428
10
913.98435639787692
20
821.78391468770428
10
913.98435639787692
20
1256.7839146877036
10
1013.9843563978764
20
1256.7839146877036
10
1013.9843563978764
20
1121.7839146877036
10
963.98435639787692
20
1121.7839146877036
10
963.98435639787692
20
1106.7839146877036
10
1013.9843563978764
20
1106.7839146877036
10
1013.9843563978764
20
971.78391468770428
10
963.98435639787692
20
971.78391468770428
10
963.98435639787692
20
956.78391468770428
10
1013.9843563978764
20
956.78391468770428
0
LINE
5
744
100
AcDbEntity
8
0
100
AcDbLine
10
963.98435639787692
20
1256.7839146877036
30
0
11
1013.9843563978764
21
1256.7839146877036
31
0
0
LWPOLYLINE
5
745
100
AcDbEntity
8
0
100
AcDbPolyline
90
13
70
1
43
0.0
10
1143.9843563978764
20
821.78391468770428
10
1093.984356397877
20
821.78391468770428
10
1043.984356397877
20
821.78391468770428
10
1043.984356397877
20
1256.7839146877036
10
1143.9843563978764
20
1256.7839146877036
10
1143.9843563978764
20
1121.7839146877036
10
1093.984356397877
20
1121.7839146877036
10
1093.984356397877
20
1106.7839146877036
10
1143.9843563978764
20
1106.7839146877036
10
1143.9843563978764
20
971.78391468770428
10
1093.984356397877
20
971.78391468770428
10
1093.984356397877
20
956.78391468770428
10
1143.9843563978764
20
956.78391468770428
0
LINE
5
746
100
AcDbEntity
8
0
100
AcDbLine
10
1093.984356397877
20
1256.7839146877036
30
0
11
1143.9843563978764
21
1256.7839146877036
31
0
0
LWPOLYLINE
5
747
100
AcDbEntity
8
0
100
AcDbPolyline
90
13
70
1
43
0.0
10
1273.9843563978764
20
821.78391468770428
10
1223.984356397877
20
821.78391468770428
10
1173.984356397877
20
821.78391468770428
10
1173.984356397877
20
1256.7839146877036
10
1273.9843563978764
20
1256.7839146877036
10
1273.9843563978764
20
1121.7839146877036
10
1223.984356397877
20
1121.7839146877036
10
1223.984356397877
20
1106.7839146877036
10
1273.9843563978764
20
1106.7839146877036
10
1273.9843563978764
20
971.78391468770428
10
1223.984356397877
20
971.78391468770428
10
1223.984356397877
20
956.78391468770428
10
1273.9843563978764
20
956.78391468770428
0
LINE
5
748
100
AcDbEntity
8
0
100
AcDbLine
10
1223.984356397877
20
1256.7839146877036
30
0
11
1273.9843563978764
21
1256.7839146877036
31
0
0
LWPOLYLINE
5
749
100
AcDbEntity
8
0
100
AcDbPolyline
90
13
70
1
43
0.0
10
1403.9843563978764
20
821.78391468770428
10
1353.984356397877
20
821.78391468770428
10
1303.984356397877
20
821.78391468770428
10
1303.984356397877
20
1256.7839146877036
10
1403.9843563978764
20
1256.7839146877036
10
1403.9843563978764
20
1121.7839146877036
10
1353.984356397877
20
1121.7839146877036
10
1353.984356397877
20
1106.7839146877036
10
1403.9843563978764
20
1106.7839146877036
10
1403.9843563978764
20
971.78391468770428
10
1353.984356397877
20
971.78391468770428
10
1353.984356397877
20
956.78391468770428
10
1403.9843563978764
20
956.78391468770428
0
LINE
5
750
100
AcDbEntity
8
0
100
AcDbLine
10
1353.984356397877
20
1256.7839146877036
30
0
11
1403.9843563978764
21
1256.7839146877036
31
0
0
LWPOLYLINE
5
751
100
AcDbEntity
8
0
100
AcDbPolyline
90
13
70
1
43
0.0
10
1533.9843563978764
20
821.78391468770428
10
1483.984356397877
20
821.78391468770428
10
1433.984356397877
20
821.78391468770428
10
1433.984356397877
20
1256.7839146877036
10
1533.9843563978764
20
1256.7839146877036
10
1533.9843563978764
20
1121.7839146877036
10
1483.984356397877
20
1121.7839146877036
10
1483.984356397877
20
1106.7839146877036
10
1533.9843563978764
20
1106.7839146877036
10
1533.9843563978764
20
971.78391468770428
10
1483.984356397877
20
971.78391468770428
10
1483.984356397877
20
956.78391468770428
10
1533.9843563978764
20
956.78391468770428
0
LINE
5
752
100
AcDbEntity
8
0
100
AcDbLine
10
1483.984356397877
20
1256.7839146877036
30
0
11
1533.9843563978764
21
1256.7839146877036
31
0
0
LWPOLYLINE
5
753
100
AcDbEntity
8
0
100
AcDbPolyline
90
13
70
1
43
0.0
10
1663.9843563978764
20
821.78391468770428
10
1613.984356397877
20
821.78391468770428
10
1563.984356397877
20
821.78391468770428
10
1563.984356397877
20
1256.7839146877036
10
1663.9843563978764
20
1256.7839146877036
10
1663.9843563978764
20
1121.7839146877036
10
1613.984356397877
20
1121.7839146877036
10
1613.984356397877
20
1106.7839146877036
10
1663.9843563978764
20
1106.7839146877036
10
1663.9843563978764
20
971.78391468770428
10
1613.984356397877
20
971.78391468770428
10
1613.984356397877
20
956.78391468770428
10
1663.9843563978764
20
956.78391468770428
0
LINE
5
754
100
AcDbEntity
8
0
100
AcDbLine
10
1613.984356397877
20
1256.7839146877036
30
0
11
1663.9843563978764
21
1256.7839146877036
31
0
0
LWPOLYLINE
5
755
100
AcDbEntity
8
0
100
AcDbPolyline
90
13
70
1
43
0.0
10
1793.9843563978764
20
821.78391468770428
10
1743.984356397877
20
821.78391468770428
10
1693.984356397877
20
821.78391468770428
10
1693.984356397877
20
1256.7839146877036
10
1793.9843563978764
20
1256.7839146877036
10
1793.9843563978764
20
1121.7839146877036
10
1743.984356397877
20
1121.7839146877036
10
1743.984356397877
20
1106.7839146877036
10
1793.9843563978764
20
1106.7839146877036
10
1793.9843563978764
20
971.78391468770428
10
1743.984356397877
20
971.78391468770428
10
1743.984356397877
20
956.78391468770428
10
1793.9843563978764
20
956.78391468770428
0
LINE
5
756
100
AcDbEntity
8
0
100
AcDbLine
10
1743.984356397877
20
1256.7839146877036
30
0
11
1793.9843563978764
21
1256.7839146877036
31
0
0
LWPOLYLINE
5
757
100
AcDbEntity
8
0
100
AcDbPolyline
90
13
70
1
43
0.0
10
1923.9843563978764
20
821.78391468770428
10
1873.984356397877
20
821.78391468770428
10
1823.984356397877
20
821.78391468770428
10
1823.984356397877
20
1256.7839146877036
10
1923.9843563978764
20
1256.7839146877036
10
1923.9843563978764
20
1121.7839146877036
10
1873.984356397877
20
1121.7839146877036
10
1873.984356397877
20
1106.7839146877036
10
1923.9843563978764
20
1106.7839146877036
10
1923.9843563978764
20
971.78391468770428
10
1873.984356397877
20
971.78391468770428
10
1873.984356397877
20
956.78391468770428
10
1923.9843563978764
20
956.78391468770428
0
LINE
5
758
100
AcDbEntity
8
0
100
AcDbLine
10
1873.984356397877
20
1256.7839146877036
30
0
11
1923.9843563978764
21
1256.7839146877036
31
0
0
SPLINE
5
759
100
AcDbEntity
8
0
100
AcDbSpline
70
1064
71
5
72
31
73
25
74
0
42
0.000000001
43
0.0000000001
44
0.0000000001
40
0
40
0
40
0
40
0
40
0
40
0
40
0.050000000000000003
40
0.10000000000000001
40
0.15000000000000002
40
0.20000000000000001
40
0.25
40
0.29999999999999999
40
0.34999999999999998
40
0.39999999999999997
40
0.44999999999999996
40
0.49999999999999994
40
0.54999999999999993
40
0.59999999999999998
40
0.65000000000000002
40
0.70000000000000007
40
0.75000000000000011
40
0.80000000000000016
40
0.8500000000000002
40
0.90000000000000024
40
0.95000000000000029
40
1
40
1
40
1
40
1
40
1
40
1
10
1186.1668513293662
20
1855.3457324753231
30
0
10
1186.5723211443119
20
1846.1996118851293
30
0
10
1188.1743507127239
20
1828.1960297487351
30
0
10
1192.9506442302422
20
1802.0566362416114
30
0
10
1204.0850831802759
20
1768.9431142251915
30
0
10
1225.9677125439387
20
1730.5190010261138
30
0
10
1255.6805380289816
20
1695.19793624672
30
0
10
1292.790071678244
20
1663.1953966040232
30
0
10
1336.4272957827156
20
1634.8155838150913
30
0
10
1385.0967746067577
20
1610.4699121689473
30
0
10
1436.8865698761683
20
1590.582781983486
30
0
10
1489.7325774083995
20
1575.476068419513
30
0
10
1541.6516260950832
20
1565.258867237342
30
0
10
1590.9964541604927
20
1559.6987832974605
30
0
10
1636.681862908654
20
1558.1090750583314
30
0
10
1678.4974502216901
20
1559.1678862328913
30
0
10
1716.9211657177673
20
1561.1214069466646
30
0
10
1752.8105520620629
20
1562.0858578619632
30
0
10
1787.1563764077191
20
1560.2983441732454
30
0
10
1820.7943930406227
20
1554.4198107254165
30
0
10
1854.2037749880055
20
1543.7346709874614
30
0
10
1880.9428675403976
20
1531.091558043719
30
0
10
1901.0386874197809
20
1519.280015432578
30
0
10
1914.4543868628386
20
1510.3745101248164
30
0
10
1921.1668513293653
20
1505.6639801687597
30
0
0
LWPOLYLINE
5
760
100
AcDbEntity
8
0
100
AcDbPolyline
90
4
70
1
43
0.0
10
1362.515477433619
20
1508.3096412326227
10
1221.0941211963095
20
1649.7309974699324
10
1208.3661991349513
20
1637.0030754085742
10
1349.7875553722608
20
1495.5817191712645
0
LWPOLYLINE
5
761
100
AcDbEntity
8
0
100
AcDbPolyline
90
4
70
1
43
0.0
10
1262.515477433619
20
1508.3096412326227
10
1121.0941211963095
20
1649.7309974699324
10
1108.3661991349513
20
1637.0030754085742
10
1249.7875553722608
20
1495.5817191712645
0
LWPOLYLINE
5
762
100
AcDbEntity
8
0
100
AcDbPolyline
90
4
70
1
43
0.0
10
1001.4998207385304
20
1600.2926448730559
10
983.49982073853027
20
1600.2926448730559
10
983.49982073853027
20
1500.2926448730559
10
1001.4998207385304
20
1500.2926448730559
0
LWPOLYLINE
5
763
100
AcDbEntity
8
0
100
AcDbPolyline
90
4
70
1
43
0.0
10
933.49982073853027
20
1600.2926448730559
10
933.49982073853027
20
1500.2926448730559
10
951.49982073853039
20
1500.2926448730559
10
951.49982073853039
20
1600.2926448730559
0
LWPOLYLINE
5
764
100
AcDbEntity
8
0
100
AcDbPolyline
90
4
70
1
43
0.0
10
883.49982073853027
20
1600.2926448730559
10
883.49982073853027
20
1500.2926448730559
10
901.49982073853039
20
1500.2926448730559
10
901.49982073853039
20
1600.2926448730559
0
LINE
5
765
100
AcDbEntity
8
0
100
AcDbLine
10
1501.166851329366
20
1405.3457324753235
30
0
11
1501.166851329366
21
1455.3457324753235
31
0
0
LINE
5
766
100
AcDbEntity
8
0
100
AcDbLine
10
1501.166851329366
20
1455.3457324753235
30
0
11
1486.166851329366
21
1455.3457324753235
31
0
0
LINE
5
767
100
AcDbEntity
8
0
100
AcDbLine
10
1486.166851329366
20
1455.3457324753235
30
0
11
1486.166851329366
21
1405.3457324753235
31
0
0
LWPOLYLINE
5
768
100
AcDbEntity
8
0
100
AcDbPolyline
90
4
70
1
43
0.0
10
2154.7465406213732
20
1736.5701030540072
10
2013.325184384064
20
1877.9914592913167
10
2000.5972623227058
20
1865.2635372299585
10
2142.0186185600151
20
1723.842180992649
0
LWPOLYLINE
5
769
100
AcDbEntity
8
0
100
AcDbPolyline
90
4
70
1
43
0.0
10
1900.5972623227062
20
1865.2635372299585
10
2042.0186185600153
20
1723.842180992649
10
2054.7465406213732
20
1736.5701030540072
10
1913.3251843840644
20
1877.9914592913167
0
LINE
5
770
100
AcDbEntity
8
0
100
AcDbLine
10
2061.9458884269579
20
1918.2274459872576
30
0
11
2061.9458884269579
21
1968.2274459872576
31
0
0
LINE
5
771
100
AcDbEntity
8
0
100
AcDbLine
10
1911.9458884269598
20
1918.2274459872576
30
0
11
1911.9458884269598
21
1968.2274459872576
31
0
0
LINE
5
772
100
AcDbEntity
8
0
100
AcDbLine
10
2076.9458884269579
20
1968.2274459872576
30
0
11
2076.9458884269579
21
1918.2274459872576
31
0
0
LINE
5
773
100
AcDbEntity
8
0
100
AcDbLine
10
2076.9458884269579
20
1968.2274459872576
30
0
11
2076.9458884269579
21
1918.2274459872576
31
0
0
LINE
5
774
100
AcDbEntity
8
0
100
AcDbLine
10
2061.9458884269579
20
1968.2274459872576
30
0
11
1926.9458884269591
21
1968.2274459872576
31
0
0
LINE
5
775
100
AcDbEntity
8
0
100
AcDbLine
10
2076.9458884269579
20
1968.2274459872576
30
0
11
2076.9458884269579
21
1918.2274459872576
31
0
0
LINE
5
776
100
AcDbEntity
8
0
100
AcDbLine
10
2061.9458884269579
20
1968.2274459872576
30
0
11
1926.9458884269591
21
1968.2274459872576
31
0
0
LINE
5
777
100
AcDbEntity
8
0
100
AcDbLine
10
2061.9458884269579
20
1918.2274459872576
30
0
11
2061.9458884269579
21
1968.2274459872576
31
0
0
LINE
5
778
100
AcDbEntity
8
0
100
AcDbLine
10
2061.9458884269579
20
1918.2274459872576
30
0
11
2061.9458884269579
21
1968.2274459872576
31
0
0
LINE
5
779
100
AcDbEntity
8
0
100
AcDbLine
10
2061.9458884269579
20
1968.2274459872576
30
0
11
1926.9458884269591
21
1968.2274459872576
31
0
0
LINE
5
780
100
AcDbEntity
8
0
100
AcDbLine
10
2061.9458884269579
20
1918.2274459872576
30
0
11
2061.9458884269579
21
1968.2274459872576
31
0
0
LINE
5
781
100
AcDbEntity
8
0
100
AcDbLine
10
2076.9458884269579
20
1968.2274459872576
30
0
11
2076.9458884269579
21
1918.2274459872576
31
0
0
LINE
5
782
100
AcDbEntity
8
0
100
AcDbLine
10
1926.9458884269591
20
1968.2274459872576
30
0
11
1926.9458884269591
21
1918.2274459872576
31
0
0
LINE
5
783
100
AcDbEntity
8
0
100
AcDbLine
10
1926.9458884269591
20
1968.2274459872576
30
0
11
1926.9458884269591
21
1918.2274459872576
31
0
0
LINE
5
784
100
AcDbEntity
8
0
100
AcDbLine
10
1911.9458884269598
20
1918.2274459872576
30
0
11
1911.9458884269598
21
1968.2274459872576
31
0
0
LINE
5
785
100
AcDbEntity
8
0
100
AcDbLine
10
1926.9458884269591
20
1968.2274459872576
30
0
11
1926.9458884269591
21
1918.2274459872576
31
0
0
LINE
5
786
100
AcDbEntity
8
0
100
AcDbLine
10
2061.9458884269579
20
1968.2274459872576
30
0
11
1926.9458884269591
21
1968.2274459872576
31
0
0
LINE
5
787
100
AcDbEntity
8
0
100
AcDbLine
10
1911.9458884269598
20
1918.2274459872576
30
0
11
1911.9458884269598
21
1968.2274459872576
31
0
0
LINE
5
788
100
AcDbEntity
8
0
100
AcDbLine
10
2076.9458884269579
20
1918.2274459872576
30
0
11
2061.9458884269579
21
1918.2274459872576
31
0
0
LINE
5
789
100
AcDbEntity
8
0
100
AcDbLine
10
1926.9458884269591
20
1918.2274459872576
30
0
11
1911.9458884269598
21
1918.2274459872576
31
0
0
LINE
5
790
100
AcDbEntity
8
0
100
AcDbLine
10
2076.9458884269579
20
1918.2274459872576
30
0
11
2061.9458884269579
21
1918.2274459872576
31
0
0
LINE
5
791
100
AcDbEntity
8
0
100
AcDbLine
10
1926.9458884269591
20
1918.2274459872576
30
0
11
1911.9458884269598
21
1918.2274459872576
31
0
0
LINE
5
792
100
AcDbEntity
8
0
100
AcDbLine
10
1926.9458884269591
20
1918.2274459872576
30
0
11
1911.9458884269598
21
1918.2274459872576
31
0
0
LINE
5
793
100
AcDbEntity
8
0
100
AcDbLine
10
1926.9458884269591
20
1918.2274459872576
30
0
11
1911.9458884269598
21
1918.2274459872576
31
0
0
LINE
5
794
100
AcDbEntity
8
0
100
AcDbLine
10
2076.9458884269579
20
1918.2274459872576
30
0
11
2061.9458884269579
21
1918.2274459872576
31
0
0
LINE
5
795
100
AcDbEntity
8
0
100
AcDbLine
10
1911.9458884269598
20
1918.2274459872576
30
0
11
1911.9458884269598
21
1968.2274459872576
31
0
0
LINE
5
796
100
AcDbEntity
8
0
100
AcDbLine
10
2076.9458884269579
20
1918.2274459872576
30
0
11
2061.9458884269579
21
1918.2274459872576
31
0
0
LINE
5
797
100
AcDbEntity
8
0
100
AcDbLine
10
1926.9458884269591
20
1968.2274459872576
30
0
11
1926.9458884269591
21
1918.2274459872576
31
0
0
LINE
5
798
100
AcDbEntity
8
0
100
AcDbLine
10
2211.9458884269579
20
1968.2274459872576
30
0
11
2076.9458884269579
21
1968.2274459872576
31
0
0
LINE
5
799
100
AcDbEntity
8
0
100
AcDbLine
10
2211.9458884269579
20
1968.2274459872576
30
0
11
2076.9458884269579
21
1968.2274459872576
31
0
0
LINE
5
800
100
AcDbEntity
8
0
100
AcDbLine
10
2211.9458884269579
20
1968.2274459872576
30
0
11
2076.9458884269579
21
1968.2274459872576
31
0
0
LINE
5
801
100
AcDbEntity
8
0
100
AcDbLine
10
2211.9458884269579
20
1968.2274459872576
30
0
11
2076.9458884269579
21
1968.2274459872576
31
0
0
LINE
5
802
100
AcDbEntity
8
0
100
AcDbLine
10
1776.9458884269598
20
1918.2274459872576
30
0
11
1776.9458884269598
21
1968.2274459872576
31
0
0
LINE
5
803
100
AcDbEntity
8
0
100
AcDbLine
10
2226.9458884269579
20
1968.2274459872576
30
0
11
2226.9458884269579
21
1918.2274459872576
31
0
0
LINE
5
804
100
AcDbEntity
8
0
100
AcDbLine
10
2076.9458884269579
20
1468.2274459872588
30
0
11
2211.9458884269579
21
1468.2274459872588
31
0
0
LINE
5
805
100
AcDbEntity
8
0
100
AcDbLine
10
2361.9458884269579
20
1968.2274459872576
30
0
11
2226.9458884269579
21
1968.2274459872576
31
0
0
LINE
5
806
100
AcDbEntity
8
0
100
AcDbLine
10
1761.9458884269598
20
1918.2274459872576
30
0
11
1776.9458884269598
21
1918.2274459872576
31
0
0
LINE
5
807
100
AcDbEntity
8
0
100
AcDbLine
10
1626.9458884269598
20
1968.2274459872576
30
0
11
1761.9458884269598
21
1968.2274459872576
31
0
0
LINE
5
808
100
AcDbEntity
8
0
100
AcDbLine
10
1626.9458884269598
20
1918.2274459872576
30
0
11
1611.9458884269598
21
1918.2274459872576
31
0
0
LINE
5
809
100
AcDbEntity
8
0
100
AcDbLine
10
1476.9458884269598
20
1968.2274459872576
30
0
11
1476.9458884269598
21
1918.2274459872576
31
0
0
LINE
5
810
100
AcDbEntity
8
0
100
AcDbLine
10
2211.9458884269579
20
1918.2274459872576
30
0
11
2211.9458884269579
21
1968.2274459872576
31
0
0
LINE
5
811
100
AcDbEntity
8
0
100
AcDbLine
10
2211.9458884269579
20
1918.2274459872576
30
0
11
2211.9458884269579
21
1968.2274459872576
31
0
0
LINE
5
812
100
AcDbEntity
8
0
100
AcDbLine
10
1476.9458884269598
20
1968.2274459872576
30
0
11
1611.9458884269598
21
1968.2274459872576
31
0
0
LINE
5
813
100
AcDbEntity
8
0
100
AcDbLine
10
2076.9458884269579
20
1518.2274459872588
30
0
11
2076.9458884269579
21
1468.2274459872588
31
0
0
LINE
5
814
100
AcDbEntity
8
0
100
AcDbLine
10
2526.9458884269575
20
1968.2274459872579
30
0
11
2376.9458884269579
21
1968.2274459872576
31
0
0
LINE
5
815
100
AcDbEntity
8
0
100
AcDbLine
10
1761.9458884269598
20
1968.2274459872576
30
0
11
1761.9458884269598
21
1918.2274459872576
31
0
0
LINE
5
816
100
AcDbEntity
8
0
100
AcDbLine
10
2226.9458884269579
20
1918.2274459872576
30
0
11
2211.9458884269579
21
1918.2274459872576
31
0
0
LINE
5
817
100
AcDbEntity
8
0
100
AcDbLine
10
2361.9458884269579
20
1968.2274459872576
30
0
11
2226.9458884269579
21
1968.2274459872576
31
0
0
LINE
5
818
100
AcDbEntity
8
0
100
AcDbLine
10
2211.9458884269579
20
1918.2274459872576
30
0
11
2211.9458884269579
21
1968.2274459872576
31
0
0
LINE
5
819
100
AcDbEntity
8
0
100
AcDbLine
10
2226.9458884269579
20
1968.2274459872576
30
0
11
2226.9458884269579
21
1918.2274459872576
31
0
0
LINE
5
820
100
AcDbEntity
8
0
100
AcDbLine
10
2226.9458884269579
20
1918.2274459872576
30
0
11
2211.9458884269579
21
1918.2274459872576
31
0
0
LINE
5
821
100
AcDbEntity
8
0
100
AcDbLine
10
2376.9458884269579
20
1518.2274459872585
30
0
11
2376.9458884269579
21
1468.2274459872585
31
0
0
LINE
5
822
100
AcDbEntity
8
0
100
AcDbLine
10
2226.9458884269579
20
1918.2274459872576
30
0
11
2211.9458884269579
21
1918.2274459872576
31
0
0
LINE
5
823
100
AcDbEntity
8
0
100
AcDbLine
10
2211.9458884269579
20
1918.2274459872576
30
0
11
2211.9458884269579
21
1968.2274459872576
31
0
0
LINE
5
824
100
AcDbEntity
8
0
100
AcDbLine
10
2526.9458884269575
20
1468.2274459872588
30
0
11
2526.9458884269575
21
1968.2274459872579
31
0
0
LINE
5
825
100
AcDbEntity
8
0
100
AcDbLine
10
1341.9458884269602
20
1867.9091982938214
30
0
11
1341.9458884269602
21
1968.2274459872576
31
0
0
LINE
5
826
100
AcDbEntity
8
0
100
AcDbLine
10
2226.9458884269579
20
1968.2274459872576
30
0
11
2226.9458884269579
21
1918.2274459872576
31
0
0
LINE
5
827
100
AcDbEntity
8
0
100
AcDbLine
10
2076.9458884269579
20
1518.2274459872588
30
0
11
2076.9458884269579
21
1468.2274459872588
31
0
0
LINE
5
828
100
AcDbEntity
8
0
100
AcDbLine
10
1476.9458884269598
20
1918.2274459872576
30
0
11
1461.9458884269598
21
1918.2274459872576
31
0
0
SPLINE
5
829
100
AcDbEntity
8
0
100
AcDbSpline
70
1064
71
5
72
31
73
25
74
0
42
0.000000001
43
0.0000000001
44
0.0000000001
40
0
40
0
40
0
40
0
40
0
40
0
40
0.050000000000000003
40
0.10000000000000001
40
0.15000000000000002
40
0.20000000000000001
40
0.25
40
0.29999999999999999
40
0.34999999999999998
40
0.39999999999999997
40
0.44999999999999996
40
0.49999999999999994
40
0.54999999999999993
40
0.59999999999999998
40
0.65000000000000002
40
0.70000000000000007
40
0.75000000000000011
40
0.80000000000000016
40
0.8500000000000002
40
0.90000000000000024
40
0.95000000000000029
40
1
40
1
40
1
40
1
40
1
40
1
10
2076.9458884269579
20
1518.2274459872588
30
0
10
2076.5404186112719
20
1527.373566576528
30
0
10
2074.9383890415838
20
1545.377148711329
30
0
10
2070.1620955227663
20
1571.5165422168316
30
0
10
2059.0276565721438
20
1604.6300642325218
30
0
10
2037.1450272091574
20
1643.0541774324497
30
0
10
2007.4322017255799
20
1678.3752422136749
30
0
10
1970.3226680779608
20
1710.3777818584135
30
0
10
1926.6854439748167
20
1738.7575946489826
30
0
10
1878.0159651515262
20
1763.1032662960424
30
0
10
1826.2261698822365
20
1782.9903964816422
30
0
10
1773.3801623495956
20
1798.0971100451072
30
0
10
1721.4611136621766
20
1808.3143112263795
30
0
10
1672.1162855959449
20
1813.8743951652591
30
0
10
1626.4308768471133
20
1815.4641034035694
30
0
10
1584.6152895337054
20
1814.4052922285509
30
0
10
1546.1915740376392
20
1812.4517715147842
30
0
10
1510.3021876937291
20
1811.4873205999565
30
0
10
1475.9563633487273
20
1813.2748342894829
30
0
10
1442.318346716529
20
1819.1533677381972
30
0
10
1408.9089647695871
20
1829.8385074767157
30
0
10
1382.1698722170836
20
1842.4816204203305
30
0
10
1362.074052337272
20
1854.2931630309304
30
0
10
1348.6583528937579
20
1863.198668338111
30
0
10
1341.9458884269602
20
1867.9091982938214
30
0
0
LINE
5
830
100
AcDbEntity
8
0
100
AcDbLine
10
2361.9458884269579
20
1968.2274459872576
30
0
11
2226.9458884269579
21
1968.2274459872576
31
0
0
LINE
5
831
100
AcDbEntity
8
0
100
AcDbLine
10
1341.9458884269602
20
1968.2274459872576
30
0
11
1461.9458884269598
21
1968.2274459872576
31
0
0
LINE
5
832
100
AcDbEntity
8
0
100
AcDbLine
10
2361.9458884269579
20
1468.2274459872585
30
0
11
2361.9458884269579
21
1518.2274459872585
31
0
0
LINE
5
833
100
AcDbEntity
8
0
100
AcDbLine
10
2076.9458884269579
20
1518.2274459872588
30
0
11
2076.9458884269579
21
1468.2274459872588
31
0
0
LINE
5
834
100
AcDbEntity
8
0
100
AcDbLine
10
1611.9458884269598
20
1918.2274459872576
30
0
11
1611.9458884269598
21
1968.2274459872576
31
0
0
LINE
5
835
100
AcDbEntity
8
0
100
AcDbLine
10
2361.9458884269579
20
1968.2274459872576
30
0
11
2226.9458884269579
21
1968.2274459872576
31
0
0
LINE
5
836
100
AcDbEntity
8
0
100
AcDbLine
10
1461.9458884269598
20
1918.2274459872576
30
0
11
1461.9458884269598
21
1968.2274459872576
31
0
0
LINE
5
837
100
AcDbEntity
8
0
100
AcDbLine
10
2226.9458884269579
20
1918.2274459872576
30
0
11
2211.9458884269579
21
1918.2274459872576
31
0
0
LINE
5
838
100
AcDbEntity
8
0
100
AcDbLine
10
2226.9458884269579
20
1968.2274459872576
30
0
11
2226.9458884269579
21
1918.2274459872576
31
0
0
LINE
5
839
100
AcDbEntity
8
0
100
AcDbLine
10
2076.9458884269579
20
1518.2274459872588
30
0
11
2076.9458884269579
21
1468.2274459872588
31
0
0
LINE
5
840
100
AcDbEntity
8
0
100
AcDbLine
10
1626.9458884269598
20
1968.2274459872576
30
0
11
1626.9458884269598
21
1918.2274459872576
31
0
0
LINE
5
841
100
AcDbEntity
8
0
100
AcDbLine
10
1911.9458884269598
20
1968.2274459872576
30
0
11
1776.9458884269598
21
1968.2274459872576
31
0
0
LINE
5
842
100
AcDbEntity
8
0
100
AcDbLine
10
2361.9458884269579
20
1468.2274459872585
30
0
11
2361.9458884269579
21
1518.2274459872585
31
0
0
LWPOLYLINE
5
843
100
AcDbEntity
8
0
100
AcDbPolyline
90
4
70
1
43
0.0
10
2311.612919017794
20
1773.2805335895252
10
2329.6129190177944
20
1773.2805335895252
10
2329.6129190177944
20
1873.2805335895252
10
2311.612919017794
20
1873.2805335895252
0
LINE
5
844
100
AcDbEntity
8
0
100
AcDbLine
10
2361.9458884269579
20
1918.2274459872576
30
0
11
2361.9458884269579
21
1968.2274459872576
31
0
0
LINE
5
845
100
AcDbEntity
8
0
100
AcDbLine
10
2361.9458884269579
20
1918.2274459872576
30
0
11
2361.9458884269579
21
1968.2274459872576
31
0
0
LINE
5
846
100
AcDbEntity
8
0
100
AcDbLine
10
2376.9458884269579
20
1518.2274459872585
30
0
11
2376.9458884269579
21
1468.2274459872585
31
0
0
LINE
5
847
100
AcDbEntity
8
0
100
AcDbLine
10
2376.9458884269579
20
1968.2274459872576
30
0
11
2376.9458884269579
21
1918.2274459872576
31
0
0
LINE
5
848
100
AcDbEntity
8
0
100
AcDbLine
10
2376.9458884269579
20
1918.2274459872576
30
0
11
2361.9458884269579
21
1918.2274459872576
31
0
0
LINE
5
849
100
AcDbEntity
8
0
100
AcDbLine
10
2361.9458884269579
20
1468.2274459872585
30
0
11
2361.9458884269579
21
1518.2274459872585
31
0
0
LINE
5
850
100
AcDbEntity
8
0
100
AcDbLine
10
2376.9458884269579
20
1968.2274459872576
30
0
11
2376.9458884269579
21
1918.2274459872576
31
0
0
LINE
5
851
100
AcDbEntity
8
0
100
AcDbLine
10
2376.9458884269579
20
1468.2274459872585
30
0
11
2526.9458884269575
21
1468.2274459872588
31
0
0
LINE
5
852
100
AcDbEntity
8
0
100
AcDbLine
10
2361.9458884269579
20
1918.2274459872576
30
0
11
2361.9458884269579
21
1968.2274459872576
31
0
0
LINE
5
853
100
AcDbEntity
8
0
100
AcDbLine
10
2226.9458884269579
20
1468.2274459872588
30
0
11
2361.9458884269579
21
1468.2274459872585
31
0
0
LINE
5
854
100
AcDbEntity
8
0
100
AcDbLine
10
2376.9458884269579
20
1518.2274459872585
30
0
11
2361.9458884269579
21
1518.2274459872585
31
0
0
LINE
5
855
100
AcDbEntity
8
0
100
AcDbLine
10
2361.9458884269579
20
1468.2274459872585
30
0
11
2361.9458884269579
21
1518.2274459872585
31
0
0
LINE
5
856
100
AcDbEntity
8
0
100
AcDbLine
10
2376.9458884269579
20
1918.2274459872576
30
0
11
2361.9458884269579
21
1918.2274459872576
31
0
0
LINE
5
857
100
AcDbEntity
8
0
100
AcDbLine
10
2226.9458884269579
20
1518.2274459872588
30
0
11
2226.9458884269579
21
1468.2274459872588
31
0
0
LWPOLYLINE
5
858
100
AcDbEntity
8
0
100
AcDbPolyline
90
4
70
1
43
0.0
10
2261.612919017794
20
1773.2805335895252
10
2279.6129190177944
20
1773.2805335895252
10
2279.6129190177944
20
1873.2805335895252
10
2261.612919017794
20
1873.2805335895252
0
LINE
5
859
100
AcDbEntity
8
0
100
AcDbLine
10
2376.9458884269579
20
1518.2274459872585
30
0
11
2376.9458884269579
21
1468.2274459872585
31
0
0
LINE
5
860
100
AcDbEntity
8
0
100
AcDbLine
10
2376.9458884269579
20
1968.2274459872576
30
0
11
2376.9458884269579
21
1918.2274459872576
31
0
0
LINE
5
861
100
AcDbEntity
8
0
100
AcDbLine
10
2376.9458884269579
20
1968.2274459872576
30
0
11
2376.9458884269579
21
1918.2274459872576
31
0
0
LINE
5
862
100
AcDbEntity
8
0
100
AcDbLine
10
2211.9458884269579
20
1468.2274459872588
30
0
11
2211.9458884269579
21
1518.2274459872588
31
0
0
LINE
5
863
100
AcDbEntity
8
0
100
AcDbLine
10
2376.9458884269579
20
1918.2274459872576
30
0
11
2361.9458884269579
21
1918.2274459872576
31
0
0
LINE
5
864
100
AcDbEntity
8
0
100
AcDbLine
10
2376.9458884269579
20
1518.2274459872585
30
0
11
2376.9458884269579
21
1468.2274459872585
31
0
0
LINE
5
865
100
AcDbEntity
8
0
100
AcDbLine
10
2226.9458884269579
20
1518.2274459872588
30
0
11
2211.9458884269579
21
1518.2274459872588
31
0
0
LWPOLYLINE
5
866
100
AcDbEntity
8
0
100
AcDbPolyline
90
4
70
1
43
0.0
10
2361.612919017794
20
1873.2805335895252
10
2361.612919017794
20
1773.2805335895252
10
2379.6129190177944
20
1773.2805335895252
10
2379.6129190177944
20
1873.2805335895252
0
LINE
5
867
100
AcDbEntity
8
0
100
AcDbLine
10
2361.9458884269579
20
1918.2274459872576
30
0
11
2361.9458884269579
21
1968.2274459872576
31
0
0
LINE
5
868
100
AcDbEntity
8
0
100
AcDbLine
10
2376.9458884269579
20
1918.2274459872576
30
0
11
2361.9458884269579
21
1918.2274459872576
31
0
0
LWPOLYLINE
5
869
100
AcDbEntity
8
0
100
AcDbPolyline
90
25
70
1
43
0.0
10
2641.8314488447572
20
382.63358433961128
10
2591.8314488447572
20
382.63358433961128
10
2541.8314488447577
20
382.63358433961128
10
2541.8314488447572
20
247.63358433961122
10
2591.8314488447572
20
247.63358433961122
10
2591.8314488447572
20
232.63358433961122
10
2541.8314488447577
20
232.63358433961122
10
2541.8314488447572
20
97.633584339611446
10
2591.8314488447572
20
97.633584339611303
10
2591.8314488447572
20
82.633584339611303
10
2541.8314488447577
20
82.633584339611446
10
2541.8314488447577
20
-52.366415660388554
10
2541.8314488447577
20
-67.366415660388554
10
2541.8314488447577
20
-202.36641566038827
10
2591.8314488447572
20
-202.36641566038855
10
2591.8314488447572
20
-217.36641566038855
10
2541.8314488447577
20
-217.36641566038827
10
2541.8314488447577
20
-352.36641566038827
10
2591.8314488447572
20
-352.36641566038855
10
2591.8314488447572
20
-367.36641566038855
10
2541.8314488447577
20
-367.36641566038827
10
2541.8314488447572
20
-502.36641566038827
10
2641.8314488447572
20
-502.36641566038827
10
2641.8314488447572
20
-67.366415660388554
10
2641.8314488447572
20
-52.366415660388554
0
LWPOLYLINE
5
870
100
AcDbEntity
8
0
100
AcDbPolyline
90
25
70
1
43
0.0
10
2436.8314488447577
20
97.633584339611303
10
2436.8314488447577
20
82.633584339611303
10
2386.8314488447577
20
82.633584339611446
10
2386.8314488447577
20
-52.366415660388554
10
2386.8314488447577
20
-67.366415660388554
10
2386.8314488447577
20
-202.36641566038827
10
2436.8314488447577
20
-202.36641566038855
10
2436.8314488447577
20
-217.36641566038855
10
2386.8314488447577
20
-217.36641566038827
10
2386.8314488447577
20
-352.36641566038827
10
2436.8314488447577
20
-352.36641566038855
10
2436.8314488447577
20
-367.36641566038855
10
2386.8314488447577
20
-367.36641566038827
10
2386.8314488447577
20
-502.36641566038827
10
2486.8314488447577
20
-502.36641566038827
10
2486.8314488447577
20
-67.366415660388554
10
2486.8314488447577
20
-52.366415660388554
10
2486.8314488447577
20
382.63358433961128
10
2436.8314488447577
20
382.63358433961128
10
2386.8314488447577
20
382.63358433961128
10
2386.8314488447577
20
247.63358433961122
10
2436.8314488447577
20
247.63358433961122
10
2436.8314488447577
20
232.63358433961122
10
2386.8314488447577
20
232.63358433961122
10
2386.8314488447577
20
97.633584339611446
0
LWPOLYLINE
5
871
100
AcDbEntity
8
0
100
AcDbPolyline
90
8
70
1
43
0.0
10
2391.8739154085829
20
429.19860949314909
10
2491.8739154085829
20
429.19860949314909
10
2491.8739154085829
20
484.19860949314904
10
2391.8739154085829
20
484.19860949314904
10
2391.8739154085829
20
464.19860949314904
10
2441.8739154085829
20
464.19860949314904
10
2441.8739154085829
20
449.19860949314909
10
2391.8739154085829
20
449.19860949314909
0
LWPOLYLINE
5
872
100
AcDbEntity
8
0
100
AcDbPolyline
90
4
70
1
43
0.0
10
1241.7099065666755
20
467.27130437646053
10
1241.7099065666755
20
617.27130437646053
10
1259.7099065666753
20
617.27130437646053
10
1259.7099065666753
20
467.27130437646053
0
LWPOLYLINE
5
873
100
AcDbEntity
8
0
100
AcDbPolyline
90
22
70
1
43
0.0
10
1199.7099065666753
20
667.27130437646053
10
1199.7099065666753
20
517.27130437646053
10
1199.7099065666753
20
502.27130437646053
10
1199.7099065666753
20
367.27130437646053
10
1249.7099065666753
20
367.27130437646053
10
1249.7099065666753
20
352.27130437646053
10
1199.7099065666753
20
352.27130437646053
10
1199.7099065666753
20
217.27130437646053
10
1199.7099065666753
20
202.27130437646053
10
1199.7099065666753
20
67.271304376460535
10
1199.7099065666753
20
52.271304376460535
10
1199.7099065666753
20
-82.728695623539465
10
1199.7099065666753
20
-97.728695623539465
10
1199.7099065666753
20
-232.72869562353947
10
1249.7099065666753
20
-232.72869562353947
10
1249.7099065666753
20
-247.72869562353947
10
1199.7099065666753
20
-247.72869562353947
10
1199.7099065666753
20
-382.72869562353947
10
1199.7099065666753
20
-397.72869562353947
10
1199.7099065666753
20
-532.72869562353947
10
1299.7099065666753
20
-532.72869562353947
10
1299.7099065666753
20
667.27130437646053
0
LWPOLYLINE
5
874
100
AcDbEntity
8
0
100
AcDbPolyline
90
4
70
1
43
0.0
10
1257.7099065666755
20
-482.72869562353947
10
1257.7099065666755
20
-332.72869562353947
10
1241.7099065666755
20
-332.72869562353947
10
1241.7099065666755
20
-482.72869562353947
0
LINE
5
875
100
AcDbEntity
8
0
100
AcDbLine
10
1199.7099065666753
20
667.27130437646053
30
0
11
1249.7099065666753
21
667.27130437646053
31
0
0
LWPOLYLINE
5
876
100
AcDbEntity
8
0
100
AcDbPolyline
90
13
70
1
43
0.0
10
1819.7099065666753
20
-382.72869562353947
10
1819.7099065666753
20
-397.72869562353947
10
1769.7099065666753
20
-397.72869562353947
10
1769.7099065666753
20
-532.72869562353947
10
1869.7099065666753
20
-532.72869562353947
10
1869.7099065666753
20
-97.728695623539465
10
1819.7099065666753
20
-97.728695623539465
10
1769.7099065666753
20
-97.728695623539465
10
1769.7099065666753
20
-232.72869562353947
10
1819.7099065666753
20
-232.72869562353947
10
1819.7099065666753
20
-247.72869562353947
10
1769.7099065666753
20
-247.72869562353947
10
1769.7099065666753
20
-382.72869562353947
0
LWPOLYLINE
5
877
100
AcDbEntity
8
0
100
AcDbPolyline
90
14
70
1
43
0.0
10
1819.7099065666753
20
202.27130437646053
10
1769.7099065666753
20
202.27130437646053
10
1769.7099065666753
20
67.271304376460535
10
1819.7099065666753
20
67.271304376460535
10
1819.7099065666753
20
52.271304376460535
10
1769.7099065666753
20
52.271304376460535
10
1769.7099065666753
20
-82.728695623539465
10
1819.7099065666753
20
-82.728695623539465
10
1869.7099065666753
20
-82.728695623539465
10
1869.7099065666753
20
352.27130437646053
10
1819.7099065666753
20
352.27130437646053
10
1769.7099065666753
20
352.27130437646053
10
1769.7099065666753
20
217.27130437646053
10
1819.7099065666753
20
217.27130437646053
0
LINE
5
878
100
AcDbEntity
8
0
100
AcDbLine
10
959.70990656667539
20
217.27130437646053
30
0
11
959.70990656667539
21
202.27130437646053
31
0
0
LWPOLYLINE
5
879
100
AcDbEntity
8
0
100
AcDbPolyline
90
32
70
1
43
0.0
10
759.70990656667539
20
67.271304376460535
10
759.70990656667539
20
202.27130437646053
10
809.70990656667539
20
202.27130437646053
10
809.70990656667539
20
217.27130437646053
10
759.70990656667539
20
217.27130437646053
10
759.70990656667539
20
352.27130437646053
10
809.70990656667539
20
352.27130437646053
10
809.70990656667539
20
367.27130437646053
10
759.70990656667539
20
367.27130437646053
10
759.70990656667539
20
502.27130437646053
10
809.70990656667539
20
502.27130437646053
10
809.70990656667539
20
517.27130437646053
10
759.70990656667539
20
517.27130437646053
10
759.70990656667539
20
667.27130437646053
10
859.70990656667539
20
667.27130437646053
10
859.70990656667539
20
-532.72869562353947
10
759.70990656667539
20
-532.72869562353947
10
759.70990656667539
20
-397.72869562353947
10
809.70990656667539
20
-397.72869562353947
10
809.70990656667539
20
-382.72869562353947
10
759.70990656667539
20
-382.72869562353947
10
759.70990656667539
20
-247.72869562353947
10
809.70990656667539
20
-247.72869562353947
10
809.70990656667539
20
-232.72869562353947
10
759.70990656667539
20
-232.72869562353947
10
759.70990656667539
20
-97.728695623539465
10
809.70990656667539
20
-97.728695623539465
10
809.70990656667539
20
-82.728695623539465
10
759.70990656667539
20
-82.728695623539465
10
759.70990656667539
20
52.271304376460535
10
809.70990656667539
20
52.271304376460535
10
809.70990656667539
20
67.271304376460535
0
LWPOLYLINE
5
880
100
AcDbEntity
8
0
100
AcDbPolyline
90
22
70
1
43
0.0
10
1059.7099065666753
20
-82.728695623539465
10
1059.7099065666753
20
52.271304376460535
10
1059.7099065666753
20
67.271304376460535
10
1059.7099065666753
20
202.27130437646053
10
1059.7099065666753
20
217.27130437646053
10
1059.7099065666753
20
352.27130437646053
10
1109.7099065666753
20
352.27130437646053
10
1109.7099065666753
20
367.27130437646053
10
1059.7099065666753
20
367.27130437646053
10
1059.7099065666753
20
502.27130437646053
10
1059.7099065666753
20
517.27130437646053
10
1059.7099065666753
20
667.27130437646053
10
1159.7099065666753
20
667.27130437646053
10
1159.7099065666753
20
-532.72869562353947
10
1059.7099065666753
20
-532.72869562353947
10
1059.7099065666753
20
-397.72869562353947
10
1059.7099065666753
20
-382.72869562353947
10
1059.7099065666753
20
-247.72869562353947
10
1109.7099065666753
20
-247.72869562353947
10
1109.7099065666753
20
-232.72869562353947
10
1059.7099065666753
20
-232.72869562353947
10
1059.7099065666753
20
-97.728695623539465
0
LINE
5
881
100
AcDbEntity
8
0
100
AcDbLine
10
959.70990656667539
20
52.271304376460535
30
0
11
909.70990656667539
21
52.271304376460535
31
0
0
LINE
5
882
100
AcDbEntity
8
0
100
AcDbLine
10
909.70990656667539
20
367.27130437646053
30
0
11
959.70990656667539
21
367.27130437646053
31
0
0
LINE
5
883
100
AcDbEntity
8
0
100
AcDbLine
10
909.70990656667539
20
52.271304376460535
30
0
11
909.70990656667539
21
-82.728695623539465
31
0
0
LINE
5
884
100
AcDbEntity
8
0
100
AcDbLine
10
909.70990656667539
20
-247.72869562353947
30
0
11
909.70990656667539
21
-382.72869562353947
31
0
0
LINE
5
885
100
AcDbEntity
8
0
100
AcDbLine
10
959.70990656667539
20
67.271304376460535
30
0
11
959.70990656667539
21
52.271304376460535
31
0
0
LINE
5
886
100
AcDbEntity
8
0
100
AcDbLine
10
959.70990656667539
20
517.27130437646053
30
0
11
959.70990656667539
21
502.27130437646053
31
0
0
LINE
5
887
100
AcDbEntity
8
0
100
AcDbLine
10
909.70990656667539
20
517.27130437646053
30
0
11
959.70990656667539
21
517.27130437646053
31
0
0
LINE
5
888
100
AcDbEntity
8
0
100
AcDbLine
10
959.70990656667539
20
367.27130437646053
30
0
11
959.70990656667539
21
352.27130437646053
31
0
0
LINE
5
889
100
AcDbEntity
8
0
100
AcDbLine
10
959.70990656667539
20
-232.72869562353947
30
0
11
959.70990656667539
21
-247.72869562353947
31
0
0
LINE
5
890
100
AcDbEntity
8
0
100
AcDbLine
10
1009.7099065666754
20
667.27130437646053
30
0
11
909.70990656667539
21
667.27130437646053
31
0
0
LINE
5
891
100
AcDbEntity
8
0
100
AcDbLine
10
909.70990656667539
20
-397.72869562353947
30
0
11
909.70990656667539
21
-532.72869562353947
31
0
0
LINE
5
892
100
AcDbEntity
8
0
100
AcDbLine
10
959.70990656667539
20
-397.72869562353947
30
0
11
909.70990656667539
21
-397.72869562353947
31
0
0
LINE
5
893
100
AcDbEntity
8
0
100
AcDbLine
10
909.70990656667539
20
-97.728695623539465
30
0
11
909.70990656667539
21
-232.72869562353947
31
0
0
LINE
5
894
100
AcDbEntity
8
0
100
AcDbLine
10
959.70990656667539
20
-82.728695623539465
30
0
11
959.70990656667539
21
-97.728695623539465
31
0
0
LINE
5
895
100
AcDbEntity
8
0
100
AcDbLine
10
909.70990656667539
20
-382.72869562353947
30
0
11
959.70990656667539
21
-382.72869562353947
31
0
0
LINE
5
896
100
AcDbEntity
8
0
100
AcDbLine
10
909.70990656667539
20
667.27130437646053
30
0
11
959.70990656667539
21
667.27130437646053
31
0
0
LINE
5
897
100
AcDbEntity
8
0
100
AcDbLine
10
909.70990656667539
20
-532.72869562353947
30
0
11
1009.7099065666754
21
-532.72869562353947
31
0
0
LINE
5
898
100
AcDbEntity
8
0
100
AcDbLine
10
959.70990656667539
20
352.27130437646053
30
0
11
909.70990656667539
21
352.27130437646053
31
0
0
LINE
5
899
100
AcDbEntity
8
0
100
AcDbLine
10
959.70990656667539
20
-247.72869562353947
30
0
11
909.70990656667539
21
-247.72869562353947
31
0
0
LINE
5
900
100
AcDbEntity
8
0
100
AcDbLine
10
909.70990656667539
20
352.27130437646053
30
0
11
909.70990656667539
21
217.27130437646053
31
0
0
LINE
5
901
100
AcDbEntity
8
0
100
AcDbLine
10
909.70990656667539
20
667.27130437646053
30
0
11
909.70990656667539
21
517.27130437646053
31
0
0
LINE
5
902
100
AcDbEntity
8
0
100
AcDbLine
10
759.70990656667539
20
667.27130437646053
30
0
11
809.70990656667539
21
667.27130437646053
31
0
0
LINE
5
903
100
AcDbEntity
8
0
100
AcDbLine
10
1009.7099065666754
20
-532.72869562353947
30
0
11
1009.7099065666754
21
667.27130437646053
31
0
0
LINE
5
904
100
AcDbEntity
8
0
100
AcDbLine
10
909.70990656667539
20
217.27130437646053
30
0
11
959.70990656667539
21
217.27130437646053
31
0
0
LINE
5
905
100
AcDbEntity
8
0
100
AcDbLine
10
959.70990656667539
20
-97.728695623539465
30
0
11
909.70990656667539
21
-97.728695623539465
31
0
0
LWPOLYLINE
5
906
100
AcDbEntity
8
0
100
AcDbPolyline
90
4
70
1
43
0.0
10
1117.7099065666755
20
-332.72869562353947
10
1101.7099065666755
20
-332.72869562353947
10
1101.7099065666755
20
-482.72869562353947
10
1117.7099065666755
20
-482.72869562353947
0
LWPOLYLINE
5
907
100
AcDbEntity
8
0
100
AcDbPolyline
90
14
70
1
43
0.0
10
1679.7099065666753
20
217.27130437646053
10
1629.7099065666753
20
217.27130437646053
10
1629.7099065666753
20
352.27130437646053
10
1679.7099065666753
20
352.27130437646053
10
1729.7099065666753
20
352.27130437646053
10
1729.7099065666753
20
-82.728695623539465
10
1679.7099065666753
20
-82.728695623539465
10
1629.7099065666753
20
-82.728695623539465
10
1629.7099065666753
20
52.271304376460535
10
1679.7099065666753
20
52.271304376460535
10
1679.7099065666753
20
67.271304376460535
10
1629.7099065666753
20
67.271304376460535
10
1629.7099065666753
20
202.27130437646053
10
1679.7099065666753
20
202.27130437646053
0
LWPOLYLINE
5
908
100
AcDbEntity
8
0
100
AcDbPolyline
90
17
70
1
43
0.0
10
1629.7099065666753
20
582.27130437646053
10
1679.7099065666753
20
582.27130437646053
10
1679.7099065666753
20
567.27130437646053
10
1629.7099065666753
20
567.27130437646053
10
1629.7099065666753
20
517.27130437646053
10
1679.7099065666753
20
517.27130437646053
10
1679.7099065666753
20
502.27130437646053
10
1629.7099065666753
20
502.27130437646053
10
1629.7099065666753
20
452.27130437646053
10
1679.7099065666753
20
452.27130437646053
10
1679.7099065666753
20
437.27130437646053
10
1629.7099065666753
20
437.27130437646053
10
1629.7099065666753
20
367.27130437646053
10
1679.7099065666753
20
367.27130437646053
10
1729.7099065666753
20
367.27130437646053
10
1729.7099065666753
20
657.27130437646053
10
1629.7099065666753
20
657.27130437646053
0
LWPOLYLINE
5
909
100
AcDbEntity
8
0
100
AcDbPolyline
90
4
70
1
43
0.0
10
1119.7099065666753
20
617.27130437646053
10
1119.7099065666753
20
467.27130437646053
10
1101.7099065666755
20
467.27130437646053
10
1101.7099065666755
20
617.27130437646053
0
LWPOLYLINE
5
910
100
AcDbEntity
8
0
100
AcDbPolyline
90
13
70
1
43
0.0
10
1679.7099065666753
20
-382.72869562353947
10
1629.7099065666753
20
-382.72869562353947
10
1629.7099065666753
20
-247.72869562353947
10
1679.7099065666753
20
-247.72869562353947
10
1679.7099065666753
20
-232.72869562353947
10
1629.7099065666753
20
-232.72869562353947
10
1629.7099065666753
20
-97.728695623539465
10
1679.7099065666753
20
-97.728695623539465
10
1729.7099065666753
20
-97.728695623539465
10
1729.7099065666753
20
-532.72869562353947
10
1629.7099065666753
20
-532.72869562353947
10
1629.7099065666753
20
-397.72869562353947
10
1679.7099065666753
20
-397.72869562353947
0
LINE
5
911
100
AcDbEntity
8
0
100
AcDbLine
10
909.70990656667539
20
502.27130437646053
30
0
11
909.70990656667539
21
367.27130437646053
31
0
0
LINE
5
912
100
AcDbEntity
8
0
100
AcDbLine
10
909.70990656667539
20
202.27130437646053
30
0
11
909.70990656667539
21
67.271304376460535
31
0
0
LINE
5
913
100
AcDbEntity
8
0
100
AcDbLine
10
1059.7099065666753
20
667.27130437646053
30
0
11
1109.7099065666753
21
667.27130437646053
31
0
0
LINE
5
914
100
AcDbEntity
8
0
100
AcDbLine
10
959.70990656667539
20
502.27130437646053
30
0
11
909.70990656667539
21
502.27130437646053
31
0
0
LINE
5
915
100
AcDbEntity
8
0
100
AcDbLine
10
909.70990656667539
20
67.271304376460535
30
0
11
959.70990656667539
21
67.271304376460535
31
0
0
LINE
5
916
100
AcDbEntity
8
0
100
AcDbLine
10
909.70990656667539
20
-82.728695623539465
30
0
11
959.70990656667539
21
-82.728695623539465
31
0
0
LINE
5
917
100
AcDbEntity
8
0
100
AcDbLine
10
909.70990656667539
20
-232.72869562353947
30
0
11
959.70990656667539
21
-232.72869562353947
31
0
0
LINE
5
918
100
AcDbEntity
8
0
100
AcDbLine
10
959.70990656667539
20
202.27130437646053
30
0
11
909.70990656667539
21
202.27130437646053
31
0
0
LINE
5
919
100
AcDbEntity
8
0
100
AcDbLine
10
959.70990656667539
20
-382.72869562353947
30
0
11
959.70990656667539
21
-397.72869562353947
31
0
0
LWPOLYLINE
5
920
100
AcDbEntity
8
0
100
AcDbPolyline
90
14
70
1
43
0.0
10
1909.7099065666753
20
217.27130437646053
10
1959.7099065666753
20
217.27130437646053
10
1959.7099065666753
20
202.27130437646053
10
1909.7099065666753
20
202.27130437646053
10
1909.7099065666753
20
67.271304376460535
10
1959.7099065666753
20
67.271304376460535
10
1959.7099065666753
20
52.271304376460535
10
1909.7099065666753
20
52.271304376460535
10
1909.7099065666753
20
-82.728695623539465
10
1959.7099065666753
20
-82.728695623539465
10
2009.7099065666753
20
-82.728695623539465
10
2009.7099065666753
20
352.27130437646053
10
1959.7099065666753
20
352.27130437646053
10
1909.7099065666753
20
352.27130437646053
0
LWPOLYLINE
5
921
100
AcDbEntity
8
0
100
AcDbPolyline
90
13
70
1
43
0.0
10
2009.7099065666753
20
-97.728695623539465
10
1959.7099065666753
20
-97.728695623539465
10
1909.7099065666753
20
-97.728695623539465
10
1909.7099065666753
20
-232.72869562353947
10
1959.7099065666753
20
-232.72869562353947
10
1959.7099065666753
20
-247.72869562353947
10
1909.7099065666753
20
-247.72869562353947
10
1909.7099065666753
20
-382.72869562353947
10
1959.7099065666753
20
-382.72869562353947
10
1959.7099065666753
20
-397.72869562353947
10
1909.7099065666753
20
-397.72869562353947
10
1909.7099065666753
20
-532.72869562353947
10
2009.7099065666753
20
-532.72869562353947
0
LWPOLYLINE
5
922
100
AcDbEntity
8
0
100
AcDbPolyline
90
17
70
1
43
0.0
10
1819.7099065666753
20
502.27130437646053
10
1769.7099065666753
20
502.27130437646053
10
1769.7099065666753
20
452.27130437646053
10
1819.7099065666753
20
452.27130437646053
10
1819.7099065666753
20
437.27130437646053
10
1769.7099065666753
20
437.27130437646053
10
1769.7099065666753
20
367.27130437646053
10
1819.7099065666753
20
367.27130437646053
10
1869.7099065666753
20
367.27130437646053
10
1869.7099065666753
20
657.27130437646053
10
1769.7099065666753
20
657.27130437646053
10
1769.7099065666753
20
582.27130437646053
10
1819.7099065666753
20
582.27130437646053
10
1819.7099065666753
20
567.27130437646053
10
1769.7099065666753
20
567.27130437646053
10
1769.7099065666753
20
517.27130437646053
10
1819.7099065666753
20
517.27130437646053
0
LWPOLYLINE
5
923
100
AcDbEntity
8
0
100
AcDbPolyline
90
17
70
1
43
0.0
10
1909.7099065666753
20
567.27130437646053
10
1909.7099065666753
20
517.27130437646053
10
1959.7099065666753
20
517.27130437646053
10
1959.7099065666753
20
502.27130437646053
10
1909.7099065666753
20
502.27130437646053
10
1909.7099065666753
20
452.27130437646053
10
1959.7099065666753
20
452.27130437646053
10
1959.7099065666753
20
437.27130437646053
10
1909.7099065666753
20
437.27130437646053
10
1909.7099065666753
20
367.27130437646053
10
1959.7099065666753
20
367.27130437646053
10
2009.7099065666753
20
367.27130437646053
10
2009.7099065666753
20
657.27130437646053
10
1909.7099065666753
20
657.27130437646053
10
1909.7099065666753
20
582.27130437646053
10
1959.7099065666753
20
582.27130437646053
10
1959.7099065666753
20
567.27130437646053
0
LINE
5
924
100
AcDbEntity
8
0
100
AcDbLine
10
1629.7099065666753
20
452.27130437646053
30
0
11
1629.7099065666753
21
502.27130437646053
31
0
0
LWPOLYLINE
5
925
100
AcDbEntity
8
0
100
AcDbPolyline
90
22
70
1
43
0.0
10
1479.7099065666753
20
-247.72869562353947
10
1479.7099065666753
20
-382.72869562353947
10
1479.7099065666753
20
-397.72869562353947
10
1479.7099065666753
20
-532.72869562353947
10
1579.7099065666753
20
-532.72869562353947
10
1579.7099065666753
20
667.27130437646053
10
1479.7099065666753
20
667.27130437646053
10
1479.7099065666753
20
517.27130437646053
10
1479.7099065666753
20
502.27130437646053
10
1479.7099065666753
20
367.27130437646053
10
1529.7099065666753
20
367.27130437646053
10
1529.7099065666753
20
352.27130437646053
10
1479.7099065666753
20
352.27130437646053
10
1479.7099065666753
20
217.27130437646053
10
1479.7099065666753
20
202.27130437646053
10
1479.7099065666753
20
67.271304376460535
10
1479.7099065666753
20
52.271304376460535
10
1479.7099065666753
20
-82.728695623539465
10
1479.7099065666753
20
-97.728695623539465
10
1479.7099065666753
20
-232.72869562353947
10
1529.7099065666753
20
-232.72869562353947
10
1529.7099065666753
20
-247.72869562353947
0
LWPOLYLINE
5
926
100
AcDbEntity
8
0
100
AcDbPolyline
90
22
70
1
43
0.0
10
1339.7099065666753
20
52.271304376460535
10
1339.7099065666753
20
-82.728695623539465
10
1339.7099065666753
20
-97.728695623539465
10
1339.7099065666753
20
-232.72869562353947
10
1389.7099065666753
20
-232.72869562353947
10
1389.7099065666753
20
-247.72869562353947
10
1339.7099065666753
20
-247.72869562353947
10
1339.7099065666753
20
-382.72869562353947
10
1339.7099065666753
20
-397.72869562353947
10
1339.7099065666753
20
-532.72869562353947
10
1439.7099065666753
20
-532.72869562353947
10
1439.7099065666753
20
667.27130437646053
10
1339.7099065666753
20
667.27130437646053
10
1339.7099065666753
20
517.27130437646053
10
1339.7099065666753
20
502.27130437646053
10
1339.7099065666753
20
367.27130437646053
10
1389.7099065666753
20
367.27130437646053
10
1389.7099065666753
20
352.27130437646053
10
1339.7099065666753
20
352.27130437646053
10
1339.7099065666753
20
217.27130437646053
10
1339.7099065666753
20
202.27130437646053
10
1339.7099065666753
20
67.271304376460535
0
LWPOLYLINE
5
927
100
AcDbEntity
8
0
100
AcDbPolyline
90
4
70
1
43
0.0
10
1397.7099065666755
20
-332.72869562353947
10
1381.7099065666753
20
-332.72869562353947
10
1381.7099065666753
20
-482.72869562353947
10
1397.7099065666755
20
-482.72869562353947
0
LWPOLYLINE
5
928
100
AcDbEntity
8
0
100
AcDbPolyline
90
4
70
1
43
0.0
10
1381.7099065666753
20
467.27130437646053
10
1381.7099065666753
20
617.27130437646053
10
1399.7099065666753
20
617.27130437646053
10
1399.7099065666753
20
467.27130437646053
0
LINE
5
929
100
AcDbEntity
8
0
100
AcDbLine
10
1479.7099065666753
20
667.27130437646053
30
0
11
1529.7099065666753
21
667.27130437646053
31
0
0
LWPOLYLINE
5
930
100
AcDbEntity
8
0
100
AcDbPolyline
90
4
70
1
43
0.0
10
1539.7099065666753
20
617.27130437646053
10
1539.7099065666753
20
467.27130437646053
10
1521.7099065666753
20
467.27130437646053
10
1521.7099065666753
20
617.27130437646053
0
LINE
5
931
100
AcDbEntity
8
0
100
AcDbLine
10
1769.7099065666753
20
452.27130437646053
30
0
11
1769.7099065666753
21
502.27130437646053
31
0
0
LINE
5
932
100
AcDbEntity
8
0
100
AcDbLine
10
1339.7099065666753
20
667.27130437646053
30
0
11
1389.7099065666753
21
667.27130437646053
31
0
0
LINE
5
933
100
AcDbEntity
8
0
100
AcDbLine
10
1909.7099065666753
20
452.27130437646053
30
0
11
1909.7099065666753
21
502.27130437646053
31
0
0
LWPOLYLINE
5
934
100
AcDbEntity
8
0
100
AcDbPolyline
90
4
70
1
43
0.0
10
2173.959604118631
20
604.14605233642556
10
2173.959604118631
20
454.1460523364259
10
2155.959604118631
20
454.1460523364259
10
2155.959604118631
20
604.14605233642556
0
LINE
5
935
100
AcDbEntity
8
0
100
AcDbLine
10
909.70990656667539
20
667.27130437646053
30
0
11
959.70990656667539
21
667.27130437646053
31
0
0
LINE
5
936
100
AcDbEntity
8
0
100
AcDbLine
10
2113.803113464759
20
201.01623925909513
30
0
11
2113.803113464759
21
336.0162392590945
31
0
0
LINE
5
937
100
AcDbEntity
8
0
100
AcDbLine
10
959.70990656667539
20
67.271304376460535
30
0
11
959.70990656667539
21
52.271304376460535
31
0
0
LWPOLYLINE
5
938
100
AcDbEntity
8
0
100
AcDbPolyline
90
4
70
1
43
0.0
10
1537.7099065666755
20
-332.72869562353947
10
1521.7099065666753
20
-332.72869562353947
10
1521.7099065666753
20
-482.72869562353947
10
1537.7099065666755
20
-482.72869562353947
0
LINE
5
939
100
AcDbEntity
8
0
100
AcDbLine
10
1009.7099065666754
20
-532.72869562353947
30
0
11
1009.7099065666754
21
667.27130437646053
31
0
0
LINE
5
940
100
AcDbEntity
8
0
100
AcDbLine
10
2113.803113464759
20
51.016239259095784
30
0
11
2113.803113464759
21
186.01623925909513
31
0
0
LINE
5
941
100
AcDbEntity
8
0
100
AcDbLine
10
909.70990656667539
20
52.271304376460535
30
0
11
909.70990656667539
21
-82.728695623539465
31
0
0
LINE
5
942
100
AcDbEntity
8
0
100
AcDbLine
10
909.70990656667539
20
-247.72869562353947
30
0
11
909.70990656667539
21
-382.72869562353947
31
0
0
LINE
5
943
100
AcDbEntity
8
0
100
AcDbLine
10
909.70990656667539
20
-382.72869562353947
30
0
11
959.70990656667539
21
-382.72869562353947
31
0
0
LINE
5
944
100
AcDbEntity
8
0
100
AcDbLine
10
2113.803113464759
20
201.01623925909513
30
0
11
2113.803113464759
21
186.01623925909513
31
0
0
LINE
5
945
100
AcDbEntity
8
0
100
AcDbLine
10
2113.959604118631
20
504.14605233642584
30
0
11
2113.959604118631
21
654.14605233642556
31
0
0
LINE
5
946
100
AcDbEntity
8
0
100
AcDbLine
10
959.70990656667539
20
202.27130437646053
30
0
11
909.70990656667539
21
202.27130437646053
31
0
0
LWPOLYLINE
5
947
100
AcDbEntity
8
0
100
AcDbPolyline
90
4
70
1
43
0.0
10
2171.803113464759
20
101.0162392590955
10
2171.803113464759
20
251.01623925909473
10
2155.8031134647586
20
251.01623925909473
10
2155.8031134647586
20
101.0162392590955
0
LINE
5
948
100
AcDbEntity
8
0
100
AcDbLine
10
2213.803113464759
20
51.016239259095784
30
0
11
2113.803113464759
21
51.016239259095784
31
0
0
LINE
5
949
100
AcDbEntity
8
0
100
AcDbLine
10
959.70990656667539
20
-97.728695623539465
30
0
11
909.70990656667539
21
-97.728695623539465
31
0
0
LINE
5
950
100
AcDbEntity
8
0
100
AcDbLine
10
2113.959604118631
20
504.14605233642584
30
0
11
2113.959604118631
21
489.14605233642584
31
0
0
LINE
5
951
100
AcDbEntity
8
0
100
AcDbLine
10
959.70990656667539
20
-397.72869562353947
30
0
11
909.70990656667539
21
-397.72869562353947
31
0
0
LINE
5
952
100
AcDbEntity
8
0
100
AcDbLine
10
959.70990656667539
20
-82.728695623539465
30
0
11
959.70990656667539
21
-97.728695623539465
31
0
0
LWPOLYLINE
5
953
100
AcDbEntity
8
0
100
AcDbPolyline
90
12
70
1
43
0.0
10
2113.959604118631
20
19.146052336425754
10
2113.959604118631
20
-130.8539476635741
10
2113.959604118631
20
-145.8539476635741
10
2113.959604118631
20
-280.85394766357399
10
2113.959604118631
20
-284.60344358350511
10
2113.959604118631
20
-419.60344358350511
10
2113.959604118631
20
-434.60344358350511
10
2113.959604118631
20
-584.60344358350517
10
2213.959604118631
20
-584.60344358350517
10
2213.8817581021408
20
-284.57751735191437
10
2213.8817581021408
20
-280.87987389516468
10
2213.959604118631
20
19.146052336425754
0
LINE
5
954
100
AcDbEntity
8
0
100
AcDbLine
10
909.70990656667539
20
-82.728695623539465
30
0
11
959.70990656667539
21
-82.728695623539465
31
0
0
LINE
5
955
100
AcDbEntity
8
0
100
AcDbLine
10
909.70990656667539
20
202.27130437646053
30
0
11
909.70990656667539
21
67.271304376460535
31
0
0
LINE
5
956
100
AcDbEntity
8
0
100
AcDbLine
10
959.70990656667539
20
217.27130437646053
30
0
11
959.70990656667539
21
202.27130437646053
31
0
0
LINE
5
957
100
AcDbEntity
8
0
100
AcDbLine
10
959.70990656667539
20
-382.72869562353947
30
0
11
959.70990656667539
21
-397.72869562353947
31
0
0
LINE
5
958
100
AcDbEntity
8
0
100
AcDbLine
10
909.70990656667539
20
-397.72869562353947
30
0
11
909.70990656667539
21
-532.72869562353947
31
0
0
LINE
5
959
100
AcDbEntity
8
0
100
AcDbLine
10
1009.7099065666754
20
667.27130437646053
30
0
11
909.70990656667539
21
667.27130437646053
31
0
0
LINE
5
960
100
AcDbEntity
8
0
100
AcDbLine
10
959.70990656667539
20
517.27130437646053
30
0
11
959.70990656667539
21
502.27130437646053
31
0
0
LINE
5
961
100
AcDbEntity
8
0
100
AcDbLine
10
909.70990656667539
20
517.27130437646053
30
0
11
959.70990656667539
21
517.27130437646053
31
0
0
LINE
5
962
100
AcDbEntity
8
0
100
AcDbLine
10
959.70990656667539
20
52.271304376460535
30
0
11
909.70990656667539
21
52.271304376460535
31
0
0
LINE
5
963
100
AcDbEntity
8
0
100
AcDbLine
10
2113.803113464759
20
351.0162392590945
30
0
11
2163.803113464759
21
351.0162392590945
31
0
0
LINE
5
964
100
AcDbEntity
8
0
100
AcDbLine
10
909.70990656667539
20
667.27130437646053
30
0
11
909.70990656667539
21
517.27130437646053
31
0
0
LINE
5
965
100
AcDbEntity
8
0
100
AcDbLine
10
909.70990656667539
20
-97.728695623539465
30
0
11
909.70990656667539
21
-232.72869562353947
31
0
0
LINE
5
966
100
AcDbEntity
8
0
100
AcDbLine
10
909.70990656667539
20
67.271304376460535
30
0
11
959.70990656667539
21
67.271304376460535
31
0
0
LINE
5
967
100
AcDbEntity
8
0
100
AcDbLine
10
909.70990656667539
20
352.27130437646053
30
0
11
909.70990656667539
21
217.27130437646053
31
0
0
LINE
5
968
100
AcDbEntity
8
0
100
AcDbLine
10
2213.803113464759
20
51.016239259095784
30
0
11
2213.959604118631
21
654.14605233642556
31
0
0
LINE
5
969
100
AcDbEntity
8
0
100
AcDbLine
10
959.70990656667539
20
-232.72869562353947
30
0
11
959.70990656667539
21
-247.72869562353947
31
0
0
LINE
5
970
100
AcDbEntity
8
0
100
AcDbLine
10
909.70990656667539
20
-532.72869562353947
30
0
11
1009.7099065666754
21
-532.72869562353947
31
0
0
LINE
5
971
100
AcDbEntity
8
0
100
AcDbLine
10
909.70990656667539
20
-232.72869562353947
30
0
11
959.70990656667539
21
-232.72869562353947
31
0
0
LINE
5
972
100
AcDbEntity
8
0
100
AcDbLine
10
959.70990656667539
20
-247.72869562353947
30
0
11
909.70990656667539
21
-247.72869562353947
31
0
0
LINE
5
973
100
AcDbEntity
8
0
100
AcDbLine
10
909.70990656667539
20
502.27130437646053
30
0
11
909.70990656667539
21
367.27130437646053
31
0
0
LINE
5
974
100
AcDbEntity
8
0
100
AcDbLine
10
2113.959604118631
20
654.14605233642556
30
0
11
2163.959604118631
21
654.14605233642556
31
0
0
LINE
5
975
100
AcDbEntity
8
0
100
AcDbLine
10
959.70990656667539
20
352.27130437646053
30
0
11
909.70990656667539
21
352.27130437646053
31
0
0
LINE
5
976
100
AcDbEntity
8
0
100
AcDbLine
10
959.70990656667539
20
502.27130437646053
30
0
11
909.70990656667539
21
502.27130437646053
31
0
0
LINE
5
977
100
AcDbEntity
8
0
100
AcDbLine
10
959.70990656667539
20
367.27130437646053
30
0
11
959.70990656667539
21
352.27130437646053
31
0
0
LINE
5
978
100
AcDbEntity
8
0
100
AcDbLine
10
2163.803113464759
20
351.0162392590945
30
0
11
2163.803113464759
21
336.0162392590945
31
0
0
LINE
5
979
100
AcDbEntity
8
0
100
AcDbLine
10
909.70990656667539
20
367.27130437646053
30
0
11
959.70990656667539
21
367.27130437646053
31
0
0
LINE
5
980
100
AcDbEntity
8
0
100
AcDbLine
10
2113.959604118631
20
654.14605233642556
30
0
11
2213.959604118631
21
654.14605233642556
31
0
0
LINE
5
981
100
AcDbEntity
8
0
100
AcDbLine
10
2163.803113464759
20
336.0162392590945
30
0
11
2113.803113464759
21
336.0162392590945
31
0
0
LINE
5
982
100
AcDbEntity
8
0
100
AcDbLine
10
909.70990656667539
20
217.27130437646053
30
0
11
959.70990656667539
21
217.27130437646053
31
0
0
LINE
5
983
100
AcDbEntity
8
0
100
AcDbLine
10
2113.959604118631
20
354.14605233642612
30
0
11
2113.959604118631
21
489.14605233642584
31
0
0
LWPOLYLINE
5
984
100
AcDbEntity
8
0
100
AcDbPolyline
90
12
70
1
43
0.0
10
2338.881749686926
20
-284.54508431678164
10
2338.881749686926
20
-280.9123069302974
10
2338.959604118631
20
19.146052336425754
10
2238.959604118631
20
19.146052336425754
10
2238.959604118631
20
-130.8539476635741
10
2238.959604118631
20
-145.8539476635741
10
2238.959604118631
20
-280.85394766357399
10
2238.959604118631
20
-284.60344358350511
10
2238.959604118631
20
-419.60344358350511
10
2238.959604118631
20
-434.60344358350511
10
2238.959604118631
20
-584.60344358350517
10
2338.959604118631
20
-584.60344358350517
0
LINE
5
985
100
AcDbEntity
8
0
100
AcDbLine
10
2238.803113464759
20
201.01623925909513
30
0
11
2238.803113464759
21
186.01623925909513
31
0
0
LWPOLYLINE
5
986
100
AcDbEntity
8
0
100
AcDbPolyline
90
8
70
1
43
0.0
10
2441.8739154085829
20
624.19860949314898
10
2391.8739154085829
20
624.19860949314898
10
2391.8739154085829
20
644.19860949314909
10
2491.8739154085829
20
644.19860949314909
10
2491.8739154085829
20
589.19860949314898
10
2391.8739154085829
20
589.19860949314898
10
2391.8739154085829
20
609.19860949314898
10
2441.8739154085829
20
609.19860949314898
0
LWPOLYLINE
5
987
100
AcDbEntity
8
0
100
AcDbPolyline
90
4
70
1
43
0.0
10
2280.8031134647586
20
101.0162392590955
10
2296.803113464759
20
101.0162392590955
10
2296.803113464759
20
251.01623925909473
10
2280.8031134647586
20
251.01623925909473
0
LINE
5
988
100
AcDbEntity
8
0
100
AcDbLine
10
2338.803113464759
20
51.016239259095784
30
0
11
2238.803113464759
21
51.016239259095784
31
0
0
LINE
5
989
100
AcDbEntity
8
0
100
AcDbLine
10
2238.959604118631
20
504.14605233642584
30
0
11
2238.959604118631
21
654.14605233642556
31
0
0
LINE
5
990
100
AcDbEntity
8
0
100
AcDbLine
10
2288.803113464759
20
336.0162392590945
30
0
11
2238.803113464759
21
336.0162392590945
31
0
0
LINE
5
991
100
AcDbEntity
8
0
100
AcDbLine
10
2238.959604118631
20
654.14605233642556
30
0
11
2288.959604118631
21
654.14605233642556
31
0
0
LINE
5
992
100
AcDbEntity
8
0
100
AcDbLine
10
2238.803113464759
20
51.016239259095784
30
0
11
2238.803113464759
21
186.01623925909513
31
0
0
LWPOLYLINE
5
993
100
AcDbEntity
8
0
100
AcDbPolyline
90
4
70
1
43
0.0
10
2298.959604118631
20
-30.853947663574246
10
2298.959604118631
20
-180.8539476635741
10
2280.959604118631
20
-180.8539476635741
10
2280.959604118631
20
-30.853947663574246
0
LWPOLYLINE
5
994
100
AcDbEntity
8
0
100
AcDbPolyline
90
4
70
1
43
0.0
10
2280.959604118631
20
604.14605233642556
10
2298.959604118631
20
604.14605233642556
10
2298.959604118631
20
454.1460523364259
10
2280.959604118631
20
454.1460523364259
0
LINE
5
995
100
AcDbEntity
8
0
100
AcDbLine
10
2238.803113464759
20
201.01623925909513
30
0
11
2238.803113464759
21
336.0162392590945
31
0
0
LINE
5
996
100
AcDbEntity
8
0
100
AcDbLine
10
2238.803113464759
20
351.0162392590945
30
0
11
2288.803113464759
21
351.0162392590945
31
0
0
LINE
5
997
100
AcDbEntity
8
0
100
AcDbLine
10
2288.803113464759
20
351.0162392590945
30
0
11
2288.803113464759
21
336.0162392590945
31
0
0
LWPOLYLINE
5
998
100
AcDbEntity
8
0
100
AcDbPolyline
90
8
70
1
43
0.0
10
2491.8739154085829
20
564.19860949314898
10
2391.8739154085829
20
564.19860949314898
10
2391.8739154085829
20
544.19860949314898
10
2441.8739154085829
20
544.19860949314909
10
2441.8739154085829
20
529.19860949314909
10
2391.8739154085829
20
529.19860949314909
10
2391.8739154085829
20
509.19860949314904
10
2491.8739154085829
20
509.19860949314904
0
LINE
5
999
100
AcDbEntity
8
0
100
AcDbLine
10
2113.959604118631
20
19.146052336425754
30
0
11
2163.959604118631
21
19.146052336425754
31
0
0
LWPOLYLINE
5
1000
100
AcDbEntity
8
0
100
AcDbPolyline
90
4
70
1
43
0.0
10
2155.959604118631
20
-180.8539476635741
10
2155.959604118631
20
-30.853947663574246
10
2173.959604118631
20
-30.853947663574246
10
2173.959604118631
20
-180.8539476635741
0
LINE
5
1001
100
AcDbEntity
8
0
100
AcDbLine
10
2238.959604118631
20
654.14605233642556
30
0
11
2338.959604118631
21
654.14605233642556
31
0
0
LINE
5
1002
100
AcDbEntity
8
0
100
AcDbLine
10
2238.959604118631
20
504.14605233642584
30
0
11
2238.959604118631
21
489.14605233642584
31
0
0
LINE
5
1003
100
AcDbEntity
8
0
100
AcDbLine
10
2238.959604118631
20
19.146052336425754
30
0
11
2288.959604118631
21
19.146052336425754
31
0
0
LINE
5
1004
100
AcDbEntity
8
0
100
AcDbLine
10
2238.959604118631
20
354.14605233642612
30
0
11
2238.959604118631
21
489.14605233642584
31
0
0
LINE
5
1005
100
AcDbEntity
8
0
100
AcDbLine
10
2338.803113464759
20
51.016239259095784
30
0
11
2338.959604118631
21
654.14605233642556
31
0
0
LWPOLYLINE
5
1006
100
AcDbEntity
8
0
100
AcDbPolyline
90
8
70
1
43
0.0
10
2546.8739154085829
20
589.19860949314898
10
2646.8739154085829
20
589.19860949314898
10
2646.8739154085829
20
644.19860949314909
10
2546.8739154085829
20
644.19860949314909
10
2546.8739154085829
20
624.19860949314898
10
2596.8739154085829
20
624.19860949314898
10
2596.8739154085829
20
609.19860949314898
10
2546.8739154085829
20
609.19860949314898
0
LWPOLYLINE
5
1007
100
AcDbEntity
8
0
100
AcDbPolyline
90
25
70
1
43
0.0
10
2746.8314488447572
20
232.63358433961122
10
2696.8314488447572
20
232.63358433961122
10
2696.8314488447572
20
97.633584339611446
10
2746.8314488447572
20
97.633584339611303
10
2746.8314488447572
20
82.633584339611303
10
2696.8314488447572
20
82.633584339611446
10
2696.8314488447572
20
-52.366415660388554
10
2696.8314488447572
20
-67.366415660388554
10
2696.8314488447572
20
-202.36641566038827
10
2746.8314488447572
20
-202.36641566038855
10
2746.8314488447572
20
-217.36641566038855
10
2696.8314488447572
20
-217.36641566038827
10
2696.8314488447572
20
-352.36641566038827
10
2746.8314488447572
20
-352.36641566038855
10
2746.8314488447572
20
-367.36641566038855
10
2696.8314488447572
20
-367.36641566038827
10
2696.8314488447572
20
-502.36641566038827
10
2796.8314488447572
20
-502.36641566038827
10
2796.8314488447572
20
-67.366415660388554
10
2796.8314488447572
20
-52.366415660388554
10
2796.8314488447572
20
382.63358433961128
10
2746.8314488447572
20
382.63358433961128
10
2696.8314488447572
20
382.63358433961128
10
2696.8314488447572
20
247.63358433961122
10
2746.8314488447572
20
247.63358433961122
0
LWPOLYLINE
5
1008
100
AcDbEntity
8
0
100
AcDbPolyline
90
8
70
1
43
0.0
10
2546.8739154085829
20
529.19860949314909
10
2546.8739154085829
20
509.19860949314904
10
2646.8739154085829
20
509.19860949314904
10
2646.8739154085829
20
564.19860949314898
10
2546.8739154085829
20
564.19860949314898
10
2546.8739154085829
20
544.19860949314898
10
2596.8739154085829
20
544.19860949314909
10
2596.8739154085829
20
529.19860949314909
0
LWPOLYLINE
5
1009
100
AcDbEntity
8
0
100
AcDbPolyline
90
8
70
1
43
0.0
10
2801.8739154085824
20
644.19860949314909
10
2701.8739154085829
20
644.19860949314909
10
2701.8739154085824
20
624.19860949314898
10
2751.8739154085824
20
624.19860949314898
10
2751.8739154085824
20
609.19860949314898
10
2701.8739154085829
20
609.19860949314898
10
2701.8739154085824
20
589.19860949314898
10
2801.8739154085824
20
589.19860949314898
0
LWPOLYLINE
5
1010
100
AcDbEntity
8
0
100
AcDbPolyline
90
8
70
1
43
0.0
10
2701.8739154085824
20
484.19860949314904
10
2801.8739154085824
20
484.19860949314904
10
2801.8739154085824
20
429.19860949314909
10
2701.8739154085829
20
429.19860949314909
10
2701.8739154085824
20
449.19860949314909
10
2751.8739154085824
20
449.19860949314909
10
2751.8739154085824
20
464.19860949314904
10
2701.8739154085829
20
464.19860949314904
0
LWPOLYLINE
5
1011
100
AcDbEntity
8
0
100
AcDbPolyline
90
8
70
1
43
0.0
10
2596.8739154085829
20
464.19860949314904
10
2546.8739154085829
20
464.19860949314904
10
2546.8739154085829
20
484.19860949314904
10
2646.8739154085829
20
484.19860949314904
10
2646.8739154085829
20
429.19860949314909
10
2546.8739154085829
20
429.19860949314909
10
2546.8739154085829
20
449.19860949314909
10
2596.8739154085829
20
449.19860949314909
0
LWPOLYLINE
5
1012
100
AcDbEntity
8
0
100
AcDbPolyline
90
8
70
1
43
0.0
10
2701.8739154085824
20
509.19860949314904
10
2801.8739154085824
20
509.19860949314904
10
2801.8739154085824
20
564.19860949314898
10
2701.8739154085829
20
564.19860949314898
10
2701.8739154085824
20
544.19860949314898
10
2751.8739154085824
20
544.19860949314898
10
2751.8739154085824
20
529.19860949314909
10
2701.8739154085829
20
529.19860949314909
0
LINE
5
1013
100
AcDbEntity
8
0
100
AcDbLine
10
2113.959604118631
20
-584.60344358350517
30
0
11
2163.959604118631
21
-584.60344358350517
31
0
0
LWPOLYLINE
5
1014
100
AcDbEntity
8
0
100
AcDbPolyline
90
4
70
1
43
0.0
10
2173.959604118631
20
-534.60344358350517
10
2173.959604118631
20
-384.60344358350511
10
2155.959604118631
20
-384.60344358350511
10
2155.959604118631
20
-534.60344358350517
0
LWPOLYLINE
5
1015
100
AcDbEntity
8
0
100
AcDbPolyline
90
4
70
1
43
0.0
10
2298.959604118631
20
-534.60344358350517
10
2298.959604118631
20
-384.60344358350511
10
2280.959604118631
20
-384.60344358350511
10
2280.959604118631
20
-534.60344358350517
0
LINE
5
1016
100
AcDbEntity
8
0
100
AcDbLine
10
2238.959604118631
20
-584.60344358350517
30
0
11
2288.959604118631
21
-584.60344358350517
31
0
0
LWPOLYLINE
5
1017
100
AcDbEntity
8
0
100
AcDbPolyline
90
17
70
1
43
0.0
10
2896.1914769335008
20
-589.08672265959456
10
2896.1914769335008
20
-454.08672265959467
10
2946.1914769335008
20
-454.08672265959467
10
2946.1914769335008
20
-439.08672265959467
10
2896.1914769335008
20
-439.08672265959467
10
2896.1914769335008
20
-304.08672265959473
10
2946.1914769335008
20
-304.08672265959473
10
2946.1914769335008
20
-289.08672265959473
10
2896.1914769335008
20
-289.08672265959473
10
2896.1914769335008
20
-154.08672265959481
10
2946.1914769335008
20
-154.08672265959481
10
2946.1914769335008
20
-139.08672265959484
10
2896.1914769335008
20
-139.08672265959484
10
2896.1914769335008
20
-4.0867226595949191
10
2946.1914769335008
20
-4.0867226595949191
10
2996.1914769335008
20
-4.0867226595949546
10
2996.1914769335008
20
-589.08672265959456
0
LWPOLYLINE
5
1018
100
AcDbEntity
8
0
100
AcDbPolyline
90
17
70
1
43
0.0
10
3165.07727089017
20
-444.96648124473319
10
3165.07727089017
20
-429.96648124473319
10
3115.07727089017
20
-429.96648124473319
10
3115.07727089017
20
-294.96648124473319
10
3165.07727089017
20
-294.96648124473319
10
3165.07727089017
20
-279.96648124473325
10
3115.07727089017
20
-279.96648124473325
10
3115.07727089017
20
-144.96648124473339
10
3165.07727089017
20
-144.96648124473339
10
3165.07727089017
20
-129.96648124473342
10
3115.07727089017
20
-129.96648124473342
10
3115.07727089017
20
5.0335187552664573
10
3165.07727089017
20
5.0335187552664573
10
3215.07727089017
20
5.0335187552664706
10
3215.07727089017
20
-579.9664812447329
10
3115.07727089017
20
-579.9664812447329
10
3115.07727089017
20
-444.96648124473319
0
LINE
5
1019
100
AcDbEntity
8
0
100
AcDbLine
10
640
20
1692.2194739114709
30
0
11
640
21
1812.2194739114709
31
0
0
LINE
5
1020
100
AcDbEntity
8
0
100
AcDbLine
10
540
20
1602.2194739114709
30
0
11
590
21
1602.2194739114709
31
0
0
LINE
5
1021
100
AcDbEntity
8
0
100
AcDbLine
10
540
20
1542.2194739114709
30
0
11
640
21
1542.2194739114709
31
0
0
LINE
5
1022
100
AcDbEntity
8
0
100
AcDbLine
10
540
20
2367.2194739114711
30
0
11
540
21
1602.2194739114709
31
0
0
LINE
5
1023
100
AcDbEntity
8
0
100
AcDbLine
10
590
20
1677.2194739114709
30
0
11
640
21
1677.2194739114709
31
0
0
LINE
5
1024
100
AcDbEntity
8
0
100
AcDbLine
10
590
20
1692.2194739114709
30
0
11
640
21
1692.2194739114709
31
0
0
LINE
5
1025
100
AcDbEntity
8
0
100
AcDbLine
10
540
20
1587.2194739114709
30
0
11
590
21
1587.2194739114709
31
0
0
LINE
5
1026
100
AcDbEntity
8
0
100
AcDbLine
10
590
20
1827.2194739114709
30
0
11
590
21
1842.2194739114709
31
0
0
LINE
5
1027
100
AcDbEntity
8
0
100
AcDbLine
10
540
20
1587.2194739114709
30
0
11
540
21
1542.2194739114709
31
0
0
LINE
5
1028
100
AcDbEntity
8
0
100
AcDbLine
10
590
20
1977.2194739114709
30
0
11
640
21
1977.2194739114709
31
0
0
LINE
5
1029
100
AcDbEntity
8
0
100
AcDbLine
10
640
20
1542.2194739114709
30
0
11
640
21
1677.2194739114709
31
0
0
LINE
5
1030
100
AcDbEntity
8
0
100
AcDbLine
10
640
20
1842.2194739114709
30
0
11
640
21
1977.2194739114709
31
0
0
LINE
5
1031
100
AcDbEntity
8
0
100
AcDbLine
10
590
20
1992.2194739114709
30
0
11
640
21
1992.2194739114709
31
0
0
LINE
5
1032
100
AcDbEntity
8
0
100
AcDbLine
10
640
20
1692.2194739114709
30
0
11
640
21
1827.2194739114709
31
0
0
LINE
5
1033
100
AcDbEntity
8
0
100
AcDbLine
10
590
20
1602.2194739114709
30
0
11
590
21
1587.2194739114709
31
0
0
LINE
5
1034
100
AcDbEntity
8
0
100
AcDbLine
10
590
20
1977.2194739114709
30
0
11
590
21
1992.2194739114709
31
0
0
LINE
5
1035
100
AcDbEntity
8
0
100
AcDbLine
10
590
20
2142.2194739114711
30
0
11
640
21
2142.2194739114711
31
0
0
LINE
5
1036
100
AcDbEntity
8
0
100
AcDbLine
10
590
20
2127.2194739114711
30
0
11
590
21
2142.2194739114711
31
0
0
LINE
5
1037
100
AcDbEntity
8
0
100
AcDbLine
10
590
20
2292.2194739114711
30
0
11
640
21
2292.2194739114711
31
0
0
LINE
5
1038
100
AcDbEntity
8
0
100
AcDbLine
10
590
20
2277.2194739114711
30
0
11
640
21
2277.2194739114711
31
0
0
LINE
5
1039
100
AcDbEntity
8
0
100
AcDbLine
10
590
20
2127.2194739114711
30
0
11
640
21
2127.2194739114711
31
0
0
LINE
5
1040
100
AcDbEntity
8
0
100
AcDbLine
10
590
20
2427.2194739114711
30
0
11
640
21
2427.2194739114711
31
0
0
LINE
5
1041
100
AcDbEntity
8
0
100
AcDbLine
10
640
20
2427.2194739114711
30
0
11
540
21
2427.2194739114711
31
0
0
LINE
5
1042
100
AcDbEntity
8
0
100
AcDbLine
10
640
20
2292.2194739114711
30
0
11
640
21
2427.2194739114711
31
0
0
LINE
5
1043
100
AcDbEntity
8
0
100
AcDbLine
10
590
20
2382.2194739114711
30
0
11
540
21
2382.2194739114711
31
0
0
LINE
5
1044
100
AcDbEntity
8
0
100
AcDbLine
10
590
20
2382.2194739114711
30
0
11
590
21
2367.2194739114711
31
0
0
LINE
5
1045
100
AcDbEntity
8
0
100
AcDbLine
10
590
20
2367.2194739114711
30
0
11
540
21
2367.2194739114711
31
0
0
LINE
5
1046
100
AcDbEntity
8
0
100
AcDbLine
10
540
20
2427.2194739114711
30
0
11
540
21
2382.2194739114711
31
0
0
LINE
5
1047
100
AcDbEntity
8
0
100
AcDbLine
10
640
20
1812.2194739114709
30
0
11
640
21
1692.2194739114709
31
0
0
LINE
5
1048
100
AcDbEntity
8
0
100
AcDbLine
10
590
20
1842.2194739114709
30
0
11
640
21
1842.2194739114709
31
0
0
LINE
5
1049
100
AcDbEntity
8
0
100
AcDbLine
10
590
20
1827.2194739114709
30
0
11
640
21
1827.2194739114709
31
0
0
LINE
5
1050
100
AcDbEntity
8
0
100
AcDbLine
10
590
20
1677.2194739114709
30
0
11
590
21
1692.2194739114709
31
0
0
LINE
5
1051
100
AcDbEntity
8
0
100
AcDbLine
10
640
20
1992.2194739114709
30
0
11
640
21
2127.2194739114711
31
0
0
LINE
5
1052
100
AcDbEntity
8
0
100
AcDbLine
10
590
20
2277.2194739114711
30
0
11
590
21
2292.2194739114711
31
0
0
LINE
5
1053
100
AcDbEntity
8
0
100
AcDbLine
10
640
20
2142.2194739114711
30
0
11
640
21
2277.2194739114711
31
0
0
ENDSEC
0
SECTION
2
OBJECTS
0
DICTIONARY
5
C
100
AcDbDictionary
3
ACAD_GROUP
350
D
3
ACAD_MLINESTYLE
350
17
0
DICTIONARY
5
D
100
AcDbDictionary
0
DICTIONARY
5
1A
330
C
100
AcDbDictionary
0
DICTIONARY
5
17
100
AcDbDictionary
0
ENDSEC
0
EOF
