  0
SECTION
  2
BLOCKS
  0
ENDSEC
  0
SECTION
  2
ENTITIES
  0
LINE
  8
0
 10
1000
 20
200
 11
0
 21
200
  0
LINE
  8
0
 10
0
 20
200
 11
0
 21
0
  0
LINE
  8
0
 10
0
 20
0
 11
1000
 21
0
  0
LINE
  8
0
 10
1000
 20
0
 11
1000
 21
200
  0
LINE
  8
0
 10
100
 20
130
 11
100
 21
180
  0
LINE
  8
0
 10
100
 20
180
 11
110.2
 21
180
  0
LINE
  8
0
 10
110.2
 20
180
 11
110.2
 21
130
  0
LINE
  8
0
 10
110.2
 20
130
 11
100
 21
130
  0
LINE
  8
0
 10
889.8
 20
130
 11
889.8
 21
180
  0
LINE
  8
0
 10
889.8
 20
180
 11
900
 21
180
  0
LINE
  8
0
 10
900
 20
180
 11
900
 21
130
  0
LINE
  8
0
 10
900
 20
130
 11
889.8
 21
130
  0
LINE
  8
0
 10
383.333
 20
130
 11
383.333
 21
180
  0
LINE
  8
0
 10
383.333
 20
180
 11
393.533
 21
180
  0
LINE
  8
0
 10
393.533
 20
180
 11
393.533
 21
130
  0
LINE
  8
0
 10
393.533
 20
130
 11
383.333
 21
130
  0
LINE
  8
0
 10
616.667
 20
130
 11
616.667
 21
180
  0
LINE
  8
0
 10
616.667
 20
180
 11
626.867
 21
180
  0
LINE
  8
0
 10
626.867
 20
180
 11
626.867
 21
130
  0
LINE
  8
0
 10
626.867
 20
130
 11
616.667
 21
130
  0
LINE
  8
0
 10
100
 20
20
 11
100
 21
70
  0
LINE
  8
0
 10
100
 20
70
 11
110.2
 21
70
  0
LINE
  8
0
 10
110.2
 20
70
 11
110.2
 21
20
  0
LINE
  8
0
 10
110.2
 20
20
 11
100
 21
20
  0
LINE
  8
0
 10
889.8
 20
20
 11
889.8
 21
70
  0
LINE
  8
0
 10
889.8
 20
70
 11
900
 21
70
  0
LINE
  8
0
 10
900
 20
70
 11
900
 21
20
  0
LINE
  8
0
 10
900
 20
20
 11
889.8
 21
20
  0
LINE
  8
0
 10
383.333
 20
20
 11
383.333
 21
70
  0
LINE
  8
0
 10
383.333
 20
70
 11
393.533
 21
70
  0
LINE
  8
0
 10
393.533
 20
70
 11
393.533
 21
20
  0
LINE
  8
0
 10
393.533
 20
20
 11
383.333
 21
20
  0
LINE
  8
0
 10
616.667
 20
20
 11
616.667
 21
70
  0
LINE
  8
0
 10
616.667
 20
70
 11
626.867
 21
70
  0
LINE
  8
0
 10
626.867
 20
70
 11
626.867
 21
20
  0
LINE
  8
0
 10
626.867
 20
20
 11
616.667
 21
20
  0
ENDSEC
  0
SECTION
  2
OBJECTS
  0
DICTIONARY
  0
ENDSEC
  0
EOF
