  0
SECTION
  2
BLOCKS
  0
ENDSEC
  0
SECTION
  2
ENTITIES
  0
LINE
  8
0
 10
1000
 20
200
 11
0
 21
200
  0
LINE
  8
0
 10
0
 20
200
 11
0
 21
0
  0
LINE
  8
0
 10
0
 20
0
 11
1000
 21
0
  0
LINE
  8
0
 10
1000
 20
0
 11
1000
 21
200
  0
LINE
  8
0
 10
50
 20
130
 11
50
 21
180
  0
LINE
  8
0
 10
50
 20
180
 11
60.2
 21
180
  0
LINE
  8
0
 10
60.2
 20
180
 11
60.2
 21
130
  0
LINE
  8
0
 10
60.2
 20
130
 11
50
 21
130
  0
LINE
  8
0
 10
939.8
 20
130
 11
939.8
 21
180
  0
LINE
  8
0
 10
939.8
 20
180
 11
950
 21
180
  0
LINE
  8
0
 10
950
 20
180
 11
950
 21
130
  0
LINE
  8
0
 10
950
 20
130
 11
939.8
 21
130
  0
LINE
  8
0
 10
333.333
 20
130
 11
333.333
 21
180
  0
LINE
  8
0
 10
333.333
 20
180
 11
343.533
 21
180
  0
LINE
  8
0
 10
343.533
 20
180
 11
343.533
 21
130
  0
LINE
  8
0
 10
343.533
 20
130
 11
333.333
 21
130
  0
LINE
  8
0
 10
666.667
 20
130
 11
666.667
 21
180
  0
LINE
  8
0
 10
666.667
 20
180
 11
676.867
 21
180
  0
LINE
  8
0
 10
676.867
 20
180
 11
676.867
 21
130
  0
LINE
  8
0
 10
676.867
 20
130
 11
666.667
 21
130
  0
LINE
  8
0
 10
50
 20
20
 11
50
 21
70
  0
LINE
  8
0
 10
50
 20
70
 11
60.2
 21
70
  0
LINE
  8
0
 10
60.2
 20
70
 11
60.2
 21
20
  0
LINE
  8
0
 10
60.2
 20
20
 11
50
 21
20
  0
LINE
  8
0
 10
939.8
 20
20
 11
939.8
 21
70
  0
LINE
  8
0
 10
939.8
 20
70
 11
950
 21
70
  0
LINE
  8
0
 10
950
 20
70
 11
950
 21
20
  0
LINE
  8
0
 10
950
 20
20
 11
939.8
 21
20
  0
LINE
  8
0
 10
333.333
 20
20
 11
333.333
 21
70
  0
LINE
  8
0
 10
333.333
 20
70
 11
343.533
 21
70
  0
LINE
  8
0
 10
343.533
 20
70
 11
343.533
 21
20
  0
LINE
  8
0
 10
343.533
 20
20
 11
333.333
 21
20
  0
LINE
  8
0
 10
666.667
 20
20
 11
666.667
 21
70
  0
LINE
  8
0
 10
666.667
 20
70
 11
676.867
 21
70
  0
LINE
  8
0
 10
676.867
 20
70
 11
676.867
 21
20
  0
LINE
  8
0
 10
676.867
 20
20
 11
666.667
 21
20
  0
ENDSEC
  0
SECTION
  2
OBJECTS
  0
DICTIONARY
  0
ENDSEC
  0
EOF
