0
SECTION
2
HEADER
9
$INSUNITS
70
4
9
$ACADVER
1
AC1014
9
$HANDSEED
5
FFFF
0
ENDSEC
0
SECTION
2
TABLES
0
TABLE
2
VPORT
5
8
100
AcDbSymbolTable
0
ENDTAB
0
TABLE
2
LTYPE
5
5
100
AcDbSymbolTable
0
LTYPE
5
14
100
AcDbSymbolTableRecord
100
AcDbLinetypeTableRecord
2
BYBLOCK
70
0
0
LTYPE
5
15
100
AcDbSymbolTableRecord
100
AcDbLinetypeTableRecord
2
BYLAYER
70
0
0
ENDTAB
0
TABLE
2
LAYER
5
2
100
AcDbSymbolTable
70
2
0
LAYER
5
50
100
AcDbSymbolTableRecord
100
AcDbLayerTableRecord
2
0
70
0
6
CONTINUOUS
0
ENDTAB
0
TABLE
2
STYLE
5
3
100
AcDbSymbolTable
70
1
0
STYLE
5
11
100
AcDbSymbolTableRecord
100
AcDbTextStyleTableRecord
2
STANDARD
70
0
0
ENDTAB
0
TABLE
2
VIEW
5
6
100
AcDbSymbolTable
70
0
0
ENDTAB
0
TABLE
2
UCS
5
7
100
AcDbSymbolTable
70
0
0
ENDTAB
0
TABLE
2
APPID
5
9
100
AcDbSymbolTable
70
2
0
APPID
5
12
100
AcDbSymbolTableRecord
100
AcDbRegAppTableRecord
2
ACAD
70
0
0
ENDTAB
0
TABLE
2
DIMSTYLE
5
A
100
AcDbSymbolTable
70
1
0
ENDTAB
0
TABLE
2
BLOCK_RECORD
5
1
100
AcDbSymbolTable
70
1
0
BLOCK_RECORD
5
1F
100
AcDbSymbolTableRecord
100
AcDbBlockTableRecord
2
*MODEL_SPACE
0
BLOCK_RECORD
5
1B
100
AcDbSymbolTableRecord
100
AcDbBlockTableRecord
2
*PAPER_SPACE
0
ENDTAB
0
ENDSEC
0
SECTION
2
BLOCKS
0
BLOCK
5
20
100
AcDbEntity
100
AcDbBlockBegin
2
*MODEL_SPACE
0
ENDBLK
5
21
100
AcDbEntity
100
AcDbBlockEnd
0
BLOCK
5
1C
100
AcDbEntity
100
AcDbBlockBegin
2
*PAPER_SPACE
0
ENDBLK
5
1D
100
AcDbEntity
100
AcDbBlockEnd
0
ENDSEC
0
SECTION
2
ENTITIES
0
CIRCLE
5
100
100
AcDbEntity
8
0
100
AcDbCircle
10
0
20
0
30
0
40
175
0
LINE
5
101
100
AcDbEntity
8
0
100
AcDbLine
10
5.0999999999999925
20
79.99499999999999
30
0
11
-5.1000000000000174
21
79.99499999999999
31
0
0
LINE
5
102
100
AcDbEntity
8
0
100
AcDbLine
10
-5.1000000000000174
20
79.99499999999999
30
0
11
-5.0999999999999996
21
119.99499999999999
31
0
0
LINE
5
103
100
AcDbEntity
8
0
100
AcDbLine
10
-5.0999999999999996
20
119.99499999999999
30
0
11
5.0999999999999996
21
119.99499999999999
31
0
0
LINE
5
104
100
AcDbEntity
8
0
100
AcDbLine
10
5.0999999999999996
20
119.99499999999999
30
0
11
5.0999999999999925
21
79.99499999999999
31
0
0
LINE
5
105
100
AcDbEntity
8
0
100
AcDbLine
10
5.0999999999999925
20
79.99499999999999
30
0
11
-5.0999999999999996
21
119.99499999999999
31
0
0
LINE
5
106
100
AcDbEntity
8
0
100
AcDbLine
10
-5.1000000000000174
20
79.99499999999999
30
0
11
5.0999999999999996
21
119.99499999999999
31
0
0
LINE
5
107
100
AcDbEntity
8
0
100
AcDbLine
10
0
20
0
30
0
11
0
21
175
31
0
0
LINE
5
108
100
AcDbEntity
8
0
100
AcDbLine
10
-77.655752692343043
20
19.869426231918613
30
0
11
-112.54604000152472
21
41.930882473127099
31
0
0
LINE
5
109
100
AcDbEntity
8
0
100
AcDbLine
10
-112.54604000152472
20
41.930882473127099
30
0
11
-74.50377934971857
21
29.570202698129187
31
0
0
LINE
5
110
100
AcDbEntity
8
0
100
AcDbLine
10
-74.50377934971857
20
29.570202698129187
30
0
11
-77.655752692343043
21
19.869426231918613
31
0
0
LINE
5
111
100
AcDbEntity
8
0
100
AcDbLine
10
-77.655752692343043
20
19.869426231918613
30
0
11
-115.69801334414919
21
32.230106006916543
31
0
0
LINE
5
112
100
AcDbEntity
8
0
100
AcDbLine
10
-115.69801334414919
20
32.230106006916543
30
0
11
-112.54604000152472
21
41.930882473127099
31
0
0
LINE
5
113
100
AcDbEntity
8
0
100
AcDbLine
10
-74.50377934971857
20
29.570202698129187
30
0
11
-115.69801334414919
21
32.230106006916543
31
0
0
LINE
5
114
100
AcDbEntity
8
0
100
AcDbLine
10
-42.893894585824157
20
-67.715019251715518
30
0
11
-74.657278020147558
21
-94.080289453330181
31
0
0
LINE
5
115
100
AcDbEntity
8
0
100
AcDbLine
10
-74.657278020147558
20
-94.080289453330181
30
0
11
-51.145867928448638
21
-61.719609678332297
31
0
0
LINE
5
116
100
AcDbEntity
8
0
100
AcDbLine
10
-51.145867928448638
20
-61.719609678332297
30
0
11
-42.893894585824157
21
-67.715019251715518
31
0
0
LINE
5
117
100
AcDbEntity
8
0
100
AcDbLine
10
-42.893894585824157
20
-67.715019251715518
30
0
11
-66.405304677523105
21
-100.07569902671341
31
0
0
LINE
5
118
100
AcDbEntity
8
0
100
AcDbLine
10
-66.405304677523105
20
-100.07569902671341
30
0
11
-74.657278020147558
21
-94.080289453330181
31
0
0
LINE
5
119
100
AcDbEntity
8
0
100
AcDbLine
10
-51.145867928448638
20
-61.719609678332297
30
0
11
-66.405304677523105
21
-100.07569902671341
31
0
0
LINE
5
120
100
AcDbEntity
8
0
100
AcDbLine
10
51.145867928448624
20
-61.719609678332283
30
0
11
66.405304677523077
21
-100.07569902671344
31
0
0
LINE
5
121
100
AcDbEntity
8
0
100
AcDbLine
10
66.405304677523077
20
-100.07569902671344
30
0
11
42.893894585824142
21
-67.715019251715518
31
0
0
LINE
5
122
100
AcDbEntity
8
0
100
AcDbLine
10
42.893894585824142
20
-67.715019251715518
30
0
11
51.145867928448624
21
-61.719609678332283
31
0
0
LINE
5
123
100
AcDbEntity
8
0
100
AcDbLine
10
51.145867928448624
20
-61.719609678332283
30
0
11
74.65727802014753
21
-94.080289453330181
31
0
0
LINE
5
124
100
AcDbEntity
8
0
100
AcDbLine
10
74.65727802014753
20
-94.080289453330181
30
0
11
66.405304677523077
21
-100.07569902671344
31
0
0
LINE
5
125
100
AcDbEntity
8
0
100
AcDbLine
10
42.893894585824142
20
-67.715019251715518
30
0
11
74.65727802014753
21
-94.080289453330181
31
0
0
LINE
5
126
100
AcDbEntity
8
0
100
AcDbLine
10
74.50377934971857
20
29.570202698129194
30
0
11
115.6980133441492
21
32.230106006916508
31
0
0
LINE
5
127
100
AcDbEntity
8
0
100
AcDbLine
10
115.6980133441492
20
32.230106006916508
30
0
11
77.655752692343043
21
19.86942623191862
31
0
0
LINE
5
128
100
AcDbEntity
8
0
100
AcDbLine
10
77.655752692343043
20
19.86942623191862
30
0
11
74.50377934971857
21
29.570202698129194
31
0
0
LINE
5
129
100
AcDbEntity
8
0
100
AcDbLine
10
74.50377934971857
20
29.570202698129194
30
0
11
112.54604000152472
21
41.930882473127085
31
0
0
LINE
5
130
100
AcDbEntity
8
0
100
AcDbLine
10
112.54604000152472
20
41.930882473127085
30
0
11
115.6980133441492
21
32.230106006916508
31
0
0
LINE
5
131
100
AcDbEntity
8
0
100
AcDbLine
10
77.655752692343043
20
19.86942623191862
30
0
11
112.54604000152472
21
41.930882473127085
31
0
0
ENDSEC
0
SECTION
2
OBJECTS
0
DICTIONARY
5
C
100
AcDbDictionary
3
ACAD_GROUP
350
D
3
ACAD_MLINESTYLE
350
17
0
DICTIONARY
5
D
100
AcDbDictionary
0
DICTIONARY
5
1A
330
C
100
AcDbDictionary
0
DICTIONARY
5
17
100
AcDbDictionary
0
ENDSEC
0
EOF
