0
SECTION
2
HEADER
9
$INSUNITS
70
4
9
$ACADVER
1
AC1014
9
$HANDSEED
5
FFFF
0
ENDSEC
0
SECTION
2
TABLES
0
TABLE
2
VPORT
5
8
100
AcDbSymbolTable
0
ENDTAB
0
TABLE
2
LTYPE
5
5
100
AcDbSymbolTable
0
LTYPE
5
14
100
AcDbSymbolTableRecord
100
AcDbLinetypeTableRecord
2
BYBLOCK
70
0
0
LTYPE
5
15
100
AcDbSymbolTableRecord
100
AcDbLinetypeTableRecord
2
BYLAYER
70
0
0
ENDTAB
0
TABLE
2
LAYER
5
2
100
AcDbSymbolTable
70
2
0
LAYER
5
50
100
AcDbSymbolTableRecord
100
AcDbLayerTableRecord
2
0
70
0
6
CONTINUOUS
0
ENDTAB
0
TABLE
2
STYLE
5
3
100
AcDbSymbolTable
70
1
0
STYLE
5
11
100
AcDbSymbolTableRecord
100
AcDbTextStyleTableRecord
2
STANDARD
70
0
0
ENDTAB
0
TABLE
2
VIEW
5
6
100
AcDbSymbolTable
70
0
0
ENDTAB
0
TABLE
2
UCS
5
7
100
AcDbSymbolTable
70
0
0
ENDTAB
0
TABLE
2
APPID
5
9
100
AcDbSymbolTable
70
2
0
APPID
5
12
100
AcDbSymbolTableRecord
100
AcDbRegAppTableRecord
2
ACAD
70
0
0
ENDTAB
0
TABLE
2
DIMSTYLE
5
A
100
AcDbSymbolTable
70
1
0
ENDTAB
0
TABLE
2
BLOCK_RECORD
5
1
100
AcDbSymbolTable
70
1
0
BLOCK_RECORD
5
1F
100
AcDbSymbolTableRecord
100
AcDbBlockTableRecord
2
*MODEL_SPACE
0
BLOCK_RECORD
5
1B
100
AcDbSymbolTableRecord
100
AcDbBlockTableRecord
2
*PAPER_SPACE
0
ENDTAB
0
ENDSEC
0
SECTION
2
BLOCKS
0
BLOCK
5
20
100
AcDbEntity
100
AcDbBlockBegin
2
*MODEL_SPACE
0
ENDBLK
5
21
100
AcDbEntity
100
AcDbBlockEnd
0
BLOCK
5
1C
100
AcDbEntity
100
AcDbBlockBegin
2
*PAPER_SPACE
0
ENDBLK
5
1D
100
AcDbEntity
100
AcDbBlockEnd
0
ENDSEC
0
SECTION
2
ENTITIES
0
LWPOLYLINE
5
100
100
AcDbEntity
8
0
100
AcDbPolyline
90
4
70
1
43
0.0
10
5
20
-199.90018298174999
10
-5
20
-199.90018298174999
10
-5
20
-160.30018298174997
10
5
20
-160.30018298174997
0
CIRCLE
5
101
100
AcDbEntity
8
0
100
AcDbCircle
10
0
20
0
30
0
40
249.90000000000009
0
LINE
5
102
100
AcDbEntity
8
0
100
AcDbLine
10
-5
20
-249.90000000000009
30
0
11
5
21
-249.90000000000009
31
0
0
LINE
5
103
100
AcDbEntity
8
0
100
AcDbLine
10
5
20
-160.30018298174997
30
0
11
5
21
-199.90018298174999
31
0
0
LINE
5
104
100
AcDbEntity
8
0
100
AcDbLine
10
-5
20
-160.30018298174997
30
0
11
5
21
-160.30018298174997
31
0
0
LINE
5
105
100
AcDbEntity
8
0
100
AcDbLine
10
-5
20
-199.90018298174999
30
0
11
-5
21
-160.30018298174997
31
0
0
LINE
5
106
100
AcDbEntity
8
0
100
AcDbLine
10
5
20
-80.194999999999993
30
0
11
5
21
-64.996257120000109
31
0
0
LINE
5
107
100
AcDbEntity
8
0
100
AcDbLine
10
5
20
-140.30025617445003
30
0
11
5
21
-64.891647274776574
31
0
0
LINE
5
108
100
AcDbEntity
8
0
100
AcDbLine
10
5
20
-140.30025617445003
30
0
11
5
21
-160.30018298174997
31
0
0
LINE
5
109
100
AcDbEntity
8
0
100
AcDbLine
10
5
20
-160.30018298174997
30
0
11
5
21
-199.90018298174999
31
0
0
LINE
5
110
100
AcDbEntity
8
0
100
AcDbLine
10
5
20
-199.90018298174999
30
0
11
5
21
-249.90000000000009
31
0
0
LINE
5
111
100
AcDbEntity
8
0
100
AcDbLine
10
5
20
-134.66897673928628
30
0
11
5
21
-249.90000000000009
31
0
0
LINE
5
112
100
AcDbEntity
8
0
100
AcDbLine
10
5
20
-134.99374288000041
30
0
11
5
21
-119.795
31
0
0
LINE
5
113
100
AcDbEntity
8
0
100
AcDbLine
10
5
20
-119.795
30
0
11
5
21
-80.194999999999993
31
0
0
LWPOLYLINE
5
114
100
AcDbEntity
8
0
100
AcDbPolyline
90
4
70
1
43
0.0
10
5
20
-199.90018298174999
10
-5
20
-199.90018298174999
10
-5
20
-160.30018298174997
10
5
20
-160.30018298174997
0
LWPOLYLINE
5
115
100
AcDbEntity
8
0
100
AcDbPolyline
90
4
70
1
43
0.0
10
153.87103662960382
20
-44.528126914694283
10
191.91329728140994
20
-56.888806689692181
10
188.69952053991051
20
-66.779794459161778
10
150.65725988810436
20
-54.419114684163887
0
LWPOLYLINE
5
116
100
AcDbEntity
8
0
100
AcDbPolyline
90
4
70
1
43
0.0
10
89.8975305212752
20
132.5801041113499
10
113.40894061297413
20
164.94078388634776
10
121.8227173544736
20
158.82781726250604
10
98.311307262774662
20
126.46713748750815
0
LWPOLYLINE
5
117
100
AcDbEntity
8
0
100
AcDbPolyline
90
4
70
1
43
0.0
10
-98.311307262774648
20
126.46713748750824
10
-121.82271735447357
20
158.82781726250616
10
-113.40894061297411
20
164.94078388634787
10
-89.897530521275186
20
132.58010411134995
0
LWPOLYLINE
5
118
100
AcDbEntity
8
0
100
AcDbPolyline
90
4
70
1
43
0.0
10
-150.65725988810436
20
-54.41911468416383
10
-188.69952053991051
20
-66.779794459161707
10
-191.91329728140994
20
-56.88880668969211
10
-153.87103662960382
20
-44.528126914694226
0
LWPOLYLINE
5
119
100
AcDbEntity
8
0
100
AcDbPolyline
90
4
70
1
43
0.0
10
5.2000000000000002
20
-200.10018298174998
10
-5.2000000000000002
20
-200.10018298174998
10
-5.2000000000000002
20
-160.10018298174998
10
5.2000000000000002
20
-160.10018298174998
0
ENDSEC
0
SECTION
2
OBJECTS
0
DICTIONARY
5
C
100
AcDbDictionary
3
ACAD_GROUP
350
D
3
ACAD_MLINESTYLE
350
17
0
DICTIONARY
5
D
100
AcDbDictionary
0
DICTIONARY
5
1A
330
C
100
AcDbDictionary
0
DICTIONARY
5
17
100
AcDbDictionary
0
ENDSEC
0
EOF
