  0
SECTION
  2
HEADER
  9
$ACADVER
  1
AC1018
  9
$ACADMAINTVER
 70
     0
  9
$DWGCODEPAGE
  3
ANSI_1252
  9
$INSBASE
 10
0.0
 20
0.0
 30
0.0
  9
$EXTMIN
 10
0.0
 20
0.0
 30
0.0
  9
$EXTMAX
 10
200.0
 20
84.64101615137756
 30
0.0
  9
$LIMMIN
 10
0.0
 20
0.0
  9
$LIMMAX
 10
12.0
 20
9.0
  9
$ORTHOMODE
 70
     0
  9
$REGENMODE
 70
     1
  9
$FILLMODE
 70
     1
  9
$QTEXTMODE
 70
     0
  9
$MIRRTEXT
 70
     1
  9
$LTSCALE
 40
1.0
  9
$ATTMODE
 70
     1
  9
$TEXTSIZE
 40
0.2
  9
$TRACEWID
 40
0.05
  9
$TEXTSTYLE
  7
Standard
  9
$CLAYER
  8
Default
  9
$CELTYPE
  6
ByLayer
  9
$CECOLOR
 62
   256
  9
$CELTSCALE
 40
1.0
  9
$DISPSILH
 70
     0
  9
$DIMSCALE
 40
1.0
  9
$DIMASZ
 40
0.18
  9
$DIMEXO
 40
0.0625
  9
$DIMDLI
 40
0.38
  9
$DIMRND
 40
0.0
  9
$DIMDLE
 40
0.0
  9
$DIMEXE
 40
0.18
  9
$DIMTP
 40
0.0
  9
$DIMTM
 40
0.0
  9
$DIMTXT
 40
0.18
  9
$DIMCEN
 40
0.09
  9
$DIMTSZ
 40
0.0
  9
$DIMTOL
 70
     0
  9
$DIMLIM
 70
     0
  9
$DIMTIH
 70
     1
  9
$DIMTOH
 70
     1
  9
$DIMSE1
 70
     0
  9
$DIMSE2
 70
     0
  9
$DIMTAD
 70
     0
  9
$DIMZIN
 70
     0
  9
$DIMBLK
  1

  9
$DIMASO
 70
     1
  9
$DIMSHO
 70
     1
  9
$DIMPOST
  1

  9
$DIMAPOST
  1

  9
$DIMALT
 70
     0
  9
$DIMALTD
 70
     2
  9
$DIMALTF
 40
25.4
  9
$DIMLFAC
 40
1.0
  9
$DIMTOFL
 70
     0
  9
$DIMTVP
 40
0.0
  9
$DIMTIX
 70
     0
  9
$DIMSOXD
 70
     0
  9
$DIMSAH
 70
     0
  9
$DIMBLK1
  1

  9
$DIMBLK2
  1

  9
$DIMSTYLE
  2
Standard
  9
$DIMCLRD
 70
     0
  9
$DIMCLRE
 70
     0
  9
$DIMCLRT
 70
     0
  9
$DIMTFAC
 40
1.0
  9
$DIMGAP
 40
0.09
  9
$DIMJUST
 70
     0
  9
$DIMSD1
 70
     0
  9
$DIMSD2
 70
     0
  9
$DIMTOLJ
 70
     1
  9
$DIMTZIN
 70
     0
  9
$DIMALTZ
 70
     0
  9
$DIMALTTZ
 70
     0
  9
$DIMUPT
 70
     0
  9
$DIMDEC
 70
     4
  9
$DIMTDEC
 70
     4
  9
$DIMALTU
 70
     2
  9
$DIMALTTD
 70
     2
  9
$DIMTXSTY
  7
Standard
  9
$DIMAUNIT
 70
     0
  9
$DIMADEC
 70
     0
  9
$DIMALTRND
 40
0.0
  9
$DIMAZIN
 70
     0
  9
$DIMDSEP
 70
    46
  9
$DIMATFIT
 70
     3
  9
$DIMFRAC
 70
     0
  9
$DIMLDRBLK
  1

  9
$DIMLUNIT
 70
     2
  9
$DIMLWD
 70
    -2
  9
$DIMLWE
 70
    -2
  9
$DIMTMOVE
 70
     2
  9
$LUNITS
 70
     2
  9
$LUPREC
 70
     3
  9
$SKETCHINC
 40
0.1
  9
$FILLETRAD
 40
0.5
  9
$AUNITS
 70
     0
  9
$AUPREC
 70
     0
  9
$MENU
  1
.
  9
$ELEVATION
 40
0.0
  9
$PELEVATION
 40
0.0
  9
$THICKNESS
 40
0.0
  9
$LIMCHECK
 70
     0
  9
$CHAMFERA
 40
0.0
  9
$CHAMFERB
 40
0.0
  9
$CHAMFERC
 40
0.0
  9
$CHAMFERD
 40
0.0
  9
$SKPOLY
 70
     0
  9
$TDCREATE
 40
2457572.586692442
  9
$TDUCREATE
 40
2457572.503359109
  9
$TDUPDATE
 40
2457572.586703646
  9
$TDUUPDATE
 40
2457572.503370313
  9
$TDINDWG
 40
0.0000000116
  9
$TDUSRTIMER
 40
0.0000000116
  9
$USRTIMER
 70
     1
  9
$ANGBASE
 50
0.0
  9
$ANGDIR
 70
     0
  9
$PDMODE
 70
     0
  9
$PDSIZE
 40
0.0
  9
$PLINEWID
 40
0.0
  9
$SPLFRAME
 70
     0
  9
$SPLINETYPE
 70
     6
  9
$SPLINESEGS
 70
     8
  9
$HANDSEED
  5
53C
  9
$SURFTAB1
 70
     6
  9
$SURFTAB2
 70
     6
  9
$SURFTYPE
 70
     6
  9
$SURFU
 70
     6
  9
$SURFV
 70
     6
  9
$UCSBASE
  2

  9
$UCSNAME
  2

  9
$UCSORG
 10
0.0
 20
0.0
 30
0.0
  9
$UCSXDIR
 10
1.0
 20
0.0
 30
0.0
  9
$UCSYDIR
 10
0.0
 20
1.0
 30
0.0
  9
$UCSORTHOREF
  2

  9
$UCSORTHOVIEW
 70
     0
  9
$UCSORGTOP
 10
0.0
 20
0.0
 30
0.0
  9
$UCSORGBOTTOM
 10
0.0
 20
0.0
 30
0.0
  9
$UCSORGLEFT
 10
0.0
 20
0.0
 30
0.0
  9
$UCSORGRIGHT
 10
0.0
 20
0.0
 30
0.0
  9
$UCSORGFRONT
 10
0.0
 20
0.0
 30
0.0
  9
$UCSORGBACK
 10
0.0
 20
0.0
 30
0.0
  9
$PUCSBASE
  2

  9
$PUCSNAME
  2

  9
$PUCSORG
 10
0.0
 20
0.0
 30
0.0
  9
$PUCSXDIR
 10
1.0
 20
0.0
 30
0.0
  9
$PUCSYDIR
 10
0.0
 20
1.0
 30
0.0
  9
$PUCSORTHOREF
  2

  9
$PUCSORTHOVIEW
 70
     0
  9
$PUCSORGTOP
 10
0.0
 20
0.0
 30
0.0
  9
$PUCSORGBOTTOM
 10
0.0
 20
0.0
 30
0.0
  9
$PUCSORGLEFT
 10
0.0
 20
0.0
 30
0.0
  9
$PUCSORGRIGHT
 10
0.0
 20
0.0
 30
0.0
  9
$PUCSORGFRONT
 10
0.0
 20
0.0
 30
0.0
  9
$PUCSORGBACK
 10
0.0
 20
0.0
 30
0.0
  9
$USERI1
 70
     0
  9
$USERI2
 70
     0
  9
$USERI3
 70
     0
  9
$USERI4
 70
     0
  9
$USERI5
 70
     0
  9
$USERR1
 40
0.0
  9
$USERR2
 40
0.0
  9
$USERR3
 40
0.0
  9
$USERR4
 40
0.0
  9
$USERR5
 40
0.0
  9
$WORLDVIEW
 70
     1
  9
$SHADEDGE
 70
     3
  9
$SHADEDIF
 70
    70
  9
$TILEMODE
 70
     1
  9
$MAXACTVP
 70
    64
  9
$PINSBASE
 10
0.0
 20
0.0
 30
0.0
  9
$PLIMCHECK
 70
     0
  9
$PEXTMIN
 10
1.000000000000000E+20
 20
1.000000000000000E+20
 30
1.000000000000000E+20
  9
$PEXTMAX
 10
-1.000000000000000E+20
 20
-1.000000000000000E+20
 30
-1.000000000000000E+20
  9
$PLIMMIN
 10
0.0
 20
0.0
  9
$PLIMMAX
 10
12.0
 20
9.0
  9
$UNITMODE
 70
     0
  9
$VISRETAIN
 70
     1
  9
$PLINEGEN
 70
     0
  9
$PSLTSCALE
 70
     1
  9
$TREEDEPTH
 70
  3020
  9
$CMLSTYLE
  2
Standard
  9
$CMLJUST
 70
     0
  9
$CMLSCALE
 40
1.0
  9
$PROXYGRAPHICS
 70
     1
  9
$MEASUREMENT
 70
     0
  9
$CELWEIGHT
370
    -1
  9
$ENDCAPS
280
     0
  9
$JOINSTYLE
280
     0
  9
$LWDISPLAY
290
     0
  9
$INSUNITS
 70
     4
  9
$HYPERLINKBASE
  1

  9
$STYLESHEET
  1

  9
$XEDIT
290
     1
  9
$CEPSNTYPE
380
     0
  9
$PSTYLEMODE
290
     1
  9
$FINGERPRINTGUID
  2
{5A85D4F5-E3A5-4D5C-BD40-0C4B86EBF6A3}
  9
$VERSIONGUID
  2
{FAEB1C32-E019-11D5-929B-00C0DF256EC4}
  9
$EXTNAMES
290
     1
  9
$PSVPSCALE
 40
0.0
  9
$OLESTARTUP
290
     0
  9
$SORTENTS
280
   127
  9
$INDEXCTL
280
     0
  9
$HIDETEXT
280
     1
  9
$XCLIPFRAME
290
     0
  9
$HALOGAP
280
     0
  9
$OBSCOLOR
 70
   257
  9
$OBSLTYPE
280
     0
  9
$INTERSECTIONDISPLAY
280
     0
  9
$INTERSECTIONCOLOR
 70
   257
  9
$DIMASSOC
280
     2
  9
$PROJECTNAME
  1

  0
ENDSEC
  0
SECTION
  2
CLASSES
  0
CLASS
  1
ACDBDICTIONARYWDFLT
  2
AcDbDictionaryWithDefault
  3
ObjectDBX Classes
 90
        0
 91
        4
280
     0
281
     0
  0
CLASS
  1
VISUALSTYLE
  2
AcDbVisualStyle
  3
ObjectDBX Classes
 90
     4095
 91
        4
280
     0
281
     0
  0
CLASS
  1
MATERIAL
  2
AcDbMaterial
  3
ObjectDBX Classes
 90
     1153
 91
        4
280
     0
281
     0
  0
CLASS
  1
SCALE
  2
AcDbScale
  3
ObjectDBX Classes
 90
     1153
 91
        4
280
     0
281
     0
  0
CLASS
  1
TABLESTYLE
  2
AcDbTableStyle
  3
ObjectDBX Classes
 90
     4095
 91
        4
280
     0
281
     0
  0
CLASS
  1
MLEADERSTYLE
  2
AcDbMLeaderStyle
  3
ACDB_MLEADERSTYLE_CLASS
 90
     4095
 91
        4
280
     0
281
     0
  0
CLASS
  1
SUN
  2
AcDbSun
  3
SCENEOE
 90
     1153
 91
        4
280
     0
281
     0
  0
CLASS
  1
DICTIONARYVAR
  2
AcDbDictionaryVar
  3
ObjectDBX Classes
 90
        0
 91
        4
280
     0
281
     0
  0
CLASS
  1
CELLSTYLEMAP
  2
AcDbCellStyleMap
  3
ObjectDBX Classes
 90
     1152
 91
        4
280
     0
281
     0
  0
ENDSEC
  0
SECTION
  2
TABLES
  0
TABLE
  2
VPORT
  5
8
102
{ACAD_XDICTIONARY
360
4F5
102
}
330
0
100
AcDbSymbolTable
 70
     1
  0
VPORT
  5
29
330
8
100
AcDbSymbolTableRecord
100
AcDbViewportTableRecord
  2
*Active
 70
     0
 10
0.0
 20
0.0
 11
1.0
 21
1.0
 12
100.0
 22
42.32050807568878
 13
0.0
 23
0.0
 14
0.5
 24
0.5
 15
0.5
 25
0.5
 16
0.0
 26
0.0
 36
1.0
 17
0.0
 27
0.0
 37
0.0
 40
86.3338364744051
 41
2.362920592095762
 42
50.0
 43
0.0
 44
0.0
 50
0.0
 51
0.0
 71
     0
 72
   100
 73
     1
 74
     3
 75
     0
 76
     0
 77
     0
 78
     0
281
     0
 65
     1
110
0.0
120
0.0
130
0.0
111
1.0
121
0.0
131
0.0
112
0.0
122
1.0
132
0.0
 79
     0
146
0.0
  0
ENDTAB
  0
TABLE
  2
LTYPE
  5
5
330
0
100
AcDbSymbolTable
 70
     1
  0
LTYPE
  5
14
330
5
100
AcDbSymbolTableRecord
100
AcDbLinetypeTableRecord
  2
ByBlock
 70
     0
  3

 72
    65
 73
     0
 40
0.0
  0
LTYPE
  5
15
330
5
100
AcDbSymbolTableRecord
100
AcDbLinetypeTableRecord
  2
ByLayer
 70
     0
  3

 72
    65
 73
     0
 40
0.0
  0
LTYPE
  5
16
330
5
100
AcDbSymbolTableRecord
100
AcDbLinetypeTableRecord
  2
Continuous
 70
     0
  3
Solid line
 72
    65
 73
     0
 40
0.0
  0
ENDTAB
  0
TABLE
  2
LAYER
  5
2
330
0
100
AcDbSymbolTable
 70
     2
  0
LAYER
  5
10
330
2
100
AcDbSymbolTableRecord
100
AcDbLayerTableRecord
  2
0
 70
     0
 62
     7
  6
Continuous
370
    -3
390
F
  0
LAYER
  5
6E
330
2
100
AcDbSymbolTableRecord
100
AcDbLayerTableRecord
  2
Default
 70
     0
 62
    18
420
        0
  6
Continuous
370
    -3
390
F
  0
ENDTAB
  0
TABLE
  2
STYLE
  5
3
330
0
100
AcDbSymbolTable
 70
     1
  0
STYLE
  5
11
330
3
100
AcDbSymbolTableRecord
100
AcDbTextStyleTableRecord
  2
Standard
 70
     0
 40
0.0
 41
1.0
 50
0.0
 71
     0
 42
0.2
  3
txt
  4

  0
ENDTAB
  0
TABLE
  2
VIEW
  5
6
330
0
100
AcDbSymbolTable
 70
     0
  0
ENDTAB
  0
TABLE
  2
UCS
  5
7
330
0
100
AcDbSymbolTable
 70
     0
  0
ENDTAB
  0
TABLE
  2
APPID
  5
9
330
0
100
AcDbSymbolTable
 70
     2
  0
APPID
  5
12
330
9
100
AcDbSymbolTableRecord
100
AcDbRegAppTableRecord
  2
ACAD
 70
     0
  0
APPID
  5
534
330
9
100
AcDbSymbolTableRecord
100
AcDbRegAppTableRecord
  2
ACAD_MLEADERVER
 70
     0
  0
ENDTAB
  0
TABLE
  2
DIMSTYLE
  5
A
330
0
100
AcDbSymbolTable
 70
     1
100
AcDbDimStyleTable
  0
DIMSTYLE
105
27
330
A
100
AcDbSymbolTableRecord
100
AcDbDimStyleTableRecord
  2
Standard
 70
     0
178
     0
340
11
  0
ENDTAB
  0
TABLE
  2
BLOCK_RECORD
  5
1
330
0
100
AcDbSymbolTable
 70
     1
  0
BLOCK_RECORD
  5
1F
330
1
100
AcDbSymbolTableRecord
100
AcDbBlockTableRecord
  2
*Model_Space
340
22
  0
BLOCK_RECORD
  5
1B
330
1
100
AcDbSymbolTableRecord
100
AcDbBlockTableRecord
  2
*Paper_Space
340
1E
  0
BLOCK_RECORD
  5
23
330
1
100
AcDbSymbolTableRecord
100
AcDbBlockTableRecord
  2
*Paper_Space0
340
26
  0
ENDTAB
  0
ENDSEC
  0
SECTION
  2
BLOCKS
  0
BLOCK
  5
20
330
1F
100
AcDbEntity
  8
0
100
AcDbBlockBegin
  2
*Model_Space
 70
     0
 10
0.0
 20
0.0
 30
0.0
  3
*Model_Space
  1

  0
ENDBLK
  5
21
330
1F
100
AcDbEntity
  8
0
100
AcDbBlockEnd
  0
BLOCK
  5
1C
330
1B
100
AcDbEntity
 67
     1
  8
0
100
AcDbBlockBegin
  2
*Paper_Space
 70
     0
 10
0.0
 20
0.0
 30
0.0
  3
*Paper_Space
  1

  0
ENDBLK
  5
1D
330
1B
100
AcDbEntity
 67
     1
  8
0
100
AcDbBlockEnd
  0
BLOCK
  5
24
330
23
100
AcDbEntity
  8
0
100
AcDbBlockBegin
  2
*Paper_Space0
 70
     0
 10
0.0
 20
0.0
 30
0.0
  3
*Paper_Space0
  1

  0
ENDBLK
  5
25
330
23
100
AcDbEntity
  8
0
100
AcDbBlockEnd
  0
ENDSEC
  0
SECTION
  2
ENTITIES
  0
POLYLINE
  5
6F
330
1F
100
AcDbEntity
  8
Default
100
AcDb2dPolyline
 66
     1
 10
0.0
 20
0.0
 30
0.0
  0
VERTEX
  5
70
330
6F
100
AcDbEntity
  8
Default
100
AcDbVertex
100
AcDb2dVertex
 10
180.0
 20
50.0
 30
0.0
  0
VERTEX
  5
71
330
6F
100
AcDbEntity
  8
Default
100
AcDbVertex
100
AcDb2dVertex
 10
189.25
 20
66.0214699700121
 30
0.0
  0
SEQEND
  5
72
330
6F
100
AcDbEntity
  8
Default
  0
POLYLINE
  5
73
330
1F
100
AcDbEntity
  8
Default
100
AcDb2dPolyline
 66
     1
 10
0.0
 20
0.0
 30
0.0
  0
VERTEX
  5
74
330
73
100
AcDbEntity
  8
Default
100
AcDbVertex
100
AcDb2dVertex
 10
200.0
 20
67.32050807568879
 30
0.0
  0
VERTEX
  5
75
330
73
100
AcDbEntity
  8
Default
100
AcDbVertex
100
AcDb2dVertex
 10
191.5
 20
67.32050807568879
 30
0.0
  0
SEQEND
  5
76
330
73
100
AcDbEntity
  8
Default
  0
POLYLINE
  5
77
330
1F
100
AcDbEntity
  8
Default
100
AcDb2dPolyline
 66
     1
 10
0.0
 20
0.0
 30
0.0
  0
VERTEX
  5
78
330
77
100
AcDbEntity
  8
Default
100
AcDbVertex
100
AcDb2dVertex
 10
190.75
 20
68.61954618136546
 30
0.0
  0
VERTEX
  5
79
330
77
100
AcDbEntity
  8
Default
100
AcDbVertex
100
AcDb2dVertex
 10
195.0
 20
75.98076211353319
 30
0.0
  0
SEQEND
  5
7A
330
77
100
AcDbEntity
  8
Default
  0
POLYLINE
  5
7B
330
1F
100
AcDbEntity
  8
Default
100
AcDb2dPolyline
 66
     1
 10
0.0
 20
0.0
 30
0.0
  0
VERTEX
  5
7C
330
7B
100
AcDbEntity
  8
Default
100
AcDbVertex
100
AcDb2dVertex
 10
195.0
 20
58.66025403784437
 30
0.0
  0
VERTEX
  5
7D
330
7B
100
AcDbEntity
  8
Default
100
AcDbVertex
100
AcDb2dVertex
 10
190.75
 20
66.0214699700121
 30
0.0
  0
SEQEND
  5
7E
330
7B
100
AcDbEntity
  8
Default
  0
POLYLINE
  5
7F
330
1F
100
AcDbEntity
  8
Default
100
AcDb2dPolyline
 66
     1
 10
0.0
 20
0.0
 30
0.0
  0
VERTEX
  5
80
330
7F
100
AcDbEntity
  8
Default
100
AcDbVertex
100
AcDb2dVertex
 10
189.25
 20
68.61954618136542
 30
0.0
  0
VERTEX
  5
81
330
7F
100
AcDbEntity
  8
Default
100
AcDbVertex
100
AcDb2dVertex
 10
180.0
 20
84.64101615137756
 30
0.0
  0
SEQEND
  5
82
330
7F
100
AcDbEntity
  8
Default
  0
POLYLINE
  5
83
330
1F
100
AcDbEntity
  8
Default
100
AcDb2dPolyline
 66
     1
 10
0.0
 20
0.0
 30
0.0
  0
VERTEX
  5
84
330
83
100
AcDbEntity
  8
Default
100
AcDbVertex
100
AcDb2dVertex
 10
188.5
 20
67.32050807568879
 30
0.0
  0
VERTEX
  5
85
330
83
100
AcDbEntity
  8
Default
100
AcDbVertex
100
AcDb2dVertex
 10
11.49999999999998
 20
67.32050807568878
 30
0.0
  0
SEQEND
  5
86
330
83
100
AcDbEntity
  8
Default
  0
POLYLINE
  5
87
330
1F
100
AcDbEntity
  8
Default
100
AcDb2dPolyline
 66
     1
 10
0.0
 20
0.0
 30
0.0
  0
VERTEX
  5
88
330
87
100
AcDbEntity
  8
Default
100
AcDbVertex
100
AcDb2dVertex
 10
9.25000000000001
 20
68.61954618136542
 30
0.0
  0
VERTEX
  5
89
330
87
100
AcDbEntity
  8
Default
100
AcDbVertex
100
AcDb2dVertex
 10
4.999999999999996
 20
75.98076211353319
 30
0.0
  0
SEQEND
  5
8A
330
87
100
AcDbEntity
  8
Default
  0
POLYLINE
  5
8B
330
1F
100
AcDbEntity
  8
Default
100
AcDb2dPolyline
 66
     1
 10
0.0
 20
0.0
 30
0.0
  0
VERTEX
  5
8C
330
8B
100
AcDbEntity
  8
Default
100
AcDbVertex
100
AcDb2dVertex
 10
8.499999999999979
 20
67.32050807568878
 30
0.0
  0
VERTEX
  5
8D
330
8B
100
AcDbEntity
  8
Default
100
AcDbVertex
100
AcDb2dVertex
 10
0.0000000000000053
 20
67.32050807568878
 30
0.0
  0
SEQEND
  5
8E
330
8B
100
AcDbEntity
  8
Default
  0
POLYLINE
  5
8F
330
1F
100
AcDbEntity
  8
Default
100
AcDb2dPolyline
 66
     1
 10
0.0
 20
0.0
 30
0.0
  0
VERTEX
  5
90
330
8F
100
AcDbEntity
  8
Default
100
AcDbVertex
100
AcDb2dVertex
 10
10.74999999999999
 20
68.61954618136542
 30
0.0
  0
VERTEX
  5
91
330
8F
100
AcDbEntity
  8
Default
100
AcDbVertex
100
AcDb2dVertex
 10
20.0
 20
84.64101615137756
 30
0.0
  0
SEQEND
  5
92
330
8F
100
AcDbEntity
  8
Default
  0
POLYLINE
  5
93
330
1F
100
AcDbEntity
  8
Default
100
AcDb2dPolyline
 66
     1
 10
0.0
 20
0.0
 30
0.0
  0
VERTEX
  5
94
330
93
100
AcDbEntity
  8
Default
100
AcDbVertex
100
AcDb2dVertex
 10
4.999999999999997
 20
58.66025403784439
 30
0.0
  0
VERTEX
  5
95
330
93
100
AcDbEntity
  8
Default
100
AcDbVertex
100
AcDb2dVertex
 10
9.24999999999999
 20
66.0214699700121
 30
0.0
  0
SEQEND
  5
96
330
93
100
AcDbEntity
  8
Default
  0
POLYLINE
  5
97
330
1F
100
AcDbEntity
  8
Default
100
AcDb2dPolyline
 66
     1
 10
0.0
 20
0.0
 30
0.0
  0
VERTEX
  5
98
330
97
100
AcDbEntity
  8
Default
100
AcDbVertex
100
AcDb2dVertex
 10
20.0
 20
50.0
 30
0.0
  0
VERTEX
  5
99
330
97
100
AcDbEntity
  8
Default
100
AcDbVertex
100
AcDb2dVertex
 10
10.75000000000001
 20
66.0214699700121
 30
0.0
  0
SEQEND
  5
9A
330
97
100
AcDbEntity
  8
Default
  0
POLYLINE
  5
9B
330
1F
100
AcDbEntity
  8
Default
100
AcDb2dPolyline
 66
     1
 10
0.0
 20
0.0
 30
0.0
  0
VERTEX
  5
9C
330
9B
100
AcDbEntity
  8
Default
100
AcDbVertex
100
AcDb2dVertex
 10
8.500000000000005
 20
17.32050807568877
 30
0.0
  0
VERTEX
  5
9D
330
9B
100
AcDbEntity
  8
Default
100
AcDbVertex
100
AcDb2dVertex
 10
0.0000000000000053
 20
17.32050807568877
 30
0.0
  0
SEQEND
  5
9E
330
9B
100
AcDbEntity
  8
Default
  0
POLYLINE
  5
9F
330
1F
100
AcDbEntity
  8
Default
100
AcDb2dPolyline
 66
     1
 10
0.0
 20
0.0
 30
0.0
  0
VERTEX
  5
A0
330
9F
100
AcDbEntity
  8
Default
100
AcDbVertex
100
AcDb2dVertex
 10
9.250000000000005
 20
18.61954618136544
 30
0.0
  0
VERTEX
  5
A1
330
9F
100
AcDbEntity
  8
Default
100
AcDbVertex
100
AcDb2dVertex
 10
0.0000000000000062
 20
34.64101615137756
 30
0.0
  0
SEQEND
  5
A2
330
9F
100
AcDbEntity
  8
Default
  0
POLYLINE
  5
A3
330
1F
100
AcDbEntity
  8
Default
100
AcDb2dPolyline
 66
     1
 10
0.0
 20
0.0
 30
0.0
  0
VERTEX
  5
A4
330
A3
100
AcDbEntity
  8
Default
100
AcDbVertex
100
AcDb2dVertex
 10
10.74999999999999
 20
18.61954618136543
 30
0.0
  0
VERTEX
  5
A5
330
A3
100
AcDbEntity
  8
Default
100
AcDbVertex
100
AcDb2dVertex
 10
20.0
 20
34.64101615137756
 30
0.0
  0
SEQEND
  5
A6
330
A3
100
AcDbEntity
  8
Default
  0
POLYLINE
  5
A7
330
1F
100
AcDbEntity
  8
Default
100
AcDb2dPolyline
 66
     1
 10
0.0
 20
0.0
 30
0.0
  0
VERTEX
  5
A8
330
A7
100
AcDbEntity
  8
Default
100
AcDbVertex
100
AcDb2dVertex
 10
188.5
 20
17.32050807568879
 30
0.0
  0
VERTEX
  5
A9
330
A7
100
AcDbEntity
  8
Default
100
AcDbVertex
100
AcDb2dVertex
 10
11.49999999999999
 20
17.32050807568877
 30
0.0
  0
SEQEND
  5
AA
330
A7
100
AcDbEntity
  8
Default
  0
POLYLINE
  5
AB
330
1F
100
AcDbEntity
  8
Default
100
AcDb2dPolyline
 66
     1
 10
0.0
 20
0.0
 30
0.0
  0
VERTEX
  5
AC
330
AB
100
AcDbEntity
  8
Default
100
AcDbVertex
100
AcDb2dVertex
 10
20.0
 20
0.0
 30
0.0
  0
VERTEX
  5
AD
330
AB
100
AcDbEntity
  8
Default
100
AcDbVertex
100
AcDb2dVertex
 10
10.75000000000001
 20
16.02146997001212
 30
0.0
  0
SEQEND
  5
AE
330
AB
100
AcDbEntity
  8
Default
  0
POLYLINE
  5
AF
330
1F
100
AcDbEntity
  8
Default
100
AcDb2dPolyline
 66
     1
 10
0.0
 20
0.0
 30
0.0
  0
VERTEX
  5
B0
330
AF
100
AcDbEntity
  8
Default
100
AcDbVertex
100
AcDb2dVertex
 10
0.0
 20
0.0
 30
0.0
  0
VERTEX
  5
B1
330
AF
100
AcDbEntity
  8
Default
100
AcDbVertex
100
AcDb2dVertex
 10
9.249999999999993
 20
16.02146997001211
 30
0.0
  0
SEQEND
  5
B2
330
AF
100
AcDbEntity
  8
Default
  0
POLYLINE
  5
B3
330
1F
100
AcDbEntity
  8
Default
100
AcDb2dPolyline
 66
     1
 10
0.0
 20
0.0
 30
0.0
  0
VERTEX
  5
B4
330
B3
100
AcDbEntity
  8
Default
100
AcDbVertex
100
AcDb2dVertex
 10
190.75
 20
18.61954618136544
 30
0.0
  0
VERTEX
  5
B5
330
B3
100
AcDbEntity
  8
Default
100
AcDbVertex
100
AcDb2dVertex
 10
200.0
 20
34.64101615137756
 30
0.0
  0
SEQEND
  5
B6
330
B3
100
AcDbEntity
  8
Default
  0
POLYLINE
  5
B7
330
1F
100
AcDbEntity
  8
Default
100
AcDb2dPolyline
 66
     1
 10
0.0
 20
0.0
 30
0.0
  0
VERTEX
  5
B8
330
B7
100
AcDbEntity
  8
Default
100
AcDbVertex
100
AcDb2dVertex
 10
200.0
 20
17.32050807568879
 30
0.0
  0
VERTEX
  5
B9
330
B7
100
AcDbEntity
  8
Default
100
AcDbVertex
100
AcDb2dVertex
 10
191.5
 20
17.32050807568879
 30
0.0
  0
SEQEND
  5
BA
330
B7
100
AcDbEntity
  8
Default
  0
POLYLINE
  5
BB
330
1F
100
AcDbEntity
  8
Default
100
AcDb2dPolyline
 66
     1
 10
0.0
 20
0.0
 30
0.0
  0
VERTEX
  5
BC
330
BB
100
AcDbEntity
  8
Default
100
AcDbVertex
100
AcDb2dVertex
 10
189.25
 20
18.61954618136544
 30
0.0
  0
VERTEX
  5
BD
330
BB
100
AcDbEntity
  8
Default
100
AcDbVertex
100
AcDb2dVertex
 10
180.0
 20
34.64101615137756
 30
0.0
  0
SEQEND
  5
BE
330
BB
100
AcDbEntity
  8
Default
  0
POLYLINE
  5
BF
330
1F
100
AcDbEntity
  8
Default
100
AcDb2dPolyline
 66
     1
 10
0.0
 20
0.0
 30
0.0
  0
VERTEX
  5
C0
330
BF
100
AcDbEntity
  8
Default
100
AcDbVertex
100
AcDb2dVertex
 10
180.0
 20
0.0
 30
0.0
  0
VERTEX
  5
C1
330
BF
100
AcDbEntity
  8
Default
100
AcDbVertex
100
AcDb2dVertex
 10
189.25
 20
16.0214699700121
 30
0.0
  0
SEQEND
  5
C2
330
BF
100
AcDbEntity
  8
Default
  0
POLYLINE
  5
C3
330
1F
100
AcDbEntity
  8
Default
100
AcDb2dPolyline
 66
     1
 10
0.0
 20
0.0
 30
0.0
  0
VERTEX
  5
C4
330
C3
100
AcDbEntity
  8
Default
100
AcDbVertex
100
AcDb2dVertex
 10
200.0
 20
0.0
 30
0.0
  0
VERTEX
  5
C5
330
C3
100
AcDbEntity
  8
Default
100
AcDbVertex
100
AcDb2dVertex
 10
190.75
 20
16.02146997001213
 30
0.0
  0
SEQEND
  5
C6
330
C3
100
AcDbEntity
  8
Default
  0
POLYLINE
  5
C7
330
1F
100
AcDbEntity
  8
Default
100
AcDb2dPolyline
 66
     1
 10
0.0
 20
0.0
 30
0.0
 70
     1
  0
VERTEX
  5
C8
330
C7
100
AcDbEntity
  8
Default
100
AcDbVertex
100
AcDb2dVertex
 10
188.5
 20
67.32050807568876
 30
0.0
  0
VERTEX
  5
C9
330
C7
100
AcDbEntity
  8
Default
100
AcDbVertex
100
AcDb2dVertex
 10
188.5009036915845
 20
67.37256821490153
 30
0.0
  0
VERTEX
  5
CA
330
C7
100
AcDbEntity
  8
Default
100
AcDbVertex
100
AcDb2dVertex
 10
188.5036136774598
 20
67.42456562570139
 30
0.0
  0
VERTEX
  5
CB
330
C7
100
AcDbEntity
  8
Default
100
AcDbVertex
100
AcDb2dVertex
 10
188.5081266923042
 20
67.47643765525825
 30
0.0
  0
VERTEX
  5
CC
330
C7
100
AcDbEntity
  8
Default
100
AcDbVertex
100
AcDb2dVertex
 10
188.5144372982862
 20
67.52812180181668
 30
0.0
  0
VERTEX
  5
CD
330
C7
100
AcDbEntity
  8
Default
100
AcDbVertex
100
AcDb2dVertex
 10
188.5225378916171
 20
67.57955579000561
 30
0.0
  0
VERTEX
  5
CE
330
C7
100
AcDbEntity
  8
Default
100
AcDbVertex
100
AcDb2dVertex
 10
188.5324187117129
 20
67.63067764587535
 30
0.0
  0
VERTEX
  5
CF
330
C7
100
AcDbEntity
  8
Default
100
AcDbVertex
100
AcDb2dVertex
 10
188.5440678529551
 20
67.68142577157133
 30
0.0
  0
VERTEX
  5
D0
330
C7
100
AcDbEntity
  8
Default
100
AcDbVertex
100
AcDb2dVertex
 10
188.5574712790356
 20
67.7317390195547
 30
0.0
  0
VERTEX
  5
D1
330
C7
100
AcDbEntity
  8
Default
100
AcDbVertex
100
AcDb2dVertex
 10
188.5726128398701
 20
67.78155676628043
 30
0.0
  0
VERTEX
  5
D2
330
C7
100
AcDbEntity
  8
Default
100
AcDbVertex
100
AcDb2dVertex
 10
188.5894742910571
 20
67.83081898524388
 30
0.0
  0
VERTEX
  5
D3
330
C7
100
AcDbEntity
  8
Default
100
AcDbVertex
100
AcDb2dVertex
 10
188.6080353158611
 20
67.87946631930812
 30
0.0
  0
VERTEX
  5
D4
330
C7
100
AcDbEntity
  8
Default
100
AcDbVertex
100
AcDb2dVertex
 10
188.628273549693
 20
67.9274401522246
 30
0.0
  0
VERTEX
  5
D5
330
C7
100
AcDbEntity
  8
Default
100
AcDbVertex
100
AcDb2dVertex
 10
188.6501646070573
 20
67.97468267926122
 30
0.0
  0
VERTEX
  5
D6
330
C7
100
AcDbEntity
  8
Default
100
AcDbVertex
100
AcDb2dVertex
 10
188.6736821109349
 20
68.0211369768525
 30
0.0
  0
VERTEX
  5
D7
330
C7
100
AcDbEntity
  8
Default
100
AcDbVertex
100
AcDb2dVertex
 10
188.6987977245654
 20
68.06674707118805
 30
0.0
  0
VERTEX
  5
D8
330
C7
100
AcDbEntity
  8
Default
100
AcDbVertex
100
AcDb2dVertex
 10
188.7254811855905
 20
68.11145800565664
 30
0.0
  0
VERTEX
  5
D9
330
C7
100
AcDbEntity
  8
Default
100
AcDbVertex
100
AcDb2dVertex
 10
188.753700342518
 20
68.15521590706466
 30
0.0
  0
VERTEX
  5
DA
330
C7
100
AcDbEntity
  8
Default
100
AcDbVertex
100
AcDb2dVertex
 10
188.7834211934617
 20
68.1979680505491
 30
0.0
  0
VERTEX
  5
DB
330
C7
100
AcDbEntity
  8
Default
100
AcDbVertex
100
AcDb2dVertex
 10
188.8146079271112
 20
68.23966292310692
 30
0.0
  0
VERTEX
  5
DC
330
C7
100
AcDbEntity
  8
Default
100
AcDbVertex
100
AcDb2dVertex
 10
188.8472229658813
 20
68.28025028566418
 30
0.0
  0
VERTEX
  5
DD
330
C7
100
AcDbEntity
  8
Default
100
AcDbVertex
100
AcDb2dVertex
 10
188.8812270111907
 20
68.31968123361025
 30
0.0
  0
VERTEX
  5
DE
330
C7
100
AcDbEntity
  8
Default
100
AcDbVertex
100
AcDb2dVertex
 10
188.9165790908134
 20
68.35790825572404
 30
0.0
  0
VERTEX
  5
DF
330
C7
100
AcDbEntity
  8
Default
100
AcDbVertex
100
AcDb2dVertex
 10
188.9532366082467
 20
68.3948852914213
 30
0.0
  0
VERTEX
  5
E0
330
C7
100
AcDbEntity
  8
Default
100
AcDbVertex
100
AcDb2dVertex
 10
188.9911553940375
 20
68.43056778625406
 30
0.0
  0
VERTEX
  5
E1
330
C7
100
AcDbEntity
  8
Default
100
AcDbVertex
100
AcDb2dVertex
 10
189.0302897590021
 20
68.46491274559526
 30
0.0
  0
VERTEX
  5
E2
330
C7
100
AcDbEntity
  8
Default
100
AcDbVertex
100
AcDb2dVertex
 10
189.0705925492789
 20
68.49787878644393
 30
0.0
  0
VERTEX
  5
E3
330
C7
100
AcDbEntity
  8
Default
100
AcDbVertex
100
AcDb2dVertex
 10
189.1120152031447
 20
68.5294261872885
 30
0.0
  0
VERTEX
  5
E4
330
C7
100
AcDbEntity
  8
Default
100
AcDbVertex
100
AcDb2dVertex
 10
189.1545078095279
 20
68.55951693596808
 30
0.0
  0
VERTEX
  5
E5
330
C7
100
AcDbEntity
  8
Default
100
AcDbVertex
100
AcDb2dVertex
 10
189.1980191681474
 20
68.58811477547421
 30
0.0
  0
VERTEX
  5
E6
330
C7
100
AcDbEntity
  8
Default
100
AcDbVertex
100
AcDb2dVertex
 10
189.242496851205
 20
68.61518524763771
 30
0.0
  0
VERTEX
  5
E7
330
C7
100
AcDbEntity
  8
Default
100
AcDbVertex
100
AcDb2dVertex
 10
189.287887266557
 20
68.64069573464805
 30
0.0
  0
VERTEX
  5
E8
330
C7
100
AcDbEntity
  8
Default
100
AcDbVertex
100
AcDb2dVertex
 10
189.3341357222882
 20
68.66461549835535
 30
0.0
  0
VERTEX
  5
E9
330
C7
100
AcDbEntity
  8
Default
100
AcDbVertex
100
AcDb2dVertex
 10
189.3811864926116
 20
68.68691571730737
 30
0.0
  0
VERTEX
  5
EA
330
C7
100
AcDbEntity
  8
Default
100
AcDbVertex
100
AcDb2dVertex
 10
189.4289828850137
 20
68.7075695214772
 30
0.0
  0
VERTEX
  5
EB
330
C7
100
AcDbEntity
  8
Default
100
AcDbVertex
100
AcDb2dVertex
 10
189.4774673085642
 20
68.72655202463946
 30
0.0
  0
VERTEX
  5
EC
330
C7
100
AcDbEntity
  8
Default
100
AcDbVertex
100
AcDb2dVertex
 10
189.5265813433092
 20
68.74384035435635
 30
0.0
  0
VERTEX
  5
ED
330
C7
100
AcDbEntity
  8
Default
100
AcDbVertex
100
AcDb2dVertex
 10
189.5762658106622
 20
68.75941367953712
 30
0.0
  0
VERTEX
  5
EE
330
C7
100
AcDbEntity
  8
Default
100
AcDbVertex
100
AcDb2dVertex
 10
189.6264608447097
 20
68.77325323553788
 30
0.0
  0
VERTEX
  5
EF
330
C7
100
AcDbEntity
  8
Default
100
AcDbVertex
100
AcDb2dVertex
 10
189.6771059643454
 20
68.78534234677156
 30
0.0
  0
VERTEX
  5
F0
330
C7
100
AcDbEntity
  8
Default
100
AcDbVertex
100
AcDb2dVertex
 10
189.7281401461447
 20
68.79566644680074
 30
0.0
  0
VERTEX
  5
F1
330
C7
100
AcDbEntity
  8
Default
100
AcDbVertex
100
AcDb2dVertex
 10
189.7795018978934
 20
68.804213095889
 30
0.0
  0
VERTEX
  5
F2
330
C7
100
AcDbEntity
  8
Default
100
AcDbVertex
100
AcDb2dVertex
 10
189.8311293326811
 20
68.81097199598985
 30
0.0
  0
VERTEX
  5
F3
330
C7
100
AcDbEntity
  8
Default
100
AcDbVertex
100
AcDb2dVertex
 10
189.88296024347
 20
68.8159350031551
 30
0.0
  0
VERTEX
  5
F4
330
C7
100
AcDbEntity
  8
Default
100
AcDbVertex
100
AcDb2dVertex
 10
189.9349321780496
 20
68.81909613734769
 30
0.0
  0
VERTEX
  5
F5
330
C7
100
AcDbEntity
  8
Default
100
AcDbVertex
100
AcDb2dVertex
 10
189.9869825142868
 20
68.8204515896471
 30
0.0
  0
VERTEX
  5
F6
330
C7
100
AcDbEntity
  8
Default
100
AcDbVertex
100
AcDb2dVertex
 10
190.0390485355803
 20
68.81999972683893
 30
0.0
  0
VERTEX
  5
F7
330
C7
100
AcDbEntity
  8
Default
100
AcDbVertex
100
AcDb2dVertex
 10
190.0910675064298
 20
68.81774109338262
 30
0.0
  0
VERTEX
  5
F8
330
C7
100
AcDbEntity
  8
Default
100
AcDbVertex
100
AcDb2dVertex
 10
190.1429767480271
 20
68.8136784107556
 30
0.0
  0
VERTEX
  5
F9
330
C7
100
AcDbEntity
  8
Default
100
AcDbVertex
100
AcDb2dVertex
 10
190.1947137137791
 20
68.80781657417398
 30
0.0
  0
VERTEX
  5
FA
330
C7
100
AcDbEntity
  8
Default
100
AcDbVertex
100
AcDb2dVertex
 10
190.2462160646717
 20
68.8001626466943
 30
0.0
  0
VERTEX
  5
FB
330
C7
100
AcDbEntity
  8
Default
100
AcDbVertex
100
AcDb2dVertex
 10
190.2974217443836
 20
68.79072585070301
 30
0.0
  0
VERTEX
  5
FC
330
C7
100
AcDbEntity
  8
Default
100
AcDbVertex
100
AcDb2dVertex
 10
190.3482690540588
 20
68.77951755680428
 30
0.0
  0
VERTEX
  5
FD
330
C7
100
AcDbEntity
  8
Default
100
AcDbVertex
100
AcDb2dVertex
 10
190.3986967266497
 20
68.76655127011928
 30
0.0
  0
VERTEX
  5
FE
330
C7
100
AcDbEntity
  8
Default
100
AcDbVertex
100
AcDb2dVertex
 10
190.4486440007385
 20
68.75184261401353
 30
0.0
  0
VERTEX
  5
FF
330
C7
100
AcDbEntity
  8
Default
100
AcDbVertex
100
AcDb2dVertex
 10
190.4980506937501
 20
68.73540931127205
 30
0.0
  0
VERTEX
  5
100
330
C7
100
AcDbEntity
  8
Default
100
AcDbVertex
100
AcDb2dVertex
 10
190.5468572744675
 20
68.71727116274467
 30
0.0
  0
VERTEX
  5
101
330
C7
100
AcDbEntity
  8
Default
100
AcDbVertex
100
AcDb2dVertex
 10
190.5950049347626
 20
68.69745002348765
 30
0.0
  0
VERTEX
  5
102
330
C7
100
AcDbEntity
  8
Default
100
AcDbVertex
100
AcDb2dVertex
 10
190.6424356604546
 20
68.67596977642997
 30
0.0
  0
VERTEX
  5
103
330
C7
100
AcDbEntity
  8
Default
100
AcDbVertex
100
AcDb2dVertex
 10
190.6890923012135
 20
68.6528563035963
 30
0.0
  0
VERTEX
  5
104
330
C7
100
AcDbEntity
  8
Default
100
AcDbVertex
100
AcDb2dVertex
 10
190.734918639421
 20
68.62813745492114
 30
0.0
  0
VERTEX
  5
105
330
C7
100
AcDbEntity
  8
Default
100
AcDbVertex
100
AcDb2dVertex
 10
190.7798594579089
 20
68.60184301469187
 30
0.0
  0
VERTEX
  5
106
330
C7
100
AcDbEntity
  8
Default
100
AcDbVertex
100
AcDb2dVertex
 10
190.8238606064912
 20
68.57400466566096
 30
0.0
  0
VERTEX
  5
107
330
C7
100
AcDbEntity
  8
Default
100
AcDbVertex
100
AcDb2dVertex
 10
190.8668690672111
 20
68.54465595087073
 30
0.0
  0
VERTEX
  5
108
330
C7
100
AcDbEntity
  8
Default
100
AcDbVertex
100
AcDb2dVertex
 10
190.9088330182232
 20
68.51383223323661
 30
0.0
  0
VERTEX
  5
109
330
C7
100
AcDbEntity
  8
Default
100
AcDbVertex
100
AcDb2dVertex
 10
190.949701896235
 20
68.48157065293758
 30
0.0
  0
VERTEX
  5
10A
330
C7
100
AcDbEntity
  8
Default
100
AcDbVertex
100
AcDb2dVertex
 10
190.9894264574316
 20
68.44791008266512
 30
0.0
  0
VERTEX
  5
10B
330
C7
100
AcDbEntity
  8
Default
100
AcDbVertex
100
AcDb2dVertex
 10
191.0279588368109
 20
68.41289108078466
 30
0.0
  0
VERTEX
  5
10C
330
C7
100
AcDbEntity
  8
Default
100
AcDbVertex
100
AcDb2dVertex
 10
191.0652526058569
 20
68.37655584246595
 30
0.0
  0
VERTEX
  5
10D
330
C7
100
AcDbEntity
  8
Default
100
AcDbVertex
100
AcDb2dVertex
 10
191.1012628284826
 20
68.33894814884108
 30
0.0
  0
VERTEX
  5
10E
330
C7
100
AcDbEntity
  8
Default
100
AcDbVertex
100
AcDb2dVertex
 10
191.1359461151745
 20
68.30011331425173
 30
0.0
  0
VERTEX
  5
10F
330
C7
100
AcDbEntity
  8
Default
100
AcDbVertex
100
AcDb2dVertex
 10
191.1692606752735
 20
68.26009813164883
 30
0.0
  0
VERTEX
  5
110
330
C7
100
AcDbEntity
  8
Default
100
AcDbVertex
100
AcDb2dVertex
 10
191.2011663673294
 20
68.21895081621072
 30
0.0
  0
VERTEX
  5
111
330
C7
100
AcDbEntity
  8
Default
100
AcDbVertex
100
AcDb2dVertex
 10
191.2316247474685
 20
68.17672094724767
 30
0.0
  0
VERTEX
  5
112
330
C7
100
AcDbEntity
  8
Default
100
AcDbVertex
100
AcDb2dVertex
 10
191.2605991157149
 20
68.13345940846258
 30
0.0
  0
VERTEX
  5
113
330
C7
100
AcDbEntity
  8
Default
100
AcDbVertex
100
AcDb2dVertex
 10
191.2880545602117
 20
68.08921832664018
 30
0.0
  0
VERTEX
  5
114
330
C7
100
AcDbEntity
  8
Default
100
AcDbVertex
100
AcDb2dVertex
 10
191.3139579992867
 20
68.04405100883822
 30
0.0
  0
VERTEX
  5
115
330
C7
100
AcDbEntity
  8
Default
100
AcDbVertex
100
AcDb2dVertex
 10
191.3382782213133
 20
67.99801187815672
 30
0.0
  0
VERTEX
  5
116
330
C7
100
AcDbEntity
  8
Default
100
AcDbVertex
100
AcDb2dVertex
 10
191.3609859223182
 20
67.95115640816223
 30
0.0
  0
VERTEX
  5
117
330
C7
100
AcDbEntity
  8
Default
100
AcDbVertex
100
AcDb2dVertex
 10
191.3820537412905
 20
67.90354105604669
 30
0.0
  0
VERTEX
  5
118
330
C7
100
AcDbEntity
  8
Default
100
AcDbVertex
100
AcDb2dVertex
 10
191.401456293149
 20
67.85522319460075
 30
0.0
  0
VERTEX
  5
119
330
C7
100
AcDbEntity
  8
Default
100
AcDbVertex
100
AcDb2dVertex
 10
191.4191701993301
 20
67.80626104308409
 30
0.0
  0
VERTEX
  5
11A
330
C7
100
AcDbEntity
  8
Default
100
AcDbVertex
100
AcDb2dVertex
 10
191.4351741159565
 20
67.75671359707576
 30
0.0
  0
VERTEX
  5
11B
330
C7
100
AcDbEntity
  8
Default
100
AcDbVertex
100
AcDb2dVertex
 10
191.4494487595551
 20
67.70664055738908
 30
0.0
  0
VERTEX
  5
11C
330
C7
100
AcDbEntity
  8
Default
100
AcDbVertex
100
AcDb2dVertex
 10
191.4619769302923
 20
67.6561022581368
 30
0.0
  0
VERTEX
  5
11D
330
C7
100
AcDbEntity
  8
Default
100
AcDbVertex
100
AcDb2dVertex
 10
191.4727435326981
 20
67.60515959403322
 30
0.0
  0
VERTEX
  5
11E
330
C7
100
AcDbEntity
  8
Default
100
AcDbVertex
100
AcDb2dVertex
 10
191.4817355938552
 20
67.55387394702083
 30
0.0
  0
VERTEX
  5
11F
330
C7
100
AcDbEntity
  8
Default
100
AcDbVertex
100
AcDb2dVertex
 10
191.4889422790302
 20
67.50230711230974
 30
0.0
  0
VERTEX
  5
120
330
C7
100
AcDbEntity
  8
Default
100
AcDbVertex
100
AcDb2dVertex
 10
191.4943549047289
 20
67.45052122391937
 30
0.0
  0
VERTEX
  5
121
330
C7
100
AcDbEntity
  8
Default
100
AcDbVertex
100
AcDb2dVertex
 10
191.4979669491587
 20
67.39857867981176
 30
0.0
  0
VERTEX
  5
122
330
C7
100
AcDbEntity
  8
Default
100
AcDbVertex
100
AcDb2dVertex
 10
191.4997740600876
 20
67.34654206670692
 30
0.0
  0
VERTEX
  5
123
330
C7
100
AcDbEntity
  8
Default
100
AcDbVertex
100
AcDb2dVertex
 10
191.4997740600876
 20
67.29447408467061
 30
0.0
  0
VERTEX
  5
124
330
C7
100
AcDbEntity
  8
Default
100
AcDbVertex
100
AcDb2dVertex
 10
191.4979669491587
 20
67.24243747156576
 30
0.0
  0
VERTEX
  5
125
330
C7
100
AcDbEntity
  8
Default
100
AcDbVertex
100
AcDb2dVertex
 10
191.4943549047289
 20
67.19049492745816
 30
0.0
  0
VERTEX
  5
126
330
C7
100
AcDbEntity
  8
Default
100
AcDbVertex
100
AcDb2dVertex
 10
191.4889422790302
 20
67.13870903906779
 30
0.0
  0
VERTEX
  5
127
330
C7
100
AcDbEntity
  8
Default
100
AcDbVertex
100
AcDb2dVertex
 10
191.4817355938552
 20
67.0871422043567
 30
0.0
  0
VERTEX
  5
128
330
C7
100
AcDbEntity
  8
Default
100
AcDbVertex
100
AcDb2dVertex
 10
191.4727435326981
 20
67.0358565573443
 30
0.0
  0
VERTEX
  5
129
330
C7
100
AcDbEntity
  8
Default
100
AcDbVertex
100
AcDb2dVertex
 10
191.4619769302923
 20
66.98491389324073
 30
0.0
  0
VERTEX
  5
12A
330
C7
100
AcDbEntity
  8
Default
100
AcDbVertex
100
AcDb2dVertex
 10
191.4494487595551
 20
66.93437559398846
 30
0.0
  0
VERTEX
  5
12B
330
C7
100
AcDbEntity
  8
Default
100
AcDbVertex
100
AcDb2dVertex
 10
191.4351741159565
 20
66.88430255430177
 30
0.0
  0
VERTEX
  5
12C
330
C7
100
AcDbEntity
  8
Default
100
AcDbVertex
100
AcDb2dVertex
 10
191.4191701993301
 20
66.83475510829344
 30
0.0
  0
VERTEX
  5
12D
330
C7
100
AcDbEntity
  8
Default
100
AcDbVertex
100
AcDb2dVertex
 10
191.401456293149
 20
66.78579295677677
 30
0.0
  0
VERTEX
  5
12E
330
C7
100
AcDbEntity
  8
Default
100
AcDbVertex
100
AcDb2dVertex
 10
191.3820537412905
 20
66.73747509533084
 30
0.0
  0
VERTEX
  5
12F
330
C7
100
AcDbEntity
  8
Default
100
AcDbVertex
100
AcDb2dVertex
 10
191.3609859223182
 20
66.6898597432153
 30
0.0
  0
VERTEX
  5
130
330
C7
100
AcDbEntity
  8
Default
100
AcDbVertex
100
AcDb2dVertex
 10
191.3382782213133
 20
66.64300427322081
 30
0.0
  0
VERTEX
  5
131
330
C7
100
AcDbEntity
  8
Default
100
AcDbVertex
100
AcDb2dVertex
 10
191.3139579992867
 20
66.5969651425393
 30
0.0
  0
VERTEX
  5
132
330
C7
100
AcDbEntity
  8
Default
100
AcDbVertex
100
AcDb2dVertex
 10
191.2880545602117
 20
66.55179782473735
 30
0.0
  0
VERTEX
  5
133
330
C7
100
AcDbEntity
  8
Default
100
AcDbVertex
100
AcDb2dVertex
 10
191.2605991157149
 20
66.50755674291494
 30
0.0
  0
VERTEX
  5
134
330
C7
100
AcDbEntity
  8
Default
100
AcDbVertex
100
AcDb2dVertex
 10
191.2316247474685
 20
66.46429520412985
 30
0.0
  0
VERTEX
  5
135
330
C7
100
AcDbEntity
  8
Default
100
AcDbVertex
100
AcDb2dVertex
 10
191.2011663673294
 20
66.4220653351668
 30
0.0
  0
VERTEX
  5
136
330
C7
100
AcDbEntity
  8
Default
100
AcDbVertex
100
AcDb2dVertex
 10
191.1692606752735
 20
66.3809180197287
 30
0.0
  0
VERTEX
  5
137
330
C7
100
AcDbEntity
  8
Default
100
AcDbVertex
100
AcDb2dVertex
 10
191.1359461151745
 20
66.3409028371258
 30
0.0
  0
VERTEX
  5
138
330
C7
100
AcDbEntity
  8
Default
100
AcDbVertex
100
AcDb2dVertex
 10
191.1012628284826
 20
66.30206800253644
 30
0.0
  0
VERTEX
  5
139
330
C7
100
AcDbEntity
  8
Default
100
AcDbVertex
100
AcDb2dVertex
 10
191.0652526058569
 20
66.26446030891158
 30
0.0
  0
VERTEX
  5
13A
330
C7
100
AcDbEntity
  8
Default
100
AcDbVertex
100
AcDb2dVertex
 10
191.0279588368109
 20
66.22812507059287
 30
0.0
  0
VERTEX
  5
13B
330
C7
100
AcDbEntity
  8
Default
100
AcDbVertex
100
AcDb2dVertex
 10
190.9894264574316
 20
66.19310606871241
 30
0.0
  0
VERTEX
  5
13C
330
C7
100
AcDbEntity
  8
Default
100
AcDbVertex
100
AcDb2dVertex
 10
190.949701896235
 20
66.15944549843995
 30
0.0
  0
VERTEX
  5
13D
330
C7
100
AcDbEntity
  8
Default
100
AcDbVertex
100
AcDb2dVertex
 10
190.9088330182232
 20
66.12718391814091
 30
0.0
  0
VERTEX
  5
13E
330
C7
100
AcDbEntity
  8
Default
100
AcDbVertex
100
AcDb2dVertex
 10
190.8668690672111
 20
66.0963602005068
 30
0.0
  0
VERTEX
  5
13F
330
C7
100
AcDbEntity
  8
Default
100
AcDbVertex
100
AcDb2dVertex
 10
190.8238606064912
 20
66.06701148571656
 30
0.0
  0
VERTEX
  5
140
330
C7
100
AcDbEntity
  8
Default
100
AcDbVertex
100
AcDb2dVertex
 10
190.7798594579089
 20
66.03917313668566
 30
0.0
  0
VERTEX
  5
141
330
C7
100
AcDbEntity
  8
Default
100
AcDbVertex
100
AcDb2dVertex
 10
190.734918639421
 20
66.01287869645638
 30
0.0
  0
VERTEX
  5
142
330
C7
100
AcDbEntity
  8
Default
100
AcDbVertex
100
AcDb2dVertex
 10
190.6890923012135
 20
65.98815984778123
 30
0.0
  0
VERTEX
  5
143
330
C7
100
AcDbEntity
  8
Default
100
AcDbVertex
100
AcDb2dVertex
 10
190.6424356604546
 20
65.96504637494756
 30
0.0
  0
VERTEX
  5
144
330
C7
100
AcDbEntity
  8
Default
100
AcDbVertex
100
AcDb2dVertex
 10
190.5950049347626
 20
65.94356612788988
 30
0.0
  0
VERTEX
  5
145
330
C7
100
AcDbEntity
  8
Default
100
AcDbVertex
100
AcDb2dVertex
 10
190.5468572744675
 20
65.92374498863286
 30
0.0
  0
VERTEX
  5
146
330
C7
100
AcDbEntity
  8
Default
100
AcDbVertex
100
AcDb2dVertex
 10
190.4980506937501
 20
65.90560684010548
 30
0.0
  0
VERTEX
  5
147
330
C7
100
AcDbEntity
  8
Default
100
AcDbVertex
100
AcDb2dVertex
 10
190.4486440007385
 20
65.889173537364
 30
0.0
  0
VERTEX
  5
148
330
C7
100
AcDbEntity
  8
Default
100
AcDbVertex
100
AcDb2dVertex
 10
190.3986967266497
 20
65.87446488125825
 30
0.0
  0
VERTEX
  5
149
330
C7
100
AcDbEntity
  8
Default
100
AcDbVertex
100
AcDb2dVertex
 10
190.3482690540588
 20
65.86149859457325
 30
0.0
  0
VERTEX
  5
14A
330
C7
100
AcDbEntity
  8
Default
100
AcDbVertex
100
AcDb2dVertex
 10
190.2974217443836
 20
65.85029030067452
 30
0.0
  0
VERTEX
  5
14B
330
C7
100
AcDbEntity
  8
Default
100
AcDbVertex
100
AcDb2dVertex
 10
190.2462160646717
 20
65.84085350468322
 30
0.0
  0
VERTEX
  5
14C
330
C7
100
AcDbEntity
  8
Default
100
AcDbVertex
100
AcDb2dVertex
 10
190.1947137137791
 20
65.83319957720354
 30
0.0
  0
VERTEX
  5
14D
330
C7
100
AcDbEntity
  8
Default
100
AcDbVertex
100
AcDb2dVertex
 10
190.1429767480271
 20
65.82733774062193
 30
0.0
  0
VERTEX
  5
14E
330
C7
100
AcDbEntity
  8
Default
100
AcDbVertex
100
AcDb2dVertex
 10
190.0910675064298
 20
65.8232750579949
 30
0.0
  0
VERTEX
  5
14F
330
C7
100
AcDbEntity
  8
Default
100
AcDbVertex
100
AcDb2dVertex
 10
190.0390485355803
 20
65.8210164245386
 30
0.0
  0
VERTEX
  5
150
330
C7
100
AcDbEntity
  8
Default
100
AcDbVertex
100
AcDb2dVertex
 10
189.9869825142868
 20
65.82056456173042
 30
0.0
  0
VERTEX
  5
151
330
C7
100
AcDbEntity
  8
Default
100
AcDbVertex
100
AcDb2dVertex
 10
189.9349321780496
 20
65.82192001402984
 30
0.0
  0
VERTEX
  5
152
330
C7
100
AcDbEntity
  8
Default
100
AcDbVertex
100
AcDb2dVertex
 10
189.88296024347
 20
65.82508114822242
 30
0.0
  0
VERTEX
  5
153
330
C7
100
AcDbEntity
  8
Default
100
AcDbVertex
100
AcDb2dVertex
 10
189.8311293326811
 20
65.83004415538768
 30
0.0
  0
VERTEX
  5
154
330
C7
100
AcDbEntity
  8
Default
100
AcDbVertex
100
AcDb2dVertex
 10
189.7795018978934
 20
65.83680305548853
 30
0.0
  0
VERTEX
  5
155
330
C7
100
AcDbEntity
  8
Default
100
AcDbVertex
100
AcDb2dVertex
 10
189.7281401461447
 20
65.84534970457679
 30
0.0
  0
VERTEX
  5
156
330
C7
100
AcDbEntity
  8
Default
100
AcDbVertex
100
AcDb2dVertex
 10
189.6771059643454
 20
65.85567380460596
 30
0.0
  0
VERTEX
  5
157
330
C7
100
AcDbEntity
  8
Default
100
AcDbVertex
100
AcDb2dVertex
 10
189.6264608447097
 20
65.86776291583965
 30
0.0
  0
VERTEX
  5
158
330
C7
100
AcDbEntity
  8
Default
100
AcDbVertex
100
AcDb2dVertex
 10
189.5762658106622
 20
65.88160247184041
 30
0.0
  0
VERTEX
  5
159
330
C7
100
AcDbEntity
  8
Default
100
AcDbVertex
100
AcDb2dVertex
 10
189.5265813433092
 20
65.89717579702118
 30
0.0
  0
VERTEX
  5
15A
330
C7
100
AcDbEntity
  8
Default
100
AcDbVertex
100
AcDb2dVertex
 10
189.4774673085642
 20
65.91446412673807
 30
0.0
  0
VERTEX
  5
15B
330
C7
100
AcDbEntity
  8
Default
100
AcDbVertex
100
AcDb2dVertex
 10
189.4289828850137
 20
65.93344662990033
 30
0.0
  0
VERTEX
  5
15C
330
C7
100
AcDbEntity
  8
Default
100
AcDbVertex
100
AcDb2dVertex
 10
189.3811864926116
 20
65.95410043407016
 30
0.0
  0
VERTEX
  5
15D
330
C7
100
AcDbEntity
  8
Default
100
AcDbVertex
100
AcDb2dVertex
 10
189.3341357222882
 20
65.97640065302218
 30
0.0
  0
VERTEX
  5
15E
330
C7
100
AcDbEntity
  8
Default
100
AcDbVertex
100
AcDb2dVertex
 10
189.287887266557
 20
66.00032041672948
 30
0.0
  0
VERTEX
  5
15F
330
C7
100
AcDbEntity
  8
Default
100
AcDbVertex
100
AcDb2dVertex
 10
189.242496851205
 20
66.02583090373982
 30
0.0
  0
VERTEX
  5
160
330
C7
100
AcDbEntity
  8
Default
100
AcDbVertex
100
AcDb2dVertex
 10
189.1980191681474
 20
66.05290137590332
 30
0.0
  0
VERTEX
  5
161
330
C7
100
AcDbEntity
  8
Default
100
AcDbVertex
100
AcDb2dVertex
 10
189.1545078095279
 20
66.08149921540945
 30
0.0
  0
VERTEX
  5
162
330
C7
100
AcDbEntity
  8
Default
100
AcDbVertex
100
AcDb2dVertex
 10
189.1120152031447
 20
66.11158996408903
 30
0.0
  0
VERTEX
  5
163
330
C7
100
AcDbEntity
  8
Default
100
AcDbVertex
100
AcDb2dVertex
 10
189.0705925492789
 20
66.1431373649336
 30
0.0
  0
VERTEX
  5
164
330
C7
100
AcDbEntity
  8
Default
100
AcDbVertex
100
AcDb2dVertex
 10
189.0302897590021
 20
66.17610340578227
 30
0.0
  0
VERTEX
  5
165
330
C7
100
AcDbEntity
  8
Default
100
AcDbVertex
100
AcDb2dVertex
 10
188.9911553940375
 20
66.21044836512347
 30
0.0
  0
VERTEX
  5
166
330
C7
100
AcDbEntity
  8
Default
100
AcDbVertex
100
AcDb2dVertex
 10
188.9532366082467
 20
66.24613085995622
 30
0.0
  0
VERTEX
  5
167
330
C7
100
AcDbEntity
  8
Default
100
AcDbVertex
100
AcDb2dVertex
 10
188.9165790908134
 20
66.28310789565349
 30
0.0
  0
VERTEX
  5
168
330
C7
100
AcDbEntity
  8
Default
100
AcDbVertex
100
AcDb2dVertex
 10
188.8812270111907
 20
66.32133491776727
 30
0.0
  0
VERTEX
  5
169
330
C7
100
AcDbEntity
  8
Default
100
AcDbVertex
100
AcDb2dVertex
 10
188.8472229658813
 20
66.36076586571335
 30
0.0
  0
VERTEX
  5
16A
330
C7
100
AcDbEntity
  8
Default
100
AcDbVertex
100
AcDb2dVertex
 10
188.8146079271112
 20
66.40135322827061
 30
0.0
  0
VERTEX
  5
16B
330
C7
100
AcDbEntity
  8
Default
100
AcDbVertex
100
AcDb2dVertex
 10
188.7834211934617
 20
66.44304810082843
 30
0.0
  0
VERTEX
  5
16C
330
C7
100
AcDbEntity
  8
Default
100
AcDbVertex
100
AcDb2dVertex
 10
188.753700342518
 20
66.48580024431287
 30
0.0
  0
VERTEX
  5
16D
330
C7
100
AcDbEntity
  8
Default
100
AcDbVertex
100
AcDb2dVertex
 10
188.7254811855905
 20
66.52955814572088
 30
0.0
  0
VERTEX
  5
16E
330
C7
100
AcDbEntity
  8
Default
100
AcDbVertex
100
AcDb2dVertex
 10
188.6987977245654
 20
66.57426908018948
 30
0.0
  0
VERTEX
  5
16F
330
C7
100
AcDbEntity
  8
Default
100
AcDbVertex
100
AcDb2dVertex
 10
188.6736821109349
 20
66.61987917452502
 30
0.0
  0
VERTEX
  5
170
330
C7
100
AcDbEntity
  8
Default
100
AcDbVertex
100
AcDb2dVertex
 10
188.6501646070573
 20
66.6663334721163
 30
0.0
  0
VERTEX
  5
171
330
C7
100
AcDbEntity
  8
Default
100
AcDbVertex
100
AcDb2dVertex
 10
188.628273549693
 20
66.71357599915292
 30
0.0
  0
VERTEX
  5
172
330
C7
100
AcDbEntity
  8
Default
100
AcDbVertex
100
AcDb2dVertex
 10
188.6080353158611
 20
66.7615498320694
 30
0.0
  0
VERTEX
  5
173
330
C7
100
AcDbEntity
  8
Default
100
AcDbVertex
100
AcDb2dVertex
 10
188.5894742910571
 20
66.81019716613365
 30
0.0
  0
VERTEX
  5
174
330
C7
100
AcDbEntity
  8
Default
100
AcDbVertex
100
AcDb2dVertex
 10
188.5726128398701
 20
66.8594593850971
 30
0.0
  0
VERTEX
  5
175
330
C7
100
AcDbEntity
  8
Default
100
AcDbVertex
100
AcDb2dVertex
 10
188.5574712790356
 20
66.90927713182283
 30
0.0
  0
VERTEX
  5
176
330
C7
100
AcDbEntity
  8
Default
100
AcDbVertex
100
AcDb2dVertex
 10
188.5440678529551
 20
66.9595903798062
 30
0.0
  0
VERTEX
  5
177
330
C7
100
AcDbEntity
  8
Default
100
AcDbVertex
100
AcDb2dVertex
 10
188.5324187117129
 20
67.01033850550218
 30
0.0
  0
VERTEX
  5
178
330
C7
100
AcDbEntity
  8
Default
100
AcDbVertex
100
AcDb2dVertex
 10
188.5225378916171
 20
67.06146036137191
 30
0.0
  0
VERTEX
  5
179
330
C7
100
AcDbEntity
  8
Default
100
AcDbVertex
100
AcDb2dVertex
 10
188.5144372982862
 20
67.11289434956085
 30
0.0
  0
VERTEX
  5
17A
330
C7
100
AcDbEntity
  8
Default
100
AcDbVertex
100
AcDb2dVertex
 10
188.5081266923042
 20
67.16457849611928
 30
0.0
  0
VERTEX
  5
17B
330
C7
100
AcDbEntity
  8
Default
100
AcDbVertex
100
AcDb2dVertex
 10
188.5036136774598
 20
67.21645052567614
 30
0.0
  0
VERTEX
  5
17C
330
C7
100
AcDbEntity
  8
Default
100
AcDbVertex
100
AcDb2dVertex
 10
188.5009036915845
 20
67.268447936476
 30
0.0
  0
SEQEND
  5
17D
330
C7
100
AcDbEntity
  8
Default
  0
POLYLINE
  5
17E
330
1F
100
AcDbEntity
  8
Default
100
AcDb2dPolyline
 66
     1
 10
0.0
 20
0.0
 30
0.0
 70
     1
  0
VERTEX
  5
17F
330
17E
100
AcDbEntity
  8
Default
100
AcDbVertex
100
AcDb2dVertex
 10
11.49999999999999
 20
67.32050807568876
 30
0.0
  0
VERTEX
  5
180
330
17E
100
AcDbEntity
  8
Default
100
AcDbVertex
100
AcDb2dVertex
 10
11.49909630841555
 20
67.37256821490153
 30
0.0
  0
VERTEX
  5
181
330
17E
100
AcDbEntity
  8
Default
100
AcDbVertex
100
AcDb2dVertex
 10
11.49638632254019
 20
67.42456562570139
 30
0.0
  0
VERTEX
  5
182
330
17E
100
AcDbEntity
  8
Default
100
AcDbVertex
100
AcDb2dVertex
 10
11.49187330769582
 20
67.47643765525825
 30
0.0
  0
VERTEX
  5
183
330
17E
100
AcDbEntity
  8
Default
100
AcDbVertex
100
AcDb2dVertex
 10
11.48556270171382
 20
67.52812180181668
 30
0.0
  0
VERTEX
  5
184
330
17E
100
AcDbEntity
  8
Default
100
AcDbVertex
100
AcDb2dVertex
 10
11.47746210838288
 20
67.57955579000561
 30
0.0
  0
VERTEX
  5
185
330
17E
100
AcDbEntity
  8
Default
100
AcDbVertex
100
AcDb2dVertex
 10
11.46758128828704
 20
67.63067764587535
 30
0.0
  0
VERTEX
  5
186
330
17E
100
AcDbEntity
  8
Default
100
AcDbVertex
100
AcDb2dVertex
 10
11.45593214704491
 20
67.68142577157133
 30
0.0
  0
VERTEX
  5
187
330
17E
100
AcDbEntity
  8
Default
100
AcDbVertex
100
AcDb2dVertex
 10
11.44252872096437
 20
67.7317390195547
 30
0.0
  0
VERTEX
  5
188
330
17E
100
AcDbEntity
  8
Default
100
AcDbVertex
100
AcDb2dVertex
 10
11.42738716012989
 20
67.78155676628043
 30
0.0
  0
VERTEX
  5
189
330
17E
100
AcDbEntity
  8
Default
100
AcDbVertex
100
AcDb2dVertex
 10
11.41052570894295
 20
67.83081898524388
 30
0.0
  0
VERTEX
  5
18A
330
17E
100
AcDbEntity
  8
Default
100
AcDbVertex
100
AcDb2dVertex
 10
11.39196468413891
 20
67.87946631930812
 30
0.0
  0
VERTEX
  5
18B
330
17E
100
AcDbEntity
  8
Default
100
AcDbVertex
100
AcDb2dVertex
 10
11.37172645030701
 20
67.9274401522246
 30
0.0
  0
VERTEX
  5
18C
330
17E
100
AcDbEntity
  8
Default
100
AcDbVertex
100
AcDb2dVertex
 10
11.34983539294271
 20
67.97468267926122
 30
0.0
  0
VERTEX
  5
18D
330
17E
100
AcDbEntity
  8
Default
100
AcDbVertex
100
AcDb2dVertex
 10
11.32631788906509
 20
68.0211369768525
 30
0.0
  0
VERTEX
  5
18E
330
17E
100
AcDbEntity
  8
Default
100
AcDbVertex
100
AcDb2dVertex
 10
11.30120227543461
 20
68.06674707118805
 30
0.0
  0
VERTEX
  5
18F
330
17E
100
AcDbEntity
  8
Default
100
AcDbVertex
100
AcDb2dVertex
 10
11.2745188144095
 20
68.11145800565664
 30
0.0
  0
VERTEX
  5
190
330
17E
100
AcDbEntity
  8
Default
100
AcDbVertex
100
AcDb2dVertex
 10
11.24629965748199
 20
68.15521590706466
 30
0.0
  0
VERTEX
  5
191
330
17E
100
AcDbEntity
  8
Default
100
AcDbVertex
100
AcDb2dVertex
 10
11.21657880653827
 20
68.1979680505491
 30
0.0
  0
VERTEX
  5
192
330
17E
100
AcDbEntity
  8
Default
100
AcDbVertex
100
AcDb2dVertex
 10
11.18539207288884
 20
68.23966292310692
 30
0.0
  0
VERTEX
  5
193
330
17E
100
AcDbEntity
  8
Default
100
AcDbVertex
100
AcDb2dVertex
 10
11.15277703411869
 20
68.28025028566418
 30
0.0
  0
VERTEX
  5
194
330
17E
100
AcDbEntity
  8
Default
100
AcDbVertex
100
AcDb2dVertex
 10
11.11877298880925
 20
68.31968123361025
 30
0.0
  0
VERTEX
  5
195
330
17E
100
AcDbEntity
  8
Default
100
AcDbVertex
100
AcDb2dVertex
 10
11.08342090918661
 20
68.35790825572404
 30
0.0
  0
VERTEX
  5
196
330
17E
100
AcDbEntity
  8
Default
100
AcDbVertex
100
AcDb2dVertex
 10
11.04676339175326
 20
68.3948852914213
 30
0.0
  0
VERTEX
  5
197
330
17E
100
AcDbEntity
  8
Default
100
AcDbVertex
100
AcDb2dVertex
 10
11.00884460596252
 20
68.43056778625406
 30
0.0
  0
VERTEX
  5
198
330
17E
100
AcDbEntity
  8
Default
100
AcDbVertex
100
AcDb2dVertex
 10
10.9697102409979
 20
68.46491274559526
 30
0.0
  0
VERTEX
  5
199
330
17E
100
AcDbEntity
  8
Default
100
AcDbVertex
100
AcDb2dVertex
 10
10.92940745072108
 20
68.49787878644393
 30
0.0
  0
VERTEX
  5
19A
330
17E
100
AcDbEntity
  8
Default
100
AcDbVertex
100
AcDb2dVertex
 10
10.88798479685529
 20
68.5294261872885
 30
0.0
  0
VERTEX
  5
19B
330
17E
100
AcDbEntity
  8
Default
100
AcDbVertex
100
AcDb2dVertex
 10
10.84549219047212
 20
68.55951693596808
 30
0.0
  0
VERTEX
  5
19C
330
17E
100
AcDbEntity
  8
Default
100
AcDbVertex
100
AcDb2dVertex
 10
10.80198083185262
 20
68.58811477547421
 30
0.0
  0
VERTEX
  5
19D
330
17E
100
AcDbEntity
  8
Default
100
AcDbVertex
100
AcDb2dVertex
 10
10.75750314879495
 20
68.61518524763771
 30
0.0
  0
VERTEX
  5
19E
330
17E
100
AcDbEntity
  8
Default
100
AcDbVertex
100
AcDb2dVertex
 10
10.71211273344294
 20
68.64069573464805
 30
0.0
  0
VERTEX
  5
19F
330
17E
100
AcDbEntity
  8
Default
100
AcDbVertex
100
AcDb2dVertex
 10
10.66586427771174
 20
68.66461549835535
 30
0.0
  0
VERTEX
  5
1A0
330
17E
100
AcDbEntity
  8
Default
100
AcDbVertex
100
AcDb2dVertex
 10
10.61881350738835
 20
68.68691571730737
 30
0.0
  0
VERTEX
  5
1A1
330
17E
100
AcDbEntity
  8
Default
100
AcDbVertex
100
AcDb2dVertex
 10
10.57101711498633
 20
68.7075695214772
 30
0.0
  0
VERTEX
  5
1A2
330
17E
100
AcDbEntity
  8
Default
100
AcDbVertex
100
AcDb2dVertex
 10
10.52253269143579
 20
68.72655202463946
 30
0.0
  0
VERTEX
  5
1A3
330
17E
100
AcDbEntity
  8
Default
100
AcDbVertex
100
AcDb2dVertex
 10
10.4734186566908
 20
68.74384035435635
 30
0.0
  0
VERTEX
  5
1A4
330
17E
100
AcDbEntity
  8
Default
100
AcDbVertex
100
AcDb2dVertex
 10
10.42373418933784
 20
68.75941367953712
 30
0.0
  0
VERTEX
  5
1A5
330
17E
100
AcDbEntity
  8
Default
100
AcDbVertex
100
AcDb2dVertex
 10
10.37353915529028
 20
68.77325323553788
 30
0.0
  0
VERTEX
  5
1A6
330
17E
100
AcDbEntity
  8
Default
100
AcDbVertex
100
AcDb2dVertex
 10
10.3228940356546
 20
68.78534234677156
 30
0.0
  0
VERTEX
  5
1A7
330
17E
100
AcDbEntity
  8
Default
100
AcDbVertex
100
AcDb2dVertex
 10
10.27185985385533
 20
68.79566644680074
 30
0.0
  0
VERTEX
  5
1A8
330
17E
100
AcDbEntity
  8
Default
100
AcDbVertex
100
AcDb2dVertex
 10
10.22049810210663
 20
68.804213095889
 30
0.0
  0
VERTEX
  5
1A9
330
17E
100
AcDbEntity
  8
Default
100
AcDbVertex
100
AcDb2dVertex
 10
10.16887066731891
 20
68.81097199598985
 30
0.0
  0
VERTEX
  5
1AA
330
17E
100
AcDbEntity
  8
Default
100
AcDbVertex
100
AcDb2dVertex
 10
10.11703975652998
 20
68.8159350031551
 30
0.0
  0
VERTEX
  5
1AB
330
17E
100
AcDbEntity
  8
Default
100
AcDbVertex
100
AcDb2dVertex
 10
10.06506782195035
 20
68.81909613734769
 30
0.0
  0
VERTEX
  5
1AC
330
17E
100
AcDbEntity
  8
Default
100
AcDbVertex
100
AcDb2dVertex
 10
10.01301748571323
 20
68.8204515896471
 30
0.0
  0
VERTEX
  5
1AD
330
17E
100
AcDbEntity
  8
Default
100
AcDbVertex
100
AcDb2dVertex
 10
9.960951464419724
 20
68.81999972683893
 30
0.0
  0
VERTEX
  5
1AE
330
17E
100
AcDbEntity
  8
Default
100
AcDbVertex
100
AcDb2dVertex
 10
9.908932493570203
 20
68.81774109338262
 30
0.0
  0
VERTEX
  5
1AF
330
17E
100
AcDbEntity
  8
Default
100
AcDbVertex
100
AcDb2dVertex
 10
9.85702325197292
 20
68.8136784107556
 30
0.0
  0
VERTEX
  5
1B0
330
17E
100
AcDbEntity
  8
Default
100
AcDbVertex
100
AcDb2dVertex
 10
9.805286286220921
 20
68.80781657417398
 30
0.0
  0
VERTEX
  5
1B1
330
17E
100
AcDbEntity
  8
Default
100
AcDbVertex
100
AcDb2dVertex
 10
9.75378393532828
 20
68.8001626466943
 30
0.0
  0
VERTEX
  5
1B2
330
17E
100
AcDbEntity
  8
Default
100
AcDbVertex
100
AcDb2dVertex
 10
9.702578255616435
 20
68.79072585070301
 30
0.0
  0
VERTEX
  5
1B3
330
17E
100
AcDbEntity
  8
Default
100
AcDbVertex
100
AcDb2dVertex
 10
9.651730945941166
 20
68.77951755680428
 30
0.0
  0
VERTEX
  5
1B4
330
17E
100
AcDbEntity
  8
Default
100
AcDbVertex
100
AcDb2dVertex
 10
9.601303273350263
 20
68.76655127011928
 30
0.0
  0
VERTEX
  5
1B5
330
17E
100
AcDbEntity
  8
Default
100
AcDbVertex
100
AcDb2dVertex
 10
9.551355999261517
 20
68.75184261401353
 30
0.0
  0
VERTEX
  5
1B6
330
17E
100
AcDbEntity
  8
Default
100
AcDbVertex
100
AcDb2dVertex
 10
9.501949306249946
 20
68.73540931127205
 30
0.0
  0
VERTEX
  5
1B7
330
17E
100
AcDbEntity
  8
Default
100
AcDbVertex
100
AcDb2dVertex
 10
9.453142725532464
 20
68.71727116274467
 30
0.0
  0
VERTEX
  5
1B8
330
17E
100
AcDbEntity
  8
Default
100
AcDbVertex
100
AcDb2dVertex
 10
9.404995065237422
 20
68.69745002348765
 30
0.0
  0
VERTEX
  5
1B9
330
17E
100
AcDbEntity
  8
Default
100
AcDbVertex
100
AcDb2dVertex
 10
9.357564339545377
 20
68.67596977642997
 30
0.0
  0
VERTEX
  5
1BA
330
17E
100
AcDbEntity
  8
Default
100
AcDbVertex
100
AcDb2dVertex
 10
9.31090769878653
 20
68.6528563035963
 30
0.0
  0
VERTEX
  5
1BB
330
17E
100
AcDbEntity
  8
Default
100
AcDbVertex
100
AcDb2dVertex
 10
9.265081360579032
 20
68.62813745492114
 30
0.0
  0
VERTEX
  5
1BC
330
17E
100
AcDbEntity
  8
Default
100
AcDbVertex
100
AcDb2dVertex
 10
9.22014054209113
 20
68.60184301469187
 30
0.0
  0
VERTEX
  5
1BD
330
17E
100
AcDbEntity
  8
Default
100
AcDbVertex
100
AcDb2dVertex
 10
9.176139393508777
 20
68.57400466566096
 30
0.0
  0
VERTEX
  5
1BE
330
17E
100
AcDbEntity
  8
Default
100
AcDbVertex
100
AcDb2dVertex
 10
9.133130932788879
 20
68.54465595087073
 30
0.0
  0
VERTEX
  5
1BF
330
17E
100
AcDbEntity
  8
Default
100
AcDbVertex
100
AcDb2dVertex
 10
9.091166981776784
 20
68.51383223323661
 30
0.0
  0
VERTEX
  5
1C0
330
17E
100
AcDbEntity
  8
Default
100
AcDbVertex
100
AcDb2dVertex
 10
9.050298103765003
 20
68.48157065293758
 30
0.0
  0
VERTEX
  5
1C1
330
17E
100
AcDbEntity
  8
Default
100
AcDbVertex
100
AcDb2dVertex
 10
9.010573542568366
 20
68.44791008266512
 30
0.0
  0
VERTEX
  5
1C2
330
17E
100
AcDbEntity
  8
Default
100
AcDbVertex
100
AcDb2dVertex
 10
8.972041163189072
 20
68.41289108078466
 30
0.0
  0
VERTEX
  5
1C3
330
17E
100
AcDbEntity
  8
Default
100
AcDbVertex
100
AcDb2dVertex
 10
8.934747394143086
 20
68.37655584246595
 30
0.0
  0
VERTEX
  5
1C4
330
17E
100
AcDbEntity
  8
Default
100
AcDbVertex
100
AcDb2dVertex
 10
8.898737171517395
 20
68.33894814884108
 30
0.0
  0
VERTEX
  5
1C5
330
17E
100
AcDbEntity
  8
Default
100
AcDbVertex
100
AcDb2dVertex
 10
8.864053884825516
 20
68.30011331425173
 30
0.0
  0
VERTEX
  5
1C6
330
17E
100
AcDbEntity
  8
Default
100
AcDbVertex
100
AcDb2dVertex
 10
8.830739324726528
 20
68.26009813164883
 30
0.0
  0
VERTEX
  5
1C7
330
17E
100
AcDbEntity
  8
Default
100
AcDbVertex
100
AcDb2dVertex
 10
8.79883363267056
 20
68.21895081621072
 30
0.0
  0
VERTEX
  5
1C8
330
17E
100
AcDbEntity
  8
Default
100
AcDbVertex
100
AcDb2dVertex
 10
8.768375252531488
 20
68.17672094724767
 30
0.0
  0
VERTEX
  5
1C9
330
17E
100
AcDbEntity
  8
Default
100
AcDbVertex
100
AcDb2dVertex
 10
8.73940088428506
 20
68.13345940846258
 30
0.0
  0
VERTEX
  5
1CA
330
17E
100
AcDbEntity
  8
Default
100
AcDbVertex
100
AcDb2dVertex
 10
8.71194543978827
 20
68.08921832664018
 30
0.0
  0
VERTEX
  5
1CB
330
17E
100
AcDbEntity
  8
Default
100
AcDbVertex
100
AcDb2dVertex
 10
8.686042000713304
 20
68.04405100883822
 30
0.0
  0
VERTEX
  5
1CC
330
17E
100
AcDbEntity
  8
Default
100
AcDbVertex
100
AcDb2dVertex
 10
8.661721778686697
 20
67.99801187815672
 30
0.0
  0
VERTEX
  5
1CD
330
17E
100
AcDbEntity
  8
Default
100
AcDbVertex
100
AcDb2dVertex
 10
8.639014077681752
 20
67.95115640816223
 30
0.0
  0
VERTEX
  5
1CE
330
17E
100
AcDbEntity
  8
Default
100
AcDbVertex
100
AcDb2dVertex
 10
8.617946258709534
 20
67.90354105604669
 30
0.0
  0
VERTEX
  5
1CF
330
17E
100
AcDbEntity
  8
Default
100
AcDbVertex
100
AcDb2dVertex
 10
8.59854370685099
 20
67.85522319460075
 30
0.0
  0
VERTEX
  5
1D0
330
17E
100
AcDbEntity
  8
Default
100
AcDbVertex
100
AcDb2dVertex
 10
8.58082980066989
 20
67.80626104308409
 30
0.0
  0
VERTEX
  5
1D1
330
17E
100
AcDbEntity
  8
Default
100
AcDbVertex
100
AcDb2dVertex
 10
8.564825884043499
 20
67.75671359707576
 30
0.0
  0
VERTEX
  5
1D2
330
17E
100
AcDbEntity
  8
Default
100
AcDbVertex
100
AcDb2dVertex
 10
8.550551240444841
 20
67.70664055738908
 30
0.0
  0
VERTEX
  5
1D3
330
17E
100
AcDbEntity
  8
Default
100
AcDbVertex
100
AcDb2dVertex
 10
8.538023069707643
 20
67.6561022581368
 30
0.0
  0
VERTEX
  5
1D4
330
17E
100
AcDbEntity
  8
Default
100
AcDbVertex
100
AcDb2dVertex
 10
8.527256467301854
 20
67.60515959403322
 30
0.0
  0
VERTEX
  5
1D5
330
17E
100
AcDbEntity
  8
Default
100
AcDbVertex
100
AcDb2dVertex
 10
8.51826440614479
 20
67.55387394702083
 30
0.0
  0
VERTEX
  5
1D6
330
17E
100
AcDbEntity
  8
Default
100
AcDbVertex
100
AcDb2dVertex
 10
8.511057720969777
 20
67.50230711230974
 30
0.0
  0
VERTEX
  5
1D7
330
17E
100
AcDbEntity
  8
Default
100
AcDbVertex
100
AcDb2dVertex
 10
8.505645095271142
 20
67.45052122391937
 30
0.0
  0
VERTEX
  5
1D8
330
17E
100
AcDbEntity
  8
Default
100
AcDbVertex
100
AcDb2dVertex
 10
8.502033050841275
 20
67.39857867981176
 30
0.0
  0
VERTEX
  5
1D9
330
17E
100
AcDbEntity
  8
Default
100
AcDbVertex
100
AcDb2dVertex
 10
8.500225939912383
 20
67.34654206670692
 30
0.0
  0
VERTEX
  5
1DA
330
17E
100
AcDbEntity
  8
Default
100
AcDbVertex
100
AcDb2dVertex
 10
8.500225939912383
 20
67.29447408467061
 30
0.0
  0
VERTEX
  5
1DB
330
17E
100
AcDbEntity
  8
Default
100
AcDbVertex
100
AcDb2dVertex
 10
8.502033050841275
 20
67.24243747156576
 30
0.0
  0
VERTEX
  5
1DC
330
17E
100
AcDbEntity
  8
Default
100
AcDbVertex
100
AcDb2dVertex
 10
8.505645095271142
 20
67.19049492745816
 30
0.0
  0
VERTEX
  5
1DD
330
17E
100
AcDbEntity
  8
Default
100
AcDbVertex
100
AcDb2dVertex
 10
8.511057720969777
 20
67.13870903906779
 30
0.0
  0
VERTEX
  5
1DE
330
17E
100
AcDbEntity
  8
Default
100
AcDbVertex
100
AcDb2dVertex
 10
8.51826440614479
 20
67.0871422043567
 30
0.0
  0
VERTEX
  5
1DF
330
17E
100
AcDbEntity
  8
Default
100
AcDbVertex
100
AcDb2dVertex
 10
8.527256467301854
 20
67.0358565573443
 30
0.0
  0
VERTEX
  5
1E0
330
17E
100
AcDbEntity
  8
Default
100
AcDbVertex
100
AcDb2dVertex
 10
8.538023069707643
 20
66.98491389324073
 30
0.0
  0
VERTEX
  5
1E1
330
17E
100
AcDbEntity
  8
Default
100
AcDbVertex
100
AcDb2dVertex
 10
8.550551240444841
 20
66.93437559398846
 30
0.0
  0
VERTEX
  5
1E2
330
17E
100
AcDbEntity
  8
Default
100
AcDbVertex
100
AcDb2dVertex
 10
8.564825884043497
 20
66.88430255430177
 30
0.0
  0
VERTEX
  5
1E3
330
17E
100
AcDbEntity
  8
Default
100
AcDbVertex
100
AcDb2dVertex
 10
8.58082980066989
 20
66.83475510829344
 30
0.0
  0
VERTEX
  5
1E4
330
17E
100
AcDbEntity
  8
Default
100
AcDbVertex
100
AcDb2dVertex
 10
8.59854370685099
 20
66.78579295677677
 30
0.0
  0
VERTEX
  5
1E5
330
17E
100
AcDbEntity
  8
Default
100
AcDbVertex
100
AcDb2dVertex
 10
8.617946258709534
 20
66.73747509533084
 30
0.0
  0
VERTEX
  5
1E6
330
17E
100
AcDbEntity
  8
Default
100
AcDbVertex
100
AcDb2dVertex
 10
8.639014077681752
 20
66.6898597432153
 30
0.0
  0
VERTEX
  5
1E7
330
17E
100
AcDbEntity
  8
Default
100
AcDbVertex
100
AcDb2dVertex
 10
8.661721778686697
 20
66.64300427322081
 30
0.0
  0
VERTEX
  5
1E8
330
17E
100
AcDbEntity
  8
Default
100
AcDbVertex
100
AcDb2dVertex
 10
8.686042000713304
 20
66.5969651425393
 30
0.0
  0
VERTEX
  5
1E9
330
17E
100
AcDbEntity
  8
Default
100
AcDbVertex
100
AcDb2dVertex
 10
8.71194543978827
 20
66.55179782473735
 30
0.0
  0
VERTEX
  5
1EA
330
17E
100
AcDbEntity
  8
Default
100
AcDbVertex
100
AcDb2dVertex
 10
8.73940088428506
 20
66.50755674291494
 30
0.0
  0
VERTEX
  5
1EB
330
17E
100
AcDbEntity
  8
Default
100
AcDbVertex
100
AcDb2dVertex
 10
8.768375252531488
 20
66.46429520412985
 30
0.0
  0
VERTEX
  5
1EC
330
17E
100
AcDbEntity
  8
Default
100
AcDbVertex
100
AcDb2dVertex
 10
8.798833632670558
 20
66.4220653351668
 30
0.0
  0
VERTEX
  5
1ED
330
17E
100
AcDbEntity
  8
Default
100
AcDbVertex
100
AcDb2dVertex
 10
8.830739324726526
 20
66.3809180197287
 30
0.0
  0
VERTEX
  5
1EE
330
17E
100
AcDbEntity
  8
Default
100
AcDbVertex
100
AcDb2dVertex
 10
8.864053884825516
 20
66.3409028371258
 30
0.0
  0
VERTEX
  5
1EF
330
17E
100
AcDbEntity
  8
Default
100
AcDbVertex
100
AcDb2dVertex
 10
8.898737171517393
 20
66.30206800253644
 30
0.0
  0
VERTEX
  5
1F0
330
17E
100
AcDbEntity
  8
Default
100
AcDbVertex
100
AcDb2dVertex
 10
8.934747394143086
 20
66.26446030891158
 30
0.0
  0
VERTEX
  5
1F1
330
17E
100
AcDbEntity
  8
Default
100
AcDbVertex
100
AcDb2dVertex
 10
8.97204116318907
 20
66.22812507059287
 30
0.0
  0
VERTEX
  5
1F2
330
17E
100
AcDbEntity
  8
Default
100
AcDbVertex
100
AcDb2dVertex
 10
9.010573542568364
 20
66.19310606871241
 30
0.0
  0
VERTEX
  5
1F3
330
17E
100
AcDbEntity
  8
Default
100
AcDbVertex
100
AcDb2dVertex
 10
9.050298103765002
 20
66.15944549843995
 30
0.0
  0
VERTEX
  5
1F4
330
17E
100
AcDbEntity
  8
Default
100
AcDbVertex
100
AcDb2dVertex
 10
9.091166981776784
 20
66.12718391814091
 30
0.0
  0
VERTEX
  5
1F5
330
17E
100
AcDbEntity
  8
Default
100
AcDbVertex
100
AcDb2dVertex
 10
9.133130932788877
 20
66.0963602005068
 30
0.0
  0
VERTEX
  5
1F6
330
17E
100
AcDbEntity
  8
Default
100
AcDbVertex
100
AcDb2dVertex
 10
9.176139393508775
 20
66.06701148571656
 30
0.0
  0
VERTEX
  5
1F7
330
17E
100
AcDbEntity
  8
Default
100
AcDbVertex
100
AcDb2dVertex
 10
9.22014054209113
 20
66.03917313668566
 30
0.0
  0
VERTEX
  5
1F8
330
17E
100
AcDbEntity
  8
Default
100
AcDbVertex
100
AcDb2dVertex
 10
9.265081360579032
 20
66.01287869645638
 30
0.0
  0
VERTEX
  5
1F9
330
17E
100
AcDbEntity
  8
Default
100
AcDbVertex
100
AcDb2dVertex
 10
9.310907698786528
 20
65.98815984778123
 30
0.0
  0
VERTEX
  5
1FA
330
17E
100
AcDbEntity
  8
Default
100
AcDbVertex
100
AcDb2dVertex
 10
9.357564339545375
 20
65.96504637494756
 30
0.0
  0
VERTEX
  5
1FB
330
17E
100
AcDbEntity
  8
Default
100
AcDbVertex
100
AcDb2dVertex
 10
9.40499506523742
 20
65.94356612788988
 30
0.0
  0
VERTEX
  5
1FC
330
17E
100
AcDbEntity
  8
Default
100
AcDbVertex
100
AcDb2dVertex
 10
9.453142725532464
 20
65.92374498863286
 30
0.0
  0
VERTEX
  5
1FD
330
17E
100
AcDbEntity
  8
Default
100
AcDbVertex
100
AcDb2dVertex
 10
9.501949306249944
 20
65.90560684010548
 30
0.0
  0
VERTEX
  5
1FE
330
17E
100
AcDbEntity
  8
Default
100
AcDbVertex
100
AcDb2dVertex
 10
9.551355999261517
 20
65.889173537364
 30
0.0
  0
VERTEX
  5
1FF
330
17E
100
AcDbEntity
  8
Default
100
AcDbVertex
100
AcDb2dVertex
 10
9.601303273350261
 20
65.87446488125825
 30
0.0
  0
VERTEX
  5
200
330
17E
100
AcDbEntity
  8
Default
100
AcDbVertex
100
AcDb2dVertex
 10
9.651730945941164
 20
65.86149859457325
 30
0.0
  0
VERTEX
  5
201
330
17E
100
AcDbEntity
  8
Default
100
AcDbVertex
100
AcDb2dVertex
 10
9.702578255616434
 20
65.85029030067452
 30
0.0
  0
VERTEX
  5
202
330
17E
100
AcDbEntity
  8
Default
100
AcDbVertex
100
AcDb2dVertex
 10
9.753783935328277
 20
65.84085350468322
 30
0.0
  0
VERTEX
  5
203
330
17E
100
AcDbEntity
  8
Default
100
AcDbVertex
100
AcDb2dVertex
 10
9.80528628622092
 20
65.83319957720354
 30
0.0
  0
VERTEX
  5
204
330
17E
100
AcDbEntity
  8
Default
100
AcDbVertex
100
AcDb2dVertex
 10
9.857023251972919
 20
65.82733774062193
 30
0.0
  0
VERTEX
  5
205
330
17E
100
AcDbEntity
  8
Default
100
AcDbVertex
100
AcDb2dVertex
 10
9.908932493570203
 20
65.8232750579949
 30
0.0
  0
VERTEX
  5
206
330
17E
100
AcDbEntity
  8
Default
100
AcDbVertex
100
AcDb2dVertex
 10
9.960951464419722
 20
65.8210164245386
 30
0.0
  0
VERTEX
  5
207
330
17E
100
AcDbEntity
  8
Default
100
AcDbVertex
100
AcDb2dVertex
 10
10.01301748571323
 20
65.82056456173042
 30
0.0
  0
VERTEX
  5
208
330
17E
100
AcDbEntity
  8
Default
100
AcDbVertex
100
AcDb2dVertex
 10
10.06506782195035
 20
65.82192001402984
 30
0.0
  0
VERTEX
  5
209
330
17E
100
AcDbEntity
  8
Default
100
AcDbVertex
100
AcDb2dVertex
 10
10.11703975652998
 20
65.82508114822242
 30
0.0
  0
VERTEX
  5
20A
330
17E
100
AcDbEntity
  8
Default
100
AcDbVertex
100
AcDb2dVertex
 10
10.16887066731891
 20
65.83004415538768
 30
0.0
  0
VERTEX
  5
20B
330
17E
100
AcDbEntity
  8
Default
100
AcDbVertex
100
AcDb2dVertex
 10
10.22049810210663
 20
65.83680305548853
 30
0.0
  0
VERTEX
  5
20C
330
17E
100
AcDbEntity
  8
Default
100
AcDbVertex
100
AcDb2dVertex
 10
10.27185985385533
 20
65.84534970457679
 30
0.0
  0
VERTEX
  5
20D
330
17E
100
AcDbEntity
  8
Default
100
AcDbVertex
100
AcDb2dVertex
 10
10.3228940356546
 20
65.85567380460596
 30
0.0
  0
VERTEX
  5
20E
330
17E
100
AcDbEntity
  8
Default
100
AcDbVertex
100
AcDb2dVertex
 10
10.37353915529028
 20
65.86776291583965
 30
0.0
  0
VERTEX
  5
20F
330
17E
100
AcDbEntity
  8
Default
100
AcDbVertex
100
AcDb2dVertex
 10
10.42373418933784
 20
65.88160247184041
 30
0.0
  0
VERTEX
  5
210
330
17E
100
AcDbEntity
  8
Default
100
AcDbVertex
100
AcDb2dVertex
 10
10.47341865669079
 20
65.89717579702118
 30
0.0
  0
VERTEX
  5
211
330
17E
100
AcDbEntity
  8
Default
100
AcDbVertex
100
AcDb2dVertex
 10
10.52253269143579
 20
65.91446412673807
 30
0.0
  0
VERTEX
  5
212
330
17E
100
AcDbEntity
  8
Default
100
AcDbVertex
100
AcDb2dVertex
 10
10.57101711498633
 20
65.93344662990033
 30
0.0
  0
VERTEX
  5
213
330
17E
100
AcDbEntity
  8
Default
100
AcDbVertex
100
AcDb2dVertex
 10
10.61881350738835
 20
65.95410043407016
 30
0.0
  0
VERTEX
  5
214
330
17E
100
AcDbEntity
  8
Default
100
AcDbVertex
100
AcDb2dVertex
 10
10.66586427771174
 20
65.97640065302218
 30
0.0
  0
VERTEX
  5
215
330
17E
100
AcDbEntity
  8
Default
100
AcDbVertex
100
AcDb2dVertex
 10
10.71211273344294
 20
66.00032041672948
 30
0.0
  0
VERTEX
  5
216
330
17E
100
AcDbEntity
  8
Default
100
AcDbVertex
100
AcDb2dVertex
 10
10.75750314879495
 20
66.02583090373982
 30
0.0
  0
VERTEX
  5
217
330
17E
100
AcDbEntity
  8
Default
100
AcDbVertex
100
AcDb2dVertex
 10
10.80198083185262
 20
66.05290137590332
 30
0.0
  0
VERTEX
  5
218
330
17E
100
AcDbEntity
  8
Default
100
AcDbVertex
100
AcDb2dVertex
 10
10.84549219047212
 20
66.08149921540945
 30
0.0
  0
VERTEX
  5
219
330
17E
100
AcDbEntity
  8
Default
100
AcDbVertex
100
AcDb2dVertex
 10
10.88798479685529
 20
66.11158996408903
 30
0.0
  0
VERTEX
  5
21A
330
17E
100
AcDbEntity
  8
Default
100
AcDbVertex
100
AcDb2dVertex
 10
10.92940745072108
 20
66.1431373649336
 30
0.0
  0
VERTEX
  5
21B
330
17E
100
AcDbEntity
  8
Default
100
AcDbVertex
100
AcDb2dVertex
 10
10.9697102409979
 20
66.17610340578227
 30
0.0
  0
VERTEX
  5
21C
330
17E
100
AcDbEntity
  8
Default
100
AcDbVertex
100
AcDb2dVertex
 10
11.00884460596252
 20
66.21044836512347
 30
0.0
  0
VERTEX
  5
21D
330
17E
100
AcDbEntity
  8
Default
100
AcDbVertex
100
AcDb2dVertex
 10
11.04676339175326
 20
66.24613085995622
 30
0.0
  0
VERTEX
  5
21E
330
17E
100
AcDbEntity
  8
Default
100
AcDbVertex
100
AcDb2dVertex
 10
11.08342090918661
 20
66.28310789565349
 30
0.0
  0
VERTEX
  5
21F
330
17E
100
AcDbEntity
  8
Default
100
AcDbVertex
100
AcDb2dVertex
 10
11.11877298880925
 20
66.32133491776727
 30
0.0
  0
VERTEX
  5
220
330
17E
100
AcDbEntity
  8
Default
100
AcDbVertex
100
AcDb2dVertex
 10
11.15277703411869
 20
66.36076586571335
 30
0.0
  0
VERTEX
  5
221
330
17E
100
AcDbEntity
  8
Default
100
AcDbVertex
100
AcDb2dVertex
 10
11.18539207288884
 20
66.40135322827061
 30
0.0
  0
VERTEX
  5
222
330
17E
100
AcDbEntity
  8
Default
100
AcDbVertex
100
AcDb2dVertex
 10
11.21657880653827
 20
66.44304810082843
 30
0.0
  0
VERTEX
  5
223
330
17E
100
AcDbEntity
  8
Default
100
AcDbVertex
100
AcDb2dVertex
 10
11.24629965748199
 20
66.48580024431287
 30
0.0
  0
VERTEX
  5
224
330
17E
100
AcDbEntity
  8
Default
100
AcDbVertex
100
AcDb2dVertex
 10
11.2745188144095
 20
66.52955814572088
 30
0.0
  0
VERTEX
  5
225
330
17E
100
AcDbEntity
  8
Default
100
AcDbVertex
100
AcDb2dVertex
 10
11.3012022754346
 20
66.57426908018948
 30
0.0
  0
VERTEX
  5
226
330
17E
100
AcDbEntity
  8
Default
100
AcDbVertex
100
AcDb2dVertex
 10
11.32631788906509
 20
66.61987917452502
 30
0.0
  0
VERTEX
  5
227
330
17E
100
AcDbEntity
  8
Default
100
AcDbVertex
100
AcDb2dVertex
 10
11.34983539294271
 20
66.6663334721163
 30
0.0
  0
VERTEX
  5
228
330
17E
100
AcDbEntity
  8
Default
100
AcDbVertex
100
AcDb2dVertex
 10
11.37172645030701
 20
66.71357599915292
 30
0.0
  0
VERTEX
  5
229
330
17E
100
AcDbEntity
  8
Default
100
AcDbVertex
100
AcDb2dVertex
 10
11.39196468413891
 20
66.7615498320694
 30
0.0
  0
VERTEX
  5
22A
330
17E
100
AcDbEntity
  8
Default
100
AcDbVertex
100
AcDb2dVertex
 10
11.41052570894295
 20
66.81019716613365
 30
0.0
  0
VERTEX
  5
22B
330
17E
100
AcDbEntity
  8
Default
100
AcDbVertex
100
AcDb2dVertex
 10
11.42738716012989
 20
66.8594593850971
 30
0.0
  0
VERTEX
  5
22C
330
17E
100
AcDbEntity
  8
Default
100
AcDbVertex
100
AcDb2dVertex
 10
11.44252872096437
 20
66.90927713182283
 30
0.0
  0
VERTEX
  5
22D
330
17E
100
AcDbEntity
  8
Default
100
AcDbVertex
100
AcDb2dVertex
 10
11.45593214704491
 20
66.9595903798062
 30
0.0
  0
VERTEX
  5
22E
330
17E
100
AcDbEntity
  8
Default
100
AcDbVertex
100
AcDb2dVertex
 10
11.46758128828704
 20
67.01033850550218
 30
0.0
  0
VERTEX
  5
22F
330
17E
100
AcDbEntity
  8
Default
100
AcDbVertex
100
AcDb2dVertex
 10
11.47746210838288
 20
67.06146036137191
 30
0.0
  0
VERTEX
  5
230
330
17E
100
AcDbEntity
  8
Default
100
AcDbVertex
100
AcDb2dVertex
 10
11.48556270171382
 20
67.11289434956085
 30
0.0
  0
VERTEX
  5
231
330
17E
100
AcDbEntity
  8
Default
100
AcDbVertex
100
AcDb2dVertex
 10
11.49187330769582
 20
67.16457849611928
 30
0.0
  0
VERTEX
  5
232
330
17E
100
AcDbEntity
  8
Default
100
AcDbVertex
100
AcDb2dVertex
 10
11.49638632254019
 20
67.21645052567614
 30
0.0
  0
VERTEX
  5
233
330
17E
100
AcDbEntity
  8
Default
100
AcDbVertex
100
AcDb2dVertex
 10
11.49909630841555
 20
67.268447936476
 30
0.0
  0
SEQEND
  5
234
330
17E
100
AcDbEntity
  8
Default
  0
POLYLINE
  5
235
330
1F
100
AcDbEntity
  8
Default
100
AcDb2dPolyline
 66
     1
 10
0.0
 20
0.0
 30
0.0
 70
     1
  0
VERTEX
  5
236
330
235
100
AcDbEntity
  8
Default
100
AcDbVertex
100
AcDb2dVertex
 10
188.5
 20
17.32050807568877
 30
0.0
  0
VERTEX
  5
237
330
235
100
AcDbEntity
  8
Default
100
AcDbVertex
100
AcDb2dVertex
 10
188.5009036915845
 20
17.37256821490154
 30
0.0
  0
VERTEX
  5
238
330
235
100
AcDbEntity
  8
Default
100
AcDbVertex
100
AcDb2dVertex
 10
188.5036136774598
 20
17.42456562570139
 30
0.0
  0
VERTEX
  5
239
330
235
100
AcDbEntity
  8
Default
100
AcDbVertex
100
AcDb2dVertex
 10
188.5081266923042
 20
17.47643765525825
 30
0.0
  0
VERTEX
  5
23A
330
235
100
AcDbEntity
  8
Default
100
AcDbVertex
100
AcDb2dVertex
 10
188.5144372982862
 20
17.52812180181668
 30
0.0
  0
VERTEX
  5
23B
330
235
100
AcDbEntity
  8
Default
100
AcDbVertex
100
AcDb2dVertex
 10
188.5225378916171
 20
17.57955579000562
 30
0.0
  0
VERTEX
  5
23C
330
235
100
AcDbEntity
  8
Default
100
AcDbVertex
100
AcDb2dVertex
 10
188.5324187117129
 20
17.63067764587536
 30
0.0
  0
VERTEX
  5
23D
330
235
100
AcDbEntity
  8
Default
100
AcDbVertex
100
AcDb2dVertex
 10
188.5440678529551
 20
17.68142577157133
 30
0.0
  0
VERTEX
  5
23E
330
235
100
AcDbEntity
  8
Default
100
AcDbVertex
100
AcDb2dVertex
 10
188.5574712790356
 20
17.73173901955471
 30
0.0
  0
VERTEX
  5
23F
330
235
100
AcDbEntity
  8
Default
100
AcDbVertex
100
AcDb2dVertex
 10
188.5726128398701
 20
17.78155676628044
 30
0.0
  0
VERTEX
  5
240
330
235
100
AcDbEntity
  8
Default
100
AcDbVertex
100
AcDb2dVertex
 10
188.5894742910571
 20
17.83081898524389
 30
0.0
  0
VERTEX
  5
241
330
235
100
AcDbEntity
  8
Default
100
AcDbVertex
100
AcDb2dVertex
 10
188.6080353158611
 20
17.87946631930813
 30
0.0
  0
VERTEX
  5
242
330
235
100
AcDbEntity
  8
Default
100
AcDbVertex
100
AcDb2dVertex
 10
188.628273549693
 20
17.92744015222461
 30
0.0
  0
VERTEX
  5
243
330
235
100
AcDbEntity
  8
Default
100
AcDbVertex
100
AcDb2dVertex
 10
188.6501646070573
 20
17.97468267926123
 30
0.0
  0
VERTEX
  5
244
330
235
100
AcDbEntity
  8
Default
100
AcDbVertex
100
AcDb2dVertex
 10
188.6736821109349
 20
18.02113697685251
 30
0.0
  0
VERTEX
  5
245
330
235
100
AcDbEntity
  8
Default
100
AcDbVertex
100
AcDb2dVertex
 10
188.6987977245654
 20
18.06674707118805
 30
0.0
  0
VERTEX
  5
246
330
235
100
AcDbEntity
  8
Default
100
AcDbVertex
100
AcDb2dVertex
 10
188.7254811855905
 20
18.11145800565664
 30
0.0
  0
VERTEX
  5
247
330
235
100
AcDbEntity
  8
Default
100
AcDbVertex
100
AcDb2dVertex
 10
188.753700342518
 20
18.15521590706467
 30
0.0
  0
VERTEX
  5
248
330
235
100
AcDbEntity
  8
Default
100
AcDbVertex
100
AcDb2dVertex
 10
188.7834211934617
 20
18.1979680505491
 30
0.0
  0
VERTEX
  5
249
330
235
100
AcDbEntity
  8
Default
100
AcDbVertex
100
AcDb2dVertex
 10
188.8146079271112
 20
18.23966292310692
 30
0.0
  0
VERTEX
  5
24A
330
235
100
AcDbEntity
  8
Default
100
AcDbVertex
100
AcDb2dVertex
 10
188.8472229658813
 20
18.28025028566418
 30
0.0
  0
VERTEX
  5
24B
330
235
100
AcDbEntity
  8
Default
100
AcDbVertex
100
AcDb2dVertex
 10
188.8812270111907
 20
18.31968123361026
 30
0.0
  0
VERTEX
  5
24C
330
235
100
AcDbEntity
  8
Default
100
AcDbVertex
100
AcDb2dVertex
 10
188.9165790908134
 20
18.35790825572405
 30
0.0
  0
VERTEX
  5
24D
330
235
100
AcDbEntity
  8
Default
100
AcDbVertex
100
AcDb2dVertex
 10
188.9532366082467
 20
18.39488529142131
 30
0.0
  0
VERTEX
  5
24E
330
235
100
AcDbEntity
  8
Default
100
AcDbVertex
100
AcDb2dVertex
 10
188.9911553940375
 20
18.43056778625407
 30
0.0
  0
VERTEX
  5
24F
330
235
100
AcDbEntity
  8
Default
100
AcDbVertex
100
AcDb2dVertex
 10
189.0302897590021
 20
18.46491274559526
 30
0.0
  0
VERTEX
  5
250
330
235
100
AcDbEntity
  8
Default
100
AcDbVertex
100
AcDb2dVertex
 10
189.0705925492789
 20
18.49787878644393
 30
0.0
  0
VERTEX
  5
251
330
235
100
AcDbEntity
  8
Default
100
AcDbVertex
100
AcDb2dVertex
 10
189.1120152031447
 20
18.5294261872885
 30
0.0
  0
VERTEX
  5
252
330
235
100
AcDbEntity
  8
Default
100
AcDbVertex
100
AcDb2dVertex
 10
189.1545078095279
 20
18.55951693596808
 30
0.0
  0
VERTEX
  5
253
330
235
100
AcDbEntity
  8
Default
100
AcDbVertex
100
AcDb2dVertex
 10
189.1980191681474
 20
18.58811477547422
 30
0.0
  0
VERTEX
  5
254
330
235
100
AcDbEntity
  8
Default
100
AcDbVertex
100
AcDb2dVertex
 10
189.242496851205
 20
18.61518524763772
 30
0.0
  0
VERTEX
  5
255
330
235
100
AcDbEntity
  8
Default
100
AcDbVertex
100
AcDb2dVertex
 10
189.287887266557
 20
18.64069573464806
 30
0.0
  0
VERTEX
  5
256
330
235
100
AcDbEntity
  8
Default
100
AcDbVertex
100
AcDb2dVertex
 10
189.3341357222882
 20
18.66461549835535
 30
0.0
  0
VERTEX
  5
257
330
235
100
AcDbEntity
  8
Default
100
AcDbVertex
100
AcDb2dVertex
 10
189.3811864926116
 20
18.68691571730738
 30
0.0
  0
VERTEX
  5
258
330
235
100
AcDbEntity
  8
Default
100
AcDbVertex
100
AcDb2dVertex
 10
189.4289828850137
 20
18.7075695214772
 30
0.0
  0
VERTEX
  5
259
330
235
100
AcDbEntity
  8
Default
100
AcDbVertex
100
AcDb2dVertex
 10
189.4774673085642
 20
18.72655202463946
 30
0.0
  0
VERTEX
  5
25A
330
235
100
AcDbEntity
  8
Default
100
AcDbVertex
100
AcDb2dVertex
 10
189.5265813433092
 20
18.74384035435636
 30
0.0
  0
VERTEX
  5
25B
330
235
100
AcDbEntity
  8
Default
100
AcDbVertex
100
AcDb2dVertex
 10
189.5762658106622
 20
18.75941367953713
 30
0.0
  0
VERTEX
  5
25C
330
235
100
AcDbEntity
  8
Default
100
AcDbVertex
100
AcDb2dVertex
 10
189.6264608447097
 20
18.77325323553788
 30
0.0
  0
VERTEX
  5
25D
330
235
100
AcDbEntity
  8
Default
100
AcDbVertex
100
AcDb2dVertex
 10
189.6771059643454
 20
18.78534234677157
 30
0.0
  0
VERTEX
  5
25E
330
235
100
AcDbEntity
  8
Default
100
AcDbVertex
100
AcDb2dVertex
 10
189.7281401461447
 20
18.79566644680075
 30
0.0
  0
VERTEX
  5
25F
330
235
100
AcDbEntity
  8
Default
100
AcDbVertex
100
AcDb2dVertex
 10
189.7795018978934
 20
18.804213095889
 30
0.0
  0
VERTEX
  5
260
330
235
100
AcDbEntity
  8
Default
100
AcDbVertex
100
AcDb2dVertex
 10
189.8311293326811
 20
18.81097199598985
 30
0.0
  0
VERTEX
  5
261
330
235
100
AcDbEntity
  8
Default
100
AcDbVertex
100
AcDb2dVertex
 10
189.88296024347
 20
18.8159350031551
 30
0.0
  0
VERTEX
  5
262
330
235
100
AcDbEntity
  8
Default
100
AcDbVertex
100
AcDb2dVertex
 10
189.9349321780496
 20
18.81909613734769
 30
0.0
  0
VERTEX
  5
263
330
235
100
AcDbEntity
  8
Default
100
AcDbVertex
100
AcDb2dVertex
 10
189.9869825142868
 20
18.82045158964711
 30
0.0
  0
VERTEX
  5
264
330
235
100
AcDbEntity
  8
Default
100
AcDbVertex
100
AcDb2dVertex
 10
190.0390485355803
 20
18.81999972683893
 30
0.0
  0
VERTEX
  5
265
330
235
100
AcDbEntity
  8
Default
100
AcDbVertex
100
AcDb2dVertex
 10
190.0910675064298
 20
18.81774109338263
 30
0.0
  0
VERTEX
  5
266
330
235
100
AcDbEntity
  8
Default
100
AcDbVertex
100
AcDb2dVertex
 10
190.1429767480271
 20
18.81367841075561
 30
0.0
  0
VERTEX
  5
267
330
235
100
AcDbEntity
  8
Default
100
AcDbVertex
100
AcDb2dVertex
 10
190.1947137137791
 20
18.80781657417399
 30
0.0
  0
VERTEX
  5
268
330
235
100
AcDbEntity
  8
Default
100
AcDbVertex
100
AcDb2dVertex
 10
190.2462160646717
 20
18.80016264669431
 30
0.0
  0
VERTEX
  5
269
330
235
100
AcDbEntity
  8
Default
100
AcDbVertex
100
AcDb2dVertex
 10
190.2974217443836
 20
18.79072585070302
 30
0.0
  0
VERTEX
  5
26A
330
235
100
AcDbEntity
  8
Default
100
AcDbVertex
100
AcDb2dVertex
 10
190.3482690540588
 20
18.77951755680429
 30
0.0
  0
VERTEX
  5
26B
330
235
100
AcDbEntity
  8
Default
100
AcDbVertex
100
AcDb2dVertex
 10
190.3986967266497
 20
18.76655127011928
 30
0.0
  0
VERTEX
  5
26C
330
235
100
AcDbEntity
  8
Default
100
AcDbVertex
100
AcDb2dVertex
 10
190.4486440007385
 20
18.75184261401354
 30
0.0
  0
VERTEX
  5
26D
330
235
100
AcDbEntity
  8
Default
100
AcDbVertex
100
AcDb2dVertex
 10
190.4980506937501
 20
18.73540931127205
 30
0.0
  0
VERTEX
  5
26E
330
235
100
AcDbEntity
  8
Default
100
AcDbVertex
100
AcDb2dVertex
 10
190.5468572744675
 20
18.71727116274468
 30
0.0
  0
VERTEX
  5
26F
330
235
100
AcDbEntity
  8
Default
100
AcDbVertex
100
AcDb2dVertex
 10
190.5950049347626
 20
18.69745002348766
 30
0.0
  0
VERTEX
  5
270
330
235
100
AcDbEntity
  8
Default
100
AcDbVertex
100
AcDb2dVertex
 10
190.6424356604546
 20
18.67596977642998
 30
0.0
  0
VERTEX
  5
271
330
235
100
AcDbEntity
  8
Default
100
AcDbVertex
100
AcDb2dVertex
 10
190.6890923012135
 20
18.6528563035963
 30
0.0
  0
VERTEX
  5
272
330
235
100
AcDbEntity
  8
Default
100
AcDbVertex
100
AcDb2dVertex
 10
190.734918639421
 20
18.62813745492114
 30
0.0
  0
VERTEX
  5
273
330
235
100
AcDbEntity
  8
Default
100
AcDbVertex
100
AcDb2dVertex
 10
190.7798594579089
 20
18.60184301469188
 30
0.0
  0
VERTEX
  5
274
330
235
100
AcDbEntity
  8
Default
100
AcDbVertex
100
AcDb2dVertex
 10
190.8238606064912
 20
18.57400466566097
 30
0.0
  0
VERTEX
  5
275
330
235
100
AcDbEntity
  8
Default
100
AcDbVertex
100
AcDb2dVertex
 10
190.8668690672111
 20
18.54465595087074
 30
0.0
  0
VERTEX
  5
276
330
235
100
AcDbEntity
  8
Default
100
AcDbVertex
100
AcDb2dVertex
 10
190.9088330182232
 20
18.51383223323663
 30
0.0
  0
VERTEX
  5
277
330
235
100
AcDbEntity
  8
Default
100
AcDbVertex
100
AcDb2dVertex
 10
190.949701896235
 20
18.48157065293759
 30
0.0
  0
VERTEX
  5
278
330
235
100
AcDbEntity
  8
Default
100
AcDbVertex
100
AcDb2dVertex
 10
190.9894264574316
 20
18.44791008266512
 30
0.0
  0
VERTEX
  5
279
330
235
100
AcDbEntity
  8
Default
100
AcDbVertex
100
AcDb2dVertex
 10
191.0279588368109
 20
18.41289108078467
 30
0.0
  0
VERTEX
  5
27A
330
235
100
AcDbEntity
  8
Default
100
AcDbVertex
100
AcDb2dVertex
 10
191.0652526058569
 20
18.37655584246595
 30
0.0
  0
VERTEX
  5
27B
330
235
100
AcDbEntity
  8
Default
100
AcDbVertex
100
AcDb2dVertex
 10
191.1012628284826
 20
18.33894814884109
 30
0.0
  0
VERTEX
  5
27C
330
235
100
AcDbEntity
  8
Default
100
AcDbVertex
100
AcDb2dVertex
 10
191.1359461151745
 20
18.30011331425175
 30
0.0
  0
VERTEX
  5
27D
330
235
100
AcDbEntity
  8
Default
100
AcDbVertex
100
AcDb2dVertex
 10
191.1692606752735
 20
18.26009813164884
 30
0.0
  0
VERTEX
  5
27E
330
235
100
AcDbEntity
  8
Default
100
AcDbVertex
100
AcDb2dVertex
 10
191.2011663673294
 20
18.21895081621074
 30
0.0
  0
VERTEX
  5
27F
330
235
100
AcDbEntity
  8
Default
100
AcDbVertex
100
AcDb2dVertex
 10
191.2316247474685
 20
18.17672094724768
 30
0.0
  0
VERTEX
  5
280
330
235
100
AcDbEntity
  8
Default
100
AcDbVertex
100
AcDb2dVertex
 10
191.2605991157149
 20
18.13345940846259
 30
0.0
  0
VERTEX
  5
281
330
235
100
AcDbEntity
  8
Default
100
AcDbVertex
100
AcDb2dVertex
 10
191.2880545602117
 20
18.08921832664019
 30
0.0
  0
VERTEX
  5
282
330
235
100
AcDbEntity
  8
Default
100
AcDbVertex
100
AcDb2dVertex
 10
191.3139579992867
 20
18.04405100883823
 30
0.0
  0
VERTEX
  5
283
330
235
100
AcDbEntity
  8
Default
100
AcDbVertex
100
AcDb2dVertex
 10
191.3382782213133
 20
17.99801187815672
 30
0.0
  0
VERTEX
  5
284
330
235
100
AcDbEntity
  8
Default
100
AcDbVertex
100
AcDb2dVertex
 10
191.3609859223182
 20
17.95115640816224
 30
0.0
  0
VERTEX
  5
285
330
235
100
AcDbEntity
  8
Default
100
AcDbVertex
100
AcDb2dVertex
 10
191.3820537412905
 20
17.9035410560467
 30
0.0
  0
VERTEX
  5
286
330
235
100
AcDbEntity
  8
Default
100
AcDbVertex
100
AcDb2dVertex
 10
191.401456293149
 20
17.85522319460076
 30
0.0
  0
VERTEX
  5
287
330
235
100
AcDbEntity
  8
Default
100
AcDbVertex
100
AcDb2dVertex
 10
191.4191701993301
 20
17.8062610430841
 30
0.0
  0
VERTEX
  5
288
330
235
100
AcDbEntity
  8
Default
100
AcDbVertex
100
AcDb2dVertex
 10
191.4351741159565
 20
17.75671359707577
 30
0.0
  0
VERTEX
  5
289
330
235
100
AcDbEntity
  8
Default
100
AcDbVertex
100
AcDb2dVertex
 10
191.4494487595551
 20
17.70664055738908
 30
0.0
  0
VERTEX
  5
28A
330
235
100
AcDbEntity
  8
Default
100
AcDbVertex
100
AcDb2dVertex
 10
191.4619769302923
 20
17.6561022581368
 30
0.0
  0
VERTEX
  5
28B
330
235
100
AcDbEntity
  8
Default
100
AcDbVertex
100
AcDb2dVertex
 10
191.4727435326981
 20
17.60515959403324
 30
0.0
  0
VERTEX
  5
28C
330
235
100
AcDbEntity
  8
Default
100
AcDbVertex
100
AcDb2dVertex
 10
191.4817355938552
 20
17.55387394702083
 30
0.0
  0
VERTEX
  5
28D
330
235
100
AcDbEntity
  8
Default
100
AcDbVertex
100
AcDb2dVertex
 10
191.4889422790302
 20
17.50230711230974
 30
0.0
  0
VERTEX
  5
28E
330
235
100
AcDbEntity
  8
Default
100
AcDbVertex
100
AcDb2dVertex
 10
191.4943549047289
 20
17.45052122391937
 30
0.0
  0
VERTEX
  5
28F
330
235
100
AcDbEntity
  8
Default
100
AcDbVertex
100
AcDb2dVertex
 10
191.4979669491587
 20
17.39857867981177
 30
0.0
  0
VERTEX
  5
290
330
235
100
AcDbEntity
  8
Default
100
AcDbVertex
100
AcDb2dVertex
 10
191.4997740600876
 20
17.34654206670692
 30
0.0
  0
VERTEX
  5
291
330
235
100
AcDbEntity
  8
Default
100
AcDbVertex
100
AcDb2dVertex
 10
191.4997740600876
 20
17.29447408467062
 30
0.0
  0
VERTEX
  5
292
330
235
100
AcDbEntity
  8
Default
100
AcDbVertex
100
AcDb2dVertex
 10
191.4979669491587
 20
17.24243747156577
 30
0.0
  0
VERTEX
  5
293
330
235
100
AcDbEntity
  8
Default
100
AcDbVertex
100
AcDb2dVertex
 10
191.4943549047289
 20
17.19049492745817
 30
0.0
  0
VERTEX
  5
294
330
235
100
AcDbEntity
  8
Default
100
AcDbVertex
100
AcDb2dVertex
 10
191.4889422790302
 20
17.1387090390678
 30
0.0
  0
VERTEX
  5
295
330
235
100
AcDbEntity
  8
Default
100
AcDbVertex
100
AcDb2dVertex
 10
191.4817355938552
 20
17.08714220435671
 30
0.0
  0
VERTEX
  5
296
330
235
100
AcDbEntity
  8
Default
100
AcDbVertex
100
AcDb2dVertex
 10
191.4727435326981
 20
17.03585655734431
 30
0.0
  0
VERTEX
  5
297
330
235
100
AcDbEntity
  8
Default
100
AcDbVertex
100
AcDb2dVertex
 10
191.4619769302923
 20
16.98491389324074
 30
0.0
  0
VERTEX
  5
298
330
235
100
AcDbEntity
  8
Default
100
AcDbVertex
100
AcDb2dVertex
 10
191.4494487595551
 20
16.93437559398846
 30
0.0
  0
VERTEX
  5
299
330
235
100
AcDbEntity
  8
Default
100
AcDbVertex
100
AcDb2dVertex
 10
191.4351741159565
 20
16.88430255430178
 30
0.0
  0
VERTEX
  5
29A
330
235
100
AcDbEntity
  8
Default
100
AcDbVertex
100
AcDb2dVertex
 10
191.4191701993301
 20
16.83475510829345
 30
0.0
  0
VERTEX
  5
29B
330
235
100
AcDbEntity
  8
Default
100
AcDbVertex
100
AcDb2dVertex
 10
191.401456293149
 20
16.78579295677678
 30
0.0
  0
VERTEX
  5
29C
330
235
100
AcDbEntity
  8
Default
100
AcDbVertex
100
AcDb2dVertex
 10
191.3820537412905
 20
16.73747509533084
 30
0.0
  0
VERTEX
  5
29D
330
235
100
AcDbEntity
  8
Default
100
AcDbVertex
100
AcDb2dVertex
 10
191.3609859223182
 20
16.6898597432153
 30
0.0
  0
VERTEX
  5
29E
330
235
100
AcDbEntity
  8
Default
100
AcDbVertex
100
AcDb2dVertex
 10
191.3382782213133
 20
16.64300427322082
 30
0.0
  0
VERTEX
  5
29F
330
235
100
AcDbEntity
  8
Default
100
AcDbVertex
100
AcDb2dVertex
 10
191.3139579992867
 20
16.59696514253931
 30
0.0
  0
VERTEX
  5
2A0
330
235
100
AcDbEntity
  8
Default
100
AcDbVertex
100
AcDb2dVertex
 10
191.2880545602117
 20
16.55179782473736
 30
0.0
  0
VERTEX
  5
2A1
330
235
100
AcDbEntity
  8
Default
100
AcDbVertex
100
AcDb2dVertex
 10
191.2605991157149
 20
16.50755674291495
 30
0.0
  0
VERTEX
  5
2A2
330
235
100
AcDbEntity
  8
Default
100
AcDbVertex
100
AcDb2dVertex
 10
191.2316247474685
 20
16.46429520412986
 30
0.0
  0
VERTEX
  5
2A3
330
235
100
AcDbEntity
  8
Default
100
AcDbVertex
100
AcDb2dVertex
 10
191.2011663673294
 20
16.42206533516681
 30
0.0
  0
VERTEX
  5
2A4
330
235
100
AcDbEntity
  8
Default
100
AcDbVertex
100
AcDb2dVertex
 10
191.1692606752735
 20
16.3809180197287
 30
0.0
  0
VERTEX
  5
2A5
330
235
100
AcDbEntity
  8
Default
100
AcDbVertex
100
AcDb2dVertex
 10
191.1359461151745
 20
16.3409028371258
 30
0.0
  0
VERTEX
  5
2A6
330
235
100
AcDbEntity
  8
Default
100
AcDbVertex
100
AcDb2dVertex
 10
191.1012628284826
 20
16.30206800253645
 30
0.0
  0
VERTEX
  5
2A7
330
235
100
AcDbEntity
  8
Default
100
AcDbVertex
100
AcDb2dVertex
 10
191.0652526058569
 20
16.26446030891159
 30
0.0
  0
VERTEX
  5
2A8
330
235
100
AcDbEntity
  8
Default
100
AcDbVertex
100
AcDb2dVertex
 10
191.0279588368109
 20
16.22812507059287
 30
0.0
  0
VERTEX
  5
2A9
330
235
100
AcDbEntity
  8
Default
100
AcDbVertex
100
AcDb2dVertex
 10
190.9894264574316
 20
16.19310606871242
 30
0.0
  0
VERTEX
  5
2AA
330
235
100
AcDbEntity
  8
Default
100
AcDbVertex
100
AcDb2dVertex
 10
190.949701896235
 20
16.15944549843995
 30
0.0
  0
VERTEX
  5
2AB
330
235
100
AcDbEntity
  8
Default
100
AcDbVertex
100
AcDb2dVertex
 10
190.9088330182232
 20
16.12718391814091
 30
0.0
  0
VERTEX
  5
2AC
330
235
100
AcDbEntity
  8
Default
100
AcDbVertex
100
AcDb2dVertex
 10
190.8668690672111
 20
16.0963602005068
 30
0.0
  0
VERTEX
  5
2AD
330
235
100
AcDbEntity
  8
Default
100
AcDbVertex
100
AcDb2dVertex
 10
190.8238606064912
 20
16.06701148571657
 30
0.0
  0
VERTEX
  5
2AE
330
235
100
AcDbEntity
  8
Default
100
AcDbVertex
100
AcDb2dVertex
 10
190.7798594579089
 20
16.03917313668567
 30
0.0
  0
VERTEX
  5
2AF
330
235
100
AcDbEntity
  8
Default
100
AcDbVertex
100
AcDb2dVertex
 10
190.734918639421
 20
16.0128786964564
 30
0.0
  0
VERTEX
  5
2B0
330
235
100
AcDbEntity
  8
Default
100
AcDbVertex
100
AcDb2dVertex
 10
190.6890923012135
 20
15.98815984778124
 30
0.0
  0
VERTEX
  5
2B1
330
235
100
AcDbEntity
  8
Default
100
AcDbVertex
100
AcDb2dVertex
 10
190.6424356604546
 20
15.96504637494757
 30
0.0
  0
VERTEX
  5
2B2
330
235
100
AcDbEntity
  8
Default
100
AcDbVertex
100
AcDb2dVertex
 10
190.5950049347626
 20
15.94356612788989
 30
0.0
  0
VERTEX
  5
2B3
330
235
100
AcDbEntity
  8
Default
100
AcDbVertex
100
AcDb2dVertex
 10
190.5468572744675
 20
15.92374498863286
 30
0.0
  0
VERTEX
  5
2B4
330
235
100
AcDbEntity
  8
Default
100
AcDbVertex
100
AcDb2dVertex
 10
190.4980506937501
 20
15.90560684010549
 30
0.0
  0
VERTEX
  5
2B5
330
235
100
AcDbEntity
  8
Default
100
AcDbVertex
100
AcDb2dVertex
 10
190.4486440007385
 20
15.889173537364
 30
0.0
  0
VERTEX
  5
2B6
330
235
100
AcDbEntity
  8
Default
100
AcDbVertex
100
AcDb2dVertex
 10
190.3986967266497
 20
15.87446488125826
 30
0.0
  0
VERTEX
  5
2B7
330
235
100
AcDbEntity
  8
Default
100
AcDbVertex
100
AcDb2dVertex
 10
190.3482690540588
 20
15.86149859457325
 30
0.0
  0
VERTEX
  5
2B8
330
235
100
AcDbEntity
  8
Default
100
AcDbVertex
100
AcDb2dVertex
 10
190.2974217443836
 20
15.85029030067452
 30
0.0
  0
VERTEX
  5
2B9
330
235
100
AcDbEntity
  8
Default
100
AcDbVertex
100
AcDb2dVertex
 10
190.2462160646717
 20
15.84085350468324
 30
0.0
  0
VERTEX
  5
2BA
330
235
100
AcDbEntity
  8
Default
100
AcDbVertex
100
AcDb2dVertex
 10
190.1947137137791
 20
15.83319957720355
 30
0.0
  0
VERTEX
  5
2BB
330
235
100
AcDbEntity
  8
Default
100
AcDbVertex
100
AcDb2dVertex
 10
190.1429767480271
 20
15.82733774062194
 30
0.0
  0
VERTEX
  5
2BC
330
235
100
AcDbEntity
  8
Default
100
AcDbVertex
100
AcDb2dVertex
 10
190.0910675064298
 20
15.82327505799491
 30
0.0
  0
VERTEX
  5
2BD
330
235
100
AcDbEntity
  8
Default
100
AcDbVertex
100
AcDb2dVertex
 10
190.0390485355803
 20
15.82101642453861
 30
0.0
  0
VERTEX
  5
2BE
330
235
100
AcDbEntity
  8
Default
100
AcDbVertex
100
AcDb2dVertex
 10
189.9869825142868
 20
15.82056456173043
 30
0.0
  0
VERTEX
  5
2BF
330
235
100
AcDbEntity
  8
Default
100
AcDbVertex
100
AcDb2dVertex
 10
189.9349321780496
 20
15.82192001402985
 30
0.0
  0
VERTEX
  5
2C0
330
235
100
AcDbEntity
  8
Default
100
AcDbVertex
100
AcDb2dVertex
 10
189.88296024347
 20
15.82508114822244
 30
0.0
  0
VERTEX
  5
2C1
330
235
100
AcDbEntity
  8
Default
100
AcDbVertex
100
AcDb2dVertex
 10
189.8311293326811
 20
15.83004415538769
 30
0.0
  0
VERTEX
  5
2C2
330
235
100
AcDbEntity
  8
Default
100
AcDbVertex
100
AcDb2dVertex
 10
189.7795018978934
 20
15.83680305548854
 30
0.0
  0
VERTEX
  5
2C3
330
235
100
AcDbEntity
  8
Default
100
AcDbVertex
100
AcDb2dVertex
 10
189.7281401461447
 20
15.84534970457679
 30
0.0
  0
VERTEX
  5
2C4
330
235
100
AcDbEntity
  8
Default
100
AcDbVertex
100
AcDb2dVertex
 10
189.6771059643454
 20
15.85567380460597
 30
0.0
  0
VERTEX
  5
2C5
330
235
100
AcDbEntity
  8
Default
100
AcDbVertex
100
AcDb2dVertex
 10
189.6264608447097
 20
15.86776291583966
 30
0.0
  0
VERTEX
  5
2C6
330
235
100
AcDbEntity
  8
Default
100
AcDbVertex
100
AcDb2dVertex
 10
189.5762658106622
 20
15.88160247184042
 30
0.0
  0
VERTEX
  5
2C7
330
235
100
AcDbEntity
  8
Default
100
AcDbVertex
100
AcDb2dVertex
 10
189.5265813433092
 20
15.89717579702118
 30
0.0
  0
VERTEX
  5
2C8
330
235
100
AcDbEntity
  8
Default
100
AcDbVertex
100
AcDb2dVertex
 10
189.4774673085642
 20
15.91446412673808
 30
0.0
  0
VERTEX
  5
2C9
330
235
100
AcDbEntity
  8
Default
100
AcDbVertex
100
AcDb2dVertex
 10
189.4289828850137
 20
15.93344662990035
 30
0.0
  0
VERTEX
  5
2CA
330
235
100
AcDbEntity
  8
Default
100
AcDbVertex
100
AcDb2dVertex
 10
189.3811864926116
 20
15.95410043407017
 30
0.0
  0
VERTEX
  5
2CB
330
235
100
AcDbEntity
  8
Default
100
AcDbVertex
100
AcDb2dVertex
 10
189.3341357222882
 20
15.97640065302219
 30
0.0
  0
VERTEX
  5
2CC
330
235
100
AcDbEntity
  8
Default
100
AcDbVertex
100
AcDb2dVertex
 10
189.287887266557
 20
16.00032041672948
 30
0.0
  0
VERTEX
  5
2CD
330
235
100
AcDbEntity
  8
Default
100
AcDbVertex
100
AcDb2dVertex
 10
189.242496851205
 20
16.02583090373982
 30
0.0
  0
VERTEX
  5
2CE
330
235
100
AcDbEntity
  8
Default
100
AcDbVertex
100
AcDb2dVertex
 10
189.1980191681474
 20
16.05290137590332
 30
0.0
  0
VERTEX
  5
2CF
330
235
100
AcDbEntity
  8
Default
100
AcDbVertex
100
AcDb2dVertex
 10
189.1545078095279
 20
16.08149921540946
 30
0.0
  0
VERTEX
  5
2D0
330
235
100
AcDbEntity
  8
Default
100
AcDbVertex
100
AcDb2dVertex
 10
189.1120152031447
 20
16.11158996408904
 30
0.0
  0
VERTEX
  5
2D1
330
235
100
AcDbEntity
  8
Default
100
AcDbVertex
100
AcDb2dVertex
 10
189.0705925492789
 20
16.14313736493361
 30
0.0
  0
VERTEX
  5
2D2
330
235
100
AcDbEntity
  8
Default
100
AcDbVertex
100
AcDb2dVertex
 10
189.0302897590021
 20
16.17610340578228
 30
0.0
  0
VERTEX
  5
2D3
330
235
100
AcDbEntity
  8
Default
100
AcDbVertex
100
AcDb2dVertex
 10
188.9911553940375
 20
16.21044836512348
 30
0.0
  0
VERTEX
  5
2D4
330
235
100
AcDbEntity
  8
Default
100
AcDbVertex
100
AcDb2dVertex
 10
188.9532366082467
 20
16.24613085995623
 30
0.0
  0
VERTEX
  5
2D5
330
235
100
AcDbEntity
  8
Default
100
AcDbVertex
100
AcDb2dVertex
 10
188.9165790908134
 20
16.28310789565349
 30
0.0
  0
VERTEX
  5
2D6
330
235
100
AcDbEntity
  8
Default
100
AcDbVertex
100
AcDb2dVertex
 10
188.8812270111907
 20
16.32133491776728
 30
0.0
  0
VERTEX
  5
2D7
330
235
100
AcDbEntity
  8
Default
100
AcDbVertex
100
AcDb2dVertex
 10
188.8472229658813
 20
16.36076586571336
 30
0.0
  0
VERTEX
  5
2D8
330
235
100
AcDbEntity
  8
Default
100
AcDbVertex
100
AcDb2dVertex
 10
188.8146079271112
 20
16.40135322827062
 30
0.0
  0
VERTEX
  5
2D9
330
235
100
AcDbEntity
  8
Default
100
AcDbVertex
100
AcDb2dVertex
 10
188.7834211934617
 20
16.44304810082844
 30
0.0
  0
VERTEX
  5
2DA
330
235
100
AcDbEntity
  8
Default
100
AcDbVertex
100
AcDb2dVertex
 10
188.753700342518
 20
16.48580024431288
 30
0.0
  0
VERTEX
  5
2DB
330
235
100
AcDbEntity
  8
Default
100
AcDbVertex
100
AcDb2dVertex
 10
188.7254811855905
 20
16.5295581457209
 30
0.0
  0
VERTEX
  5
2DC
330
235
100
AcDbEntity
  8
Default
100
AcDbVertex
100
AcDb2dVertex
 10
188.6987977245654
 20
16.57426908018948
 30
0.0
  0
VERTEX
  5
2DD
330
235
100
AcDbEntity
  8
Default
100
AcDbVertex
100
AcDb2dVertex
 10
188.6736821109349
 20
16.61987917452503
 30
0.0
  0
VERTEX
  5
2DE
330
235
100
AcDbEntity
  8
Default
100
AcDbVertex
100
AcDb2dVertex
 10
188.6501646070573
 20
16.66633347211631
 30
0.0
  0
VERTEX
  5
2DF
330
235
100
AcDbEntity
  8
Default
100
AcDbVertex
100
AcDb2dVertex
 10
188.628273549693
 20
16.71357599915293
 30
0.0
  0
VERTEX
  5
2E0
330
235
100
AcDbEntity
  8
Default
100
AcDbVertex
100
AcDb2dVertex
 10
188.6080353158611
 20
16.76154983206942
 30
0.0
  0
VERTEX
  5
2E1
330
235
100
AcDbEntity
  8
Default
100
AcDbVertex
100
AcDb2dVertex
 10
188.5894742910571
 20
16.81019716613365
 30
0.0
  0
VERTEX
  5
2E2
330
235
100
AcDbEntity
  8
Default
100
AcDbVertex
100
AcDb2dVertex
 10
188.5726128398701
 20
16.8594593850971
 30
0.0
  0
VERTEX
  5
2E3
330
235
100
AcDbEntity
  8
Default
100
AcDbVertex
100
AcDb2dVertex
 10
188.5574712790356
 20
16.90927713182283
 30
0.0
  0
VERTEX
  5
2E4
330
235
100
AcDbEntity
  8
Default
100
AcDbVertex
100
AcDb2dVertex
 10
188.5440678529551
 20
16.95959037980621
 30
0.0
  0
VERTEX
  5
2E5
330
235
100
AcDbEntity
  8
Default
100
AcDbVertex
100
AcDb2dVertex
 10
188.5324187117129
 20
17.01033850550218
 30
0.0
  0
VERTEX
  5
2E6
330
235
100
AcDbEntity
  8
Default
100
AcDbVertex
100
AcDb2dVertex
 10
188.5225378916171
 20
17.06146036137192
 30
0.0
  0
VERTEX
  5
2E7
330
235
100
AcDbEntity
  8
Default
100
AcDbVertex
100
AcDb2dVertex
 10
188.5144372982862
 20
17.11289434956086
 30
0.0
  0
VERTEX
  5
2E8
330
235
100
AcDbEntity
  8
Default
100
AcDbVertex
100
AcDb2dVertex
 10
188.5081266923042
 20
17.16457849611929
 30
0.0
  0
VERTEX
  5
2E9
330
235
100
AcDbEntity
  8
Default
100
AcDbVertex
100
AcDb2dVertex
 10
188.5036136774598
 20
17.21645052567615
 30
0.0
  0
VERTEX
  5
2EA
330
235
100
AcDbEntity
  8
Default
100
AcDbVertex
100
AcDb2dVertex
 10
188.5009036915845
 20
17.268447936476
 30
0.0
  0
SEQEND
  5
2EB
330
235
100
AcDbEntity
  8
Default
  0
POLYLINE
  5
2EC
330
1F
100
AcDbEntity
  8
Default
100
AcDb2dPolyline
 66
     1
 10
0.0
 20
0.0
 30
0.0
 70
     1
  0
VERTEX
  5
2ED
330
2EC
100
AcDbEntity
  8
Default
100
AcDbVertex
100
AcDb2dVertex
 10
11.49999999999999
 20
17.32050807568877
 30
0.0
  0
VERTEX
  5
2EE
330
2EC
100
AcDbEntity
  8
Default
100
AcDbVertex
100
AcDb2dVertex
 10
11.49909630841555
 20
17.37256821490154
 30
0.0
  0
VERTEX
  5
2EF
330
2EC
100
AcDbEntity
  8
Default
100
AcDbVertex
100
AcDb2dVertex
 10
11.49638632254019
 20
17.42456562570139
 30
0.0
  0
VERTEX
  5
2F0
330
2EC
100
AcDbEntity
  8
Default
100
AcDbVertex
100
AcDb2dVertex
 10
11.49187330769582
 20
17.47643765525825
 30
0.0
  0
VERTEX
  5
2F1
330
2EC
100
AcDbEntity
  8
Default
100
AcDbVertex
100
AcDb2dVertex
 10
11.48556270171382
 20
17.52812180181668
 30
0.0
  0
VERTEX
  5
2F2
330
2EC
100
AcDbEntity
  8
Default
100
AcDbVertex
100
AcDb2dVertex
 10
11.47746210838288
 20
17.57955579000562
 30
0.0
  0
VERTEX
  5
2F3
330
2EC
100
AcDbEntity
  8
Default
100
AcDbVertex
100
AcDb2dVertex
 10
11.46758128828704
 20
17.63067764587536
 30
0.0
  0
VERTEX
  5
2F4
330
2EC
100
AcDbEntity
  8
Default
100
AcDbVertex
100
AcDb2dVertex
 10
11.45593214704491
 20
17.68142577157133
 30
0.0
  0
VERTEX
  5
2F5
330
2EC
100
AcDbEntity
  8
Default
100
AcDbVertex
100
AcDb2dVertex
 10
11.44252872096437
 20
17.73173901955471
 30
0.0
  0
VERTEX
  5
2F6
330
2EC
100
AcDbEntity
  8
Default
100
AcDbVertex
100
AcDb2dVertex
 10
11.42738716012989
 20
17.78155676628044
 30
0.0
  0
VERTEX
  5
2F7
330
2EC
100
AcDbEntity
  8
Default
100
AcDbVertex
100
AcDb2dVertex
 10
11.41052570894295
 20
17.83081898524389
 30
0.0
  0
VERTEX
  5
2F8
330
2EC
100
AcDbEntity
  8
Default
100
AcDbVertex
100
AcDb2dVertex
 10
11.39196468413891
 20
17.87946631930813
 30
0.0
  0
VERTEX
  5
2F9
330
2EC
100
AcDbEntity
  8
Default
100
AcDbVertex
100
AcDb2dVertex
 10
11.37172645030701
 20
17.92744015222461
 30
0.0
  0
VERTEX
  5
2FA
330
2EC
100
AcDbEntity
  8
Default
100
AcDbVertex
100
AcDb2dVertex
 10
11.34983539294271
 20
17.97468267926123
 30
0.0
  0
VERTEX
  5
2FB
330
2EC
100
AcDbEntity
  8
Default
100
AcDbVertex
100
AcDb2dVertex
 10
11.32631788906509
 20
18.02113697685251
 30
0.0
  0
VERTEX
  5
2FC
330
2EC
100
AcDbEntity
  8
Default
100
AcDbVertex
100
AcDb2dVertex
 10
11.30120227543461
 20
18.06674707118805
 30
0.0
  0
VERTEX
  5
2FD
330
2EC
100
AcDbEntity
  8
Default
100
AcDbVertex
100
AcDb2dVertex
 10
11.2745188144095
 20
18.11145800565664
 30
0.0
  0
VERTEX
  5
2FE
330
2EC
100
AcDbEntity
  8
Default
100
AcDbVertex
100
AcDb2dVertex
 10
11.24629965748199
 20
18.15521590706467
 30
0.0
  0
VERTEX
  5
2FF
330
2EC
100
AcDbEntity
  8
Default
100
AcDbVertex
100
AcDb2dVertex
 10
11.21657880653827
 20
18.1979680505491
 30
0.0
  0
VERTEX
  5
300
330
2EC
100
AcDbEntity
  8
Default
100
AcDbVertex
100
AcDb2dVertex
 10
11.18539207288884
 20
18.23966292310692
 30
0.0
  0
VERTEX
  5
301
330
2EC
100
AcDbEntity
  8
Default
100
AcDbVertex
100
AcDb2dVertex
 10
11.15277703411869
 20
18.28025028566418
 30
0.0
  0
VERTEX
  5
302
330
2EC
100
AcDbEntity
  8
Default
100
AcDbVertex
100
AcDb2dVertex
 10
11.11877298880925
 20
18.31968123361026
 30
0.0
  0
VERTEX
  5
303
330
2EC
100
AcDbEntity
  8
Default
100
AcDbVertex
100
AcDb2dVertex
 10
11.08342090918661
 20
18.35790825572405
 30
0.0
  0
VERTEX
  5
304
330
2EC
100
AcDbEntity
  8
Default
100
AcDbVertex
100
AcDb2dVertex
 10
11.04676339175326
 20
18.39488529142131
 30
0.0
  0
VERTEX
  5
305
330
2EC
100
AcDbEntity
  8
Default
100
AcDbVertex
100
AcDb2dVertex
 10
11.00884460596252
 20
18.43056778625407
 30
0.0
  0
VERTEX
  5
306
330
2EC
100
AcDbEntity
  8
Default
100
AcDbVertex
100
AcDb2dVertex
 10
10.9697102409979
 20
18.46491274559526
 30
0.0
  0
VERTEX
  5
307
330
2EC
100
AcDbEntity
  8
Default
100
AcDbVertex
100
AcDb2dVertex
 10
10.92940745072108
 20
18.49787878644393
 30
0.0
  0
VERTEX
  5
308
330
2EC
100
AcDbEntity
  8
Default
100
AcDbVertex
100
AcDb2dVertex
 10
10.88798479685529
 20
18.5294261872885
 30
0.0
  0
VERTEX
  5
309
330
2EC
100
AcDbEntity
  8
Default
100
AcDbVertex
100
AcDb2dVertex
 10
10.84549219047212
 20
18.55951693596808
 30
0.0
  0
VERTEX
  5
30A
330
2EC
100
AcDbEntity
  8
Default
100
AcDbVertex
100
AcDb2dVertex
 10
10.80198083185262
 20
18.58811477547422
 30
0.0
  0
VERTEX
  5
30B
330
2EC
100
AcDbEntity
  8
Default
100
AcDbVertex
100
AcDb2dVertex
 10
10.75750314879495
 20
18.61518524763772
 30
0.0
  0
VERTEX
  5
30C
330
2EC
100
AcDbEntity
  8
Default
100
AcDbVertex
100
AcDb2dVertex
 10
10.71211273344294
 20
18.64069573464806
 30
0.0
  0
VERTEX
  5
30D
330
2EC
100
AcDbEntity
  8
Default
100
AcDbVertex
100
AcDb2dVertex
 10
10.66586427771174
 20
18.66461549835535
 30
0.0
  0
VERTEX
  5
30E
330
2EC
100
AcDbEntity
  8
Default
100
AcDbVertex
100
AcDb2dVertex
 10
10.61881350738835
 20
18.68691571730738
 30
0.0
  0
VERTEX
  5
30F
330
2EC
100
AcDbEntity
  8
Default
100
AcDbVertex
100
AcDb2dVertex
 10
10.57101711498633
 20
18.7075695214772
 30
0.0
  0
VERTEX
  5
310
330
2EC
100
AcDbEntity
  8
Default
100
AcDbVertex
100
AcDb2dVertex
 10
10.52253269143579
 20
18.72655202463946
 30
0.0
  0
VERTEX
  5
311
330
2EC
100
AcDbEntity
  8
Default
100
AcDbVertex
100
AcDb2dVertex
 10
10.4734186566908
 20
18.74384035435636
 30
0.0
  0
VERTEX
  5
312
330
2EC
100
AcDbEntity
  8
Default
100
AcDbVertex
100
AcDb2dVertex
 10
10.42373418933784
 20
18.75941367953713
 30
0.0
  0
VERTEX
  5
313
330
2EC
100
AcDbEntity
  8
Default
100
AcDbVertex
100
AcDb2dVertex
 10
10.37353915529028
 20
18.77325323553788
 30
0.0
  0
VERTEX
  5
314
330
2EC
100
AcDbEntity
  8
Default
100
AcDbVertex
100
AcDb2dVertex
 10
10.3228940356546
 20
18.78534234677157
 30
0.0
  0
VERTEX
  5
315
330
2EC
100
AcDbEntity
  8
Default
100
AcDbVertex
100
AcDb2dVertex
 10
10.27185985385533
 20
18.79566644680075
 30
0.0
  0
VERTEX
  5
316
330
2EC
100
AcDbEntity
  8
Default
100
AcDbVertex
100
AcDb2dVertex
 10
10.22049810210663
 20
18.804213095889
 30
0.0
  0
VERTEX
  5
317
330
2EC
100
AcDbEntity
  8
Default
100
AcDbVertex
100
AcDb2dVertex
 10
10.16887066731891
 20
18.81097199598985
 30
0.0
  0
VERTEX
  5
318
330
2EC
100
AcDbEntity
  8
Default
100
AcDbVertex
100
AcDb2dVertex
 10
10.11703975652998
 20
18.8159350031551
 30
0.0
  0
VERTEX
  5
319
330
2EC
100
AcDbEntity
  8
Default
100
AcDbVertex
100
AcDb2dVertex
 10
10.06506782195035
 20
18.81909613734769
 30
0.0
  0
VERTEX
  5
31A
330
2EC
100
AcDbEntity
  8
Default
100
AcDbVertex
100
AcDb2dVertex
 10
10.01301748571323
 20
18.82045158964711
 30
0.0
  0
VERTEX
  5
31B
330
2EC
100
AcDbEntity
  8
Default
100
AcDbVertex
100
AcDb2dVertex
 10
9.960951464419724
 20
18.81999972683893
 30
0.0
  0
VERTEX
  5
31C
330
2EC
100
AcDbEntity
  8
Default
100
AcDbVertex
100
AcDb2dVertex
 10
9.908932493570203
 20
18.81774109338263
 30
0.0
  0
VERTEX
  5
31D
330
2EC
100
AcDbEntity
  8
Default
100
AcDbVertex
100
AcDb2dVertex
 10
9.85702325197292
 20
18.81367841075561
 30
0.0
  0
VERTEX
  5
31E
330
2EC
100
AcDbEntity
  8
Default
100
AcDbVertex
100
AcDb2dVertex
 10
9.805286286220921
 20
18.80781657417399
 30
0.0
  0
VERTEX
  5
31F
330
2EC
100
AcDbEntity
  8
Default
100
AcDbVertex
100
AcDb2dVertex
 10
9.75378393532828
 20
18.80016264669431
 30
0.0
  0
VERTEX
  5
320
330
2EC
100
AcDbEntity
  8
Default
100
AcDbVertex
100
AcDb2dVertex
 10
9.702578255616435
 20
18.79072585070302
 30
0.0
  0
VERTEX
  5
321
330
2EC
100
AcDbEntity
  8
Default
100
AcDbVertex
100
AcDb2dVertex
 10
9.651730945941166
 20
18.77951755680429
 30
0.0
  0
VERTEX
  5
322
330
2EC
100
AcDbEntity
  8
Default
100
AcDbVertex
100
AcDb2dVertex
 10
9.601303273350263
 20
18.76655127011928
 30
0.0
  0
VERTEX
  5
323
330
2EC
100
AcDbEntity
  8
Default
100
AcDbVertex
100
AcDb2dVertex
 10
9.551355999261517
 20
18.75184261401354
 30
0.0
  0
VERTEX
  5
324
330
2EC
100
AcDbEntity
  8
Default
100
AcDbVertex
100
AcDb2dVertex
 10
9.501949306249946
 20
18.73540931127205
 30
0.0
  0
VERTEX
  5
325
330
2EC
100
AcDbEntity
  8
Default
100
AcDbVertex
100
AcDb2dVertex
 10
9.453142725532464
 20
18.71727116274468
 30
0.0
  0
VERTEX
  5
326
330
2EC
100
AcDbEntity
  8
Default
100
AcDbVertex
100
AcDb2dVertex
 10
9.404995065237422
 20
18.69745002348766
 30
0.0
  0
VERTEX
  5
327
330
2EC
100
AcDbEntity
  8
Default
100
AcDbVertex
100
AcDb2dVertex
 10
9.357564339545377
 20
18.67596977642998
 30
0.0
  0
VERTEX
  5
328
330
2EC
100
AcDbEntity
  8
Default
100
AcDbVertex
100
AcDb2dVertex
 10
9.31090769878653
 20
18.6528563035963
 30
0.0
  0
VERTEX
  5
329
330
2EC
100
AcDbEntity
  8
Default
100
AcDbVertex
100
AcDb2dVertex
 10
9.265081360579032
 20
18.62813745492114
 30
0.0
  0
VERTEX
  5
32A
330
2EC
100
AcDbEntity
  8
Default
100
AcDbVertex
100
AcDb2dVertex
 10
9.22014054209113
 20
18.60184301469188
 30
0.0
  0
VERTEX
  5
32B
330
2EC
100
AcDbEntity
  8
Default
100
AcDbVertex
100
AcDb2dVertex
 10
9.176139393508777
 20
18.57400466566097
 30
0.0
  0
VERTEX
  5
32C
330
2EC
100
AcDbEntity
  8
Default
100
AcDbVertex
100
AcDb2dVertex
 10
9.133130932788879
 20
18.54465595087074
 30
0.0
  0
VERTEX
  5
32D
330
2EC
100
AcDbEntity
  8
Default
100
AcDbVertex
100
AcDb2dVertex
 10
9.091166981776784
 20
18.51383223323663
 30
0.0
  0
VERTEX
  5
32E
330
2EC
100
AcDbEntity
  8
Default
100
AcDbVertex
100
AcDb2dVertex
 10
9.050298103765003
 20
18.48157065293759
 30
0.0
  0
VERTEX
  5
32F
330
2EC
100
AcDbEntity
  8
Default
100
AcDbVertex
100
AcDb2dVertex
 10
9.010573542568366
 20
18.44791008266512
 30
0.0
  0
VERTEX
  5
330
330
2EC
100
AcDbEntity
  8
Default
100
AcDbVertex
100
AcDb2dVertex
 10
8.972041163189072
 20
18.41289108078467
 30
0.0
  0
VERTEX
  5
331
330
2EC
100
AcDbEntity
  8
Default
100
AcDbVertex
100
AcDb2dVertex
 10
8.934747394143086
 20
18.37655584246595
 30
0.0
  0
VERTEX
  5
332
330
2EC
100
AcDbEntity
  8
Default
100
AcDbVertex
100
AcDb2dVertex
 10
8.898737171517395
 20
18.33894814884109
 30
0.0
  0
VERTEX
  5
333
330
2EC
100
AcDbEntity
  8
Default
100
AcDbVertex
100
AcDb2dVertex
 10
8.864053884825516
 20
18.30011331425175
 30
0.0
  0
VERTEX
  5
334
330
2EC
100
AcDbEntity
  8
Default
100
AcDbVertex
100
AcDb2dVertex
 10
8.830739324726528
 20
18.26009813164884
 30
0.0
  0
VERTEX
  5
335
330
2EC
100
AcDbEntity
  8
Default
100
AcDbVertex
100
AcDb2dVertex
 10
8.79883363267056
 20
18.21895081621074
 30
0.0
  0
VERTEX
  5
336
330
2EC
100
AcDbEntity
  8
Default
100
AcDbVertex
100
AcDb2dVertex
 10
8.768375252531488
 20
18.17672094724768
 30
0.0
  0
VERTEX
  5
337
330
2EC
100
AcDbEntity
  8
Default
100
AcDbVertex
100
AcDb2dVertex
 10
8.73940088428506
 20
18.13345940846259
 30
0.0
  0
VERTEX
  5
338
330
2EC
100
AcDbEntity
  8
Default
100
AcDbVertex
100
AcDb2dVertex
 10
8.71194543978827
 20
18.08921832664019
 30
0.0
  0
VERTEX
  5
339
330
2EC
100
AcDbEntity
  8
Default
100
AcDbVertex
100
AcDb2dVertex
 10
8.686042000713304
 20
18.04405100883823
 30
0.0
  0
VERTEX
  5
33A
330
2EC
100
AcDbEntity
  8
Default
100
AcDbVertex
100
AcDb2dVertex
 10
8.661721778686697
 20
17.99801187815672
 30
0.0
  0
VERTEX
  5
33B
330
2EC
100
AcDbEntity
  8
Default
100
AcDbVertex
100
AcDb2dVertex
 10
8.639014077681752
 20
17.95115640816224
 30
0.0
  0
VERTEX
  5
33C
330
2EC
100
AcDbEntity
  8
Default
100
AcDbVertex
100
AcDb2dVertex
 10
8.617946258709534
 20
17.9035410560467
 30
0.0
  0
VERTEX
  5
33D
330
2EC
100
AcDbEntity
  8
Default
100
AcDbVertex
100
AcDb2dVertex
 10
8.59854370685099
 20
17.85522319460076
 30
0.0
  0
VERTEX
  5
33E
330
2EC
100
AcDbEntity
  8
Default
100
AcDbVertex
100
AcDb2dVertex
 10
8.58082980066989
 20
17.8062610430841
 30
0.0
  0
VERTEX
  5
33F
330
2EC
100
AcDbEntity
  8
Default
100
AcDbVertex
100
AcDb2dVertex
 10
8.564825884043499
 20
17.75671359707577
 30
0.0
  0
VERTEX
  5
340
330
2EC
100
AcDbEntity
  8
Default
100
AcDbVertex
100
AcDb2dVertex
 10
8.550551240444841
 20
17.70664055738908
 30
0.0
  0
VERTEX
  5
341
330
2EC
100
AcDbEntity
  8
Default
100
AcDbVertex
100
AcDb2dVertex
 10
8.538023069707643
 20
17.6561022581368
 30
0.0
  0
VERTEX
  5
342
330
2EC
100
AcDbEntity
  8
Default
100
AcDbVertex
100
AcDb2dVertex
 10
8.527256467301854
 20
17.60515959403324
 30
0.0
  0
VERTEX
  5
343
330
2EC
100
AcDbEntity
  8
Default
100
AcDbVertex
100
AcDb2dVertex
 10
8.51826440614479
 20
17.55387394702083
 30
0.0
  0
VERTEX
  5
344
330
2EC
100
AcDbEntity
  8
Default
100
AcDbVertex
100
AcDb2dVertex
 10
8.511057720969777
 20
17.50230711230974
 30
0.0
  0
VERTEX
  5
345
330
2EC
100
AcDbEntity
  8
Default
100
AcDbVertex
100
AcDb2dVertex
 10
8.505645095271142
 20
17.45052122391937
 30
0.0
  0
VERTEX
  5
346
330
2EC
100
AcDbEntity
  8
Default
100
AcDbVertex
100
AcDb2dVertex
 10
8.502033050841275
 20
17.39857867981177
 30
0.0
  0
VERTEX
  5
347
330
2EC
100
AcDbEntity
  8
Default
100
AcDbVertex
100
AcDb2dVertex
 10
8.500225939912383
 20
17.34654206670692
 30
0.0
  0
VERTEX
  5
348
330
2EC
100
AcDbEntity
  8
Default
100
AcDbVertex
100
AcDb2dVertex
 10
8.500225939912383
 20
17.29447408467062
 30
0.0
  0
VERTEX
  5
349
330
2EC
100
AcDbEntity
  8
Default
100
AcDbVertex
100
AcDb2dVertex
 10
8.502033050841275
 20
17.24243747156577
 30
0.0
  0
VERTEX
  5
34A
330
2EC
100
AcDbEntity
  8
Default
100
AcDbVertex
100
AcDb2dVertex
 10
8.505645095271142
 20
17.19049492745817
 30
0.0
  0
VERTEX
  5
34B
330
2EC
100
AcDbEntity
  8
Default
100
AcDbVertex
100
AcDb2dVertex
 10
8.511057720969777
 20
17.1387090390678
 30
0.0
  0
VERTEX
  5
34C
330
2EC
100
AcDbEntity
  8
Default
100
AcDbVertex
100
AcDb2dVertex
 10
8.51826440614479
 20
17.08714220435671
 30
0.0
  0
VERTEX
  5
34D
330
2EC
100
AcDbEntity
  8
Default
100
AcDbVertex
100
AcDb2dVertex
 10
8.527256467301854
 20
17.03585655734431
 30
0.0
  0
VERTEX
  5
34E
330
2EC
100
AcDbEntity
  8
Default
100
AcDbVertex
100
AcDb2dVertex
 10
8.538023069707643
 20
16.98491389324074
 30
0.0
  0
VERTEX
  5
34F
330
2EC
100
AcDbEntity
  8
Default
100
AcDbVertex
100
AcDb2dVertex
 10
8.550551240444841
 20
16.93437559398846
 30
0.0
  0
VERTEX
  5
350
330
2EC
100
AcDbEntity
  8
Default
100
AcDbVertex
100
AcDb2dVertex
 10
8.564825884043497
 20
16.88430255430178
 30
0.0
  0
VERTEX
  5
351
330
2EC
100
AcDbEntity
  8
Default
100
AcDbVertex
100
AcDb2dVertex
 10
8.58082980066989
 20
16.83475510829345
 30
0.0
  0
VERTEX
  5
352
330
2EC
100
AcDbEntity
  8
Default
100
AcDbVertex
100
AcDb2dVertex
 10
8.59854370685099
 20
16.78579295677678
 30
0.0
  0
VERTEX
  5
353
330
2EC
100
AcDbEntity
  8
Default
100
AcDbVertex
100
AcDb2dVertex
 10
8.617946258709534
 20
16.73747509533084
 30
0.0
  0
VERTEX
  5
354
330
2EC
100
AcDbEntity
  8
Default
100
AcDbVertex
100
AcDb2dVertex
 10
8.639014077681752
 20
16.6898597432153
 30
0.0
  0
VERTEX
  5
355
330
2EC
100
AcDbEntity
  8
Default
100
AcDbVertex
100
AcDb2dVertex
 10
8.661721778686697
 20
16.64300427322082
 30
0.0
  0
VERTEX
  5
356
330
2EC
100
AcDbEntity
  8
Default
100
AcDbVertex
100
AcDb2dVertex
 10
8.686042000713304
 20
16.59696514253931
 30
0.0
  0
VERTEX
  5
357
330
2EC
100
AcDbEntity
  8
Default
100
AcDbVertex
100
AcDb2dVertex
 10
8.71194543978827
 20
16.55179782473736
 30
0.0
  0
VERTEX
  5
358
330
2EC
100
AcDbEntity
  8
Default
100
AcDbVertex
100
AcDb2dVertex
 10
8.73940088428506
 20
16.50755674291495
 30
0.0
  0
VERTEX
  5
359
330
2EC
100
AcDbEntity
  8
Default
100
AcDbVertex
100
AcDb2dVertex
 10
8.768375252531488
 20
16.46429520412986
 30
0.0
  0
VERTEX
  5
35A
330
2EC
100
AcDbEntity
  8
Default
100
AcDbVertex
100
AcDb2dVertex
 10
8.798833632670558
 20
16.42206533516681
 30
0.0
  0
VERTEX
  5
35B
330
2EC
100
AcDbEntity
  8
Default
100
AcDbVertex
100
AcDb2dVertex
 10
8.830739324726526
 20
16.3809180197287
 30
0.0
  0
VERTEX
  5
35C
330
2EC
100
AcDbEntity
  8
Default
100
AcDbVertex
100
AcDb2dVertex
 10
8.864053884825516
 20
16.3409028371258
 30
0.0
  0
VERTEX
  5
35D
330
2EC
100
AcDbEntity
  8
Default
100
AcDbVertex
100
AcDb2dVertex
 10
8.898737171517393
 20
16.30206800253645
 30
0.0
  0
VERTEX
  5
35E
330
2EC
100
AcDbEntity
  8
Default
100
AcDbVertex
100
AcDb2dVertex
 10
8.934747394143086
 20
16.26446030891159
 30
0.0
  0
VERTEX
  5
35F
330
2EC
100
AcDbEntity
  8
Default
100
AcDbVertex
100
AcDb2dVertex
 10
8.97204116318907
 20
16.22812507059287
 30
0.0
  0
VERTEX
  5
360
330
2EC
100
AcDbEntity
  8
Default
100
AcDbVertex
100
AcDb2dVertex
 10
9.010573542568364
 20
16.19310606871242
 30
0.0
  0
VERTEX
  5
361
330
2EC
100
AcDbEntity
  8
Default
100
AcDbVertex
100
AcDb2dVertex
 10
9.050298103765002
 20
16.15944549843995
 30
0.0
  0
VERTEX
  5
362
330
2EC
100
AcDbEntity
  8
Default
100
AcDbVertex
100
AcDb2dVertex
 10
9.091166981776784
 20
16.12718391814091
 30
0.0
  0
VERTEX
  5
363
330
2EC
100
AcDbEntity
  8
Default
100
AcDbVertex
100
AcDb2dVertex
 10
9.133130932788877
 20
16.0963602005068
 30
0.0
  0
VERTEX
  5
364
330
2EC
100
AcDbEntity
  8
Default
100
AcDbVertex
100
AcDb2dVertex
 10
9.176139393508775
 20
16.06701148571657
 30
0.0
  0
VERTEX
  5
365
330
2EC
100
AcDbEntity
  8
Default
100
AcDbVertex
100
AcDb2dVertex
 10
9.22014054209113
 20
16.03917313668567
 30
0.0
  0
VERTEX
  5
366
330
2EC
100
AcDbEntity
  8
Default
100
AcDbVertex
100
AcDb2dVertex
 10
9.265081360579032
 20
16.0128786964564
 30
0.0
  0
VERTEX
  5
367
330
2EC
100
AcDbEntity
  8
Default
100
AcDbVertex
100
AcDb2dVertex
 10
9.310907698786528
 20
15.98815984778124
 30
0.0
  0
VERTEX
  5
368
330
2EC
100
AcDbEntity
  8
Default
100
AcDbVertex
100
AcDb2dVertex
 10
9.357564339545375
 20
15.96504637494757
 30
0.0
  0
VERTEX
  5
369
330
2EC
100
AcDbEntity
  8
Default
100
AcDbVertex
100
AcDb2dVertex
 10
9.40499506523742
 20
15.94356612788989
 30
0.0
  0
VERTEX
  5
36A
330
2EC
100
AcDbEntity
  8
Default
100
AcDbVertex
100
AcDb2dVertex
 10
9.453142725532464
 20
15.92374498863286
 30
0.0
  0
VERTEX
  5
36B
330
2EC
100
AcDbEntity
  8
Default
100
AcDbVertex
100
AcDb2dVertex
 10
9.501949306249944
 20
15.90560684010549
 30
0.0
  0
VERTEX
  5
36C
330
2EC
100
AcDbEntity
  8
Default
100
AcDbVertex
100
AcDb2dVertex
 10
9.551355999261517
 20
15.889173537364
 30
0.0
  0
VERTEX
  5
36D
330
2EC
100
AcDbEntity
  8
Default
100
AcDbVertex
100
AcDb2dVertex
 10
9.601303273350261
 20
15.87446488125826
 30
0.0
  0
VERTEX
  5
36E
330
2EC
100
AcDbEntity
  8
Default
100
AcDbVertex
100
AcDb2dVertex
 10
9.651730945941164
 20
15.86149859457325
 30
0.0
  0
VERTEX
  5
36F
330
2EC
100
AcDbEntity
  8
Default
100
AcDbVertex
100
AcDb2dVertex
 10
9.702578255616434
 20
15.85029030067452
 30
0.0
  0
VERTEX
  5
370
330
2EC
100
AcDbEntity
  8
Default
100
AcDbVertex
100
AcDb2dVertex
 10
9.753783935328277
 20
15.84085350468324
 30
0.0
  0
VERTEX
  5
371
330
2EC
100
AcDbEntity
  8
Default
100
AcDbVertex
100
AcDb2dVertex
 10
9.80528628622092
 20
15.83319957720355
 30
0.0
  0
VERTEX
  5
372
330
2EC
100
AcDbEntity
  8
Default
100
AcDbVertex
100
AcDb2dVertex
 10
9.857023251972919
 20
15.82733774062194
 30
0.0
  0
VERTEX
  5
373
330
2EC
100
AcDbEntity
  8
Default
100
AcDbVertex
100
AcDb2dVertex
 10
9.908932493570203
 20
15.82327505799491
 30
0.0
  0
VERTEX
  5
374
330
2EC
100
AcDbEntity
  8
Default
100
AcDbVertex
100
AcDb2dVertex
 10
9.960951464419722
 20
15.82101642453861
 30
0.0
  0
VERTEX
  5
375
330
2EC
100
AcDbEntity
  8
Default
100
AcDbVertex
100
AcDb2dVertex
 10
10.01301748571323
 20
15.82056456173043
 30
0.0
  0
VERTEX
  5
376
330
2EC
100
AcDbEntity
  8
Default
100
AcDbVertex
100
AcDb2dVertex
 10
10.06506782195035
 20
15.82192001402985
 30
0.0
  0
VERTEX
  5
377
330
2EC
100
AcDbEntity
  8
Default
100
AcDbVertex
100
AcDb2dVertex
 10
10.11703975652998
 20
15.82508114822244
 30
0.0
  0
VERTEX
  5
378
330
2EC
100
AcDbEntity
  8
Default
100
AcDbVertex
100
AcDb2dVertex
 10
10.16887066731891
 20
15.83004415538769
 30
0.0
  0
VERTEX
  5
379
330
2EC
100
AcDbEntity
  8
Default
100
AcDbVertex
100
AcDb2dVertex
 10
10.22049810210663
 20
15.83680305548854
 30
0.0
  0
VERTEX
  5
37A
330
2EC
100
AcDbEntity
  8
Default
100
AcDbVertex
100
AcDb2dVertex
 10
10.27185985385533
 20
15.84534970457679
 30
0.0
  0
VERTEX
  5
37B
330
2EC
100
AcDbEntity
  8
Default
100
AcDbVertex
100
AcDb2dVertex
 10
10.3228940356546
 20
15.85567380460597
 30
0.0
  0
VERTEX
  5
37C
330
2EC
100
AcDbEntity
  8
Default
100
AcDbVertex
100
AcDb2dVertex
 10
10.37353915529028
 20
15.86776291583966
 30
0.0
  0
VERTEX
  5
37D
330
2EC
100
AcDbEntity
  8
Default
100
AcDbVertex
100
AcDb2dVertex
 10
10.42373418933784
 20
15.88160247184042
 30
0.0
  0
VERTEX
  5
37E
330
2EC
100
AcDbEntity
  8
Default
100
AcDbVertex
100
AcDb2dVertex
 10
10.47341865669079
 20
15.89717579702118
 30
0.0
  0
VERTEX
  5
37F
330
2EC
100
AcDbEntity
  8
Default
100
AcDbVertex
100
AcDb2dVertex
 10
10.52253269143579
 20
15.91446412673808
 30
0.0
  0
VERTEX
  5
380
330
2EC
100
AcDbEntity
  8
Default
100
AcDbVertex
100
AcDb2dVertex
 10
10.57101711498633
 20
15.93344662990035
 30
0.0
  0
VERTEX
  5
381
330
2EC
100
AcDbEntity
  8
Default
100
AcDbVertex
100
AcDb2dVertex
 10
10.61881350738835
 20
15.95410043407017
 30
0.0
  0
VERTEX
  5
382
330
2EC
100
AcDbEntity
  8
Default
100
AcDbVertex
100
AcDb2dVertex
 10
10.66586427771174
 20
15.97640065302219
 30
0.0
  0
VERTEX
  5
383
330
2EC
100
AcDbEntity
  8
Default
100
AcDbVertex
100
AcDb2dVertex
 10
10.71211273344294
 20
16.00032041672948
 30
0.0
  0
VERTEX
  5
384
330
2EC
100
AcDbEntity
  8
Default
100
AcDbVertex
100
AcDb2dVertex
 10
10.75750314879495
 20
16.02583090373982
 30
0.0
  0
VERTEX
  5
385
330
2EC
100
AcDbEntity
  8
Default
100
AcDbVertex
100
AcDb2dVertex
 10
10.80198083185262
 20
16.05290137590332
 30
0.0
  0
VERTEX
  5
386
330
2EC
100
AcDbEntity
  8
Default
100
AcDbVertex
100
AcDb2dVertex
 10
10.84549219047212
 20
16.08149921540946
 30
0.0
  0
VERTEX
  5
387
330
2EC
100
AcDbEntity
  8
Default
100
AcDbVertex
100
AcDb2dVertex
 10
10.88798479685529
 20
16.11158996408904
 30
0.0
  0
VERTEX
  5
388
330
2EC
100
AcDbEntity
  8
Default
100
AcDbVertex
100
AcDb2dVertex
 10
10.92940745072108
 20
16.14313736493361
 30
0.0
  0
VERTEX
  5
389
330
2EC
100
AcDbEntity
  8
Default
100
AcDbVertex
100
AcDb2dVertex
 10
10.9697102409979
 20
16.17610340578228
 30
0.0
  0
VERTEX
  5
38A
330
2EC
100
AcDbEntity
  8
Default
100
AcDbVertex
100
AcDb2dVertex
 10
11.00884460596252
 20
16.21044836512348
 30
0.0
  0
VERTEX
  5
38B
330
2EC
100
AcDbEntity
  8
Default
100
AcDbVertex
100
AcDb2dVertex
 10
11.04676339175326
 20
16.24613085995623
 30
0.0
  0
VERTEX
  5
38C
330
2EC
100
AcDbEntity
  8
Default
100
AcDbVertex
100
AcDb2dVertex
 10
11.08342090918661
 20
16.28310789565349
 30
0.0
  0
VERTEX
  5
38D
330
2EC
100
AcDbEntity
  8
Default
100
AcDbVertex
100
AcDb2dVertex
 10
11.11877298880925
 20
16.32133491776728
 30
0.0
  0
VERTEX
  5
38E
330
2EC
100
AcDbEntity
  8
Default
100
AcDbVertex
100
AcDb2dVertex
 10
11.15277703411869
 20
16.36076586571336
 30
0.0
  0
VERTEX
  5
38F
330
2EC
100
AcDbEntity
  8
Default
100
AcDbVertex
100
AcDb2dVertex
 10
11.18539207288884
 20
16.40135322827062
 30
0.0
  0
VERTEX
  5
390
330
2EC
100
AcDbEntity
  8
Default
100
AcDbVertex
100
AcDb2dVertex
 10
11.21657880653827
 20
16.44304810082844
 30
0.0
  0
VERTEX
  5
391
330
2EC
100
AcDbEntity
  8
Default
100
AcDbVertex
100
AcDb2dVertex
 10
11.24629965748199
 20
16.48580024431288
 30
0.0
  0
VERTEX
  5
392
330
2EC
100
AcDbEntity
  8
Default
100
AcDbVertex
100
AcDb2dVertex
 10
11.2745188144095
 20
16.5295581457209
 30
0.0
  0
VERTEX
  5
393
330
2EC
100
AcDbEntity
  8
Default
100
AcDbVertex
100
AcDb2dVertex
 10
11.3012022754346
 20
16.57426908018948
 30
0.0
  0
VERTEX
  5
394
330
2EC
100
AcDbEntity
  8
Default
100
AcDbVertex
100
AcDb2dVertex
 10
11.32631788906509
 20
16.61987917452503
 30
0.0
  0
VERTEX
  5
395
330
2EC
100
AcDbEntity
  8
Default
100
AcDbVertex
100
AcDb2dVertex
 10
11.34983539294271
 20
16.66633347211631
 30
0.0
  0
VERTEX
  5
396
330
2EC
100
AcDbEntity
  8
Default
100
AcDbVertex
100
AcDb2dVertex
 10
11.37172645030701
 20
16.71357599915293
 30
0.0
  0
VERTEX
  5
397
330
2EC
100
AcDbEntity
  8
Default
100
AcDbVertex
100
AcDb2dVertex
 10
11.39196468413891
 20
16.76154983206942
 30
0.0
  0
VERTEX
  5
398
330
2EC
100
AcDbEntity
  8
Default
100
AcDbVertex
100
AcDb2dVertex
 10
11.41052570894295
 20
16.81019716613365
 30
0.0
  0
VERTEX
  5
399
330
2EC
100
AcDbEntity
  8
Default
100
AcDbVertex
100
AcDb2dVertex
 10
11.42738716012989
 20
16.8594593850971
 30
0.0
  0
VERTEX
  5
39A
330
2EC
100
AcDbEntity
  8
Default
100
AcDbVertex
100
AcDb2dVertex
 10
11.44252872096437
 20
16.90927713182283
 30
0.0
  0
VERTEX
  5
39B
330
2EC
100
AcDbEntity
  8
Default
100
AcDbVertex
100
AcDb2dVertex
 10
11.45593214704491
 20
16.95959037980621
 30
0.0
  0
VERTEX
  5
39C
330
2EC
100
AcDbEntity
  8
Default
100
AcDbVertex
100
AcDb2dVertex
 10
11.46758128828704
 20
17.01033850550218
 30
0.0
  0
VERTEX
  5
39D
330
2EC
100
AcDbEntity
  8
Default
100
AcDbVertex
100
AcDb2dVertex
 10
11.47746210838288
 20
17.06146036137192
 30
0.0
  0
VERTEX
  5
39E
330
2EC
100
AcDbEntity
  8
Default
100
AcDbVertex
100
AcDb2dVertex
 10
11.48556270171382
 20
17.11289434956086
 30
0.0
  0
VERTEX
  5
39F
330
2EC
100
AcDbEntity
  8
Default
100
AcDbVertex
100
AcDb2dVertex
 10
11.49187330769582
 20
17.16457849611929
 30
0.0
  0
VERTEX
  5
3A0
330
2EC
100
AcDbEntity
  8
Default
100
AcDbVertex
100
AcDb2dVertex
 10
11.49638632254019
 20
17.21645052567615
 30
0.0
  0
VERTEX
  5
3A1
330
2EC
100
AcDbEntity
  8
Default
100
AcDbVertex
100
AcDb2dVertex
 10
11.49909630841555
 20
17.268447936476
 30
0.0
  0
SEQEND
  5
3A2
330
2EC
100
AcDbEntity
  8
Default
  0
POLYLINE
  5
3A3
330
1F
100
AcDbEntity
  8
Default
100
AcDb2dPolyline
 66
     1
 10
0.0
 20
0.0
 30
0.0
  0
VERTEX
  5
3A4
330
3A3
100
AcDbEntity
  8
Default
100
AcDbVertex
100
AcDb2dVertex
 10
190.0
 20
0.0000000000000018
 30
0.0
  0
VERTEX
  5
3A5
330
3A3
100
AcDbEntity
  8
Default
100
AcDbVertex
100
AcDb2dVertex
 10
200.0
 20
17.32050807568879
 30
0.0
  0
SEQEND
  5
3A6
330
3A3
100
AcDbEntity
  8
Default
  0
POLYLINE
  5
3A7
330
1F
100
AcDbEntity
  8
Default
100
AcDb2dPolyline
 66
     1
 10
0.0
 20
0.0
 30
0.0
  0
VERTEX
  5
3A8
330
3A7
100
AcDbEntity
  8
Default
100
AcDbVertex
100
AcDb2dVertex
 10
10.0
 20
0.0
 30
0.0
  0
VERTEX
  5
3A9
330
3A7
100
AcDbEntity
  8
Default
100
AcDbVertex
100
AcDb2dVertex
 10
0.0000000000000053
 20
17.32050807568877
 30
0.0
  0
SEQEND
  5
3AA
330
3A7
100
AcDbEntity
  8
Default
  0
POLYLINE
  5
3AB
330
1F
100
AcDbEntity
  8
Default
100
AcDb2dPolyline
 66
     1
 10
0.0
 20
0.0
 30
0.0
  0
VERTEX
  5
3AC
330
3AB
100
AcDbEntity
  8
Default
100
AcDbVertex
100
AcDb2dVertex
 10
200.0
 20
34.64101615137756
 30
0.0
  0
VERTEX
  5
3AD
330
3AB
100
AcDbEntity
  8
Default
100
AcDbVertex
100
AcDb2dVertex
 10
0.0
 20
34.64101615137756
 30
0.0
  0
SEQEND
  5
3AE
330
3AB
100
AcDbEntity
  8
Default
  0
POLYLINE
  5
3AF
330
1F
100
AcDbEntity
  8
Default
100
AcDb2dPolyline
 66
     1
 10
0.0
 20
0.0
 30
0.0
  0
VERTEX
  5
3B0
330
3AF
100
AcDbEntity
  8
Default
100
AcDbVertex
100
AcDb2dVertex
 10
0.0000000000000009
 20
25.98076211353317
 30
0.0
  0
VERTEX
  5
3B1
330
3AF
100
AcDbEntity
  8
Default
100
AcDbVertex
100
AcDb2dVertex
 10
200.0
 20
25.98076211353318
 30
0.0
  0
SEQEND
  5
3B2
330
3AF
100
AcDbEntity
  8
Default
  0
POLYLINE
  5
3B3
330
1F
100
AcDbEntity
  8
Default
100
AcDb2dPolyline
 66
     1
 10
0.0
 20
0.0
 30
0.0
  0
VERTEX
  5
3B4
330
3B3
100
AcDbEntity
  8
Default
100
AcDbVertex
100
AcDb2dVertex
 10
0.0000000000000009
 20
8.66025403784439
 30
0.0
  0
VERTEX
  5
3B5
330
3B3
100
AcDbEntity
  8
Default
100
AcDbVertex
100
AcDb2dVertex
 10
200.0
 20
8.66025403784439
 30
0.0
  0
SEQEND
  5
3B6
330
3B3
100
AcDbEntity
  8
Default
  0
POLYLINE
  5
3B7
330
1F
100
AcDbEntity
  8
Default
100
AcDb2dPolyline
 66
     1
 10
0.0
 20
0.0
 30
0.0
  0
VERTEX
  5
3B8
330
3B7
100
AcDbEntity
  8
Default
100
AcDbVertex
100
AcDb2dVertex
 10
0.0
 20
34.64101615137758
 30
0.0
  0
VERTEX
  5
3B9
330
3B7
100
AcDbEntity
  8
Default
100
AcDbVertex
100
AcDb2dVertex
 10
0.0
 20
0.0
 30
0.0
  0
VERTEX
  5
3BA
330
3B7
100
AcDbEntity
  8
Default
100
AcDbVertex
100
AcDb2dVertex
 10
200.0
 20
0.0
 30
0.0
  0
VERTEX
  5
3BB
330
3B7
100
AcDbEntity
  8
Default
100
AcDbVertex
100
AcDb2dVertex
 10
200.0
 20
34.64101615137758
 30
0.0
  0
SEQEND
  5
3BC
330
3B7
100
AcDbEntity
  8
Default
  0
POLYLINE
  5
3BD
330
1F
100
AcDbEntity
  8
Default
100
AcDb2dPolyline
 66
     1
 10
0.0
 20
0.0
 30
0.0
  0
VERTEX
  5
3BE
330
3BD
100
AcDbEntity
  8
Default
100
AcDbVertex
100
AcDb2dVertex
 10
30.0
 20
0.0
 30
0.0
  0
VERTEX
  5
3BF
330
3BD
100
AcDbEntity
  8
Default
100
AcDbVertex
100
AcDb2dVertex
 10
10.00000000000001
 20
34.64101615137756
 30
0.0
  0
SEQEND
  5
3C0
330
3BD
100
AcDbEntity
  8
Default
  0
POLYLINE
  5
3C1
330
1F
100
AcDbEntity
  8
Default
100
AcDb2dPolyline
 66
     1
 10
0.0
 20
0.0
 30
0.0
  0
VERTEX
  5
3C2
330
3C1
100
AcDbEntity
  8
Default
100
AcDbVertex
100
AcDb2dVertex
 10
0.0000000000000018
 20
17.32050807568879
 30
0.0
  0
VERTEX
  5
3C3
330
3C1
100
AcDbEntity
  8
Default
100
AcDbVertex
100
AcDb2dVertex
 10
9.999999999999995
 20
34.64101615137756
 30
0.0
  0
SEQEND
  5
3C4
330
3C1
100
AcDbEntity
  8
Default
  0
POLYLINE
  5
3C5
330
1F
100
AcDbEntity
  8
Default
100
AcDb2dPolyline
 66
     1
 10
0.0
 20
0.0
 30
0.0
  0
VERTEX
  5
3C6
330
3C5
100
AcDbEntity
  8
Default
100
AcDbVertex
100
AcDb2dVertex
 10
200.0
 20
17.32050807568879
 30
0.0
  0
VERTEX
  5
3C7
330
3C5
100
AcDbEntity
  8
Default
100
AcDbVertex
100
AcDb2dVertex
 10
190.0
 20
34.64101615137756
 30
0.0
  0
SEQEND
  5
3C8
330
3C5
100
AcDbEntity
  8
Default
  0
POLYLINE
  5
3C9
330
1F
100
AcDbEntity
  8
Default
100
AcDb2dPolyline
 66
     1
 10
0.0
 20
0.0
 30
0.0
  0
VERTEX
  5
3CA
330
3C9
100
AcDbEntity
  8
Default
100
AcDbVertex
100
AcDb2dVertex
 10
190.0
 20
0.0
 30
0.0
  0
VERTEX
  5
3CB
330
3C9
100
AcDbEntity
  8
Default
100
AcDbVertex
100
AcDb2dVertex
 10
170.0
 20
34.64101615137756
 30
0.0
  0
SEQEND
  5
3CC
330
3C9
100
AcDbEntity
  8
Default
  0
POLYLINE
  5
3CD
330
1F
100
AcDbEntity
  8
Default
100
AcDb2dPolyline
 66
     1
 10
0.0
 20
0.0
 30
0.0
  0
VERTEX
  5
3CE
330
3CD
100
AcDbEntity
  8
Default
100
AcDbVertex
100
AcDb2dVertex
 10
180.0
 20
0.0
 30
0.0
  0
VERTEX
  5
3CF
330
3CD
100
AcDbEntity
  8
Default
100
AcDbVertex
100
AcDb2dVertex
 10
160.0
 20
34.64101615137756
 30
0.0
  0
SEQEND
  5
3D0
330
3CD
100
AcDbEntity
  8
Default
  0
POLYLINE
  5
3D1
330
1F
100
AcDbEntity
  8
Default
100
AcDb2dPolyline
 66
     1
 10
0.0
 20
0.0
 30
0.0
  0
VERTEX
  5
3D2
330
3D1
100
AcDbEntity
  8
Default
100
AcDbVertex
100
AcDb2dVertex
 10
170.0
 20
0.0
 30
0.0
  0
VERTEX
  5
3D3
330
3D1
100
AcDbEntity
  8
Default
100
AcDbVertex
100
AcDb2dVertex
 10
190.0
 20
34.64101615137756
 30
0.0
  0
SEQEND
  5
3D4
330
3D1
100
AcDbEntity
  8
Default
  0
POLYLINE
  5
3D5
330
1F
100
AcDbEntity
  8
Default
100
AcDb2dPolyline
 66
     1
 10
0.0
 20
0.0
 30
0.0
  0
VERTEX
  5
3D6
330
3D5
100
AcDbEntity
  8
Default
100
AcDbVertex
100
AcDb2dVertex
 10
170.0
 20
0.0
 30
0.0
  0
VERTEX
  5
3D7
330
3D5
100
AcDbEntity
  8
Default
100
AcDbVertex
100
AcDb2dVertex
 10
150.0
 20
34.64101615137756
 30
0.0
  0
SEQEND
  5
3D8
330
3D5
100
AcDbEntity
  8
Default
  0
POLYLINE
  5
3D9
330
1F
100
AcDbEntity
  8
Default
100
AcDb2dPolyline
 66
     1
 10
0.0
 20
0.0
 30
0.0
  0
VERTEX
  5
3DA
330
3D9
100
AcDbEntity
  8
Default
100
AcDbVertex
100
AcDb2dVertex
 10
160.0
 20
0.0
 30
0.0
  0
VERTEX
  5
3DB
330
3D9
100
AcDbEntity
  8
Default
100
AcDbVertex
100
AcDb2dVertex
 10
180.0
 20
34.64101615137756
 30
0.0
  0
SEQEND
  5
3DC
330
3D9
100
AcDbEntity
  8
Default
  0
POLYLINE
  5
3DD
330
1F
100
AcDbEntity
  8
Default
100
AcDb2dPolyline
 66
     1
 10
0.0
 20
0.0
 30
0.0
  0
VERTEX
  5
3DE
330
3DD
100
AcDbEntity
  8
Default
100
AcDbVertex
100
AcDb2dVertex
 10
160.0
 20
0.0
 30
0.0
  0
VERTEX
  5
3DF
330
3DD
100
AcDbEntity
  8
Default
100
AcDbVertex
100
AcDb2dVertex
 10
140.0
 20
34.64101615137756
 30
0.0
  0
SEQEND
  5
3E0
330
3DD
100
AcDbEntity
  8
Default
  0
POLYLINE
  5
3E1
330
1F
100
AcDbEntity
  8
Default
100
AcDb2dPolyline
 66
     1
 10
0.0
 20
0.0
 30
0.0
  0
VERTEX
  5
3E2
330
3E1
100
AcDbEntity
  8
Default
100
AcDbVertex
100
AcDb2dVertex
 10
150.0
 20
0.0
 30
0.0
  0
VERTEX
  5
3E3
330
3E1
100
AcDbEntity
  8
Default
100
AcDbVertex
100
AcDb2dVertex
 10
170.0
 20
34.64101615137756
 30
0.0
  0
SEQEND
  5
3E4
330
3E1
100
AcDbEntity
  8
Default
  0
POLYLINE
  5
3E5
330
1F
100
AcDbEntity
  8
Default
100
AcDb2dPolyline
 66
     1
 10
0.0
 20
0.0
 30
0.0
  0
VERTEX
  5
3E6
330
3E5
100
AcDbEntity
  8
Default
100
AcDbVertex
100
AcDb2dVertex
 10
150.0
 20
0.0
 30
0.0
  0
VERTEX
  5
3E7
330
3E5
100
AcDbEntity
  8
Default
100
AcDbVertex
100
AcDb2dVertex
 10
130.0
 20
34.64101615137756
 30
0.0
  0
SEQEND
  5
3E8
330
3E5
100
AcDbEntity
  8
Default
  0
POLYLINE
  5
3E9
330
1F
100
AcDbEntity
  8
Default
100
AcDb2dPolyline
 66
     1
 10
0.0
 20
0.0
 30
0.0
  0
VERTEX
  5
3EA
330
3E9
100
AcDbEntity
  8
Default
100
AcDbVertex
100
AcDb2dVertex
 10
140.0
 20
0.0
 30
0.0
  0
VERTEX
  5
3EB
330
3E9
100
AcDbEntity
  8
Default
100
AcDbVertex
100
AcDb2dVertex
 10
160.0
 20
34.64101615137756
 30
0.0
  0
SEQEND
  5
3EC
330
3E9
100
AcDbEntity
  8
Default
  0
POLYLINE
  5
3ED
330
1F
100
AcDbEntity
  8
Default
100
AcDb2dPolyline
 66
     1
 10
0.0
 20
0.0
 30
0.0
  0
VERTEX
  5
3EE
330
3ED
100
AcDbEntity
  8
Default
100
AcDbVertex
100
AcDb2dVertex
 10
140.0
 20
0.0
 30
0.0
  0
VERTEX
  5
3EF
330
3ED
100
AcDbEntity
  8
Default
100
AcDbVertex
100
AcDb2dVertex
 10
120.0
 20
34.64101615137756
 30
0.0
  0
SEQEND
  5
3F0
330
3ED
100
AcDbEntity
  8
Default
  0
POLYLINE
  5
3F1
330
1F
100
AcDbEntity
  8
Default
100
AcDb2dPolyline
 66
     1
 10
0.0
 20
0.0
 30
0.0
  0
VERTEX
  5
3F2
330
3F1
100
AcDbEntity
  8
Default
100
AcDbVertex
100
AcDb2dVertex
 10
130.0
 20
0.0
 30
0.0
  0
VERTEX
  5
3F3
330
3F1
100
AcDbEntity
  8
Default
100
AcDbVertex
100
AcDb2dVertex
 10
150.0
 20
34.64101615137756
 30
0.0
  0
SEQEND
  5
3F4
330
3F1
100
AcDbEntity
  8
Default
  0
POLYLINE
  5
3F5
330
1F
100
AcDbEntity
  8
Default
100
AcDb2dPolyline
 66
     1
 10
0.0
 20
0.0
 30
0.0
  0
VERTEX
  5
3F6
330
3F5
100
AcDbEntity
  8
Default
100
AcDbVertex
100
AcDb2dVertex
 10
130.0
 20
0.0
 30
0.0
  0
VERTEX
  5
3F7
330
3F5
100
AcDbEntity
  8
Default
100
AcDbVertex
100
AcDb2dVertex
 10
110.0
 20
34.64101615137756
 30
0.0
  0
SEQEND
  5
3F8
330
3F5
100
AcDbEntity
  8
Default
  0
POLYLINE
  5
3F9
330
1F
100
AcDbEntity
  8
Default
100
AcDb2dPolyline
 66
     1
 10
0.0
 20
0.0
 30
0.0
  0
VERTEX
  5
3FA
330
3F9
100
AcDbEntity
  8
Default
100
AcDbVertex
100
AcDb2dVertex
 10
120.0
 20
0.0
 30
0.0
  0
VERTEX
  5
3FB
330
3F9
100
AcDbEntity
  8
Default
100
AcDbVertex
100
AcDb2dVertex
 10
140.0
 20
34.64101615137756
 30
0.0
  0
SEQEND
  5
3FC
330
3F9
100
AcDbEntity
  8
Default
  0
POLYLINE
  5
3FD
330
1F
100
AcDbEntity
  8
Default
100
AcDb2dPolyline
 66
     1
 10
0.0
 20
0.0
 30
0.0
  0
VERTEX
  5
3FE
330
3FD
100
AcDbEntity
  8
Default
100
AcDbVertex
100
AcDb2dVertex
 10
120.0
 20
0.0
 30
0.0
  0
VERTEX
  5
3FF
330
3FD
100
AcDbEntity
  8
Default
100
AcDbVertex
100
AcDb2dVertex
 10
100.0
 20
34.64101615137756
 30
0.0
  0
SEQEND
  5
400
330
3FD
100
AcDbEntity
  8
Default
  0
POLYLINE
  5
401
330
1F
100
AcDbEntity
  8
Default
100
AcDb2dPolyline
 66
     1
 10
0.0
 20
0.0
 30
0.0
  0
VERTEX
  5
402
330
401
100
AcDbEntity
  8
Default
100
AcDbVertex
100
AcDb2dVertex
 10
110.0
 20
0.0
 30
0.0
  0
VERTEX
  5
403
330
401
100
AcDbEntity
  8
Default
100
AcDbVertex
100
AcDb2dVertex
 10
130.0
 20
34.64101615137756
 30
0.0
  0
SEQEND
  5
404
330
401
100
AcDbEntity
  8
Default
  0
POLYLINE
  5
405
330
1F
100
AcDbEntity
  8
Default
100
AcDb2dPolyline
 66
     1
 10
0.0
 20
0.0
 30
0.0
  0
VERTEX
  5
406
330
405
100
AcDbEntity
  8
Default
100
AcDbVertex
100
AcDb2dVertex
 10
110.0
 20
0.0
 30
0.0
  0
VERTEX
  5
407
330
405
100
AcDbEntity
  8
Default
100
AcDbVertex
100
AcDb2dVertex
 10
90.0
 20
34.64101615137756
 30
0.0
  0
SEQEND
  5
408
330
405
100
AcDbEntity
  8
Default
  0
POLYLINE
  5
409
330
1F
100
AcDbEntity
  8
Default
100
AcDb2dPolyline
 66
     1
 10
0.0
 20
0.0
 30
0.0
  0
VERTEX
  5
40A
330
409
100
AcDbEntity
  8
Default
100
AcDbVertex
100
AcDb2dVertex
 10
100.0
 20
0.0
 30
0.0
  0
VERTEX
  5
40B
330
409
100
AcDbEntity
  8
Default
100
AcDbVertex
100
AcDb2dVertex
 10
120.0
 20
34.64101615137756
 30
0.0
  0
SEQEND
  5
40C
330
409
100
AcDbEntity
  8
Default
  0
POLYLINE
  5
40D
330
1F
100
AcDbEntity
  8
Default
100
AcDb2dPolyline
 66
     1
 10
0.0
 20
0.0
 30
0.0
  0
VERTEX
  5
40E
330
40D
100
AcDbEntity
  8
Default
100
AcDbVertex
100
AcDb2dVertex
 10
100.0
 20
0.0
 30
0.0
  0
VERTEX
  5
40F
330
40D
100
AcDbEntity
  8
Default
100
AcDbVertex
100
AcDb2dVertex
 10
80.0
 20
34.64101615137756
 30
0.0
  0
SEQEND
  5
410
330
40D
100
AcDbEntity
  8
Default
  0
POLYLINE
  5
411
330
1F
100
AcDbEntity
  8
Default
100
AcDb2dPolyline
 66
     1
 10
0.0
 20
0.0
 30
0.0
  0
VERTEX
  5
412
330
411
100
AcDbEntity
  8
Default
100
AcDbVertex
100
AcDb2dVertex
 10
90.0
 20
0.0
 30
0.0
  0
VERTEX
  5
413
330
411
100
AcDbEntity
  8
Default
100
AcDbVertex
100
AcDb2dVertex
 10
110.0
 20
34.64101615137756
 30
0.0
  0
SEQEND
  5
414
330
411
100
AcDbEntity
  8
Default
  0
POLYLINE
  5
415
330
1F
100
AcDbEntity
  8
Default
100
AcDb2dPolyline
 66
     1
 10
0.0
 20
0.0
 30
0.0
  0
VERTEX
  5
416
330
415
100
AcDbEntity
  8
Default
100
AcDbVertex
100
AcDb2dVertex
 10
90.0
 20
0.0
 30
0.0
  0
VERTEX
  5
417
330
415
100
AcDbEntity
  8
Default
100
AcDbVertex
100
AcDb2dVertex
 10
70.00000000000001
 20
34.64101615137756
 30
0.0
  0
SEQEND
  5
418
330
415
100
AcDbEntity
  8
Default
  0
POLYLINE
  5
419
330
1F
100
AcDbEntity
  8
Default
100
AcDb2dPolyline
 66
     1
 10
0.0
 20
0.0
 30
0.0
  0
VERTEX
  5
41A
330
419
100
AcDbEntity
  8
Default
100
AcDbVertex
100
AcDb2dVertex
 10
80.0
 20
0.0
 30
0.0
  0
VERTEX
  5
41B
330
419
100
AcDbEntity
  8
Default
100
AcDbVertex
100
AcDb2dVertex
 10
100.0
 20
34.64101615137756
 30
0.0
  0
SEQEND
  5
41C
330
419
100
AcDbEntity
  8
Default
  0
POLYLINE
  5
41D
330
1F
100
AcDbEntity
  8
Default
100
AcDb2dPolyline
 66
     1
 10
0.0
 20
0.0
 30
0.0
  0
VERTEX
  5
41E
330
41D
100
AcDbEntity
  8
Default
100
AcDbVertex
100
AcDb2dVertex
 10
80.0
 20
0.0
 30
0.0
  0
VERTEX
  5
41F
330
41D
100
AcDbEntity
  8
Default
100
AcDbVertex
100
AcDb2dVertex
 10
60.00000000000001
 20
34.64101615137756
 30
0.0
  0
SEQEND
  5
420
330
41D
100
AcDbEntity
  8
Default
  0
POLYLINE
  5
421
330
1F
100
AcDbEntity
  8
Default
100
AcDb2dPolyline
 66
     1
 10
0.0
 20
0.0
 30
0.0
  0
VERTEX
  5
422
330
421
100
AcDbEntity
  8
Default
100
AcDbVertex
100
AcDb2dVertex
 10
70.0
 20
0.0
 30
0.0
  0
VERTEX
  5
423
330
421
100
AcDbEntity
  8
Default
100
AcDbVertex
100
AcDb2dVertex
 10
90.0
 20
34.64101615137756
 30
0.0
  0
SEQEND
  5
424
330
421
100
AcDbEntity
  8
Default
  0
POLYLINE
  5
425
330
1F
100
AcDbEntity
  8
Default
100
AcDb2dPolyline
 66
     1
 10
0.0
 20
0.0
 30
0.0
  0
VERTEX
  5
426
330
425
100
AcDbEntity
  8
Default
100
AcDbVertex
100
AcDb2dVertex
 10
70.0
 20
0.0
 30
0.0
  0
VERTEX
  5
427
330
425
100
AcDbEntity
  8
Default
100
AcDbVertex
100
AcDb2dVertex
 10
50.0
 20
34.64101615137756
 30
0.0
  0
SEQEND
  5
428
330
425
100
AcDbEntity
  8
Default
  0
POLYLINE
  5
429
330
1F
100
AcDbEntity
  8
Default
100
AcDb2dPolyline
 66
     1
 10
0.0
 20
0.0
 30
0.0
  0
VERTEX
  5
42A
330
429
100
AcDbEntity
  8
Default
100
AcDbVertex
100
AcDb2dVertex
 10
60.0
 20
0.0
 30
0.0
  0
VERTEX
  5
42B
330
429
100
AcDbEntity
  8
Default
100
AcDbVertex
100
AcDb2dVertex
 10
79.99999999999999
 20
34.64101615137756
 30
0.0
  0
SEQEND
  5
42C
330
429
100
AcDbEntity
  8
Default
  0
POLYLINE
  5
42D
330
1F
100
AcDbEntity
  8
Default
100
AcDb2dPolyline
 66
     1
 10
0.0
 20
0.0
 30
0.0
  0
VERTEX
  5
42E
330
42D
100
AcDbEntity
  8
Default
100
AcDbVertex
100
AcDb2dVertex
 10
60.0
 20
0.0
 30
0.0
  0
VERTEX
  5
42F
330
42D
100
AcDbEntity
  8
Default
100
AcDbVertex
100
AcDb2dVertex
 10
40.0
 20
34.64101615137756
 30
0.0
  0
SEQEND
  5
430
330
42D
100
AcDbEntity
  8
Default
  0
POLYLINE
  5
431
330
1F
100
AcDbEntity
  8
Default
100
AcDb2dPolyline
 66
     1
 10
0.0
 20
0.0
 30
0.0
  0
VERTEX
  5
432
330
431
100
AcDbEntity
  8
Default
100
AcDbVertex
100
AcDb2dVertex
 10
50.0
 20
0.0
 30
0.0
  0
VERTEX
  5
433
330
431
100
AcDbEntity
  8
Default
100
AcDbVertex
100
AcDb2dVertex
 10
69.99999999999999
 20
34.64101615137756
 30
0.0
  0
SEQEND
  5
434
330
431
100
AcDbEntity
  8
Default
  0
POLYLINE
  5
435
330
1F
100
AcDbEntity
  8
Default
100
AcDb2dPolyline
 66
     1
 10
0.0
 20
0.0
 30
0.0
  0
VERTEX
  5
436
330
435
100
AcDbEntity
  8
Default
100
AcDbVertex
100
AcDb2dVertex
 10
50.0
 20
0.0
 30
0.0
  0
VERTEX
  5
437
330
435
100
AcDbEntity
  8
Default
100
AcDbVertex
100
AcDb2dVertex
 10
30.00000000000001
 20
34.64101615137756
 30
0.0
  0
SEQEND
  5
438
330
435
100
AcDbEntity
  8
Default
  0
POLYLINE
  5
439
330
1F
100
AcDbEntity
  8
Default
100
AcDb2dPolyline
 66
     1
 10
0.0
 20
0.0
 30
0.0
  0
VERTEX
  5
43A
330
439
100
AcDbEntity
  8
Default
100
AcDbVertex
100
AcDb2dVertex
 10
40.0
 20
0.0
 30
0.0
  0
VERTEX
  5
43B
330
439
100
AcDbEntity
  8
Default
100
AcDbVertex
100
AcDb2dVertex
 10
60.0
 20
34.64101615137756
 30
0.0
  0
SEQEND
  5
43C
330
439
100
AcDbEntity
  8
Default
  0
POLYLINE
  5
43D
330
1F
100
AcDbEntity
  8
Default
100
AcDb2dPolyline
 66
     1
 10
0.0
 20
0.0
 30
0.0
  0
VERTEX
  5
43E
330
43D
100
AcDbEntity
  8
Default
100
AcDbVertex
100
AcDb2dVertex
 10
40.0
 20
0.0
 30
0.0
  0
VERTEX
  5
43F
330
43D
100
AcDbEntity
  8
Default
100
AcDbVertex
100
AcDb2dVertex
 10
20.0
 20
34.64101615137756
 30
0.0
  0
SEQEND
  5
440
330
43D
100
AcDbEntity
  8
Default
  0
POLYLINE
  5
441
330
1F
100
AcDbEntity
  8
Default
100
AcDb2dPolyline
 66
     1
 10
0.0
 20
0.0
 30
0.0
  0
VERTEX
  5
442
330
441
100
AcDbEntity
  8
Default
100
AcDbVertex
100
AcDb2dVertex
 10
30.0
 20
0.0
 30
0.0
  0
VERTEX
  5
443
330
441
100
AcDbEntity
  8
Default
100
AcDbVertex
100
AcDb2dVertex
 10
49.99999999999999
 20
34.64101615137756
 30
0.0
  0
SEQEND
  5
444
330
441
100
AcDbEntity
  8
Default
  0
POLYLINE
  5
445
330
1F
100
AcDbEntity
  8
Default
100
AcDb2dPolyline
 66
     1
 10
0.0
 20
0.0
 30
0.0
  0
VERTEX
  5
446
330
445
100
AcDbEntity
  8
Default
100
AcDbVertex
100
AcDb2dVertex
 10
20.0
 20
0.0
 30
0.0
  0
VERTEX
  5
447
330
445
100
AcDbEntity
  8
Default
100
AcDbVertex
100
AcDb2dVertex
 10
39.99999999999999
 20
34.64101615137756
 30
0.0
  0
SEQEND
  5
448
330
445
100
AcDbEntity
  8
Default
  0
POLYLINE
  5
449
330
1F
100
AcDbEntity
  8
Default
100
AcDb2dPolyline
 66
     1
 10
0.0
 20
0.0
 30
0.0
  0
VERTEX
  5
44A
330
449
100
AcDbEntity
  8
Default
100
AcDbVertex
100
AcDb2dVertex
 10
10.0
 20
0.0
 30
0.0
  0
VERTEX
  5
44B
330
449
100
AcDbEntity
  8
Default
100
AcDbVertex
100
AcDb2dVertex
 10
29.99999999999999
 20
34.64101615137756
 30
0.0
  0
SEQEND
  5
44C
330
449
100
AcDbEntity
  8
Default
  0
POLYLINE
  5
44D
330
1F
100
AcDbEntity
  8
Default
100
AcDb2dPolyline
 66
     1
 10
0.0
 20
0.0
 30
0.0
  0
VERTEX
  5
44E
330
44D
100
AcDbEntity
  8
Default
100
AcDbVertex
100
AcDb2dVertex
 10
190.0
 20
50.0
 30
0.0
  0
VERTEX
  5
44F
330
44D
100
AcDbEntity
  8
Default
100
AcDbVertex
100
AcDb2dVertex
 10
200.0
 20
67.32050807568879
 30
0.0
  0
SEQEND
  5
450
330
44D
100
AcDbEntity
  8
Default
  0
POLYLINE
  5
451
330
1F
100
AcDbEntity
  8
Default
100
AcDb2dPolyline
 66
     1
 10
0.0
 20
0.0
 30
0.0
  0
VERTEX
  5
452
330
451
100
AcDbEntity
  8
Default
100
AcDbVertex
100
AcDb2dVertex
 10
10.0
 20
50.0
 30
0.0
  0
VERTEX
  5
453
330
451
100
AcDbEntity
  8
Default
100
AcDbVertex
100
AcDb2dVertex
 10
0.0000000000000053
 20
67.32050807568878
 30
0.0
  0
SEQEND
  5
454
330
451
100
AcDbEntity
  8
Default
  0
POLYLINE
  5
455
330
1F
100
AcDbEntity
  8
Default
100
AcDb2dPolyline
 66
     1
 10
0.0
 20
0.0
 30
0.0
  0
VERTEX
  5
456
330
455
100
AcDbEntity
  8
Default
100
AcDbVertex
100
AcDb2dVertex
 10
30.0
 20
50.0
 30
0.0
  0
VERTEX
  5
457
330
455
100
AcDbEntity
  8
Default
100
AcDbVertex
100
AcDb2dVertex
 10
10.00000000000001
 20
84.64101615137756
 30
0.0
  0
SEQEND
  5
458
330
455
100
AcDbEntity
  8
Default
  0
POLYLINE
  5
459
330
1F
100
AcDbEntity
  8
Default
100
AcDb2dPolyline
 66
     1
 10
0.0
 20
0.0
 30
0.0
  0
VERTEX
  5
45A
330
459
100
AcDbEntity
  8
Default
100
AcDbVertex
100
AcDb2dVertex
 10
0.0000000000000018
 20
67.32050807568879
 30
0.0
  0
VERTEX
  5
45B
330
459
100
AcDbEntity
  8
Default
100
AcDbVertex
100
AcDb2dVertex
 10
9.999999999999995
 20
84.64101615137756
 30
0.0
  0
SEQEND
  5
45C
330
459
100
AcDbEntity
  8
Default
  0
POLYLINE
  5
45D
330
1F
100
AcDbEntity
  8
Default
100
AcDb2dPolyline
 66
     1
 10
0.0
 20
0.0
 30
0.0
  0
VERTEX
  5
45E
330
45D
100
AcDbEntity
  8
Default
100
AcDbVertex
100
AcDb2dVertex
 10
200.0
 20
67.32050807568879
 30
0.0
  0
VERTEX
  5
45F
330
45D
100
AcDbEntity
  8
Default
100
AcDbVertex
100
AcDb2dVertex
 10
190.0
 20
84.64101615137756
 30
0.0
  0
SEQEND
  5
460
330
45D
100
AcDbEntity
  8
Default
  0
POLYLINE
  5
461
330
1F
100
AcDbEntity
  8
Default
100
AcDb2dPolyline
 66
     1
 10
0.0
 20
0.0
 30
0.0
  0
VERTEX
  5
462
330
461
100
AcDbEntity
  8
Default
100
AcDbVertex
100
AcDb2dVertex
 10
190.0
 20
50.0
 30
0.0
  0
VERTEX
  5
463
330
461
100
AcDbEntity
  8
Default
100
AcDbVertex
100
AcDb2dVertex
 10
170.0
 20
84.64101615137756
 30
0.0
  0
SEQEND
  5
464
330
461
100
AcDbEntity
  8
Default
  0
POLYLINE
  5
465
330
1F
100
AcDbEntity
  8
Default
100
AcDb2dPolyline
 66
     1
 10
0.0
 20
0.0
 30
0.0
  0
VERTEX
  5
466
330
465
100
AcDbEntity
  8
Default
100
AcDbVertex
100
AcDb2dVertex
 10
180.0
 20
50.0
 30
0.0
  0
VERTEX
  5
467
330
465
100
AcDbEntity
  8
Default
100
AcDbVertex
100
AcDb2dVertex
 10
160.0
 20
84.64101615137756
 30
0.0
  0
SEQEND
  5
468
330
465
100
AcDbEntity
  8
Default
  0
POLYLINE
  5
469
330
1F
100
AcDbEntity
  8
Default
100
AcDb2dPolyline
 66
     1
 10
0.0
 20
0.0
 30
0.0
  0
VERTEX
  5
46A
330
469
100
AcDbEntity
  8
Default
100
AcDbVertex
100
AcDb2dVertex
 10
170.0
 20
50.0
 30
0.0
  0
VERTEX
  5
46B
330
469
100
AcDbEntity
  8
Default
100
AcDbVertex
100
AcDb2dVertex
 10
190.0
 20
84.64101615137756
 30
0.0
  0
SEQEND
  5
46C
330
469
100
AcDbEntity
  8
Default
  0
POLYLINE
  5
46D
330
1F
100
AcDbEntity
  8
Default
100
AcDb2dPolyline
 66
     1
 10
0.0
 20
0.0
 30
0.0
  0
VERTEX
  5
46E
330
46D
100
AcDbEntity
  8
Default
100
AcDbVertex
100
AcDb2dVertex
 10
170.0
 20
50.0
 30
0.0
  0
VERTEX
  5
46F
330
46D
100
AcDbEntity
  8
Default
100
AcDbVertex
100
AcDb2dVertex
 10
150.0
 20
84.64101615137756
 30
0.0
  0
SEQEND
  5
470
330
46D
100
AcDbEntity
  8
Default
  0
POLYLINE
  5
471
330
1F
100
AcDbEntity
  8
Default
100
AcDb2dPolyline
 66
     1
 10
0.0
 20
0.0
 30
0.0
  0
VERTEX
  5
472
330
471
100
AcDbEntity
  8
Default
100
AcDbVertex
100
AcDb2dVertex
 10
160.0
 20
50.0
 30
0.0
  0
VERTEX
  5
473
330
471
100
AcDbEntity
  8
Default
100
AcDbVertex
100
AcDb2dVertex
 10
180.0
 20
84.64101615137756
 30
0.0
  0
SEQEND
  5
474
330
471
100
AcDbEntity
  8
Default
  0
POLYLINE
  5
475
330
1F
100
AcDbEntity
  8
Default
100
AcDb2dPolyline
 66
     1
 10
0.0
 20
0.0
 30
0.0
  0
VERTEX
  5
476
330
475
100
AcDbEntity
  8
Default
100
AcDbVertex
100
AcDb2dVertex
 10
160.0
 20
50.0
 30
0.0
  0
VERTEX
  5
477
330
475
100
AcDbEntity
  8
Default
100
AcDbVertex
100
AcDb2dVertex
 10
140.0
 20
84.64101615137756
 30
0.0
  0
SEQEND
  5
478
330
475
100
AcDbEntity
  8
Default
  0
POLYLINE
  5
479
330
1F
100
AcDbEntity
  8
Default
100
AcDb2dPolyline
 66
     1
 10
0.0
 20
0.0
 30
0.0
  0
VERTEX
  5
47A
330
479
100
AcDbEntity
  8
Default
100
AcDbVertex
100
AcDb2dVertex
 10
150.0
 20
50.0
 30
0.0
  0
VERTEX
  5
47B
330
479
100
AcDbEntity
  8
Default
100
AcDbVertex
100
AcDb2dVertex
 10
170.0
 20
84.64101615137756
 30
0.0
  0
SEQEND
  5
47C
330
479
100
AcDbEntity
  8
Default
  0
POLYLINE
  5
47D
330
1F
100
AcDbEntity
  8
Default
100
AcDb2dPolyline
 66
     1
 10
0.0
 20
0.0
 30
0.0
  0
VERTEX
  5
47E
330
47D
100
AcDbEntity
  8
Default
100
AcDbVertex
100
AcDb2dVertex
 10
150.0
 20
50.0
 30
0.0
  0
VERTEX
  5
47F
330
47D
100
AcDbEntity
  8
Default
100
AcDbVertex
100
AcDb2dVertex
 10
130.0
 20
84.64101615137756
 30
0.0
  0
SEQEND
  5
480
330
47D
100
AcDbEntity
  8
Default
  0
POLYLINE
  5
481
330
1F
100
AcDbEntity
  8
Default
100
AcDb2dPolyline
 66
     1
 10
0.0
 20
0.0
 30
0.0
  0
VERTEX
  5
482
330
481
100
AcDbEntity
  8
Default
100
AcDbVertex
100
AcDb2dVertex
 10
140.0
 20
50.0
 30
0.0
  0
VERTEX
  5
483
330
481
100
AcDbEntity
  8
Default
100
AcDbVertex
100
AcDb2dVertex
 10
160.0
 20
84.64101615137756
 30
0.0
  0
SEQEND
  5
484
330
481
100
AcDbEntity
  8
Default
  0
POLYLINE
  5
485
330
1F
100
AcDbEntity
  8
Default
100
AcDb2dPolyline
 66
     1
 10
0.0
 20
0.0
 30
0.0
  0
VERTEX
  5
486
330
485
100
AcDbEntity
  8
Default
100
AcDbVertex
100
AcDb2dVertex
 10
140.0
 20
50.0
 30
0.0
  0
VERTEX
  5
487
330
485
100
AcDbEntity
  8
Default
100
AcDbVertex
100
AcDb2dVertex
 10
120.0
 20
84.64101615137756
 30
0.0
  0
SEQEND
  5
488
330
485
100
AcDbEntity
  8
Default
  0
POLYLINE
  5
489
330
1F
100
AcDbEntity
  8
Default
100
AcDb2dPolyline
 66
     1
 10
0.0
 20
0.0
 30
0.0
  0
VERTEX
  5
48A
330
489
100
AcDbEntity
  8
Default
100
AcDbVertex
100
AcDb2dVertex
 10
130.0
 20
50.0
 30
0.0
  0
VERTEX
  5
48B
330
489
100
AcDbEntity
  8
Default
100
AcDbVertex
100
AcDb2dVertex
 10
150.0
 20
84.64101615137756
 30
0.0
  0
SEQEND
  5
48C
330
489
100
AcDbEntity
  8
Default
  0
POLYLINE
  5
48D
330
1F
100
AcDbEntity
  8
Default
100
AcDb2dPolyline
 66
     1
 10
0.0
 20
0.0
 30
0.0
  0
VERTEX
  5
48E
330
48D
100
AcDbEntity
  8
Default
100
AcDbVertex
100
AcDb2dVertex
 10
130.0
 20
50.0
 30
0.0
  0
VERTEX
  5
48F
330
48D
100
AcDbEntity
  8
Default
100
AcDbVertex
100
AcDb2dVertex
 10
110.0
 20
84.64101615137756
 30
0.0
  0
SEQEND
  5
490
330
48D
100
AcDbEntity
  8
Default
  0
POLYLINE
  5
491
330
1F
100
AcDbEntity
  8
Default
100
AcDb2dPolyline
 66
     1
 10
0.0
 20
0.0
 30
0.0
  0
VERTEX
  5
492
330
491
100
AcDbEntity
  8
Default
100
AcDbVertex
100
AcDb2dVertex
 10
120.0
 20
50.0
 30
0.0
  0
VERTEX
  5
493
330
491
100
AcDbEntity
  8
Default
100
AcDbVertex
100
AcDb2dVertex
 10
140.0
 20
84.64101615137756
 30
0.0
  0
SEQEND
  5
494
330
491
100
AcDbEntity
  8
Default
  0
POLYLINE
  5
495
330
1F
100
AcDbEntity
  8
Default
100
AcDb2dPolyline
 66
     1
 10
0.0
 20
0.0
 30
0.0
  0
VERTEX
  5
496
330
495
100
AcDbEntity
  8
Default
100
AcDbVertex
100
AcDb2dVertex
 10
120.0
 20
50.0
 30
0.0
  0
VERTEX
  5
497
330
495
100
AcDbEntity
  8
Default
100
AcDbVertex
100
AcDb2dVertex
 10
100.0
 20
84.64101615137756
 30
0.0
  0
SEQEND
  5
498
330
495
100
AcDbEntity
  8
Default
  0
POLYLINE
  5
499
330
1F
100
AcDbEntity
  8
Default
100
AcDb2dPolyline
 66
     1
 10
0.0
 20
0.0
 30
0.0
  0
VERTEX
  5
49A
330
499
100
AcDbEntity
  8
Default
100
AcDbVertex
100
AcDb2dVertex
 10
110.0
 20
50.0
 30
0.0
  0
VERTEX
  5
49B
330
499
100
AcDbEntity
  8
Default
100
AcDbVertex
100
AcDb2dVertex
 10
130.0
 20
84.64101615137756
 30
0.0
  0
SEQEND
  5
49C
330
499
100
AcDbEntity
  8
Default
  0
POLYLINE
  5
49D
330
1F
100
AcDbEntity
  8
Default
100
AcDb2dPolyline
 66
     1
 10
0.0
 20
0.0
 30
0.0
  0
VERTEX
  5
49E
330
49D
100
AcDbEntity
  8
Default
100
AcDbVertex
100
AcDb2dVertex
 10
110.0
 20
50.0
 30
0.0
  0
VERTEX
  5
49F
330
49D
100
AcDbEntity
  8
Default
100
AcDbVertex
100
AcDb2dVertex
 10
90.0
 20
84.64101615137756
 30
0.0
  0
SEQEND
  5
4A0
330
49D
100
AcDbEntity
  8
Default
  0
POLYLINE
  5
4A1
330
1F
100
AcDbEntity
  8
Default
100
AcDb2dPolyline
 66
     1
 10
0.0
 20
0.0
 30
0.0
  0
VERTEX
  5
4A2
330
4A1
100
AcDbEntity
  8
Default
100
AcDbVertex
100
AcDb2dVertex
 10
100.0
 20
50.0
 30
0.0
  0
VERTEX
  5
4A3
330
4A1
100
AcDbEntity
  8
Default
100
AcDbVertex
100
AcDb2dVertex
 10
120.0
 20
84.64101615137756
 30
0.0
  0
SEQEND
  5
4A4
330
4A1
100
AcDbEntity
  8
Default
  0
POLYLINE
  5
4A5
330
1F
100
AcDbEntity
  8
Default
100
AcDb2dPolyline
 66
     1
 10
0.0
 20
0.0
 30
0.0
  0
VERTEX
  5
4A6
330
4A5
100
AcDbEntity
  8
Default
100
AcDbVertex
100
AcDb2dVertex
 10
100.0
 20
50.0
 30
0.0
  0
VERTEX
  5
4A7
330
4A5
100
AcDbEntity
  8
Default
100
AcDbVertex
100
AcDb2dVertex
 10
80.0
 20
84.64101615137756
 30
0.0
  0
SEQEND
  5
4A8
330
4A5
100
AcDbEntity
  8
Default
  0
POLYLINE
  5
4A9
330
1F
100
AcDbEntity
  8
Default
100
AcDb2dPolyline
 66
     1
 10
0.0
 20
0.0
 30
0.0
  0
VERTEX
  5
4AA
330
4A9
100
AcDbEntity
  8
Default
100
AcDbVertex
100
AcDb2dVertex
 10
90.0
 20
50.0
 30
0.0
  0
VERTEX
  5
4AB
330
4A9
100
AcDbEntity
  8
Default
100
AcDbVertex
100
AcDb2dVertex
 10
110.0
 20
84.64101615137756
 30
0.0
  0
SEQEND
  5
4AC
330
4A9
100
AcDbEntity
  8
Default
  0
POLYLINE
  5
4AD
330
1F
100
AcDbEntity
  8
Default
100
AcDb2dPolyline
 66
     1
 10
0.0
 20
0.0
 30
0.0
  0
VERTEX
  5
4AE
330
4AD
100
AcDbEntity
  8
Default
100
AcDbVertex
100
AcDb2dVertex
 10
90.0
 20
50.0
 30
0.0
  0
VERTEX
  5
4AF
330
4AD
100
AcDbEntity
  8
Default
100
AcDbVertex
100
AcDb2dVertex
 10
70.00000000000001
 20
84.64101615137756
 30
0.0
  0
SEQEND
  5
4B0
330
4AD
100
AcDbEntity
  8
Default
  0
POLYLINE
  5
4B1
330
1F
100
AcDbEntity
  8
Default
100
AcDb2dPolyline
 66
     1
 10
0.0
 20
0.0
 30
0.0
  0
VERTEX
  5
4B2
330
4B1
100
AcDbEntity
  8
Default
100
AcDbVertex
100
AcDb2dVertex
 10
80.0
 20
50.0
 30
0.0
  0
VERTEX
  5
4B3
330
4B1
100
AcDbEntity
  8
Default
100
AcDbVertex
100
AcDb2dVertex
 10
100.0
 20
84.64101615137756
 30
0.0
  0
SEQEND
  5
4B4
330
4B1
100
AcDbEntity
  8
Default
  0
POLYLINE
  5
4B5
330
1F
100
AcDbEntity
  8
Default
100
AcDb2dPolyline
 66
     1
 10
0.0
 20
0.0
 30
0.0
  0
VERTEX
  5
4B6
330
4B5
100
AcDbEntity
  8
Default
100
AcDbVertex
100
AcDb2dVertex
 10
80.0
 20
50.0
 30
0.0
  0
VERTEX
  5
4B7
330
4B5
100
AcDbEntity
  8
Default
100
AcDbVertex
100
AcDb2dVertex
 10
60.00000000000001
 20
84.64101615137756
 30
0.0
  0
SEQEND
  5
4B8
330
4B5
100
AcDbEntity
  8
Default
  0
POLYLINE
  5
4B9
330
1F
100
AcDbEntity
  8
Default
100
AcDb2dPolyline
 66
     1
 10
0.0
 20
0.0
 30
0.0
  0
VERTEX
  5
4BA
330
4B9
100
AcDbEntity
  8
Default
100
AcDbVertex
100
AcDb2dVertex
 10
70.0
 20
50.0
 30
0.0
  0
VERTEX
  5
4BB
330
4B9
100
AcDbEntity
  8
Default
100
AcDbVertex
100
AcDb2dVertex
 10
90.0
 20
84.64101615137756
 30
0.0
  0
SEQEND
  5
4BC
330
4B9
100
AcDbEntity
  8
Default
  0
POLYLINE
  5
4BD
330
1F
100
AcDbEntity
  8
Default
100
AcDb2dPolyline
 66
     1
 10
0.0
 20
0.0
 30
0.0
  0
VERTEX
  5
4BE
330
4BD
100
AcDbEntity
  8
Default
100
AcDbVertex
100
AcDb2dVertex
 10
70.0
 20
50.0
 30
0.0
  0
VERTEX
  5
4BF
330
4BD
100
AcDbEntity
  8
Default
100
AcDbVertex
100
AcDb2dVertex
 10
50.0
 20
84.64101615137756
 30
0.0
  0
SEQEND
  5
4C0
330
4BD
100
AcDbEntity
  8
Default
  0
POLYLINE
  5
4C1
330
1F
100
AcDbEntity
  8
Default
100
AcDb2dPolyline
 66
     1
 10
0.0
 20
0.0
 30
0.0
  0
VERTEX
  5
4C2
330
4C1
100
AcDbEntity
  8
Default
100
AcDbVertex
100
AcDb2dVertex
 10
60.0
 20
50.0
 30
0.0
  0
VERTEX
  5
4C3
330
4C1
100
AcDbEntity
  8
Default
100
AcDbVertex
100
AcDb2dVertex
 10
79.99999999999999
 20
84.64101615137756
 30
0.0
  0
SEQEND
  5
4C4
330
4C1
100
AcDbEntity
  8
Default
  0
POLYLINE
  5
4C5
330
1F
100
AcDbEntity
  8
Default
100
AcDb2dPolyline
 66
     1
 10
0.0
 20
0.0
 30
0.0
  0
VERTEX
  5
4C6
330
4C5
100
AcDbEntity
  8
Default
100
AcDbVertex
100
AcDb2dVertex
 10
60.0
 20
50.0
 30
0.0
  0
VERTEX
  5
4C7
330
4C5
100
AcDbEntity
  8
Default
100
AcDbVertex
100
AcDb2dVertex
 10
40.0
 20
84.64101615137756
 30
0.0
  0
SEQEND
  5
4C8
330
4C5
100
AcDbEntity
  8
Default
  0
POLYLINE
  5
4C9
330
1F
100
AcDbEntity
  8
Default
100
AcDb2dPolyline
 66
     1
 10
0.0
 20
0.0
 30
0.0
  0
VERTEX
  5
4CA
330
4C9
100
AcDbEntity
  8
Default
100
AcDbVertex
100
AcDb2dVertex
 10
50.0
 20
50.0
 30
0.0
  0
VERTEX
  5
4CB
330
4C9
100
AcDbEntity
  8
Default
100
AcDbVertex
100
AcDb2dVertex
 10
69.99999999999999
 20
84.64101615137756
 30
0.0
  0
SEQEND
  5
4CC
330
4C9
100
AcDbEntity
  8
Default
  0
POLYLINE
  5
4CD
330
1F
100
AcDbEntity
  8
Default
100
AcDb2dPolyline
 66
     1
 10
0.0
 20
0.0
 30
0.0
  0
VERTEX
  5
4CE
330
4CD
100
AcDbEntity
  8
Default
100
AcDbVertex
100
AcDb2dVertex
 10
50.0
 20
50.0
 30
0.0
  0
VERTEX
  5
4CF
330
4CD
100
AcDbEntity
  8
Default
100
AcDbVertex
100
AcDb2dVertex
 10
30.00000000000001
 20
84.64101615137756
 30
0.0
  0
SEQEND
  5
4D0
330
4CD
100
AcDbEntity
  8
Default
  0
POLYLINE
  5
4D1
330
1F
100
AcDbEntity
  8
Default
100
AcDb2dPolyline
 66
     1
 10
0.0
 20
0.0
 30
0.0
  0
VERTEX
  5
4D2
330
4D1
100
AcDbEntity
  8
Default
100
AcDbVertex
100
AcDb2dVertex
 10
40.0
 20
50.0
 30
0.0
  0
VERTEX
  5
4D3
330
4D1
100
AcDbEntity
  8
Default
100
AcDbVertex
100
AcDb2dVertex
 10
60.0
 20
84.64101615137756
 30
0.0
  0
SEQEND
  5
4D4
330
4D1
100
AcDbEntity
  8
Default
  0
POLYLINE
  5
4D5
330
1F
100
AcDbEntity
  8
Default
100
AcDb2dPolyline
 66
     1
 10
0.0
 20
0.0
 30
0.0
  0
VERTEX
  5
4D6
330
4D5
100
AcDbEntity
  8
Default
100
AcDbVertex
100
AcDb2dVertex
 10
40.0
 20
50.0
 30
0.0
  0
VERTEX
  5
4D7
330
4D5
100
AcDbEntity
  8
Default
100
AcDbVertex
100
AcDb2dVertex
 10
20.0
 20
84.64101615137756
 30
0.0
  0
SEQEND
  5
4D8
330
4D5
100
AcDbEntity
  8
Default
  0
POLYLINE
  5
4D9
330
1F
100
AcDbEntity
  8
Default
100
AcDb2dPolyline
 66
     1
 10
0.0
 20
0.0
 30
0.0
  0
VERTEX
  5
4DA
330
4D9
100
AcDbEntity
  8
Default
100
AcDbVertex
100
AcDb2dVertex
 10
30.0
 20
50.0
 30
0.0
  0
VERTEX
  5
4DB
330
4D9
100
AcDbEntity
  8
Default
100
AcDbVertex
100
AcDb2dVertex
 10
49.99999999999999
 20
84.64101615137756
 30
0.0
  0
SEQEND
  5
4DC
330
4D9
100
AcDbEntity
  8
Default
  0
POLYLINE
  5
4DD
330
1F
100
AcDbEntity
  8
Default
100
AcDb2dPolyline
 66
     1
 10
0.0
 20
0.0
 30
0.0
  0
VERTEX
  5
4DE
330
4DD
100
AcDbEntity
  8
Default
100
AcDbVertex
100
AcDb2dVertex
 10
20.0
 20
50.0
 30
0.0
  0
VERTEX
  5
4DF
330
4DD
100
AcDbEntity
  8
Default
100
AcDbVertex
100
AcDb2dVertex
 10
39.99999999999999
 20
84.64101615137756
 30
0.0
  0
SEQEND
  5
4E0
330
4DD
100
AcDbEntity
  8
Default
  0
POLYLINE
  5
4E1
330
1F
100
AcDbEntity
  8
Default
100
AcDb2dPolyline
 66
     1
 10
0.0
 20
0.0
 30
0.0
  0
VERTEX
  5
4E2
330
4E1
100
AcDbEntity
  8
Default
100
AcDbVertex
100
AcDb2dVertex
 10
10.0
 20
50.0
 30
0.0
  0
VERTEX
  5
4E3
330
4E1
100
AcDbEntity
  8
Default
100
AcDbVertex
100
AcDb2dVertex
 10
29.99999999999999
 20
84.64101615137756
 30
0.0
  0
SEQEND
  5
4E4
330
4E1
100
AcDbEntity
  8
Default
  0
POLYLINE
  5
4E5
330
1F
100
AcDbEntity
  8
Default
100
AcDb2dPolyline
 66
     1
 10
0.0
 20
0.0
 30
0.0
  0
VERTEX
  5
4E6
330
4E5
100
AcDbEntity
  8
Default
100
AcDbVertex
100
AcDb2dVertex
 10
4.999999999999998
 20
75.98076211353317
 30
0.0
  0
VERTEX
  5
4E7
330
4E5
100
AcDbEntity
  8
Default
100
AcDbVertex
100
AcDb2dVertex
 10
195.0
 20
75.98076211353317
 30
0.0
  0
SEQEND
  5
4E8
330
4E5
100
AcDbEntity
  8
Default
  0
POLYLINE
  5
4E9
330
1F
100
AcDbEntity
  8
Default
100
AcDb2dPolyline
 66
     1
 10
0.0
 20
0.0
 30
0.0
  0
VERTEX
  5
4EA
330
4E9
100
AcDbEntity
  8
Default
100
AcDbVertex
100
AcDb2dVertex
 10
190.0
 20
84.64101615137756
 30
0.0
  0
VERTEX
  5
4EB
330
4E9
100
AcDbEntity
  8
Default
100
AcDbVertex
100
AcDb2dVertex
 10
10.00000000000003
 20
84.64101615137756
 30
0.0
  0
SEQEND
  5
4EC
330
4E9
100
AcDbEntity
  8
Default
  0
POLYLINE
  5
4ED
330
1F
100
AcDbEntity
  8
Default
100
AcDb2dPolyline
 66
     1
 10
0.0
 20
0.0
 30
0.0
  0
VERTEX
  5
4EE
330
4ED
100
AcDbEntity
  8
Default
100
AcDbVertex
100
AcDb2dVertex
 10
4.999999999999998
 20
58.66025403784439
 30
0.0
  0
VERTEX
  5
4EF
330
4ED
100
AcDbEntity
  8
Default
100
AcDbVertex
100
AcDb2dVertex
 10
195.0
 20
58.66025403784439
 30
0.0
  0
SEQEND
  5
4F0
330
4ED
100
AcDbEntity
  8
Default
  0
POLYLINE
  5
4F1
330
1F
100
AcDbEntity
  8
Default
100
AcDb2dPolyline
 66
     1
 10
0.0
 20
0.0
 30
0.0
  0
VERTEX
  5
4F2
330
4F1
100
AcDbEntity
  8
Default
100
AcDbVertex
100
AcDb2dVertex
 10
10.0
 20
50.0
 30
0.0
  0
VERTEX
  5
4F3
330
4F1
100
AcDbEntity
  8
Default
100
AcDbVertex
100
AcDb2dVertex
 10
190.0000000000001
 20
50.0
 30
0.0
  0
SEQEND
  5
4F4
330
4F1
100
AcDbEntity
  8
Default
  0
ENDSEC
  0
SECTION
  2
OBJECTS
  0
DICTIONARY
  5
C
330
0
100
AcDbDictionary
281
     1
  3
ACAD_DETAILVIEWSTYLE
350
53A
  3
ACAD_GROUP
350
D
  3
ACAD_LAYOUT
350
1A
  3
ACAD_MATERIAL
350
43
  3
ACAD_MLEADERSTYLE
350
6B
  3
ACAD_MLINESTYLE
350
17
  3
ACAD_PLOTSETTINGS
350
19
  3
ACAD_PLOTSTYLENAME
350
E
  3
ACAD_SCALELIST
350
47
  3
ACAD_SECTIONVIEWSTYLE
350
53B
  3
ACAD_TABLESTYLE
350
69
  3
ACAD_VISUALSTYLE
350
2A
  3
ACDB_RECOMPOSE_DATA
350
537
  3
AcDbVariableDictionary
350
4F7
  0
DICTIONARY
  5
4F5
330
8
100
AcDbDictionary
280
     1
281
     1
  3
ACAD_XREC_ROUNDTRIP
360
4F6
  0
DICTIONARY
  5
53A
102
{ACAD_REACTORS
330
C
102
}
330
C
100
AcDbDictionary
281
     1
  0
DICTIONARY
  5
D
102
{ACAD_REACTORS
330
C
102
}
330
C
100
AcDbDictionary
281
     1
  0
DICTIONARY
  5
1A
102
{ACAD_REACTORS
330
C
102
}
330
C
100
AcDbDictionary
281
     1
  3
Layout1
350
1E
  3
Layout2
350
26
  3
Model
350
22
  0
DICTIONARY
  5
43
102
{ACAD_REACTORS
330
C
102
}
330
C
100
AcDbDictionary
281
     1
  3
ByBlock
350
45
  3
ByLayer
350
44
  3
Global
350
46
  0
DICTIONARY
  5
6B
102
{ACAD_REACTORS
330
C
102
}
330
C
100
AcDbDictionary
281
     1
  3
Standard
350
6C
  0
DICTIONARY
  5
17
102
{ACAD_REACTORS
330
C
102
}
330
C
100
AcDbDictionary
281
     1
  3
Standard
350
18
  0
DICTIONARY
  5
19
102
{ACAD_REACTORS
330
C
102
}
330
C
100
AcDbDictionary
281
     1
  0
ACDBDICTIONARYWDFLT
  5
E
102
{ACAD_REACTORS
330
C
102
}
330
C
100
AcDbDictionary
281
     1
  3
Normal
350
F
100
AcDbDictionaryWithDefault
340
F
  0
DICTIONARY
  5
47
102
{ACAD_REACTORS
330
C
102
}
330
C
100
AcDbDictionary
281
     1
  3
A0
350
48
  3
A1
350
49
  3
A2
350
4A
  3
A3
350
4B
  3
A4
350
4C
  3
A5
350
4D
  3
A6
350
4E
  3
A7
350
4F
  3
A8
350
50
  3
A9
350
51
  3
B0
350
52
  3
B1
350
53
  3
B2
350
54
  3
B3
350
55
  3
B4
350
56
  3
B5
350
57
  3
B6
350
58
  3
B7
350
59
  3
B8
350
5A
  3
B9
350
5B
  3
C0
350
5C
  3
C1
350
5D
  3
C2
350
5E
  3
C3
350
5F
  3
C4
350
60
  3
C5
350
61
  3
C6
350
62
  3
C7
350
63
  3
C8
350
64
  3
C9
350
65
  3
D0
350
66
  3
D1
350
67
  3
D2
350
68
  0
DICTIONARY
  5
53B
102
{ACAD_REACTORS
330
C
102
}
330
C
100
AcDbDictionary
281
     1
  0
DICTIONARY
  5
69
102
{ACAD_REACTORS
330
C
102
}
330
C
100
AcDbDictionary
281
     1
  3
Standard
350
6A
  0
DICTIONARY
  5
2A
102
{ACAD_REACTORS
330
C
102
}
330
C
100
AcDbDictionary
281
     1
  3
2dWireframe
350
2F
  3
Basic
350
32
  3
Brighten
350
36
  3
ColorChange
350
3A
  3
Conceptual
350
34
  3
Dim
350
35
  3
EdgeColorOff
350
3D
  3
Facepattern
350
39
  3
Flat
350
2B
  3
FlatWithEdges
350
2C
  3
Gouraud
350
2D
  3
GouraudWithEdges
350
2E
  3
Hidden
350
31
  3
JitterOff
350
3B
  3
Linepattern
350
38
  3
OverhangOff
350
3C
  3
Realistic
350
33
  3
Shaded
350
42
  3
Shaded with edges
350
41
  3
Shades of Gray
350
3E
  3
Sketchy
350
3F
  3
Thicken
350
37
  3
Wireframe
350
30
  3
X-Ray
350
40
  0
XRECORD
  5
537
102
{ACAD_REACTORS
330
C
102
}
330
C
100
AcDbXrecord
280
     1
 90
        1
330
6A
  0
DICTIONARY
  5
4F7
102
{ACAD_REACTORS
330
C
102
}
330
C
100
AcDbDictionary
281
     1
  3
CANNOSCALE
350
4F8
  3
CMLEADERSTYLE
350
539
  3
CTABLESTYLE
350
538
  3
MSLTSCALE
350
4F9
  3
XCLIPFRAME
350
4FA
  0
XRECORD
  5
4F6
102
{ACAD_REACTORS
330
4F5
102
}
330
4F5
100
AcDbXrecord
280
     1
102
VTR_0.000_0.000_1.000_1.000_GRIDDISPLAY
 70
     3
102
VTR_0.000_0.000_1.000_1.000_GRIDMAJOR
 70
     5
102
VTR_0.000_0.000_1.000_1.000_DEFAULTLIGHTING
280
     1
102
VTR_0.000_0.000_1.000_1.000_DEFAULTLIGHTINGTYPE
 70
     1
102
VTR_0.000_0.000_1.000_1.000_BRIGHTNESS
141
0.0
102
VTR_0.000_0.000_1.000_1.000_CONTRAST
142
0.0
  0
LAYOUT
  5
1E
102
{ACAD_REACTORS
330
1A
102
}
330
1A
100
AcDbPlotSettings
  1

  2
none_device
  4

  6

 40
0.0
 41
0.0
 42
0.0
 43
0.0
 44
0.0
 45
0.0
 46
0.0
 47
0.0
 48
0.0
 49
0.0
140
0.0
141
0.0
142
1.0
143
1.0
 70
   688
 72
     0
 73
     0
 74
     5
  7

 75
    16
 76
     0
 77
     2
 78
   300
147
1.0
148
0.0
149
0.0
100
AcDbLayout
  1
Layout1
 70
     1
 71
     1
 10
0.0
 20
0.0
 11
12.0
 21
9.0
 12
0.0
 22
0.0
 32
0.0
 14
1.000000000000000E+20
 24
1.000000000000000E+20
 34
1.000000000000000E+20
 15
-1.000000000000000E+20
 25
-1.000000000000000E+20
 35
-1.000000000000000E+20
146
0.0
 13
0.0
 23
0.0
 33
0.0
 16
1.0
 26
0.0
 36
0.0
 17
0.0
 27
1.0
 37
0.0
 76
     0
330
1B
  0
LAYOUT
  5
26
102
{ACAD_REACTORS
330
1A
102
}
330
1A
100
AcDbPlotSettings
  1

  2
none_device
  4

  6

 40
0.0
 41
0.0
 42
0.0
 43
0.0
 44
0.0
 45
0.0
 46
0.0
 47
0.0
 48
0.0
 49
0.0
140
0.0
141
0.0
142
1.0
143
1.0
 70
   688
 72
     0
 73
     0
 74
     5
  7

 75
    16
 76
     0
 77
     2
 78
   300
147
1.0
148
0.0
149
0.0
100
AcDbLayout
  1
Layout2
 70
     1
 71
     2
 10
0.0
 20
0.0
 11
0.0
 21
0.0
 12
0.0
 22
0.0
 32
0.0
 14
0.0
 24
0.0
 34
0.0
 15
0.0
 25
0.0
 35
0.0
146
0.0
 13
0.0
 23
0.0
 33
0.0
 16
1.0
 26
0.0
 36
0.0
 17
0.0
 27
1.0
 37
0.0
 76
     0
330
23
  0
LAYOUT
  5
22
102
{ACAD_REACTORS
330
1A
102
}
330
1A
100
AcDbPlotSettings
  1

  2
none_device
  4
Letter_(8.50_x_11.00_Inches)
  6

 40
6.35
 41
6.35
 42
6.35000508
 43
6.35000508
 44
215.9
 45
279.4
 46
0.0
 47
0.0
 48
0.0
 49
0.0
140
0.0
141
0.0
142
1.0
143
1.0
 70
  1712
 72
     0
 73
     0
 74
     0
  7

 75
     0
 76
     0
 77
     2
 78
   300
147
1.0
148
0.0
149
0.0
100
AcDbLayout
  1
Model
 70
     1
 71
     0
 10
0.0
 20
0.0
 11
12.0
 21
9.0
 12
0.0
 22
0.0
 32
0.0
 14
0.0
 24
0.0
 34
0.0
 15
200.0
 25
84.64101615137756
 35
0.0
146
0.0
 13
0.0
 23
0.0
 33
0.0
 16
1.0
 26
0.0
 36
0.0
 17
0.0
 27
1.0
 37
0.0
 76
     0
330
1F
331
29
  0
MATERIAL
  5
45
102
{ACAD_REACTORS
330
43
102
}
102
{ACAD_XDICTIONARY
360
52D
102
}
330
43
100
AcDbMaterial
  1
ByBlock
  0
MATERIAL
  5
44
102
{ACAD_REACTORS
330
43
102
}
102
{ACAD_XDICTIONARY
360
52B
102
}
330
43
100
AcDbMaterial
  1
ByLayer
  0
MATERIAL
  5
46
102
{ACAD_REACTORS
330
43
102
}
102
{ACAD_XDICTIONARY
360
52F
102
}
330
43
100
AcDbMaterial
  1
Global
  0
MLEADERSTYLE
  5
6C
102
{ACAD_REACTORS
330
6B
102
}
102
{ACAD_XDICTIONARY
360
535
102
}
330
6B
100
AcDbMLeaderStyle
170
     2
171
     1
172
     0
 90
        2
 40
0.0
 41
0.0
173
     1
 91
-1056964608
340
14
 92
       -2
290
     1
 42
0.09
291
     1
 43
0.36
  3
Standard
341
0
 44
0.18
300

342
11
174
     1
178
     6
175
     1
176
     0
 93
-1056964608
 45
0.18
292
     0
297
     0
 46
0.18
343
0
 94
-1056964608
 47
1.0
 49
1.0
140
1.0
293
     1
141
0.0
294
     1
177
     0
142
1.0
295
     0
296
     0
143
0.125
1001
ACAD_MLEADERVER
1070
     2
  0
MLINESTYLE
  5
18
102
{ACAD_REACTORS
330
17
102
}
330
17
100
AcDbMlineStyle
  2
Standard
 70
     0
  3

 62
   256
 51
90.0
 52
90.0
 71
     2
 49
0.5
 62
   256
  6
BYLAYER
 49
-0.5
 62
   256
  6
BYLAYER
  0
ACDBPLACEHOLDER
  5
F
102
{ACAD_REACTORS
330
E
102
}
330
E
  0
SCALE
  5
48
102
{ACAD_REACTORS
330
47
102
}
330
47
100
AcDbScale
 70
     0
300
1:1
140
1.0
141
1.0
290
     1
  0
SCALE
  5
49
102
{ACAD_REACTORS
330
47
102
}
330
47
100
AcDbScale
 70
     0
300
1:2
140
1.0
141
2.0
290
     0
  0
SCALE
  5
4A
102
{ACAD_REACTORS
330
47
102
}
330
47
100
AcDbScale
 70
     0
300
1:4
140
1.0
141
4.0
290
     0
  0
SCALE
  5
4B
102
{ACAD_REACTORS
330
47
102
}
330
47
100
AcDbScale
 70
     0
300
1:5
140
1.0
141
5.0
290
     0
  0
SCALE
  5
4C
102
{ACAD_REACTORS
330
47
102
}
330
47
100
AcDbScale
 70
     0
300
1:8
140
1.0
141
8.0
290
     0
  0
SCALE
  5
4D
102
{ACAD_REACTORS
330
47
102
}
330
47
100
AcDbScale
 70
     0
300
1:10
140
1.0
141
10.0
290
     0
  0
SCALE
  5
4E
102
{ACAD_REACTORS
330
47
102
}
330
47
100
AcDbScale
 70
     0
300
1:16
140
1.0
141
16.0
290
     0
  0
SCALE
  5
4F
102
{ACAD_REACTORS
330
47
102
}
330
47
100
AcDbScale
 70
     0
300
1:20
140
1.0
141
20.0
290
     0
  0
SCALE
  5
50
102
{ACAD_REACTORS
330
47
102
}
330
47
100
AcDbScale
 70
     0
300
1:30
140
1.0
141
30.0
290
     0
  0
SCALE
  5
51
102
{ACAD_REACTORS
330
47
102
}
330
47
100
AcDbScale
 70
     0
300
1:40
140
1.0
141
40.0
290
     0
  0
SCALE
  5
52
102
{ACAD_REACTORS
330
47
102
}
330
47
100
AcDbScale
 70
     0
300
1:50
140
1.0
141
50.0
290
     0
  0
SCALE
  5
53
102
{ACAD_REACTORS
330
47
102
}
330
47
100
AcDbScale
 70
     0
300
1:100
140
1.0
141
100.0
290
     0
  0
SCALE
  5
54
102
{ACAD_REACTORS
330
47
102
}
330
47
100
AcDbScale
 70
     0
300
2:1
140
2.0
141
1.0
290
     0
  0
SCALE
  5
55
102
{ACAD_REACTORS
330
47
102
}
330
47
100
AcDbScale
 70
     0
300
4:1
140
4.0
141
1.0
290
     0
  0
SCALE
  5
56
102
{ACAD_REACTORS
330
47
102
}
330
47
100
AcDbScale
 70
     0
300
8:1
140
8.0
141
1.0
290
     0
  0
SCALE
  5
57
102
{ACAD_REACTORS
330
47
102
}
330
47
100
AcDbScale
 70
     0
300
10:1
140
10.0
141
1.0
290
     0
  0
SCALE
  5
58
102
{ACAD_REACTORS
330
47
102
}
330
47
100
AcDbScale
 70
     0
300
100:1
140
100.0
141
1.0
290
     0
  0
SCALE
  5
59
102
{ACAD_REACTORS
330
47
102
}
330
47
100
AcDbScale
 70
     0
300
1/128" = 1'-0"
140
0.0078125
141
12.0
290
     0
  0
SCALE
  5
5A
102
{ACAD_REACTORS
330
47
102
}
330
47
100
AcDbScale
 70
     0
300
1/64" = 1'-0"
140
0.015625
141
12.0
290
     0
  0
SCALE
  5
5B
102
{ACAD_REACTORS
330
47
102
}
330
47
100
AcDbScale
 70
     0
300
1/32" = 1'-0"
140
0.03125
141
12.0
290
     0
  0
SCALE
  5
5C
102
{ACAD_REACTORS
330
47
102
}
330
47
100
AcDbScale
 70
     0
300
1/16" = 1'-0"
140
0.0625
141
12.0
290
     0
  0
SCALE
  5
5D
102
{ACAD_REACTORS
330
47
102
}
330
47
100
AcDbScale
 70
     0
300
3/32" = 1'-0"
140
0.09375
141
12.0
290
     0
  0
SCALE
  5
5E
102
{ACAD_REACTORS
330
47
102
}
330
47
100
AcDbScale
 70
     0
300
1/8" = 1'-0"
140
0.125
141
12.0
290
     0
  0
SCALE
  5
5F
102
{ACAD_REACTORS
330
47
102
}
330
47
100
AcDbScale
 70
     0
300
3/16" = 1'-0"
140
0.1875
141
12.0
290
     0
  0
SCALE
  5
60
102
{ACAD_REACTORS
330
47
102
}
330
47
100
AcDbScale
 70
     0
300
1/4" = 1'-0"
140
0.25
141
12.0
290
     0
  0
SCALE
  5
61
102
{ACAD_REACTORS
330
47
102
}
330
47
100
AcDbScale
 70
     0
300
3/8" = 1'-0"
140
0.375
141
12.0
290
     0
  0
SCALE
  5
62
102
{ACAD_REACTORS
330
47
102
}
330
47
100
AcDbScale
 70
     0
300
1/2" = 1'-0"
140
0.5
141
12.0
290
     0
  0
SCALE
  5
63
102
{ACAD_REACTORS
330
47
102
}
330
47
100
AcDbScale
 70
     0
300
3/4" = 1'-0"
140
0.75
141
12.0
290
     0
  0
SCALE
  5
64
102
{ACAD_REACTORS
330
47
102
}
330
47
100
AcDbScale
 70
     0
300
1" = 1'-0"
140
1.0
141
12.0
290
     0
  0
SCALE
  5
65
102
{ACAD_REACTORS
330
47
102
}
330
47
100
AcDbScale
 70
     0
300
1-1/2" = 1'-0"
140
1.5
141
12.0
290
     0
  0
SCALE
  5
66
102
{ACAD_REACTORS
330
47
102
}
330
47
100
AcDbScale
 70
     0
300
3" = 1'-0"
140
3.0
141
12.0
290
     0
  0
SCALE
  5
67
102
{ACAD_REACTORS
330
47
102
}
330
47
100
AcDbScale
 70
     0
300
6" = 1'-0"
140
6.0
141
12.0
290
     0
  0
SCALE
  5
68
102
{ACAD_REACTORS
330
47
102
}
330
47
100
AcDbScale
 70
     0
300
1'-0" = 1'-0"
140
12.0
141
12.0
290
     0
  0
TABLESTYLE
  5
6A
102
{ACAD_REACTORS
330
69
102
}
102
{ACAD_XDICTIONARY
360
531
102
}
330
69
100
AcDbTableStyle
  3
Standard
 70
     0
 71
     0
 40
0.06
 41
0.06
280
     0
281
     0
  7
Standard
140
0.18
170
     2
 62
     0
 63
   257
283
     0
274
    -2
284
     1
 64
     0
275
    -2
285
     1
 65
     0
276
    -2
286
     1
 66
     0
277
    -2
287
     1
 67
     0
278
    -2
288
     1
 68
     0
279
    -2
289
     1
 69
     0
  7
Standard
140
0.25
170
     5
 62
     0
 63
   257
283
     0
274
    -2
284
     1
 64
     0
275
    -2
285
     1
 65
     0
276
    -2
286
     1
 66
     0
277
    -2
287
     1
 67
     0
278
    -2
288
     1
 68
     0
279
    -2
289
     1
 69
     0
  7
Standard
140
0.18
170
     5
 62
     0
 63
   257
283
     0
274
    -2
284
     1
 64
     0
275
    -2
285
     1
 65
     0
276
    -2
286
     1
 66
     0
277
    -2
287
     1
 67
     0
278
    -2
288
     1
 68
     0
279
    -2
289
     1
 69
     0
  0
VISUALSTYLE
  5
2F
102
{ACAD_REACTORS
330
2A
102
}
102
{ACAD_XDICTIONARY
360
503
102
}
330
2A
100
AcDbVisualStyle
  2
2dWireframe
 70
     4
 71
     0
 72
     2
 73
     0
 90
        0
 40
0.6
 41
30.0
 62
     5
 63
     7
421
 16777215
 74
     1
 91
        4
 64
     7
 65
   257
 75
     1
175
     1
 42
1.0
 92
        0
 66
   257
 43
1.0
 76
     1
 77
     6
 78
     2
 67
     7
 79
     5
170
     0
171
     0
290
     0
174
     0
 93
        1
 44
0.0
173
     0
291
     0
 45
0.0
1001
ACAD
1000
AcDbSavedByObjectVersion
1070
     0
  0
VISUALSTYLE
  5
32
102
{ACAD_REACTORS
330
2A
102
}
102
{ACAD_XDICTIONARY
360
509
102
}
330
2A
100
AcDbVisualStyle
  2
Basic
 70
     7
 71
     1
 72
     0
 73
     1
 90
        0
 40
0.6
 41
30.0
 62
     5
 63
     7
421
 16777215
 74
     0
 91
        4
 64
     7
 65
   257
 75
     1
175
     1
 42
1.0
 92
        8
 66
     7
 43
1.0
 76
     1
 77
     6
 78
     2
 67
     7
 79
     5
170
     0
171
     0
290
     0
174
     0
 93
        1
 44
0.0
173
     0
291
     1
 45
0.0
1001
ACAD
1000
AcDbSavedByObjectVersion
1070
     0
  0
VISUALSTYLE
  5
36
102
{ACAD_REACTORS
330
2A
102
}
102
{ACAD_XDICTIONARY
360
511
102
}
330
2A
100
AcDbVisualStyle
  2
Brighten
 70
    12
 71
     2
 72
     2
 73
     0
 90
        0
 40
0.6
 41
30.0
 62
     5
 63
     7
421
 16777215
 74
     1
 91
        4
 64
     7
 65
   257
 75
     1
175
     1
 42
1.0
 92
        8
 66
     7
 43
1.0
 76
     1
 77
     6
 78
     2
 67
     7
 79
     5
170
     0
171
     0
290
     0
174
     0
 93
        1
 44
50.0
173
     0
291
     1
 45
0.0
1001
ACAD
1000
AcDbSavedByObjectVersion
1070
     0
  0
VISUALSTYLE
  5
3A
102
{ACAD_REACTORS
330
2A
102
}
102
{ACAD_XDICTIONARY
360
519
102
}
330
2A
100
AcDbVisualStyle
  2
ColorChange
 70
    16
 71
     2
 72
     2
 73
     3
 90
        0
 40
0.6
 41
30.0
 62
     5
 63
     8
421
  8421504
 74
     1
 91
        4
 64
     7
 65
   257
 75
     1
175
     1
 42
1.0
 92
        8
 66
     8
424
  8421504
 43
1.0
 76
     1
 77
     6
 78
     2
 67
     7
 79
     5
170
     0
171
     0
290
     0
174
     0
 93
        1
 44
0.0
173
     0
291
     1
 45
0.0
1001
ACAD
1000
AcDbSavedByObjectVersion
1070
     0
  0
VISUALSTYLE
  5
34
102
{ACAD_REACTORS
330
2A
102
}
102
{ACAD_XDICTIONARY
360
50D
102
}
330
2A
100
AcDbVisualStyle
  2
Conceptual
 70
     9
 71
     3
 72
     2
 73
     0
 90
        0
 40
0.6
 41
30.0
 62
     5
 63
     7
421
 16777215
 74
     2
 91
        2
 64
     7
 65
   257
 75
     1
175
     1
 42
179.0
 92
        8
 66
     7
 43
1.0
 76
     1
 77
     6
 78
     2
 67
     7
 79
     3
170
     0
171
     0
290
     0
174
     0
 93
        1
 44
0.0
173
     0
291
     0
 45
0.0
1001
ACAD
1000
AcDbSavedByObjectVersion
1070
     0
  0
VISUALSTYLE
  5
35
102
{ACAD_REACTORS
330
2A
102
}
102
{ACAD_XDICTIONARY
360
50F
102
}
330
2A
100
AcDbVisualStyle
  2
Dim
 70
    11
 71
     2
 72
     2
 73
     0
 90
        0
 40
0.6
 41
30.0
 62
     5
 63
     7
421
 16777215
 74
     1
 91
        4
 64
     7
 65
   257
 75
     1
175
     1
 42
1.0
 92
        8
 66
     7
 43
1.0
 76
     1
 77
     6
 78
     2
 67
     7
 79
     5
170
     0
171
     0
290
     0
174
     0
 93
        1
 44
-50.0
173
     0
291
     1
 45
0.0
1001
ACAD
1000
AcDbSavedByObjectVersion
1070
     0
  0
VISUALSTYLE
  5
3D
102
{ACAD_REACTORS
330
2A
102
}
102
{ACAD_XDICTIONARY
360
51F
102
}
330
2A
100
AcDbVisualStyle
  2
EdgeColorOff
 70
    22
 71
     2
 72
     2
 73
     0
 90
        0
 40
0.6
 41
30.0
 62
     5
 63
     7
421
 16777215
 74
     1
 91
        4
 64
     7
 65
   257
 75
     1
175
     1
 42
1.0
 92
        8
 66
     7
 43
1.0
 76
     1
 77
     6
 78
     2
 67
     7
 79
     5
170
     0
171
     0
290
     0
174
     0
 93
        1
 44
0.0
173
     0
291
     1
 45
0.0
1001
ACAD
1000
AcDbSavedByObjectVersion
1070
     0
  0
VISUALSTYLE
  5
39
102
{ACAD_REACTORS
330
2A
102
}
102
{ACAD_XDICTIONARY
360
517
102
}
330
2A
100
AcDbVisualStyle
  2
Facepattern
 70
    15
 71
     2
 72
     2
 73
     0
 90
        0
 40
0.6
 41
30.0
 62
     5
 63
     7
421
 16777215
 74
     1
 91
        4
 64
     7
 65
   257
 75
     1
175
     1
 42
1.0
 92
        8
 66
     7
 43
1.0
 76
     1
 77
     6
 78
     2
 67
     7
 79
     5
170
     0
171
     0
290
     0
174
     0
 93
        1
 44
0.0
173
     0
291
     1
 45
0.0
1001
ACAD
1000
AcDbSavedByObjectVersion
1070
     0
  0
VISUALSTYLE
  5
2B
102
{ACAD_REACTORS
330
2A
102
}
102
{ACAD_XDICTIONARY
360
4FB
102
}
330
2A
100
AcDbVisualStyle
  2
Flat
 70
     0
 71
     2
 72
     1
 73
     1
 90
        2
 40
0.6
 41
30.0
 62
     5
 63
     7
421
 16777215
 74
     0
 91
        0
 64
     7
 65
   257
 75
     1
175
     1
 42
1.0
 92
        8
 66
     7
 43
1.0
 76
     1
 77
     6
 78
     2
 67
     7
 79
     5
170
     0
171
     0
290
     0
174
     0
 93
       13
 44
0.0
173
     0
291
     1
 45
0.0
1001
ACAD
1000
AcDbSavedByObjectVersion
1070
     0
  0
VISUALSTYLE
  5
2C
102
{ACAD_REACTORS
330
2A
102
}
102
{ACAD_XDICTIONARY
360
4FD
102
}
330
2A
100
AcDbVisualStyle
  2
FlatWithEdges
 70
     1
 71
     2
 72
     1
 73
     1
 90
        2
 40
0.6
 41
30.0
 62
     5
 63
     7
421
 16777215
 74
     1
 91
        0
 64
     7
 65
   257
 75
     1
175
     1
 42
1.0
 92
        0
 66
   257
 43
1.0
 76
     1
 77
     6
 78
     2
 67
     7
 79
     5
170
     0
171
     0
290
     0
174
     0
 93
       13
 44
0.0
173
     0
291
     1
 45
0.0
1001
ACAD
1000
AcDbSavedByObjectVersion
1070
     0
  0
VISUALSTYLE
  5
2D
102
{ACAD_REACTORS
330
2A
102
}
102
{ACAD_XDICTIONARY
360
4FF
102
}
330
2A
100
AcDbVisualStyle
  2
Gouraud
 70
     2
 71
     2
 72
     2
 73
     1
 90
        2
 40
0.6
 41
30.0
 62
     5
 63
     7
421
 16777215
 74
     0
 91
        0
 64
     7
 65
   257
 75
     1
175
     1
 42
1.0
 92
        0
 66
     7
 43
1.0
 76
     1
 77
     6
 78
     2
 67
     7
 79
     5
170
     0
171
     0
290
     0
174
     0
 93
       13
 44
0.0
173
     0
291
     1
 45
0.0
1001
ACAD
1000
AcDbSavedByObjectVersion
1070
     0
  0
VISUALSTYLE
  5
2E
102
{ACAD_REACTORS
330
2A
102
}
102
{ACAD_XDICTIONARY
360
501
102
}
330
2A
100
AcDbVisualStyle
  2
GouraudWithEdges
 70
     3
 71
     2
 72
     2
 73
     1
 90
        2
 40
0.6
 41
30.0
 62
     5
 63
     7
421
 16777215
 74
     1
 91
        0
 64
     7
 65
   257
 75
     1
175
     1
 42
1.0
 92
        0
 66
   257
 43
1.0
 76
     1
 77
     6
 78
     2
 67
     7
 79
     5
170
     0
171
     0
290
     0
174
     0
 93
       13
 44
0.0
173
     0
291
     1
 45
0.0
1001
ACAD
1000
AcDbSavedByObjectVersion
1070
     0
  0
VISUALSTYLE
  5
31
102
{ACAD_REACTORS
330
2A
102
}
102
{ACAD_XDICTIONARY
360
507
102
}
330
2A
100
AcDbVisualStyle
  2
Hidden
 70
     6
 71
     1
 72
     2
 73
     2
 90
        0
 40
0.6
 41
30.0
 62
     5
 63
     7
421
 16777215
 74
     2
 91
        2
 64
     7
 65
   257
 75
     2
175
     1
 42
40.0
 92
        0
 66
   257
 43
1.0
 76
     1
 77
     6
 78
     2
 67
     7
 79
     3
170
     0
171
     0
290
     0
174
     0
 93
        1
 44
0.0
173
     0
291
     0
 45
0.0
1001
ACAD
1000
AcDbSavedByObjectVersion
1070
     0
  0
VISUALSTYLE
  5
3B
102
{ACAD_REACTORS
330
2A
102
}
102
{ACAD_XDICTIONARY
360
51B
102
}
330
2A
100
AcDbVisualStyle
  2
JitterOff
 70
    20
 71
     2
 72
     2
 73
     0
 90
        0
 40
0.6
 41
30.0
 62
     5
 63
     7
421
 16777215
 74
     1
 91
        4
 64
     7
 65
   257
 75
     1
175
     1
 42
1.0
 92
       10
 66
     7
 43
1.0
 76
     1
 77
     6
 78
     2
 67
     7
 79
     5
170
     0
171
     0
290
     0
174
     0
 93
        1
 44
0.0
173
     0
291
     1
 45
0.0
1001
ACAD
1000
AcDbSavedByObjectVersion
1070
     0
  0
VISUALSTYLE
  5
38
102
{ACAD_REACTORS
330
2A
102
}
102
{ACAD_XDICTIONARY
360
515
102
}
330
2A
100
AcDbVisualStyle
  2
Linepattern
 70
    14
 71
     2
 72
     2
 73
     0
 90
        0
 40
0.6
 41
30.0
 62
     5
 63
     7
421
 16777215
 74
     1
 91
        4
 64
     7
 65
   257
 75
     7
175
     7
 42
1.0
 92
        8
 66
     7
 43
1.0
 76
     1
 77
     6
 78
     2
 67
     7
 79
     5
170
     0
171
     0
290
     0
174
     0
 93
        1
 44
0.0
173
     0
291
     1
 45
0.0
1001
ACAD
1000
AcDbSavedByObjectVersion
1070
     0
  0
VISUALSTYLE
  5
3C
102
{ACAD_REACTORS
330
2A
102
}
102
{ACAD_XDICTIONARY
360
51D
102
}
330
2A
100
AcDbVisualStyle
  2
OverhangOff
 70
    21
 71
     2
 72
     2
 73
     0
 90
        0
 40
0.6
 41
30.0
 62
     5
 63
     7
421
 16777215
 74
     1
 91
        4
 64
     7
 65
   257
 75
     1
175
     1
 42
1.0
 92
        9
 66
     7
 43
1.0
 76
     1
 77
     6
 78
     2
 67
     7
 79
     5
170
     0
171
     0
290
     0
174
     0
 93
        1
 44
0.0
173
     0
291
     1
 45
0.0
1001
ACAD
1000
AcDbSavedByObjectVersion
1070
     0
  0
VISUALSTYLE
  5
33
102
{ACAD_REACTORS
330
2A
102
}
102
{ACAD_XDICTIONARY
360
50B
102
}
330
2A
100
AcDbVisualStyle
  2
Realistic
 70
     8
 71
     2
 72
     3
 73
     0
 90
        2
 40
0.6
 41
30.0
 62
     5
 63
     7
421
 16777215
 74
     0
 91
        0
 64
     7
 65
   257
 75
     1
175
     1
 42
1.0
 92
        8
 66
   257
 43
1.0
 76
     1
 77
     6
 78
     2
 67
     7
 79
     3
170
     0
171
     0
290
     0
174
     0
 93
       13
 44
0.0
173
     0
291
     0
 45
0.0
1001
ACAD
1000
AcDbSavedByObjectVersion
1070
     0
  0
VISUALSTYLE
  5
42
102
{ACAD_REACTORS
330
2A
102
}
102
{ACAD_XDICTIONARY
360
529
102
}
330
2A
100
AcDbVisualStyle
  2
Shaded
 70
    27
 71
     2
 72
     2
 73
     1
 90
        2
 40
0.6
 41
30.0
 62
     5
 63
     7
421
 16777215
 74
     0
 91
        4
 64
     7
 65
   257
 75
     1
175
     1
 42
1.0
 92
        8
 66
   257
 43
1.0
 76
     1
 77
     6
 78
     2
 67
     8
425
  7895160
 79
     3
170
     0
171
     0
290
     0
174
     0
 93
        5
 44
0.0
173
     0
291
     0
 45
0.0
1001
ACAD
1000
AcDbSavedByObjectVersion
1070
     0
  0
VISUALSTYLE
  5
41
102
{ACAD_REACTORS
330
2A
102
}
102
{ACAD_XDICTIONARY
360
527
102
}
330
2A
100
AcDbVisualStyle
  2
Shaded with edges
 70
    26
 71
     2
 72
     2
 73
     1
 90
        2
 40
0.6
 41
30.0
 62
     5
 63
     7
421
 16777215
 74
     1
 91
       10
 64
     7
 65
   257
 75
     2
175
     1
 42
1.0
 92
        8
 66
   257
 43
1.0
 76
     1
 77
     6
 78
     2
 67
     7
 79
     3
170
     0
171
     0
290
     0
174
     0
 93
        5
 44
0.0
173
     0
291
     0
 45
0.0
1001
ACAD
1000
AcDbSavedByObjectVersion
1070
     0
  0
VISUALSTYLE
  5
3E
102
{ACAD_REACTORS
330
2A
102
}
102
{ACAD_XDICTIONARY
360
521
102
}
330
2A
100
AcDbVisualStyle
  2
Shades of Gray
 70
    23
 71
     2
 72
     2
 73
     3
 90
        0
 40
0.6
 41
30.0
 62
     5
 63
     7
421
 16777215
 74
     2
 91
        2
 64
     7
 65
     7
 75
     1
175
     1
 42
40.0
 92
        8
 66
     7
 43
1.0
 76
     1
 77
     6
 78
     2
 67
     7
 79
     3
170
     0
171
     0
290
     0
174
     0
 93
        1
 44
0.0
173
     0
291
     0
 45
0.0
1001
ACAD
1000
AcDbSavedByObjectVersion
1070
     0
  0
VISUALSTYLE
  5
3F
102
{ACAD_REACTORS
330
2A
102
}
102
{ACAD_XDICTIONARY
360
523
102
}
330
2A
100
AcDbVisualStyle
  2
Sketchy
 70
    24
 71
     1
 72
     2
 73
     2
 90
        0
 40
0.6
 41
30.0
 62
     5
 63
     7
421
 16777215
 74
     2
 91
        2
 64
     7
 65
     7
 75
     1
175
     1
 42
40.0
 92
       11
 66
     7
 43
1.0
 76
     1
 77
     6
 78
     2
 67
     7
 79
     6
170
     0
171
     0
290
     0
174
     0
 93
        1
 44
0.0
173
     0
291
     0
 45
0.0
1001
ACAD
1000
AcDbSavedByObjectVersion
1070
     0
  0
VISUALSTYLE
  5
37
102
{ACAD_REACTORS
330
2A
102
}
102
{ACAD_XDICTIONARY
360
513
102
}
330
2A
100
AcDbVisualStyle
  2
Thicken
 70
    13
 71
     2
 72
     2
 73
     0
 90
        0
 40
0.6
 41
30.0
 62
     5
 63
     7
421
 16777215
 74
     1
 91
        4
 64
     7
 65
   257
 75
     1
175
     1
 42
1.0
 92
       12
 66
     7
 43
1.0
 76
     1
 77
     6
 78
     2
 67
     7
 79
     5
170
     0
171
     0
290
     0
174
     0
 93
        1
 44
0.0
173
     0
291
     1
 45
0.0
1001
ACAD
1000
AcDbSavedByObjectVersion
1070
     0
  0
VISUALSTYLE
  5
30
102
{ACAD_REACTORS
330
2A
102
}
102
{ACAD_XDICTIONARY
360
505
102
}
330
2A
100
AcDbVisualStyle
  2
Wireframe
 70
     5
 71
     0
 72
     2
 73
     0
 90
        0
 40
0.6
 41
30.0
 62
     5
 63
     7
421
 16777215
 74
     1
 91
        4
 64
     7
 65
   257
 75
     1
175
     1
 42
1.0
 92
        0
 66
   257
 43
1.0
 76
     1
 77
     6
 78
     2
 67
     7
 79
     3
170
     0
171
     0
290
     0
174
     0
 93
        1
 44
0.0
173
     0
291
     0
 45
0.0
1001
ACAD
1000
AcDbSavedByObjectVersion
1070
     0
  0
VISUALSTYLE
  5
40
102
{ACAD_REACTORS
330
2A
102
}
102
{ACAD_XDICTIONARY
360
525
102
}
330
2A
100
AcDbVisualStyle
  2
X-Ray
 70
    25
 71
     2
 72
     2
 73
     1
 90
        1
 40
0.5
 41
30.0
 62
     5
 63
     7
421
 16777215
 74
     1
 91
        0
 64
     7
 65
   257
 75
     1
175
     1
 42
1.0
 92
        8
 66
     7
 43
1.0
 76
     1
 77
     6
 78
     2
 67
     7
 79
     3
170
     0
171
     0
290
     0
174
     0
 93
       13
 44
0.0
173
     0
291
     0
 45
0.0
1001
ACAD
1000
AcDbSavedByObjectVersion
1070
     0
  0
DICTIONARYVAR
  5
4F8
102
{ACAD_REACTORS
330
4F7
102
}
330
4F7
100
DictionaryVariables
280
     0
  1
1:1
  0
DICTIONARYVAR
  5
539
102
{ACAD_REACTORS
330
4F7
102
}
330
4F7
100
DictionaryVariables
280
     0
  1
Standard
  0
DICTIONARYVAR
  5
538
102
{ACAD_REACTORS
330
4F7
102
}
330
4F7
100
DictionaryVariables
280
     0
  1
Standard
  0
DICTIONARYVAR
  5
4F9
102
{ACAD_REACTORS
330
4F7
102
}
330
4F7
100
DictionaryVariables
280
     0
  1
1
  0
DICTIONARYVAR
  5
4FA
102
{ACAD_REACTORS
330
4F7
102
}
330
4F7
100
DictionaryVariables
280
     0
  1
2
  0
DICTIONARY
  5
52D
330
45
100
AcDbDictionary
280
     1
281
     1
  3
ACAD_XREC_ROUNDTRIP
360
52E
  0
DICTIONARY
  5
52B
330
44
100
AcDbDictionary
280
     1
281
     1
  3
ACAD_XREC_ROUNDTRIP
360
52C
  0
DICTIONARY
  5
52F
330
46
100
AcDbDictionary
280
     1
281
     1
  3
ACAD_XREC_ROUNDTRIP
360
530
  0
DICTIONARY
  5
535
330
6C
100
AcDbDictionary
280
     1
281
     1
  3
ACAD_XREC_ROUNDTRIP
360
536
  0
DICTIONARY
  5
531
330
6A
100
AcDbDictionary
280
     1
281
     1
  3
ACAD_ROUNDTRIP_2008_TABLESTYLE_CELLSTYLEMAP
360
533
  3
ACAD_XREC_ROUNDTRIP
360
532
  0
DICTIONARY
  5
503
330
2F
100
AcDbDictionary
280
     1
281
     1
  3
ACAD_XREC_ROUNDTRIP
360
504
  0
DICTIONARY
  5
509
330
32
100
AcDbDictionary
280
     1
281
     1
  3
ACAD_XREC_ROUNDTRIP
360
50A
  0
DICTIONARY
  5
511
330
36
100
AcDbDictionary
280
     1
281
     1
  3
ACAD_XREC_ROUNDTRIP
360
512
  0
DICTIONARY
  5
519
330
3A
100
AcDbDictionary
280
     1
281
     1
  3
ACAD_XREC_ROUNDTRIP
360
51A
  0
DICTIONARY
  5
50D
330
34
100
AcDbDictionary
280
     1
281
     1
  3
ACAD_XREC_ROUNDTRIP
360
50E
  0
DICTIONARY
  5
50F
330
35
100
AcDbDictionary
280
     1
281
     1
  3
ACAD_XREC_ROUNDTRIP
360
510
  0
DICTIONARY
  5
51F
330
3D
100
AcDbDictionary
280
     1
281
     1
  3
ACAD_XREC_ROUNDTRIP
360
520
  0
DICTIONARY
  5
517
330
39
100
AcDbDictionary
280
     1
281
     1
  3
ACAD_XREC_ROUNDTRIP
360
518
  0
DICTIONARY
  5
4FB
330
2B
100
AcDbDictionary
280
     1
281
     1
  3
ACAD_XREC_ROUNDTRIP
360
4FC
  0
DICTIONARY
  5
4FD
330
2C
100
AcDbDictionary
280
     1
281
     1
  3
ACAD_XREC_ROUNDTRIP
360
4FE
  0
DICTIONARY
  5
4FF
330
2D
100
AcDbDictionary
280
     1
281
     1
  3
ACAD_XREC_ROUNDTRIP
360
500
  0
DICTIONARY
  5
501
330
2E
100
AcDbDictionary
280
     1
281
     1
  3
ACAD_XREC_ROUNDTRIP
360
502
  0
DICTIONARY
  5
507
330
31
100
AcDbDictionary
280
     1
281
     1
  3
ACAD_XREC_ROUNDTRIP
360
508
  0
DICTIONARY
  5
51B
330
3B
100
AcDbDictionary
280
     1
281
     1
  3
ACAD_XREC_ROUNDTRIP
360
51C
  0
DICTIONARY
  5
515
330
38
100
AcDbDictionary
280
     1
281
     1
  3
ACAD_XREC_ROUNDTRIP
360
516
  0
DICTIONARY
  5
51D
330
3C
100
AcDbDictionary
280
     1
281
     1
  3
ACAD_XREC_ROUNDTRIP
360
51E
  0
DICTIONARY
  5
50B
330
33
100
AcDbDictionary
280
     1
281
     1
  3
ACAD_XREC_ROUNDTRIP
360
50C
  0
DICTIONARY
  5
529
330
42
100
AcDbDictionary
280
     1
281
     1
  3
ACAD_XREC_ROUNDTRIP
360
52A
  0
DICTIONARY
  5
527
330
41
100
AcDbDictionary
280
     1
281
     1
  3
ACAD_XREC_ROUNDTRIP
360
528
  0
DICTIONARY
  5
521
330
3E
100
AcDbDictionary
280
     1
281
     1
  3
ACAD_XREC_ROUNDTRIP
360
522
  0
DICTIONARY
  5
523
330
3F
100
AcDbDictionary
280
     1
281
     1
  3
ACAD_XREC_ROUNDTRIP
360
524
  0
DICTIONARY
  5
513
330
37
100
AcDbDictionary
280
     1
281
     1
  3
ACAD_XREC_ROUNDTRIP
360
514
  0
DICTIONARY
  5
505
330
30
100
AcDbDictionary
280
     1
281
     1
  3
ACAD_XREC_ROUNDTRIP
360
506
  0
DICTIONARY
  5
525
330
40
100
AcDbDictionary
280
     1
281
     1
  3
ACAD_XREC_ROUNDTRIP
360
526
  0
XRECORD
  5
52E
102
{ACAD_REACTORS
330
52D
102
}
330
52D
100
AcDbXrecord
280
     1
102
MATERIAL
148
0.0
149
0.0
149
0.0
 93
        0
 94
      127
282
     0
 72
     1
 77
     1
171
     1
175
     1
179
     1
273
     0
  0
XRECORD
  5
52C
102
{ACAD_REACTORS
330
52B
102
}
330
52B
100
AcDbXrecord
280
     1
102
MATERIAL
148
0.0
149
0.0
149
0.0
 93
        0
 94
      127
282
     0
 72
     1
 77
     1
171
     1
175
     1
179
     1
273
     0
  0
XRECORD
  5
530
102
{ACAD_REACTORS
330
52F
102
}
330
52F
100
AcDbXrecord
280
     1
102
MATERIAL
148
0.0
149
0.0
149
0.0
 93
        0
 94
      127
282
     0
 72
     1
 77
     1
171
     1
175
     1
179
     1
273
     0
  0
XRECORD
  5
536
102
{ACAD_REACTORS
330
535
102
}
330
535
100
AcDbXrecord
280
     1
102
ACAD_ROUNDTRIP_2010_MLEADER_STYLE
  0
CELLSTYLEMAP
  5
533
102
{ACAD_REACTORS
330
531
102
}
330
531
100
AcDbCellStyleMap
 90
        3
300
CELLSTYLE
  1
TABLEFORMAT_BEGIN
 90
        5
170
     1
 91
        0
 92
    32768
 62
   257
 93
        1
300
CONTENTFORMAT
  1
CONTENTFORMAT_BEGIN
 90
        0
 91
        0
 92
        4
 93
        0
300

 40
0.0
140
1.0
 94
        5
 62
     0
340
11
144
0.25
309
CONTENTFORMAT_END
171
     1
301
MARGIN
  1
CELLMARGIN_BEGIN
 40
0.06
 40
0.06
 40
0.06
 40
0.06
 40
0.06
 40
0.06
309
CELLMARGIN_END
 94
        6
 95
        1
302
GRIDFORMAT
  1
GRIDFORMAT_BEGIN
 90
        0
 91
        1
 62
     0
 92
       -2
340
14
 93
        0
 40
0.045
309
GRIDFORMAT_END
 95
        2
302
GRIDFORMAT
  1
GRIDFORMAT_BEGIN
 90
        0
 91
        1
 62
     0
 92
       -2
340
14
 93
        0
 40
0.045
309
GRIDFORMAT_END
 95
        4
302
GRIDFORMAT
  1
GRIDFORMAT_BEGIN
 90
        0
 91
        1
 62
     0
 92
       -2
340
14
 93
        0
 40
0.045
309
GRIDFORMAT_END
 95
        8
302
GRIDFORMAT
  1
GRIDFORMAT_BEGIN
 90
        0
 91
        1
 62
     0
 92
       -2
340
14
 93
        0
 40
0.045
309
GRIDFORMAT_END
 95
       16
302
GRIDFORMAT
  1
GRIDFORMAT_BEGIN
 90
        0
 91
        1
 62
     0
 92
       -2
340
14
 93
        0
 40
0.045
309
GRIDFORMAT_END
 95
       32
302
GRIDFORMAT
  1
GRIDFORMAT_BEGIN
 90
        0
 91
        1
 62
     0
 92
       -2
340
14
 93
        0
 40
0.045
309
GRIDFORMAT_END
309
TABLEFORMAT_END
  1
CELLSTYLE_BEGIN
 90
        1
 91
        1
300
_TITLE
309
CELLSTYLE_END
300
CELLSTYLE
  1
TABLEFORMAT_BEGIN
 90
        5
170
     1
 91
        0
 92
        0
 62
   257
 93
        1
300
CONTENTFORMAT
  1
CONTENTFORMAT_BEGIN
 90
        0
 91
        0
 92
        4
 93
        0
300

 40
0.0
140
1.0
 94
        5
 62
     0
340
11
144
0.18
309
CONTENTFORMAT_END
171
     1
301
MARGIN
  1
CELLMARGIN_BEGIN
 40
0.06
 40
0.06
 40
0.06
 40
0.06
 40
0.06
 40
0.06
309
CELLMARGIN_END
 94
        6
 95
        1
302
GRIDFORMAT
  1
GRIDFORMAT_BEGIN
 90
        0
 91
        1
 62
     0
 92
       -2
340
14
 93
        0
 40
0.045
309
GRIDFORMAT_END
 95
        2
302
GRIDFORMAT
  1
GRIDFORMAT_BEGIN
 90
        0
 91
        1
 62
     0
 92
       -2
340
14
 93
        0
 40
0.045
309
GRIDFORMAT_END
 95
        4
302
GRIDFORMAT
  1
GRIDFORMAT_BEGIN
 90
        0
 91
        1
 62
     0
 92
       -2
340
14
 93
        0
 40
0.045
309
GRIDFORMAT_END
 95
        8
302
GRIDFORMAT
  1
GRIDFORMAT_BEGIN
 90
        0
 91
        1
 62
     0
 92
       -2
340
14
 93
        0
 40
0.045
309
GRIDFORMAT_END
 95
       16
302
GRIDFORMAT
  1
GRIDFORMAT_BEGIN
 90
        0
 91
        1
 62
     0
 92
       -2
340
14
 93
        0
 40
0.045
309
GRIDFORMAT_END
 95
       32
302
GRIDFORMAT
  1
GRIDFORMAT_BEGIN
 90
        0
 91
        1
 62
     0
 92
       -2
340
14
 93
        0
 40
0.045
309
GRIDFORMAT_END
309
TABLEFORMAT_END
  1
CELLSTYLE_BEGIN
 90
        2
 91
        1
300
_HEADER
309
CELLSTYLE_END
300
CELLSTYLE
  1
TABLEFORMAT_BEGIN
 90
        5
170
     1
 91
        0
 92
        0
 62
   257
 93
        1
300
CONTENTFORMAT
  1
CONTENTFORMAT_BEGIN
 90
        0
 91
        0
 92
        4
 93
        0
300

 40
0.0
140
1.0
 94
        2
 62
     0
340
11
144
0.18
309
CONTENTFORMAT_END
171
     1
301
MARGIN
  1
CELLMARGIN_BEGIN
 40
0.06
 40
0.06
 40
0.06
 40
0.06
 40
0.06
 40
0.06
309
CELLMARGIN_END
 94
        6
 95
        1
302
GRIDFORMAT
  1
GRIDFORMAT_BEGIN
 90
        0
 91
        1
 62
     0
 92
       -2
340
14
 93
        0
 40
0.045
309
GRIDFORMAT_END
 95
        2
302
GRIDFORMAT
  1
GRIDFORMAT_BEGIN
 90
        0
 91
        1
 62
     0
 92
       -2
340
14
 93
        0
 40
0.045
309
GRIDFORMAT_END
 95
        4
302
GRIDFORMAT
  1
GRIDFORMAT_BEGIN
 90
        0
 91
        1
 62
     0
 92
       -2
340
14
 93
        0
 40
0.045
309
GRIDFORMAT_END
 95
        8
302
GRIDFORMAT
  1
GRIDFORMAT_BEGIN
 90
        0
 91
        1
 62
     0
 92
       -2
340
14
 93
        0
 40
0.045
309
GRIDFORMAT_END
 95
       16
302
GRIDFORMAT
  1
GRIDFORMAT_BEGIN
 90
        0
 91
        1
 62
     0
 92
       -2
340
14
 93
        0
 40
0.045
309
GRIDFORMAT_END
 95
       32
302
GRIDFORMAT
  1
GRIDFORMAT_BEGIN
 90
        0
 91
        1
 62
     0
 92
       -2
340
14
 93
        0
 40
0.045
309
GRIDFORMAT_END
309
TABLEFORMAT_END
  1
CELLSTYLE_BEGIN
 90
        3
 91
        2
300
_DATA
309
CELLSTYLE_END
  0
XRECORD
  5
532
102
{ACAD_REACTORS
330
531
102
}
330
531
100
AcDbXrecord
280
     1
102
ACAD_ROUNDTRIP_PRE2007_TABLESTYLE
 90
        4
 91
        0
  1

 92
        4
 93
        0
  2

 94
        4
 95
        0
  3

  0
XRECORD
  5
504
102
{ACAD_REACTORS
330
503
102
}
330
503
100
AcDbXrecord
280
     1
102
RTVSPropertyOp0
 70
     1
102
RTVSPropertyOp1
 70
     1
102
RTVSPropertyOp2
 70
     1
102
RTVSPropertyOp3
 70
     1
102
RTVSPropertyOp4
 70
     1
102
RTVSPropertyOp5
 70
     1
102
RTVSPropertyOp6
 70
     1
102
RTVSPropertyOp7
 70
     1
102
RTVSPropertyOp8
 70
     1
102
RTVSPropertyOp9
 70
     1
102
RTVSPropertyOp10
 70
     1
102
RTVSPropertyOp11
 70
     1
102
RTVSPropertyOp12
 70
     1
102
RTVSPropertyOp13
 70
     1
102
RTVSPropertyOp14
 70
     1
102
RTVSPropertyOp15
 70
     1
102
RTVSPropertyOp16
 70
     1
102
RTVSPropertyOp17
 70
     1
102
RTVSPropertyOp18
 70
     1
102
RTVSPropertyOp19
 70
     1
102
RTVSPropertyOp20
 70
     1
102
RTVSPropertyOp21
 70
     1
102
RTVSPropertyOp22
 70
     1
102
RTVSPropertyOp23
 70
     1
102
RTVSPropertyOp24
 70
     1
102
RTVSPropertyOp25
 70
     1
102
RTVSPropertyOp26
 70
     1
102
RTVSPropertyOp27
 70
     1
102
RTVSPropertyOp28
 70
     1
102
RTVSPropertyOp29
 70
     1
102
RTVSPropertyOp30
 70
     1
102
RTVSPropertyOp31
 70
     1
102
RTVSPropertyOp32
 70
     1
102
RTVSPropertyOp33
 70
     1
102
RTVSPropertyOp34
 70
     1
102
RTVSPropertyOp35
 70
     1
102
RTVSPropertyOp36
 70
     1
102
RTVSPropertyOp37
 70
     1
102
RTVSPropertyOp38
 70
     1
102
RTVSPropertyOp39
 70
     1
102
RTVSPropertyOp40
 70
     1
102
RTVSPropertyOp41
 70
     1
102
RTVSPropertyOp42
 70
     1
102
RTVSPropertyOp43
 70
     1
102
RTVSPropertyOp44
 70
     1
102
RTVSPropertyOp45
 70
     1
102
RTVSPropertyOp46
 70
     1
102
RTVSPropertyOp47
 70
     1
102
RTVSPropertyOp48
 70
     1
102
RTVSPropertyOp49
 70
     1
102
RTVSPropertyOp50
 70
     1
102
RTVSPropertyOp51
 70
     0
102
RTVSPropertyOp52
 70
     0
102
RTVSPropertyOp53
 70
     1
102
RTVSPropertyOp54
 70
     1
102
RTVSPropertyOp55
 70
     1
102
RTVSPropertyOp56
 70
     1
102
RTVSPropertyOp57
 70
     1
102
RTVSPost2010Prop28
280
     1
102
RTVSPost2010PropOp28
 70
     1
102
RTVSPost2010Prop29
280
     1
102
RTVSPost2010PropOp29
 70
     1
102
RTVSPost2010Prop30
280
     0
102
RTVSPost2010PropOp30
 70
     1
102
RTVSPost2010Prop31
280
     0
102
RTVSPost2010PropOp31
 70
     1
102
RTVSPost2010Prop32
280
     0
102
RTVSPost2010PropOp32
 70
     1
102
RTVSPost2010Prop33
280
     0
102
RTVSPost2010PropOp33
 70
     1
102
RTVSPost2010Prop34
280
     0
102
RTVSPost2010PropOp34
 70
     1
102
RTVSPost2010Prop35
280
     0
102
RTVSPost2010PropOp35
 70
     1
102
RTVSPost2010Prop36
280
     0
102
RTVSPost2010PropOp36
 70
     1
102
RTVSPost2010Prop37
 90
       50
102
RTVSPost2010PropOp37
 70
     1
102
RTVSPost2010Prop38
140
0.0
102
RTVSPost2010PropOp38
 70
     1
102
RTVSPost2010Prop39
140
1.0
102
RTVSPost2010PropOp39
 70
     1
102
RTVSPost2010Prop40
 90
        0
102
RTVSPost2010PropOp40
 70
     1
102
RTVSPost2010Prop41ColorIndex
 90
       18
102
RTVSPost2010Prop41ColorRGB
 90
        0
102
RTVSPost2010PropOp41
 70
     1
102
RTVSPost2010Prop42
 90
       50
102
RTVSPost2010PropOp42
 70
     1
102
RTVSPost2010Prop43
 90
        3
102
RTVSPost2010PropOp43
 70
     1
102
RTVSPost2010Prop44ColorIndex
 90
        5
102
RTVSPost2010Prop44ColorRGB
 90
      255
102
RTVSPost2010PropOp44
 70
     1
102
RTVSPost2010Prop45
280
     0
102
RTVSPost2010PropOp45
 70
     1
102
RTVSPost2010Prop46
 90
       50
102
RTVSPost2010PropOp46
 70
     1
102
RTVSPost2010Prop47
 90
       50
102
RTVSPost2010PropOp47
 70
     1
102
RTVSPost2010Prop48
 90
       50
102
RTVSPost2010PropOp48
 70
     1
102
RTVSPost2010Prop49
280
     0
102
RTVSPost2010PropOp49
 70
     1
102
RTVSPost2010Prop50
 90
       50
102
RTVSPost2010PropOp50
 70
     1
102
RTVSPost2010Prop51ColorIndex
 90
      256
102
RTVSPost2010Prop51ColorRGB
 90
-16777216
102
RTVSPost2010PropOp51
 70
     0
102
RTVSPost2010Prop52
140
1.0
102
RTVSPost2010PropOp52
 70
     0
102
RTVSPost2010Prop53
 90
        2
102
RTVSPost2010PropOp53
 70
     1
102
RTVSPost2010Prop54
  1
strokes_ogs.tif
102
RTVSPost2010PropOp54
 70
     1
102
RTVSPost2010Prop55
280
     0
102
RTVSPost2010PropOp55
 70
     1
102
RTVSPost2010Prop56
140
1.0
102
RTVSPost2010PropOp56
 70
     1
102
RTVSPost2010Prop57
140
1.0
102
RTVSPost2010PropOp57
 70
     1
  0
XRECORD
  5
50A
102
{ACAD_REACTORS
330
509
102
}
330
509
100
AcDbXrecord
280
     1
102
RTVSPropertyOp0
 70
     1
102
RTVSPropertyOp1
 70
     1
102
RTVSPropertyOp2
 70
     1
102
RTVSPropertyOp3
 70
     1
102
RTVSPropertyOp4
 70
     1
102
RTVSPropertyOp5
 70
     1
102
RTVSPropertyOp6
 70
     1
102
RTVSPropertyOp7
 70
     1
102
RTVSPropertyOp8
 70
     1
102
RTVSPropertyOp9
 70
     1
102
RTVSPropertyOp10
 70
     1
102
RTVSPropertyOp11
 70
     1
102
RTVSPropertyOp12
 70
     1
102
RTVSPropertyOp13
 70
     1
102
RTVSPropertyOp14
 70
     1
102
RTVSPropertyOp15
 70
     1
102
RTVSPropertyOp16
 70
     1
102
RTVSPropertyOp17
 70
     1
102
RTVSPropertyOp18
 70
     1
102
RTVSPropertyOp19
 70
     1
102
RTVSPropertyOp20
 70
     1
102
RTVSPropertyOp21
 70
     1
102
RTVSPropertyOp22
 70
     1
102
RTVSPropertyOp23
 70
     1
102
RTVSPropertyOp24
 70
     1
102
RTVSPropertyOp25
 70
     1
102
RTVSPropertyOp26
 70
     1
102
RTVSPropertyOp27
 70
     1
102
RTVSPropertyOp28
 70
     1
102
RTVSPropertyOp29
 70
     1
102
RTVSPropertyOp30
 70
     1
102
RTVSPropertyOp31
 70
     1
102
RTVSPropertyOp32
 70
     1
102
RTVSPropertyOp33
 70
     1
102
RTVSPropertyOp34
 70
     1
102
RTVSPropertyOp35
 70
     1
102
RTVSPropertyOp36
 70
     1
102
RTVSPropertyOp37
 70
     1
102
RTVSPropertyOp38
 70
     1
102
RTVSPropertyOp39
 70
     1
102
RTVSPropertyOp40
 70
     1
102
RTVSPropertyOp41
 70
     1
102
RTVSPropertyOp42
 70
     1
102
RTVSPropertyOp43
 70
     1
102
RTVSPropertyOp44
 70
     1
102
RTVSPropertyOp45
 70
     1
102
RTVSPropertyOp46
 70
     1
102
RTVSPropertyOp47
 70
     1
102
RTVSPropertyOp48
 70
     1
102
RTVSPropertyOp49
 70
     1
102
RTVSPropertyOp50
 70
     1
102
RTVSPropertyOp51
 70
     0
102
RTVSPropertyOp52
 70
     0
102
RTVSPropertyOp53
 70
     1
102
RTVSPropertyOp54
 70
     1
102
RTVSPropertyOp55
 70
     1
102
RTVSPropertyOp56
 70
     1
102
RTVSPropertyOp57
 70
     1
102
RTVSPost2010Prop28
280
     0
102
RTVSPost2010PropOp28
 70
     1
102
RTVSPost2010Prop29
280
     1
102
RTVSPost2010PropOp29
 70
     1
102
RTVSPost2010Prop30
280
     1
102
RTVSPost2010PropOp30
 70
     1
102
RTVSPost2010Prop31
280
     0
102
RTVSPost2010PropOp31
 70
     1
102
RTVSPost2010Prop32
280
     0
102
RTVSPost2010PropOp32
 70
     1
102
RTVSPost2010Prop33
280
     0
102
RTVSPost2010PropOp33
 70
     1
102
RTVSPost2010Prop34
280
     0
102
RTVSPost2010PropOp34
 70
     1
102
RTVSPost2010Prop35
280
     0
102
RTVSPost2010PropOp35
 70
     1
102
RTVSPost2010Prop36
280
     0
102
RTVSPost2010PropOp36
 70
     1
102
RTVSPost2010Prop37
 90
       50
102
RTVSPost2010PropOp37
 70
     1
102
RTVSPost2010Prop38
140
0.0
102
RTVSPost2010PropOp38
 70
     1
102
RTVSPost2010Prop39
140
1.0
102
RTVSPost2010PropOp39
 70
     1
102
RTVSPost2010Prop40
 90
        0
102
RTVSPost2010PropOp40
 70
     1
102
RTVSPost2010Prop41ColorIndex
 90
       18
102
RTVSPost2010Prop41ColorRGB
 90
        0
102
RTVSPost2010PropOp41
 70
     1
102
RTVSPost2010Prop42
 90
       50
102
RTVSPost2010PropOp42
 70
     1
102
RTVSPost2010Prop43
 90
        3
102
RTVSPost2010PropOp43
 70
     1
102
RTVSPost2010Prop44ColorIndex
 90
        5
102
RTVSPost2010Prop44ColorRGB
 90
      255
102
RTVSPost2010PropOp44
 70
     1
102
RTVSPost2010Prop45
280
     0
102
RTVSPost2010PropOp45
 70
     1
102
RTVSPost2010Prop46
 90
       50
102
RTVSPost2010PropOp46
 70
     1
102
RTVSPost2010Prop47
 90
       50
102
RTVSPost2010PropOp47
 70
     1
102
RTVSPost2010Prop48
 90
       50
102
RTVSPost2010PropOp48
 70
     1
102
RTVSPost2010Prop49
280
     0
102
RTVSPost2010PropOp49
 70
     1
102
RTVSPost2010Prop50
 90
       50
102
RTVSPost2010PropOp50
 70
     1
102
RTVSPost2010Prop51ColorIndex
 90
      256
102
RTVSPost2010Prop51ColorRGB
 90
-16777216
102
RTVSPost2010PropOp51
 70
     0
102
RTVSPost2010Prop52
140
1.0
102
RTVSPost2010PropOp52
 70
     0
102
RTVSPost2010Prop53
 90
        2
102
RTVSPost2010PropOp53
 70
     1
102
RTVSPost2010Prop54
  1
strokes_ogs.tif
102
RTVSPost2010PropOp54
 70
     1
102
RTVSPost2010Prop55
280
     0
102
RTVSPost2010PropOp55
 70
     1
102
RTVSPost2010Prop56
140
1.0
102
RTVSPost2010PropOp56
 70
     1
102
RTVSPost2010Prop57
140
1.0
102
RTVSPost2010PropOp57
 70
     1
  0
XRECORD
  5
512
102
{ACAD_REACTORS
330
511
102
}
330
511
100
AcDbXrecord
280
     1
102
RTVSPropertyOp0
 70
     1
102
RTVSPropertyOp1
 70
     1
102
RTVSPropertyOp2
 70
     1
102
RTVSPropertyOp3
 70
     1
102
RTVSPropertyOp4
 70
     1
102
RTVSPropertyOp5
 70
     1
102
RTVSPropertyOp6
 70
     1
102
RTVSPropertyOp7
 70
     1
102
RTVSPropertyOp8
 70
     1
102
RTVSPropertyOp9
 70
     1
102
RTVSPropertyOp10
 70
     1
102
RTVSPropertyOp11
 70
     1
102
RTVSPropertyOp12
 70
     1
102
RTVSPropertyOp13
 70
     1
102
RTVSPropertyOp14
 70
     1
102
RTVSPropertyOp15
 70
     1
102
RTVSPropertyOp16
 70
     1
102
RTVSPropertyOp17
 70
     1
102
RTVSPropertyOp18
 70
     1
102
RTVSPropertyOp19
 70
     1
102
RTVSPropertyOp20
 70
     1
102
RTVSPropertyOp21
 70
     1
102
RTVSPropertyOp22
 70
     1
102
RTVSPropertyOp23
 70
     1
102
RTVSPropertyOp24
 70
     1
102
RTVSPropertyOp25
 70
     1
102
RTVSPropertyOp26
 70
     1
102
RTVSPropertyOp27
 70
     1
102
RTVSPropertyOp28
 70
     1
102
RTVSPropertyOp29
 70
     1
102
RTVSPropertyOp30
 70
     1
102
RTVSPropertyOp31
 70
     1
102
RTVSPropertyOp32
 70
     1
102
RTVSPropertyOp33
 70
     1
102
RTVSPropertyOp34
 70
     1
102
RTVSPropertyOp35
 70
     1
102
RTVSPropertyOp36
 70
     1
102
RTVSPropertyOp37
 70
     1
102
RTVSPropertyOp38
 70
     1
102
RTVSPropertyOp39
 70
     1
102
RTVSPropertyOp40
 70
     1
102
RTVSPropertyOp41
 70
     1
102
RTVSPropertyOp42
 70
     1
102
RTVSPropertyOp43
 70
     1
102
RTVSPropertyOp44
 70
     1
102
RTVSPropertyOp45
 70
     1
102
RTVSPropertyOp46
 70
     1
102
RTVSPropertyOp47
 70
     1
102
RTVSPropertyOp48
 70
     1
102
RTVSPropertyOp49
 70
     1
102
RTVSPropertyOp50
 70
     1
102
RTVSPropertyOp51
 70
     0
102
RTVSPropertyOp52
 70
     0
102
RTVSPropertyOp53
 70
     1
102
RTVSPropertyOp54
 70
     1
102
RTVSPropertyOp55
 70
     1
102
RTVSPropertyOp56
 70
     1
102
RTVSPropertyOp57
 70
     1
102
RTVSPost2010Prop28
280
     0
102
RTVSPost2010PropOp28
 70
     1
102
RTVSPost2010Prop29
280
     1
102
RTVSPost2010PropOp29
 70
     1
102
RTVSPost2010Prop30
280
     1
102
RTVSPost2010PropOp30
 70
     1
102
RTVSPost2010Prop31
280
     0
102
RTVSPost2010PropOp31
 70
     1
102
RTVSPost2010Prop32
280
     0
102
RTVSPost2010PropOp32
 70
     1
102
RTVSPost2010Prop33
280
     0
102
RTVSPost2010PropOp33
 70
     1
102
RTVSPost2010Prop34
280
     0
102
RTVSPost2010PropOp34
 70
     1
102
RTVSPost2010Prop35
280
     0
102
RTVSPost2010PropOp35
 70
     1
102
RTVSPost2010Prop36
280
     0
102
RTVSPost2010PropOp36
 70
     1
102
RTVSPost2010Prop37
 90
       50
102
RTVSPost2010PropOp37
 70
     1
102
RTVSPost2010Prop38
140
0.0
102
RTVSPost2010PropOp38
 70
     1
102
RTVSPost2010Prop39
140
1.0
102
RTVSPost2010PropOp39
 70
     1
102
RTVSPost2010Prop40
 90
        0
102
RTVSPost2010PropOp40
 70
     1
102
RTVSPost2010Prop41ColorIndex
 90
       18
102
RTVSPost2010Prop41ColorRGB
 90
        0
102
RTVSPost2010PropOp41
 70
     1
102
RTVSPost2010Prop42
 90
       50
102
RTVSPost2010PropOp42
 70
     1
102
RTVSPost2010Prop43
 90
        3
102
RTVSPost2010PropOp43
 70
     1
102
RTVSPost2010Prop44ColorIndex
 90
        5
102
RTVSPost2010Prop44ColorRGB
 90
      255
102
RTVSPost2010PropOp44
 70
     1
102
RTVSPost2010Prop45
280
     0
102
RTVSPost2010PropOp45
 70
     1
102
RTVSPost2010Prop46
 90
       50
102
RTVSPost2010PropOp46
 70
     1
102
RTVSPost2010Prop47
 90
       50
102
RTVSPost2010PropOp47
 70
     1
102
RTVSPost2010Prop48
 90
       50
102
RTVSPost2010PropOp48
 70
     1
102
RTVSPost2010Prop49
280
     0
102
RTVSPost2010PropOp49
 70
     1
102
RTVSPost2010Prop50
 90
       50
102
RTVSPost2010PropOp50
 70
     1
102
RTVSPost2010Prop51ColorIndex
 90
      256
102
RTVSPost2010Prop51ColorRGB
 90
-16777216
102
RTVSPost2010PropOp51
 70
     0
102
RTVSPost2010Prop52
140
1.0
102
RTVSPost2010PropOp52
 70
     0
102
RTVSPost2010Prop53
 90
        2
102
RTVSPost2010PropOp53
 70
     1
102
RTVSPost2010Prop54
  1
strokes_ogs.tif
102
RTVSPost2010PropOp54
 70
     1
102
RTVSPost2010Prop55
280
     0
102
RTVSPost2010PropOp55
 70
     1
102
RTVSPost2010Prop56
140
1.0
102
RTVSPost2010PropOp56
 70
     1
102
RTVSPost2010Prop57
140
1.0
102
RTVSPost2010PropOp57
 70
     1
  0
XRECORD
  5
51A
102
{ACAD_REACTORS
330
519
102
}
330
519
100
AcDbXrecord
280
     1
102
RTVSPropertyOp0
 70
     1
102
RTVSPropertyOp1
 70
     1
102
RTVSPropertyOp2
 70
     1
102
RTVSPropertyOp3
 70
     1
102
RTVSPropertyOp4
 70
     1
102
RTVSPropertyOp5
 70
     1
102
RTVSPropertyOp6
 70
     1
102
RTVSPropertyOp7
 70
     1
102
RTVSPropertyOp8
 70
     1
102
RTVSPropertyOp9
 70
     1
102
RTVSPropertyOp10
 70
     1
102
RTVSPropertyOp11
 70
     1
102
RTVSPropertyOp12
 70
     1
102
RTVSPropertyOp13
 70
     1
102
RTVSPropertyOp14
 70
     1
102
RTVSPropertyOp15
 70
     1
102
RTVSPropertyOp16
 70
     1
102
RTVSPropertyOp17
 70
     1
102
RTVSPropertyOp18
 70
     1
102
RTVSPropertyOp19
 70
     1
102
RTVSPropertyOp20
 70
     1
102
RTVSPropertyOp21
 70
     1
102
RTVSPropertyOp22
 70
     1
102
RTVSPropertyOp23
 70
     1
102
RTVSPropertyOp24
 70
     1
102
RTVSPropertyOp25
 70
     1
102
RTVSPropertyOp26
 70
     1
102
RTVSPropertyOp27
 70
     1
102
RTVSPropertyOp28
 70
     1
102
RTVSPropertyOp29
 70
     1
102
RTVSPropertyOp30
 70
     1
102
RTVSPropertyOp31
 70
     1
102
RTVSPropertyOp32
 70
     1
102
RTVSPropertyOp33
 70
     1
102
RTVSPropertyOp34
 70
     1
102
RTVSPropertyOp35
 70
     1
102
RTVSPropertyOp36
 70
     1
102
RTVSPropertyOp37
 70
     1
102
RTVSPropertyOp38
 70
     1
102
RTVSPropertyOp39
 70
     1
102
RTVSPropertyOp40
 70
     1
102
RTVSPropertyOp41
 70
     1
102
RTVSPropertyOp42
 70
     1
102
RTVSPropertyOp43
 70
     1
102
RTVSPropertyOp44
 70
     1
102
RTVSPropertyOp45
 70
     1
102
RTVSPropertyOp46
 70
     1
102
RTVSPropertyOp47
 70
     1
102
RTVSPropertyOp48
 70
     1
102
RTVSPropertyOp49
 70
     1
102
RTVSPropertyOp50
 70
     1
102
RTVSPropertyOp51
 70
     0
102
RTVSPropertyOp52
 70
     0
102
RTVSPropertyOp53
 70
     1
102
RTVSPropertyOp54
 70
     1
102
RTVSPropertyOp55
 70
     1
102
RTVSPropertyOp56
 70
     1
102
RTVSPropertyOp57
 70
     1
102
RTVSPost2010Prop28
280
     0
102
RTVSPost2010PropOp28
 70
     1
102
RTVSPost2010Prop29
280
     1
102
RTVSPost2010PropOp29
 70
     1
102
RTVSPost2010Prop30
280
     1
102
RTVSPost2010PropOp30
 70
     1
102
RTVSPost2010Prop31
280
     0
102
RTVSPost2010PropOp31
 70
     1
102
RTVSPost2010Prop32
280
     0
102
RTVSPost2010PropOp32
 70
     1
102
RTVSPost2010Prop33
280
     0
102
RTVSPost2010PropOp33
 70
     1
102
RTVSPost2010Prop34
280
     0
102
RTVSPost2010PropOp34
 70
     1
102
RTVSPost2010Prop35
280
     0
102
RTVSPost2010PropOp35
 70
     1
102
RTVSPost2010Prop36
280
     0
102
RTVSPost2010PropOp36
 70
     1
102
RTVSPost2010Prop37
 90
       50
102
RTVSPost2010PropOp37
 70
     1
102
RTVSPost2010Prop38
140
0.0
102
RTVSPost2010PropOp38
 70
     1
102
RTVSPost2010Prop39
140
1.0
102
RTVSPost2010PropOp39
 70
     1
102
RTVSPost2010Prop40
 90
        0
102
RTVSPost2010PropOp40
 70
     1
102
RTVSPost2010Prop41ColorIndex
 90
       18
102
RTVSPost2010Prop41ColorRGB
 90
        0
102
RTVSPost2010PropOp41
 70
     1
102
RTVSPost2010Prop42
 90
       50
102
RTVSPost2010PropOp42
 70
     1
102
RTVSPost2010Prop43
 90
        3
102
RTVSPost2010PropOp43
 70
     1
102
RTVSPost2010Prop44ColorIndex
 90
        5
102
RTVSPost2010Prop44ColorRGB
 90
      255
102
RTVSPost2010PropOp44
 70
     1
102
RTVSPost2010Prop45
280
     0
102
RTVSPost2010PropOp45
 70
     1
102
RTVSPost2010Prop46
 90
       50
102
RTVSPost2010PropOp46
 70
     1
102
RTVSPost2010Prop47
 90
       50
102
RTVSPost2010PropOp47
 70
     1
102
RTVSPost2010Prop48
 90
       50
102
RTVSPost2010PropOp48
 70
     1
102
RTVSPost2010Prop49
280
     0
102
RTVSPost2010PropOp49
 70
     1
102
RTVSPost2010Prop50
 90
       50
102
RTVSPost2010PropOp50
 70
     1
102
RTVSPost2010Prop51ColorIndex
 90
      256
102
RTVSPost2010Prop51ColorRGB
 90
-16777216
102
RTVSPost2010PropOp51
 70
     0
102
RTVSPost2010Prop52
140
1.0
102
RTVSPost2010PropOp52
 70
     0
102
RTVSPost2010Prop53
 90
        2
102
RTVSPost2010PropOp53
 70
     1
102
RTVSPost2010Prop54
  1
strokes_ogs.tif
102
RTVSPost2010PropOp54
 70
     1
102
RTVSPost2010Prop55
280
     0
102
RTVSPost2010PropOp55
 70
     1
102
RTVSPost2010Prop56
140
1.0
102
RTVSPost2010PropOp56
 70
     1
102
RTVSPost2010Prop57
140
1.0
102
RTVSPost2010PropOp57
 70
     1
  0
XRECORD
  5
50E
102
{ACAD_REACTORS
330
50D
102
}
330
50D
100
AcDbXrecord
280
     1
102
RTVSPropertyOp0
 70
     1
102
RTVSPropertyOp1
 70
     1
102
RTVSPropertyOp2
 70
     1
102
RTVSPropertyOp3
 70
     1
102
RTVSPropertyOp4
 70
     1
102
RTVSPropertyOp5
 70
     1
102
RTVSPropertyOp6
 70
     1
102
RTVSPropertyOp7
 70
     1
102
RTVSPropertyOp8
 70
     1
102
RTVSPropertyOp9
 70
     1
102
RTVSPropertyOp10
 70
     1
102
RTVSPropertyOp11
 70
     1
102
RTVSPropertyOp12
 70
     1
102
RTVSPropertyOp13
 70
     1
102
RTVSPropertyOp14
 70
     1
102
RTVSPropertyOp15
 70
     1
102
RTVSPropertyOp16
 70
     1
102
RTVSPropertyOp17
 70
     1
102
RTVSPropertyOp18
 70
     1
102
RTVSPropertyOp19
 70
     1
102
RTVSPropertyOp20
 70
     1
102
RTVSPropertyOp21
 70
     1
102
RTVSPropertyOp22
 70
     1
102
RTVSPropertyOp23
 70
     1
102
RTVSPropertyOp24
 70
     1
102
RTVSPropertyOp25
 70
     1
102
RTVSPropertyOp26
 70
     1
102
RTVSPropertyOp27
 70
     1
102
RTVSPropertyOp28
 70
     1
102
RTVSPropertyOp29
 70
     1
102
RTVSPropertyOp30
 70
     1
102
RTVSPropertyOp31
 70
     1
102
RTVSPropertyOp32
 70
     1
102
RTVSPropertyOp33
 70
     1
102
RTVSPropertyOp34
 70
     1
102
RTVSPropertyOp35
 70
     1
102
RTVSPropertyOp36
 70
     1
102
RTVSPropertyOp37
 70
     1
102
RTVSPropertyOp38
 70
     1
102
RTVSPropertyOp39
 70
     1
102
RTVSPropertyOp40
 70
     1
102
RTVSPropertyOp41
 70
     1
102
RTVSPropertyOp42
 70
     1
102
RTVSPropertyOp43
 70
     1
102
RTVSPropertyOp44
 70
     1
102
RTVSPropertyOp45
 70
     1
102
RTVSPropertyOp46
 70
     1
102
RTVSPropertyOp47
 70
     1
102
RTVSPropertyOp48
 70
     1
102
RTVSPropertyOp49
 70
     1
102
RTVSPropertyOp50
 70
     1
102
RTVSPropertyOp51
 70
     0
102
RTVSPropertyOp52
 70
     0
102
RTVSPropertyOp53
 70
     1
102
RTVSPropertyOp54
 70
     1
102
RTVSPropertyOp55
 70
     1
102
RTVSPropertyOp56
 70
     1
102
RTVSPropertyOp57
 70
     1
102
RTVSPost2010Prop28
280
     0
102
RTVSPost2010PropOp28
 70
     1
102
RTVSPost2010Prop29
280
     1
102
RTVSPost2010PropOp29
 70
     1
102
RTVSPost2010Prop30
280
     1
102
RTVSPost2010PropOp30
 70
     1
102
RTVSPost2010Prop31
280
     0
102
RTVSPost2010PropOp31
 70
     1
102
RTVSPost2010Prop32
280
     0
102
RTVSPost2010PropOp32
 70
     1
102
RTVSPost2010Prop33
280
     0
102
RTVSPost2010PropOp33
 70
     1
102
RTVSPost2010Prop34
280
     0
102
RTVSPost2010PropOp34
 70
     1
102
RTVSPost2010Prop35
280
     0
102
RTVSPost2010PropOp35
 70
     1
102
RTVSPost2010Prop36
280
     0
102
RTVSPost2010PropOp36
 70
     1
102
RTVSPost2010Prop37
 90
       50
102
RTVSPost2010PropOp37
 70
     1
102
RTVSPost2010Prop38
140
0.0
102
RTVSPost2010PropOp38
 70
     1
102
RTVSPost2010Prop39
140
1.0
102
RTVSPost2010PropOp39
 70
     1
102
RTVSPost2010Prop40
 90
        0
102
RTVSPost2010PropOp40
 70
     1
102
RTVSPost2010Prop41ColorIndex
 90
       18
102
RTVSPost2010Prop41ColorRGB
 90
        0
102
RTVSPost2010PropOp41
 70
     1
102
RTVSPost2010Prop42
 90
       50
102
RTVSPost2010PropOp42
 70
     1
102
RTVSPost2010Prop43
 90
        3
102
RTVSPost2010PropOp43
 70
     1
102
RTVSPost2010Prop44ColorIndex
 90
        5
102
RTVSPost2010Prop44ColorRGB
 90
      255
102
RTVSPost2010PropOp44
 70
     1
102
RTVSPost2010Prop45
280
     0
102
RTVSPost2010PropOp45
 70
     1
102
RTVSPost2010Prop46
 90
       50
102
RTVSPost2010PropOp46
 70
     1
102
RTVSPost2010Prop47
 90
       50
102
RTVSPost2010PropOp47
 70
     1
102
RTVSPost2010Prop48
 90
       50
102
RTVSPost2010PropOp48
 70
     1
102
RTVSPost2010Prop49
280
     0
102
RTVSPost2010PropOp49
 70
     1
102
RTVSPost2010Prop50
 90
       50
102
RTVSPost2010PropOp50
 70
     1
102
RTVSPost2010Prop51ColorIndex
 90
      256
102
RTVSPost2010Prop51ColorRGB
 90
-16777216
102
RTVSPost2010PropOp51
 70
     0
102
RTVSPost2010Prop52
140
1.0
102
RTVSPost2010PropOp52
 70
     0
102
RTVSPost2010Prop53
 90
        2
102
RTVSPost2010PropOp53
 70
     1
102
RTVSPost2010Prop54
  1
strokes_ogs.tif
102
RTVSPost2010PropOp54
 70
     1
102
RTVSPost2010Prop55
280
     0
102
RTVSPost2010PropOp55
 70
     1
102
RTVSPost2010Prop56
140
1.0
102
RTVSPost2010PropOp56
 70
     1
102
RTVSPost2010Prop57
140
1.0
102
RTVSPost2010PropOp57
 70
     1
  0
XRECORD
  5
510
102
{ACAD_REACTORS
330
50F
102
}
330
50F
100
AcDbXrecord
280
     1
102
RTVSPropertyOp0
 70
     1
102
RTVSPropertyOp1
 70
     1
102
RTVSPropertyOp2
 70
     1
102
RTVSPropertyOp3
 70
     1
102
RTVSPropertyOp4
 70
     1
102
RTVSPropertyOp5
 70
     1
102
RTVSPropertyOp6
 70
     1
102
RTVSPropertyOp7
 70
     1
102
RTVSPropertyOp8
 70
     1
102
RTVSPropertyOp9
 70
     1
102
RTVSPropertyOp10
 70
     1
102
RTVSPropertyOp11
 70
     1
102
RTVSPropertyOp12
 70
     1
102
RTVSPropertyOp13
 70
     1
102
RTVSPropertyOp14
 70
     1
102
RTVSPropertyOp15
 70
     1
102
RTVSPropertyOp16
 70
     1
102
RTVSPropertyOp17
 70
     1
102
RTVSPropertyOp18
 70
     1
102
RTVSPropertyOp19
 70
     1
102
RTVSPropertyOp20
 70
     1
102
RTVSPropertyOp21
 70
     1
102
RTVSPropertyOp22
 70
     1
102
RTVSPropertyOp23
 70
     1
102
RTVSPropertyOp24
 70
     1
102
RTVSPropertyOp25
 70
     1
102
RTVSPropertyOp26
 70
     1
102
RTVSPropertyOp27
 70
     1
102
RTVSPropertyOp28
 70
     1
102
RTVSPropertyOp29
 70
     1
102
RTVSPropertyOp30
 70
     1
102
RTVSPropertyOp31
 70
     1
102
RTVSPropertyOp32
 70
     1
102
RTVSPropertyOp33
 70
     1
102
RTVSPropertyOp34
 70
     1
102
RTVSPropertyOp35
 70
     1
102
RTVSPropertyOp36
 70
     1
102
RTVSPropertyOp37
 70
     1
102
RTVSPropertyOp38
 70
     1
102
RTVSPropertyOp39
 70
     1
102
RTVSPropertyOp40
 70
     1
102
RTVSPropertyOp41
 70
     1
102
RTVSPropertyOp42
 70
     1
102
RTVSPropertyOp43
 70
     1
102
RTVSPropertyOp44
 70
     1
102
RTVSPropertyOp45
 70
     1
102
RTVSPropertyOp46
 70
     1
102
RTVSPropertyOp47
 70
     1
102
RTVSPropertyOp48
 70
     1
102
RTVSPropertyOp49
 70
     1
102
RTVSPropertyOp50
 70
     1
102
RTVSPropertyOp51
 70
     0
102
RTVSPropertyOp52
 70
     0
102
RTVSPropertyOp53
 70
     1
102
RTVSPropertyOp54
 70
     1
102
RTVSPropertyOp55
 70
     1
102
RTVSPropertyOp56
 70
     1
102
RTVSPropertyOp57
 70
     1
102
RTVSPost2010Prop28
280
     0
102
RTVSPost2010PropOp28
 70
     1
102
RTVSPost2010Prop29
280
     1
102
RTVSPost2010PropOp29
 70
     1
102
RTVSPost2010Prop30
280
     1
102
RTVSPost2010PropOp30
 70
     1
102
RTVSPost2010Prop31
280
     0
102
RTVSPost2010PropOp31
 70
     1
102
RTVSPost2010Prop32
280
     0
102
RTVSPost2010PropOp32
 70
     1
102
RTVSPost2010Prop33
280
     0
102
RTVSPost2010PropOp33
 70
     1
102
RTVSPost2010Prop34
280
     0
102
RTVSPost2010PropOp34
 70
     1
102
RTVSPost2010Prop35
280
     0
102
RTVSPost2010PropOp35
 70
     1
102
RTVSPost2010Prop36
280
     0
102
RTVSPost2010PropOp36
 70
     1
102
RTVSPost2010Prop37
 90
       50
102
RTVSPost2010PropOp37
 70
     1
102
RTVSPost2010Prop38
140
0.0
102
RTVSPost2010PropOp38
 70
     1
102
RTVSPost2010Prop39
140
1.0
102
RTVSPost2010PropOp39
 70
     1
102
RTVSPost2010Prop40
 90
        0
102
RTVSPost2010PropOp40
 70
     1
102
RTVSPost2010Prop41ColorIndex
 90
       18
102
RTVSPost2010Prop41ColorRGB
 90
        0
102
RTVSPost2010PropOp41
 70
     1
102
RTVSPost2010Prop42
 90
       50
102
RTVSPost2010PropOp42
 70
     1
102
RTVSPost2010Prop43
 90
        3
102
RTVSPost2010PropOp43
 70
     1
102
RTVSPost2010Prop44ColorIndex
 90
        5
102
RTVSPost2010Prop44ColorRGB
 90
      255
102
RTVSPost2010PropOp44
 70
     1
102
RTVSPost2010Prop45
280
     0
102
RTVSPost2010PropOp45
 70
     1
102
RTVSPost2010Prop46
 90
       50
102
RTVSPost2010PropOp46
 70
     1
102
RTVSPost2010Prop47
 90
       50
102
RTVSPost2010PropOp47
 70
     1
102
RTVSPost2010Prop48
 90
       50
102
RTVSPost2010PropOp48
 70
     1
102
RTVSPost2010Prop49
280
     0
102
RTVSPost2010PropOp49
 70
     1
102
RTVSPost2010Prop50
 90
       50
102
RTVSPost2010PropOp50
 70
     1
102
RTVSPost2010Prop51ColorIndex
 90
      256
102
RTVSPost2010Prop51ColorRGB
 90
-16777216
102
RTVSPost2010PropOp51
 70
     0
102
RTVSPost2010Prop52
140
1.0
102
RTVSPost2010PropOp52
 70
     0
102
RTVSPost2010Prop53
 90
        2
102
RTVSPost2010PropOp53
 70
     1
102
RTVSPost2010Prop54
  1
strokes_ogs.tif
102
RTVSPost2010PropOp54
 70
     1
102
RTVSPost2010Prop55
280
     0
102
RTVSPost2010PropOp55
 70
     1
102
RTVSPost2010Prop56
140
1.0
102
RTVSPost2010PropOp56
 70
     1
102
RTVSPost2010Prop57
140
1.0
102
RTVSPost2010PropOp57
 70
     1
  0
XRECORD
  5
520
102
{ACAD_REACTORS
330
51F
102
}
330
51F
100
AcDbXrecord
280
     1
102
RTVSPropertyOp0
 70
     0
102
RTVSPropertyOp1
 70
     0
102
RTVSPropertyOp2
 70
     0
102
RTVSPropertyOp3
 70
     0
102
RTVSPropertyOp4
 70
     0
102
RTVSPropertyOp5
 70
     0
102
RTVSPropertyOp6
 70
     0
102
RTVSPropertyOp7
 70
     0
102
RTVSPropertyOp8
 70
     0
102
RTVSPropertyOp9
 70
     0
102
RTVSPropertyOp10
 70
     0
102
RTVSPropertyOp11
 70
     0
102
RTVSPropertyOp12
 70
     0
102
RTVSPropertyOp13
 70
     0
102
RTVSPropertyOp14
 70
     2
102
RTVSPropertyOp15
 70
     0
102
RTVSPropertyOp16
 70
     0
102
RTVSPropertyOp17
 70
     0
102
RTVSPropertyOp18
 70
     0
102
RTVSPropertyOp19
 70
     0
102
RTVSPropertyOp20
 70
     0
102
RTVSPropertyOp21
 70
     0
102
RTVSPropertyOp22
 70
     0
102
RTVSPropertyOp23
 70
     0
102
RTVSPropertyOp24
 70
     0
102
RTVSPropertyOp25
 70
     0
102
RTVSPropertyOp26
 70
     0
102
RTVSPropertyOp27
 70
     0
102
RTVSPropertyOp28
 70
     0
102
RTVSPropertyOp29
 70
     0
102
RTVSPropertyOp30
 70
     0
102
RTVSPropertyOp31
 70
     0
102
RTVSPropertyOp32
 70
     0
102
RTVSPropertyOp33
 70
     0
102
RTVSPropertyOp34
 70
     0
102
RTVSPropertyOp35
 70
     0
102
RTVSPropertyOp36
 70
     0
102
RTVSPropertyOp37
 70
     0
102
RTVSPropertyOp38
 70
     0
102
RTVSPropertyOp39
 70
     0
102
RTVSPropertyOp40
 70
     0
102
RTVSPropertyOp41
 70
     0
102
RTVSPropertyOp42
 70
     0
102
RTVSPropertyOp43
 70
     0
102
RTVSPropertyOp44
 70
     0
102
RTVSPropertyOp45
 70
     0
102
RTVSPropertyOp46
 70
     0
102
RTVSPropertyOp47
 70
     0
102
RTVSPropertyOp48
 70
     0
102
RTVSPropertyOp49
 70
     0
102
RTVSPropertyOp50
 70
     0
102
RTVSPropertyOp51
 70
     0
102
RTVSPropertyOp52
 70
     0
102
RTVSPropertyOp53
 70
     0
102
RTVSPropertyOp54
 70
     0
102
RTVSPropertyOp55
 70
     0
102
RTVSPropertyOp56
 70
     0
102
RTVSPropertyOp57
 70
     0
102
RTVSPost2010Prop28
280
     0
102
RTVSPost2010PropOp28
 70
     0
102
RTVSPost2010Prop29
280
     1
102
RTVSPost2010PropOp29
 70
     0
102
RTVSPost2010Prop30
280
     1
102
RTVSPost2010PropOp30
 70
     0
102
RTVSPost2010Prop31
280
     0
102
RTVSPost2010PropOp31
 70
     0
102
RTVSPost2010Prop32
280
     0
102
RTVSPost2010PropOp32
 70
     0
102
RTVSPost2010Prop33
280
     0
102
RTVSPost2010PropOp33
 70
     0
102
RTVSPost2010Prop34
280
     0
102
RTVSPost2010PropOp34
 70
     0
102
RTVSPost2010Prop35
280
     0
102
RTVSPost2010PropOp35
 70
     0
102
RTVSPost2010Prop36
280
     0
102
RTVSPost2010PropOp36
 70
     0
102
RTVSPost2010Prop37
 90
       50
102
RTVSPost2010PropOp37
 70
     0
102
RTVSPost2010Prop38
140
0.0
102
RTVSPost2010PropOp38
 70
     0
102
RTVSPost2010Prop39
140
1.0
102
RTVSPost2010PropOp39
 70
     0
102
RTVSPost2010Prop40
 90
        0
102
RTVSPost2010PropOp40
 70
     0
102
RTVSPost2010Prop41ColorIndex
 90
       18
102
RTVSPost2010Prop41ColorRGB
 90
        0
102
RTVSPost2010PropOp41
 70
     0
102
RTVSPost2010Prop42
 90
       50
102
RTVSPost2010PropOp42
 70
     0
102
RTVSPost2010Prop43
 90
        3
102
RTVSPost2010PropOp43
 70
     0
102
RTVSPost2010Prop44ColorIndex
 90
        5
102
RTVSPost2010Prop44ColorRGB
 90
      255
102
RTVSPost2010PropOp44
 70
     0
102
RTVSPost2010Prop45
280
     0
102
RTVSPost2010PropOp45
 70
     0
102
RTVSPost2010Prop46
 90
       50
102
RTVSPost2010PropOp46
 70
     0
102
RTVSPost2010Prop47
 90
       50
102
RTVSPost2010PropOp47
 70
     0
102
RTVSPost2010Prop48
 90
       50
102
RTVSPost2010PropOp48
 70
     0
102
RTVSPost2010Prop49
280
     0
102
RTVSPost2010PropOp49
 70
     0
102
RTVSPost2010Prop50
 90
       50
102
RTVSPost2010PropOp50
 70
     0
102
RTVSPost2010Prop51ColorIndex
 90
      256
102
RTVSPost2010Prop51ColorRGB
 90
-16777216
102
RTVSPost2010PropOp51
 70
     0
102
RTVSPost2010Prop52
140
1.0
102
RTVSPost2010PropOp52
 70
     0
102
RTVSPost2010Prop53
 90
        2
102
RTVSPost2010PropOp53
 70
     0
102
RTVSPost2010Prop54
  1
strokes_ogs.tif
102
RTVSPost2010PropOp54
 70
     0
102
RTVSPost2010Prop55
280
     0
102
RTVSPost2010PropOp55
 70
     0
102
RTVSPost2010Prop56
140
1.0
102
RTVSPost2010PropOp56
 70
     0
102
RTVSPost2010Prop57
140
1.0
102
RTVSPost2010PropOp57
 70
     0
  0
XRECORD
  5
518
102
{ACAD_REACTORS
330
517
102
}
330
517
100
AcDbXrecord
280
     1
102
RTVSPropertyOp0
 70
     1
102
RTVSPropertyOp1
 70
     1
102
RTVSPropertyOp2
 70
     1
102
RTVSPropertyOp3
 70
     1
102
RTVSPropertyOp4
 70
     1
102
RTVSPropertyOp5
 70
     1
102
RTVSPropertyOp6
 70
     1
102
RTVSPropertyOp7
 70
     1
102
RTVSPropertyOp8
 70
     1
102
RTVSPropertyOp9
 70
     1
102
RTVSPropertyOp10
 70
     1
102
RTVSPropertyOp11
 70
     1
102
RTVSPropertyOp12
 70
     1
102
RTVSPropertyOp13
 70
     1
102
RTVSPropertyOp14
 70
     1
102
RTVSPropertyOp15
 70
     1
102
RTVSPropertyOp16
 70
     1
102
RTVSPropertyOp17
 70
     1
102
RTVSPropertyOp18
 70
     1
102
RTVSPropertyOp19
 70
     1
102
RTVSPropertyOp20
 70
     1
102
RTVSPropertyOp21
 70
     1
102
RTVSPropertyOp22
 70
     1
102
RTVSPropertyOp23
 70
     1
102
RTVSPropertyOp24
 70
     1
102
RTVSPropertyOp25
 70
     1
102
RTVSPropertyOp26
 70
     1
102
RTVSPropertyOp27
 70
     1
102
RTVSPropertyOp28
 70
     1
102
RTVSPropertyOp29
 70
     1
102
RTVSPropertyOp30
 70
     1
102
RTVSPropertyOp31
 70
     1
102
RTVSPropertyOp32
 70
     1
102
RTVSPropertyOp33
 70
     1
102
RTVSPropertyOp34
 70
     1
102
RTVSPropertyOp35
 70
     1
102
RTVSPropertyOp36
 70
     1
102
RTVSPropertyOp37
 70
     1
102
RTVSPropertyOp38
 70
     1
102
RTVSPropertyOp39
 70
     1
102
RTVSPropertyOp40
 70
     1
102
RTVSPropertyOp41
 70
     1
102
RTVSPropertyOp42
 70
     1
102
RTVSPropertyOp43
 70
     1
102
RTVSPropertyOp44
 70
     1
102
RTVSPropertyOp45
 70
     1
102
RTVSPropertyOp46
 70
     1
102
RTVSPropertyOp47
 70
     1
102
RTVSPropertyOp48
 70
     1
102
RTVSPropertyOp49
 70
     1
102
RTVSPropertyOp50
 70
     1
102
RTVSPropertyOp51
 70
     0
102
RTVSPropertyOp52
 70
     0
102
RTVSPropertyOp53
 70
     1
102
RTVSPropertyOp54
 70
     1
102
RTVSPropertyOp55
 70
     1
102
RTVSPropertyOp56
 70
     1
102
RTVSPropertyOp57
 70
     1
102
RTVSPost2010Prop28
280
     0
102
RTVSPost2010PropOp28
 70
     1
102
RTVSPost2010Prop29
280
     1
102
RTVSPost2010PropOp29
 70
     1
102
RTVSPost2010Prop30
280
     1
102
RTVSPost2010PropOp30
 70
     1
102
RTVSPost2010Prop31
280
     0
102
RTVSPost2010PropOp31
 70
     1
102
RTVSPost2010Prop32
280
     0
102
RTVSPost2010PropOp32
 70
     1
102
RTVSPost2010Prop33
280
     0
102
RTVSPost2010PropOp33
 70
     1
102
RTVSPost2010Prop34
280
     0
102
RTVSPost2010PropOp34
 70
     1
102
RTVSPost2010Prop35
280
     0
102
RTVSPost2010PropOp35
 70
     1
102
RTVSPost2010Prop36
280
     0
102
RTVSPost2010PropOp36
 70
     1
102
RTVSPost2010Prop37
 90
       50
102
RTVSPost2010PropOp37
 70
     1
102
RTVSPost2010Prop38
140
0.0
102
RTVSPost2010PropOp38
 70
     1
102
RTVSPost2010Prop39
140
1.0
102
RTVSPost2010PropOp39
 70
     1
102
RTVSPost2010Prop40
 90
        0
102
RTVSPost2010PropOp40
 70
     1
102
RTVSPost2010Prop41ColorIndex
 90
       18
102
RTVSPost2010Prop41ColorRGB
 90
        0
102
RTVSPost2010PropOp41
 70
     1
102
RTVSPost2010Prop42
 90
       50
102
RTVSPost2010PropOp42
 70
     1
102
RTVSPost2010Prop43
 90
        3
102
RTVSPost2010PropOp43
 70
     1
102
RTVSPost2010Prop44ColorIndex
 90
        5
102
RTVSPost2010Prop44ColorRGB
 90
      255
102
RTVSPost2010PropOp44
 70
     1
102
RTVSPost2010Prop45
280
     0
102
RTVSPost2010PropOp45
 70
     1
102
RTVSPost2010Prop46
 90
       50
102
RTVSPost2010PropOp46
 70
     1
102
RTVSPost2010Prop47
 90
       50
102
RTVSPost2010PropOp47
 70
     1
102
RTVSPost2010Prop48
 90
       50
102
RTVSPost2010PropOp48
 70
     1
102
RTVSPost2010Prop49
280
     0
102
RTVSPost2010PropOp49
 70
     1
102
RTVSPost2010Prop50
 90
       50
102
RTVSPost2010PropOp50
 70
     1
102
RTVSPost2010Prop51ColorIndex
 90
      256
102
RTVSPost2010Prop51ColorRGB
 90
-16777216
102
RTVSPost2010PropOp51
 70
     0
102
RTVSPost2010Prop52
140
1.0
102
RTVSPost2010PropOp52
 70
     0
102
RTVSPost2010Prop53
 90
        2
102
RTVSPost2010PropOp53
 70
     1
102
RTVSPost2010Prop54
  1
strokes_ogs.tif
102
RTVSPost2010PropOp54
 70
     1
102
RTVSPost2010Prop55
280
     0
102
RTVSPost2010PropOp55
 70
     1
102
RTVSPost2010Prop56
140
1.0
102
RTVSPost2010PropOp56
 70
     1
102
RTVSPost2010Prop57
140
1.0
102
RTVSPost2010PropOp57
 70
     1
  0
XRECORD
  5
4FC
102
{ACAD_REACTORS
330
4FB
102
}
330
4FB
100
AcDbXrecord
280
     1
102
RTVSPropertyOp0
 70
     1
102
RTVSPropertyOp1
 70
     1
102
RTVSPropertyOp2
 70
     1
102
RTVSPropertyOp3
 70
     1
102
RTVSPropertyOp4
 70
     1
102
RTVSPropertyOp5
 70
     1
102
RTVSPropertyOp6
 70
     1
102
RTVSPropertyOp7
 70
     1
102
RTVSPropertyOp8
 70
     1
102
RTVSPropertyOp9
 70
     1
102
RTVSPropertyOp10
 70
     1
102
RTVSPropertyOp11
 70
     1
102
RTVSPropertyOp12
 70
     1
102
RTVSPropertyOp13
 70
     1
102
RTVSPropertyOp14
 70
     1
102
RTVSPropertyOp15
 70
     1
102
RTVSPropertyOp16
 70
     1
102
RTVSPropertyOp17
 70
     1
102
RTVSPropertyOp18
 70
     1
102
RTVSPropertyOp19
 70
     1
102
RTVSPropertyOp20
 70
     1
102
RTVSPropertyOp21
 70
     1
102
RTVSPropertyOp22
 70
     1
102
RTVSPropertyOp23
 70
     1
102
RTVSPropertyOp24
 70
     1
102
RTVSPropertyOp25
 70
     1
102
RTVSPropertyOp26
 70
     1
102
RTVSPropertyOp27
 70
     1
102
RTVSPropertyOp28
 70
     1
102
RTVSPropertyOp29
 70
     1
102
RTVSPropertyOp30
 70
     1
102
RTVSPropertyOp31
 70
     1
102
RTVSPropertyOp32
 70
     1
102
RTVSPropertyOp33
 70
     1
102
RTVSPropertyOp34
 70
     1
102
RTVSPropertyOp35
 70
     1
102
RTVSPropertyOp36
 70
     1
102
RTVSPropertyOp37
 70
     1
102
RTVSPropertyOp38
 70
     1
102
RTVSPropertyOp39
 70
     1
102
RTVSPropertyOp40
 70
     1
102
RTVSPropertyOp41
 70
     1
102
RTVSPropertyOp42
 70
     1
102
RTVSPropertyOp43
 70
     1
102
RTVSPropertyOp44
 70
     1
102
RTVSPropertyOp45
 70
     1
102
RTVSPropertyOp46
 70
     1
102
RTVSPropertyOp47
 70
     1
102
RTVSPropertyOp48
 70
     1
102
RTVSPropertyOp49
 70
     1
102
RTVSPropertyOp50
 70
     1
102
RTVSPropertyOp51
 70
     0
102
RTVSPropertyOp52
 70
     0
102
RTVSPropertyOp53
 70
     1
102
RTVSPropertyOp54
 70
     1
102
RTVSPropertyOp55
 70
     1
102
RTVSPropertyOp56
 70
     1
102
RTVSPropertyOp57
 70
     1
102
RTVSPost2010Prop28
280
     0
102
RTVSPost2010PropOp28
 70
     1
102
RTVSPost2010Prop29
280
     1
102
RTVSPost2010PropOp29
 70
     1
102
RTVSPost2010Prop30
280
     1
102
RTVSPost2010PropOp30
 70
     1
102
RTVSPost2010Prop31
280
     0
102
RTVSPost2010PropOp31
 70
     1
102
RTVSPost2010Prop32
280
     0
102
RTVSPost2010PropOp32
 70
     1
102
RTVSPost2010Prop33
280
     0
102
RTVSPost2010PropOp33
 70
     1
102
RTVSPost2010Prop34
280
     0
102
RTVSPost2010PropOp34
 70
     1
102
RTVSPost2010Prop35
280
     0
102
RTVSPost2010PropOp35
 70
     1
102
RTVSPost2010Prop36
280
     0
102
RTVSPost2010PropOp36
 70
     1
102
RTVSPost2010Prop37
 90
       50
102
RTVSPost2010PropOp37
 70
     1
102
RTVSPost2010Prop38
140
0.0
102
RTVSPost2010PropOp38
 70
     1
102
RTVSPost2010Prop39
140
1.0
102
RTVSPost2010PropOp39
 70
     1
102
RTVSPost2010Prop40
 90
        0
102
RTVSPost2010PropOp40
 70
     1
102
RTVSPost2010Prop41ColorIndex
 90
       18
102
RTVSPost2010Prop41ColorRGB
 90
        0
102
RTVSPost2010PropOp41
 70
     1
102
RTVSPost2010Prop42
 90
       50
102
RTVSPost2010PropOp42
 70
     1
102
RTVSPost2010Prop43
 90
        3
102
RTVSPost2010PropOp43
 70
     1
102
RTVSPost2010Prop44ColorIndex
 90
        5
102
RTVSPost2010Prop44ColorRGB
 90
      255
102
RTVSPost2010PropOp44
 70
     1
102
RTVSPost2010Prop45
280
     0
102
RTVSPost2010PropOp45
 70
     1
102
RTVSPost2010Prop46
 90
       50
102
RTVSPost2010PropOp46
 70
     1
102
RTVSPost2010Prop47
 90
       50
102
RTVSPost2010PropOp47
 70
     1
102
RTVSPost2010Prop48
 90
       50
102
RTVSPost2010PropOp48
 70
     1
102
RTVSPost2010Prop49
280
     0
102
RTVSPost2010PropOp49
 70
     1
102
RTVSPost2010Prop50
 90
       50
102
RTVSPost2010PropOp50
 70
     1
102
RTVSPost2010Prop51ColorIndex
 90
      256
102
RTVSPost2010Prop51ColorRGB
 90
-16777216
102
RTVSPost2010PropOp51
 70
     0
102
RTVSPost2010Prop52
140
1.0
102
RTVSPost2010PropOp52
 70
     0
102
RTVSPost2010Prop53
 90
        2
102
RTVSPost2010PropOp53
 70
     1
102
RTVSPost2010Prop54
  1
strokes_ogs.tif
102
RTVSPost2010PropOp54
 70
     1
102
RTVSPost2010Prop55
280
     0
102
RTVSPost2010PropOp55
 70
     1
102
RTVSPost2010Prop56
140
1.0
102
RTVSPost2010PropOp56
 70
     1
102
RTVSPost2010Prop57
140
1.0
102
RTVSPost2010PropOp57
 70
     1
  0
XRECORD
  5
4FE
102
{ACAD_REACTORS
330
4FD
102
}
330
4FD
100
AcDbXrecord
280
     1
102
RTVSPropertyOp0
 70
     1
102
RTVSPropertyOp1
 70
     1
102
RTVSPropertyOp2
 70
     1
102
RTVSPropertyOp3
 70
     1
102
RTVSPropertyOp4
 70
     1
102
RTVSPropertyOp5
 70
     1
102
RTVSPropertyOp6
 70
     1
102
RTVSPropertyOp7
 70
     1
102
RTVSPropertyOp8
 70
     1
102
RTVSPropertyOp9
 70
     1
102
RTVSPropertyOp10
 70
     1
102
RTVSPropertyOp11
 70
     1
102
RTVSPropertyOp12
 70
     1
102
RTVSPropertyOp13
 70
     1
102
RTVSPropertyOp14
 70
     1
102
RTVSPropertyOp15
 70
     1
102
RTVSPropertyOp16
 70
     1
102
RTVSPropertyOp17
 70
     1
102
RTVSPropertyOp18
 70
     1
102
RTVSPropertyOp19
 70
     1
102
RTVSPropertyOp20
 70
     1
102
RTVSPropertyOp21
 70
     1
102
RTVSPropertyOp22
 70
     1
102
RTVSPropertyOp23
 70
     1
102
RTVSPropertyOp24
 70
     1
102
RTVSPropertyOp25
 70
     1
102
RTVSPropertyOp26
 70
     1
102
RTVSPropertyOp27
 70
     1
102
RTVSPropertyOp28
 70
     1
102
RTVSPropertyOp29
 70
     1
102
RTVSPropertyOp30
 70
     1
102
RTVSPropertyOp31
 70
     1
102
RTVSPropertyOp32
 70
     1
102
RTVSPropertyOp33
 70
     1
102
RTVSPropertyOp34
 70
     1
102
RTVSPropertyOp35
 70
     1
102
RTVSPropertyOp36
 70
     1
102
RTVSPropertyOp37
 70
     1
102
RTVSPropertyOp38
 70
     1
102
RTVSPropertyOp39
 70
     1
102
RTVSPropertyOp40
 70
     1
102
RTVSPropertyOp41
 70
     1
102
RTVSPropertyOp42
 70
     1
102
RTVSPropertyOp43
 70
     1
102
RTVSPropertyOp44
 70
     1
102
RTVSPropertyOp45
 70
     1
102
RTVSPropertyOp46
 70
     1
102
RTVSPropertyOp47
 70
     1
102
RTVSPropertyOp48
 70
     1
102
RTVSPropertyOp49
 70
     1
102
RTVSPropertyOp50
 70
     1
102
RTVSPropertyOp51
 70
     0
102
RTVSPropertyOp52
 70
     0
102
RTVSPropertyOp53
 70
     1
102
RTVSPropertyOp54
 70
     1
102
RTVSPropertyOp55
 70
     1
102
RTVSPropertyOp56
 70
     1
102
RTVSPropertyOp57
 70
     1
102
RTVSPost2010Prop28
280
     0
102
RTVSPost2010PropOp28
 70
     1
102
RTVSPost2010Prop29
280
     1
102
RTVSPost2010PropOp29
 70
     1
102
RTVSPost2010Prop30
280
     1
102
RTVSPost2010PropOp30
 70
     1
102
RTVSPost2010Prop31
280
     0
102
RTVSPost2010PropOp31
 70
     1
102
RTVSPost2010Prop32
280
     0
102
RTVSPost2010PropOp32
 70
     1
102
RTVSPost2010Prop33
280
     0
102
RTVSPost2010PropOp33
 70
     1
102
RTVSPost2010Prop34
280
     0
102
RTVSPost2010PropOp34
 70
     1
102
RTVSPost2010Prop35
280
     0
102
RTVSPost2010PropOp35
 70
     1
102
RTVSPost2010Prop36
280
     0
102
RTVSPost2010PropOp36
 70
     1
102
RTVSPost2010Prop37
 90
       50
102
RTVSPost2010PropOp37
 70
     1
102
RTVSPost2010Prop38
140
0.0
102
RTVSPost2010PropOp38
 70
     1
102
RTVSPost2010Prop39
140
1.0
102
RTVSPost2010PropOp39
 70
     1
102
RTVSPost2010Prop40
 90
        0
102
RTVSPost2010PropOp40
 70
     1
102
RTVSPost2010Prop41ColorIndex
 90
       18
102
RTVSPost2010Prop41ColorRGB
 90
        0
102
RTVSPost2010PropOp41
 70
     1
102
RTVSPost2010Prop42
 90
       50
102
RTVSPost2010PropOp42
 70
     1
102
RTVSPost2010Prop43
 90
        3
102
RTVSPost2010PropOp43
 70
     1
102
RTVSPost2010Prop44ColorIndex
 90
        5
102
RTVSPost2010Prop44ColorRGB
 90
      255
102
RTVSPost2010PropOp44
 70
     1
102
RTVSPost2010Prop45
280
     0
102
RTVSPost2010PropOp45
 70
     1
102
RTVSPost2010Prop46
 90
       50
102
RTVSPost2010PropOp46
 70
     1
102
RTVSPost2010Prop47
 90
       50
102
RTVSPost2010PropOp47
 70
     1
102
RTVSPost2010Prop48
 90
       50
102
RTVSPost2010PropOp48
 70
     1
102
RTVSPost2010Prop49
280
     0
102
RTVSPost2010PropOp49
 70
     1
102
RTVSPost2010Prop50
 90
       50
102
RTVSPost2010PropOp50
 70
     1
102
RTVSPost2010Prop51ColorIndex
 90
      256
102
RTVSPost2010Prop51ColorRGB
 90
-16777216
102
RTVSPost2010PropOp51
 70
     0
102
RTVSPost2010Prop52
140
1.0
102
RTVSPost2010PropOp52
 70
     0
102
RTVSPost2010Prop53
 90
        2
102
RTVSPost2010PropOp53
 70
     1
102
RTVSPost2010Prop54
  1
strokes_ogs.tif
102
RTVSPost2010PropOp54
 70
     1
102
RTVSPost2010Prop55
280
     0
102
RTVSPost2010PropOp55
 70
     1
102
RTVSPost2010Prop56
140
1.0
102
RTVSPost2010PropOp56
 70
     1
102
RTVSPost2010Prop57
140
1.0
102
RTVSPost2010PropOp57
 70
     1
  0
XRECORD
  5
500
102
{ACAD_REACTORS
330
4FF
102
}
330
4FF
100
AcDbXrecord
280
     1
102
RTVSPropertyOp0
 70
     1
102
RTVSPropertyOp1
 70
     1
102
RTVSPropertyOp2
 70
     1
102
RTVSPropertyOp3
 70
     1
102
RTVSPropertyOp4
 70
     1
102
RTVSPropertyOp5
 70
     1
102
RTVSPropertyOp6
 70
     1
102
RTVSPropertyOp7
 70
     1
102
RTVSPropertyOp8
 70
     1
102
RTVSPropertyOp9
 70
     1
102
RTVSPropertyOp10
 70
     1
102
RTVSPropertyOp11
 70
     1
102
RTVSPropertyOp12
 70
     1
102
RTVSPropertyOp13
 70
     1
102
RTVSPropertyOp14
 70
     1
102
RTVSPropertyOp15
 70
     1
102
RTVSPropertyOp16
 70
     1
102
RTVSPropertyOp17
 70
     1
102
RTVSPropertyOp18
 70
     1
102
RTVSPropertyOp19
 70
     1
102
RTVSPropertyOp20
 70
     1
102
RTVSPropertyOp21
 70
     1
102
RTVSPropertyOp22
 70
     1
102
RTVSPropertyOp23
 70
     1
102
RTVSPropertyOp24
 70
     1
102
RTVSPropertyOp25
 70
     1
102
RTVSPropertyOp26
 70
     1
102
RTVSPropertyOp27
 70
     1
102
RTVSPropertyOp28
 70
     1
102
RTVSPropertyOp29
 70
     1
102
RTVSPropertyOp30
 70
     1
102
RTVSPropertyOp31
 70
     1
102
RTVSPropertyOp32
 70
     1
102
RTVSPropertyOp33
 70
     1
102
RTVSPropertyOp34
 70
     1
102
RTVSPropertyOp35
 70
     1
102
RTVSPropertyOp36
 70
     1
102
RTVSPropertyOp37
 70
     1
102
RTVSPropertyOp38
 70
     1
102
RTVSPropertyOp39
 70
     1
102
RTVSPropertyOp40
 70
     1
102
RTVSPropertyOp41
 70
     1
102
RTVSPropertyOp42
 70
     1
102
RTVSPropertyOp43
 70
     1
102
RTVSPropertyOp44
 70
     1
102
RTVSPropertyOp45
 70
     1
102
RTVSPropertyOp46
 70
     1
102
RTVSPropertyOp47
 70
     1
102
RTVSPropertyOp48
 70
     1
102
RTVSPropertyOp49
 70
     1
102
RTVSPropertyOp50
 70
     1
102
RTVSPropertyOp51
 70
     0
102
RTVSPropertyOp52
 70
     0
102
RTVSPropertyOp53
 70
     1
102
RTVSPropertyOp54
 70
     1
102
RTVSPropertyOp55
 70
     1
102
RTVSPropertyOp56
 70
     1
102
RTVSPropertyOp57
 70
     1
102
RTVSPost2010Prop28
280
     0
102
RTVSPost2010PropOp28
 70
     1
102
RTVSPost2010Prop29
280
     1
102
RTVSPost2010PropOp29
 70
     1
102
RTVSPost2010Prop30
280
     1
102
RTVSPost2010PropOp30
 70
     1
102
RTVSPost2010Prop31
280
     0
102
RTVSPost2010PropOp31
 70
     1
102
RTVSPost2010Prop32
280
     0
102
RTVSPost2010PropOp32
 70
     1
102
RTVSPost2010Prop33
280
     0
102
RTVSPost2010PropOp33
 70
     1
102
RTVSPost2010Prop34
280
     0
102
RTVSPost2010PropOp34
 70
     1
102
RTVSPost2010Prop35
280
     0
102
RTVSPost2010PropOp35
 70
     1
102
RTVSPost2010Prop36
280
     0
102
RTVSPost2010PropOp36
 70
     1
102
RTVSPost2010Prop37
 90
       50
102
RTVSPost2010PropOp37
 70
     1
102
RTVSPost2010Prop38
140
0.0
102
RTVSPost2010PropOp38
 70
     1
102
RTVSPost2010Prop39
140
1.0
102
RTVSPost2010PropOp39
 70
     1
102
RTVSPost2010Prop40
 90
        0
102
RTVSPost2010PropOp40
 70
     1
102
RTVSPost2010Prop41ColorIndex
 90
       18
102
RTVSPost2010Prop41ColorRGB
 90
        0
102
RTVSPost2010PropOp41
 70
     1
102
RTVSPost2010Prop42
 90
       50
102
RTVSPost2010PropOp42
 70
     1
102
RTVSPost2010Prop43
 90
        3
102
RTVSPost2010PropOp43
 70
     1
102
RTVSPost2010Prop44ColorIndex
 90
        5
102
RTVSPost2010Prop44ColorRGB
 90
      255
102
RTVSPost2010PropOp44
 70
     1
102
RTVSPost2010Prop45
280
     0
102
RTVSPost2010PropOp45
 70
     1
102
RTVSPost2010Prop46
 90
       50
102
RTVSPost2010PropOp46
 70
     1
102
RTVSPost2010Prop47
 90
       50
102
RTVSPost2010PropOp47
 70
     1
102
RTVSPost2010Prop48
 90
       50
102
RTVSPost2010PropOp48
 70
     1
102
RTVSPost2010Prop49
280
     0
102
RTVSPost2010PropOp49
 70
     1
102
RTVSPost2010Prop50
 90
       50
102
RTVSPost2010PropOp50
 70
     1
102
RTVSPost2010Prop51ColorIndex
 90
      256
102
RTVSPost2010Prop51ColorRGB
 90
-16777216
102
RTVSPost2010PropOp51
 70
     0
102
RTVSPost2010Prop52
140
1.0
102
RTVSPost2010PropOp52
 70
     0
102
RTVSPost2010Prop53
 90
        2
102
RTVSPost2010PropOp53
 70
     1
102
RTVSPost2010Prop54
  1
strokes_ogs.tif
102
RTVSPost2010PropOp54
 70
     1
102
RTVSPost2010Prop55
280
     0
102
RTVSPost2010PropOp55
 70
     1
102
RTVSPost2010Prop56
140
1.0
102
RTVSPost2010PropOp56
 70
     1
102
RTVSPost2010Prop57
140
1.0
102
RTVSPost2010PropOp57
 70
     1
  0
XRECORD
  5
502
102
{ACAD_REACTORS
330
501
102
}
330
501
100
AcDbXrecord
280
     1
102
RTVSPropertyOp0
 70
     1
102
RTVSPropertyOp1
 70
     1
102
RTVSPropertyOp2
 70
     1
102
RTVSPropertyOp3
 70
     1
102
RTVSPropertyOp4
 70
     1
102
RTVSPropertyOp5
 70
     1
102
RTVSPropertyOp6
 70
     1
102
RTVSPropertyOp7
 70
     1
102
RTVSPropertyOp8
 70
     1
102
RTVSPropertyOp9
 70
     1
102
RTVSPropertyOp10
 70
     1
102
RTVSPropertyOp11
 70
     1
102
RTVSPropertyOp12
 70
     1
102
RTVSPropertyOp13
 70
     1
102
RTVSPropertyOp14
 70
     1
102
RTVSPropertyOp15
 70
     1
102
RTVSPropertyOp16
 70
     1
102
RTVSPropertyOp17
 70
     1
102
RTVSPropertyOp18
 70
     1
102
RTVSPropertyOp19
 70
     1
102
RTVSPropertyOp20
 70
     1
102
RTVSPropertyOp21
 70
     1
102
RTVSPropertyOp22
 70
     1
102
RTVSPropertyOp23
 70
     1
102
RTVSPropertyOp24
 70
     1
102
RTVSPropertyOp25
 70
     1
102
RTVSPropertyOp26
 70
     1
102
RTVSPropertyOp27
 70
     1
102
RTVSPropertyOp28
 70
     1
102
RTVSPropertyOp29
 70
     1
102
RTVSPropertyOp30
 70
     1
102
RTVSPropertyOp31
 70
     1
102
RTVSPropertyOp32
 70
     1
102
RTVSPropertyOp33
 70
     1
102
RTVSPropertyOp34
 70
     1
102
RTVSPropertyOp35
 70
     1
102
RTVSPropertyOp36
 70
     1
102
RTVSPropertyOp37
 70
     1
102
RTVSPropertyOp38
 70
     1
102
RTVSPropertyOp39
 70
     1
102
RTVSPropertyOp40
 70
     1
102
RTVSPropertyOp41
 70
     1
102
RTVSPropertyOp42
 70
     1
102
RTVSPropertyOp43
 70
     1
102
RTVSPropertyOp44
 70
     1
102
RTVSPropertyOp45
 70
     1
102
RTVSPropertyOp46
 70
     1
102
RTVSPropertyOp47
 70
     1
102
RTVSPropertyOp48
 70
     1
102
RTVSPropertyOp49
 70
     1
102
RTVSPropertyOp50
 70
     1
102
RTVSPropertyOp51
 70
     0
102
RTVSPropertyOp52
 70
     0
102
RTVSPropertyOp53
 70
     1
102
RTVSPropertyOp54
 70
     1
102
RTVSPropertyOp55
 70
     1
102
RTVSPropertyOp56
 70
     1
102
RTVSPropertyOp57
 70
     1
102
RTVSPost2010Prop28
280
     0
102
RTVSPost2010PropOp28
 70
     1
102
RTVSPost2010Prop29
280
     1
102
RTVSPost2010PropOp29
 70
     1
102
RTVSPost2010Prop30
280
     1
102
RTVSPost2010PropOp30
 70
     1
102
RTVSPost2010Prop31
280
     0
102
RTVSPost2010PropOp31
 70
     1
102
RTVSPost2010Prop32
280
     0
102
RTVSPost2010PropOp32
 70
     1
102
RTVSPost2010Prop33
280
     0
102
RTVSPost2010PropOp33
 70
     1
102
RTVSPost2010Prop34
280
     0
102
RTVSPost2010PropOp34
 70
     1
102
RTVSPost2010Prop35
280
     0
102
RTVSPost2010PropOp35
 70
     1
102
RTVSPost2010Prop36
280
     0
102
RTVSPost2010PropOp36
 70
     1
102
RTVSPost2010Prop37
 90
       50
102
RTVSPost2010PropOp37
 70
     1
102
RTVSPost2010Prop38
140
0.0
102
RTVSPost2010PropOp38
 70
     1
102
RTVSPost2010Prop39
140
1.0
102
RTVSPost2010PropOp39
 70
     1
102
RTVSPost2010Prop40
 90
        0
102
RTVSPost2010PropOp40
 70
     1
102
RTVSPost2010Prop41ColorIndex
 90
       18
102
RTVSPost2010Prop41ColorRGB
 90
        0
102
RTVSPost2010PropOp41
 70
     1
102
RTVSPost2010Prop42
 90
       50
102
RTVSPost2010PropOp42
 70
     1
102
RTVSPost2010Prop43
 90
        3
102
RTVSPost2010PropOp43
 70
     1
102
RTVSPost2010Prop44ColorIndex
 90
        5
102
RTVSPost2010Prop44ColorRGB
 90
      255
102
RTVSPost2010PropOp44
 70
     1
102
RTVSPost2010Prop45
280
     0
102
RTVSPost2010PropOp45
 70
     1
102
RTVSPost2010Prop46
 90
       50
102
RTVSPost2010PropOp46
 70
     1
102
RTVSPost2010Prop47
 90
       50
102
RTVSPost2010PropOp47
 70
     1
102
RTVSPost2010Prop48
 90
       50
102
RTVSPost2010PropOp48
 70
     1
102
RTVSPost2010Prop49
280
     0
102
RTVSPost2010PropOp49
 70
     1
102
RTVSPost2010Prop50
 90
       50
102
RTVSPost2010PropOp50
 70
     1
102
RTVSPost2010Prop51ColorIndex
 90
      256
102
RTVSPost2010Prop51ColorRGB
 90
-16777216
102
RTVSPost2010PropOp51
 70
     0
102
RTVSPost2010Prop52
140
1.0
102
RTVSPost2010PropOp52
 70
     0
102
RTVSPost2010Prop53
 90
        2
102
RTVSPost2010PropOp53
 70
     1
102
RTVSPost2010Prop54
  1
strokes_ogs.tif
102
RTVSPost2010PropOp54
 70
     1
102
RTVSPost2010Prop55
280
     0
102
RTVSPost2010PropOp55
 70
     1
102
RTVSPost2010Prop56
140
1.0
102
RTVSPost2010PropOp56
 70
     1
102
RTVSPost2010Prop57
140
1.0
102
RTVSPost2010PropOp57
 70
     1
  0
XRECORD
  5
508
102
{ACAD_REACTORS
330
507
102
}
330
507
100
AcDbXrecord
280
     1
102
RTVSPropertyOp0
 70
     1
102
RTVSPropertyOp1
 70
     1
102
RTVSPropertyOp2
 70
     1
102
RTVSPropertyOp3
 70
     1
102
RTVSPropertyOp4
 70
     1
102
RTVSPropertyOp5
 70
     1
102
RTVSPropertyOp6
 70
     1
102
RTVSPropertyOp7
 70
     1
102
RTVSPropertyOp8
 70
     1
102
RTVSPropertyOp9
 70
     1
102
RTVSPropertyOp10
 70
     1
102
RTVSPropertyOp11
 70
     1
102
RTVSPropertyOp12
 70
     1
102
RTVSPropertyOp13
 70
     1
102
RTVSPropertyOp14
 70
     1
102
RTVSPropertyOp15
 70
     1
102
RTVSPropertyOp16
 70
     1
102
RTVSPropertyOp17
 70
     1
102
RTVSPropertyOp18
 70
     1
102
RTVSPropertyOp19
 70
     1
102
RTVSPropertyOp20
 70
     1
102
RTVSPropertyOp21
 70
     1
102
RTVSPropertyOp22
 70
     1
102
RTVSPropertyOp23
 70
     1
102
RTVSPropertyOp24
 70
     1
102
RTVSPropertyOp25
 70
     1
102
RTVSPropertyOp26
 70
     1
102
RTVSPropertyOp27
 70
     1
102
RTVSPropertyOp28
 70
     1
102
RTVSPropertyOp29
 70
     1
102
RTVSPropertyOp30
 70
     1
102
RTVSPropertyOp31
 70
     1
102
RTVSPropertyOp32
 70
     1
102
RTVSPropertyOp33
 70
     1
102
RTVSPropertyOp34
 70
     1
102
RTVSPropertyOp35
 70
     1
102
RTVSPropertyOp36
 70
     1
102
RTVSPropertyOp37
 70
     1
102
RTVSPropertyOp38
 70
     1
102
RTVSPropertyOp39
 70
     1
102
RTVSPropertyOp40
 70
     1
102
RTVSPropertyOp41
 70
     1
102
RTVSPropertyOp42
 70
     1
102
RTVSPropertyOp43
 70
     1
102
RTVSPropertyOp44
 70
     1
102
RTVSPropertyOp45
 70
     1
102
RTVSPropertyOp46
 70
     1
102
RTVSPropertyOp47
 70
     1
102
RTVSPropertyOp48
 70
     1
102
RTVSPropertyOp49
 70
     1
102
RTVSPropertyOp50
 70
     1
102
RTVSPropertyOp51
 70
     0
102
RTVSPropertyOp52
 70
     0
102
RTVSPropertyOp53
 70
     1
102
RTVSPropertyOp54
 70
     1
102
RTVSPropertyOp55
 70
     1
102
RTVSPropertyOp56
 70
     1
102
RTVSPropertyOp57
 70
     1
102
RTVSPost2010Prop28
280
     0
102
RTVSPost2010PropOp28
 70
     1
102
RTVSPost2010Prop29
280
     1
102
RTVSPost2010PropOp29
 70
     1
102
RTVSPost2010Prop30
280
     1
102
RTVSPost2010PropOp30
 70
     1
102
RTVSPost2010Prop31
280
     0
102
RTVSPost2010PropOp31
 70
     1
102
RTVSPost2010Prop32
280
     0
102
RTVSPost2010PropOp32
 70
     1
102
RTVSPost2010Prop33
280
     0
102
RTVSPost2010PropOp33
 70
     1
102
RTVSPost2010Prop34
280
     0
102
RTVSPost2010PropOp34
 70
     1
102
RTVSPost2010Prop35
280
     0
102
RTVSPost2010PropOp35
 70
     1
102
RTVSPost2010Prop36
280
     0
102
RTVSPost2010PropOp36
 70
     1
102
RTVSPost2010Prop37
 90
       50
102
RTVSPost2010PropOp37
 70
     1
102
RTVSPost2010Prop38
140
0.0
102
RTVSPost2010PropOp38
 70
     1
102
RTVSPost2010Prop39
140
1.0
102
RTVSPost2010PropOp39
 70
     1
102
RTVSPost2010Prop40
 90
        0
102
RTVSPost2010PropOp40
 70
     1
102
RTVSPost2010Prop41ColorIndex
 90
       18
102
RTVSPost2010Prop41ColorRGB
 90
        0
102
RTVSPost2010PropOp41
 70
     1
102
RTVSPost2010Prop42
 90
       50
102
RTVSPost2010PropOp42
 70
     1
102
RTVSPost2010Prop43
 90
        3
102
RTVSPost2010PropOp43
 70
     1
102
RTVSPost2010Prop44ColorIndex
 90
        5
102
RTVSPost2010Prop44ColorRGB
 90
      255
102
RTVSPost2010PropOp44
 70
     1
102
RTVSPost2010Prop45
280
     0
102
RTVSPost2010PropOp45
 70
     1
102
RTVSPost2010Prop46
 90
       50
102
RTVSPost2010PropOp46
 70
     1
102
RTVSPost2010Prop47
 90
       50
102
RTVSPost2010PropOp47
 70
     1
102
RTVSPost2010Prop48
 90
       50
102
RTVSPost2010PropOp48
 70
     1
102
RTVSPost2010Prop49
280
     0
102
RTVSPost2010PropOp49
 70
     1
102
RTVSPost2010Prop50
 90
       50
102
RTVSPost2010PropOp50
 70
     1
102
RTVSPost2010Prop51ColorIndex
 90
      256
102
RTVSPost2010Prop51ColorRGB
 90
-16777216
102
RTVSPost2010PropOp51
 70
     0
102
RTVSPost2010Prop52
140
1.0
102
RTVSPost2010PropOp52
 70
     0
102
RTVSPost2010Prop53
 90
        2
102
RTVSPost2010PropOp53
 70
     1
102
RTVSPost2010Prop54
  1
strokes_ogs.tif
102
RTVSPost2010PropOp54
 70
     1
102
RTVSPost2010Prop55
280
     0
102
RTVSPost2010PropOp55
 70
     1
102
RTVSPost2010Prop56
140
1.0
102
RTVSPost2010PropOp56
 70
     1
102
RTVSPost2010Prop57
140
1.0
102
RTVSPost2010PropOp57
 70
     1
  0
XRECORD
  5
51C
102
{ACAD_REACTORS
330
51B
102
}
330
51B
100
AcDbXrecord
280
     1
102
RTVSPropertyOp0
 70
     0
102
RTVSPropertyOp1
 70
     0
102
RTVSPropertyOp2
 70
     0
102
RTVSPropertyOp3
 70
     0
102
RTVSPropertyOp4
 70
     0
102
RTVSPropertyOp5
 70
     0
102
RTVSPropertyOp6
 70
     0
102
RTVSPropertyOp7
 70
     0
102
RTVSPropertyOp8
 70
     0
102
RTVSPropertyOp9
 70
     0
102
RTVSPropertyOp10
 70
     0
102
RTVSPropertyOp11
 70
     0
102
RTVSPropertyOp12
 70
     0
102
RTVSPropertyOp13
 70
     0
102
RTVSPropertyOp14
 70
     2
102
RTVSPropertyOp15
 70
     0
102
RTVSPropertyOp16
 70
     0
102
RTVSPropertyOp17
 70
     0
102
RTVSPropertyOp18
 70
     0
102
RTVSPropertyOp19
 70
     0
102
RTVSPropertyOp20
 70
     0
102
RTVSPropertyOp21
 70
     0
102
RTVSPropertyOp22
 70
     0
102
RTVSPropertyOp23
 70
     0
102
RTVSPropertyOp24
 70
     0
102
RTVSPropertyOp25
 70
     0
102
RTVSPropertyOp26
 70
     0
102
RTVSPropertyOp27
 70
     0
102
RTVSPropertyOp28
 70
     0
102
RTVSPropertyOp29
 70
     0
102
RTVSPropertyOp30
 70
     0
102
RTVSPropertyOp31
 70
     0
102
RTVSPropertyOp32
 70
     0
102
RTVSPropertyOp33
 70
     0
102
RTVSPropertyOp34
 70
     0
102
RTVSPropertyOp35
 70
     0
102
RTVSPropertyOp36
 70
     0
102
RTVSPropertyOp37
 70
     0
102
RTVSPropertyOp38
 70
     0
102
RTVSPropertyOp39
 70
     0
102
RTVSPropertyOp40
 70
     0
102
RTVSPropertyOp41
 70
     0
102
RTVSPropertyOp42
 70
     0
102
RTVSPropertyOp43
 70
     0
102
RTVSPropertyOp44
 70
     0
102
RTVSPropertyOp45
 70
     0
102
RTVSPropertyOp46
 70
     0
102
RTVSPropertyOp47
 70
     0
102
RTVSPropertyOp48
 70
     0
102
RTVSPropertyOp49
 70
     0
102
RTVSPropertyOp50
 70
     0
102
RTVSPropertyOp51
 70
     0
102
RTVSPropertyOp52
 70
     0
102
RTVSPropertyOp53
 70
     0
102
RTVSPropertyOp54
 70
     0
102
RTVSPropertyOp55
 70
     0
102
RTVSPropertyOp56
 70
     0
102
RTVSPropertyOp57
 70
     0
102
RTVSPost2010Prop28
280
     0
102
RTVSPost2010PropOp28
 70
     0
102
RTVSPost2010Prop29
280
     1
102
RTVSPost2010PropOp29
 70
     0
102
RTVSPost2010Prop30
280
     1
102
RTVSPost2010PropOp30
 70
     0
102
RTVSPost2010Prop31
280
     0
102
RTVSPost2010PropOp31
 70
     0
102
RTVSPost2010Prop32
280
     0
102
RTVSPost2010PropOp32
 70
     0
102
RTVSPost2010Prop33
280
     0
102
RTVSPost2010PropOp33
 70
     0
102
RTVSPost2010Prop34
280
     0
102
RTVSPost2010PropOp34
 70
     0
102
RTVSPost2010Prop35
280
     0
102
RTVSPost2010PropOp35
 70
     0
102
RTVSPost2010Prop36
280
     0
102
RTVSPost2010PropOp36
 70
     0
102
RTVSPost2010Prop37
 90
       50
102
RTVSPost2010PropOp37
 70
     0
102
RTVSPost2010Prop38
140
0.0
102
RTVSPost2010PropOp38
 70
     0
102
RTVSPost2010Prop39
140
1.0
102
RTVSPost2010PropOp39
 70
     0
102
RTVSPost2010Prop40
 90
        0
102
RTVSPost2010PropOp40
 70
     0
102
RTVSPost2010Prop41ColorIndex
 90
       18
102
RTVSPost2010Prop41ColorRGB
 90
        0
102
RTVSPost2010PropOp41
 70
     0
102
RTVSPost2010Prop42
 90
       50
102
RTVSPost2010PropOp42
 70
     0
102
RTVSPost2010Prop43
 90
        3
102
RTVSPost2010PropOp43
 70
     0
102
RTVSPost2010Prop44ColorIndex
 90
        5
102
RTVSPost2010Prop44ColorRGB
 90
      255
102
RTVSPost2010PropOp44
 70
     0
102
RTVSPost2010Prop45
280
     0
102
RTVSPost2010PropOp45
 70
     0
102
RTVSPost2010Prop46
 90
       50
102
RTVSPost2010PropOp46
 70
     0
102
RTVSPost2010Prop47
 90
       50
102
RTVSPost2010PropOp47
 70
     0
102
RTVSPost2010Prop48
 90
       50
102
RTVSPost2010PropOp48
 70
     0
102
RTVSPost2010Prop49
280
     0
102
RTVSPost2010PropOp49
 70
     0
102
RTVSPost2010Prop50
 90
       50
102
RTVSPost2010PropOp50
 70
     0
102
RTVSPost2010Prop51ColorIndex
 90
      256
102
RTVSPost2010Prop51ColorRGB
 90
-16777216
102
RTVSPost2010PropOp51
 70
     0
102
RTVSPost2010Prop52
140
1.0
102
RTVSPost2010PropOp52
 70
     0
102
RTVSPost2010Prop53
 90
        2
102
RTVSPost2010PropOp53
 70
     0
102
RTVSPost2010Prop54
  1
strokes_ogs.tif
102
RTVSPost2010PropOp54
 70
     0
102
RTVSPost2010Prop55
280
     0
102
RTVSPost2010PropOp55
 70
     0
102
RTVSPost2010Prop56
140
1.0
102
RTVSPost2010PropOp56
 70
     0
102
RTVSPost2010Prop57
140
1.0
102
RTVSPost2010PropOp57
 70
     0
  0
XRECORD
  5
516
102
{ACAD_REACTORS
330
515
102
}
330
515
100
AcDbXrecord
280
     1
102
RTVSPropertyOp0
 70
     1
102
RTVSPropertyOp1
 70
     1
102
RTVSPropertyOp2
 70
     1
102
RTVSPropertyOp3
 70
     1
102
RTVSPropertyOp4
 70
     1
102
RTVSPropertyOp5
 70
     1
102
RTVSPropertyOp6
 70
     1
102
RTVSPropertyOp7
 70
     1
102
RTVSPropertyOp8
 70
     1
102
RTVSPropertyOp9
 70
     1
102
RTVSPropertyOp10
 70
     1
102
RTVSPropertyOp11
 70
     1
102
RTVSPropertyOp12
 70
     1
102
RTVSPropertyOp13
 70
     1
102
RTVSPropertyOp14
 70
     1
102
RTVSPropertyOp15
 70
     1
102
RTVSPropertyOp16
 70
     1
102
RTVSPropertyOp17
 70
     1
102
RTVSPropertyOp18
 70
     1
102
RTVSPropertyOp19
 70
     1
102
RTVSPropertyOp20
 70
     1
102
RTVSPropertyOp21
 70
     1
102
RTVSPropertyOp22
 70
     1
102
RTVSPropertyOp23
 70
     1
102
RTVSPropertyOp24
 70
     1
102
RTVSPropertyOp25
 70
     1
102
RTVSPropertyOp26
 70
     1
102
RTVSPropertyOp27
 70
     1
102
RTVSPropertyOp28
 70
     1
102
RTVSPropertyOp29
 70
     1
102
RTVSPropertyOp30
 70
     1
102
RTVSPropertyOp31
 70
     1
102
RTVSPropertyOp32
 70
     1
102
RTVSPropertyOp33
 70
     1
102
RTVSPropertyOp34
 70
     1
102
RTVSPropertyOp35
 70
     1
102
RTVSPropertyOp36
 70
     1
102
RTVSPropertyOp37
 70
     1
102
RTVSPropertyOp38
 70
     1
102
RTVSPropertyOp39
 70
     1
102
RTVSPropertyOp40
 70
     1
102
RTVSPropertyOp41
 70
     1
102
RTVSPropertyOp42
 70
     1
102
RTVSPropertyOp43
 70
     1
102
RTVSPropertyOp44
 70
     1
102
RTVSPropertyOp45
 70
     1
102
RTVSPropertyOp46
 70
     1
102
RTVSPropertyOp47
 70
     1
102
RTVSPropertyOp48
 70
     1
102
RTVSPropertyOp49
 70
     1
102
RTVSPropertyOp50
 70
     1
102
RTVSPropertyOp51
 70
     0
102
RTVSPropertyOp52
 70
     0
102
RTVSPropertyOp53
 70
     1
102
RTVSPropertyOp54
 70
     1
102
RTVSPropertyOp55
 70
     1
102
RTVSPropertyOp56
 70
     1
102
RTVSPropertyOp57
 70
     1
102
RTVSPost2010Prop28
280
     0
102
RTVSPost2010PropOp28
 70
     1
102
RTVSPost2010Prop29
280
     1
102
RTVSPost2010PropOp29
 70
     1
102
RTVSPost2010Prop30
280
     1
102
RTVSPost2010PropOp30
 70
     1
102
RTVSPost2010Prop31
280
     0
102
RTVSPost2010PropOp31
 70
     1
102
RTVSPost2010Prop32
280
     0
102
RTVSPost2010PropOp32
 70
     1
102
RTVSPost2010Prop33
280
     0
102
RTVSPost2010PropOp33
 70
     1
102
RTVSPost2010Prop34
280
     0
102
RTVSPost2010PropOp34
 70
     1
102
RTVSPost2010Prop35
280
     0
102
RTVSPost2010PropOp35
 70
     1
102
RTVSPost2010Prop36
280
     0
102
RTVSPost2010PropOp36
 70
     1
102
RTVSPost2010Prop37
 90
       50
102
RTVSPost2010PropOp37
 70
     1
102
RTVSPost2010Prop38
140
0.0
102
RTVSPost2010PropOp38
 70
     1
102
RTVSPost2010Prop39
140
1.0
102
RTVSPost2010PropOp39
 70
     1
102
RTVSPost2010Prop40
 90
        0
102
RTVSPost2010PropOp40
 70
     1
102
RTVSPost2010Prop41ColorIndex
 90
       18
102
RTVSPost2010Prop41ColorRGB
 90
        0
102
RTVSPost2010PropOp41
 70
     1
102
RTVSPost2010Prop42
 90
       50
102
RTVSPost2010PropOp42
 70
     1
102
RTVSPost2010Prop43
 90
        3
102
RTVSPost2010PropOp43
 70
     1
102
RTVSPost2010Prop44ColorIndex
 90
        5
102
RTVSPost2010Prop44ColorRGB
 90
      255
102
RTVSPost2010PropOp44
 70
     1
102
RTVSPost2010Prop45
280
     0
102
RTVSPost2010PropOp45
 70
     1
102
RTVSPost2010Prop46
 90
       50
102
RTVSPost2010PropOp46
 70
     1
102
RTVSPost2010Prop47
 90
       50
102
RTVSPost2010PropOp47
 70
     1
102
RTVSPost2010Prop48
 90
       50
102
RTVSPost2010PropOp48
 70
     1
102
RTVSPost2010Prop49
280
     0
102
RTVSPost2010PropOp49
 70
     1
102
RTVSPost2010Prop50
 90
       50
102
RTVSPost2010PropOp50
 70
     1
102
RTVSPost2010Prop51ColorIndex
 90
      256
102
RTVSPost2010Prop51ColorRGB
 90
-16777216
102
RTVSPost2010PropOp51
 70
     0
102
RTVSPost2010Prop52
140
1.0
102
RTVSPost2010PropOp52
 70
     0
102
RTVSPost2010Prop53
 90
        2
102
RTVSPost2010PropOp53
 70
     1
102
RTVSPost2010Prop54
  1
strokes_ogs.tif
102
RTVSPost2010PropOp54
 70
     1
102
RTVSPost2010Prop55
280
     0
102
RTVSPost2010PropOp55
 70
     1
102
RTVSPost2010Prop56
140
1.0
102
RTVSPost2010PropOp56
 70
     1
102
RTVSPost2010Prop57
140
1.0
102
RTVSPost2010PropOp57
 70
     1
  0
XRECORD
  5
51E
102
{ACAD_REACTORS
330
51D
102
}
330
51D
100
AcDbXrecord
280
     1
102
RTVSPropertyOp0
 70
     0
102
RTVSPropertyOp1
 70
     0
102
RTVSPropertyOp2
 70
     0
102
RTVSPropertyOp3
 70
     0
102
RTVSPropertyOp4
 70
     0
102
RTVSPropertyOp5
 70
     0
102
RTVSPropertyOp6
 70
     0
102
RTVSPropertyOp7
 70
     0
102
RTVSPropertyOp8
 70
     0
102
RTVSPropertyOp9
 70
     0
102
RTVSPropertyOp10
 70
     0
102
RTVSPropertyOp11
 70
     0
102
RTVSPropertyOp12
 70
     0
102
RTVSPropertyOp13
 70
     0
102
RTVSPropertyOp14
 70
     2
102
RTVSPropertyOp15
 70
     0
102
RTVSPropertyOp16
 70
     0
102
RTVSPropertyOp17
 70
     0
102
RTVSPropertyOp18
 70
     0
102
RTVSPropertyOp19
 70
     0
102
RTVSPropertyOp20
 70
     0
102
RTVSPropertyOp21
 70
     0
102
RTVSPropertyOp22
 70
     0
102
RTVSPropertyOp23
 70
     0
102
RTVSPropertyOp24
 70
     0
102
RTVSPropertyOp25
 70
     0
102
RTVSPropertyOp26
 70
     0
102
RTVSPropertyOp27
 70
     0
102
RTVSPropertyOp28
 70
     0
102
RTVSPropertyOp29
 70
     0
102
RTVSPropertyOp30
 70
     0
102
RTVSPropertyOp31
 70
     0
102
RTVSPropertyOp32
 70
     0
102
RTVSPropertyOp33
 70
     0
102
RTVSPropertyOp34
 70
     0
102
RTVSPropertyOp35
 70
     0
102
RTVSPropertyOp36
 70
     0
102
RTVSPropertyOp37
 70
     0
102
RTVSPropertyOp38
 70
     0
102
RTVSPropertyOp39
 70
     0
102
RTVSPropertyOp40
 70
     0
102
RTVSPropertyOp41
 70
     0
102
RTVSPropertyOp42
 70
     0
102
RTVSPropertyOp43
 70
     0
102
RTVSPropertyOp44
 70
     0
102
RTVSPropertyOp45
 70
     0
102
RTVSPropertyOp46
 70
     0
102
RTVSPropertyOp47
 70
     0
102
RTVSPropertyOp48
 70
     0
102
RTVSPropertyOp49
 70
     0
102
RTVSPropertyOp50
 70
     0
102
RTVSPropertyOp51
 70
     0
102
RTVSPropertyOp52
 70
     0
102
RTVSPropertyOp53
 70
     0
102
RTVSPropertyOp54
 70
     0
102
RTVSPropertyOp55
 70
     0
102
RTVSPropertyOp56
 70
     0
102
RTVSPropertyOp57
 70
     0
102
RTVSPost2010Prop28
280
     0
102
RTVSPost2010PropOp28
 70
     0
102
RTVSPost2010Prop29
280
     1
102
RTVSPost2010PropOp29
 70
     0
102
RTVSPost2010Prop30
280
     1
102
RTVSPost2010PropOp30
 70
     0
102
RTVSPost2010Prop31
280
     0
102
RTVSPost2010PropOp31
 70
     0
102
RTVSPost2010Prop32
280
     0
102
RTVSPost2010PropOp32
 70
     0
102
RTVSPost2010Prop33
280
     0
102
RTVSPost2010PropOp33
 70
     0
102
RTVSPost2010Prop34
280
     0
102
RTVSPost2010PropOp34
 70
     0
102
RTVSPost2010Prop35
280
     0
102
RTVSPost2010PropOp35
 70
     0
102
RTVSPost2010Prop36
280
     0
102
RTVSPost2010PropOp36
 70
     0
102
RTVSPost2010Prop37
 90
       50
102
RTVSPost2010PropOp37
 70
     0
102
RTVSPost2010Prop38
140
0.0
102
RTVSPost2010PropOp38
 70
     0
102
RTVSPost2010Prop39
140
1.0
102
RTVSPost2010PropOp39
 70
     0
102
RTVSPost2010Prop40
 90
        0
102
RTVSPost2010PropOp40
 70
     0
102
RTVSPost2010Prop41ColorIndex
 90
       18
102
RTVSPost2010Prop41ColorRGB
 90
        0
102
RTVSPost2010PropOp41
 70
     0
102
RTVSPost2010Prop42
 90
       50
102
RTVSPost2010PropOp42
 70
     0
102
RTVSPost2010Prop43
 90
        3
102
RTVSPost2010PropOp43
 70
     0
102
RTVSPost2010Prop44ColorIndex
 90
        5
102
RTVSPost2010Prop44ColorRGB
 90
      255
102
RTVSPost2010PropOp44
 70
     0
102
RTVSPost2010Prop45
280
     0
102
RTVSPost2010PropOp45
 70
     0
102
RTVSPost2010Prop46
 90
       50
102
RTVSPost2010PropOp46
 70
     0
102
RTVSPost2010Prop47
 90
       50
102
RTVSPost2010PropOp47
 70
     0
102
RTVSPost2010Prop48
 90
       50
102
RTVSPost2010PropOp48
 70
     0
102
RTVSPost2010Prop49
280
     0
102
RTVSPost2010PropOp49
 70
     0
102
RTVSPost2010Prop50
 90
       50
102
RTVSPost2010PropOp50
 70
     0
102
RTVSPost2010Prop51ColorIndex
 90
      256
102
RTVSPost2010Prop51ColorRGB
 90
-16777216
102
RTVSPost2010PropOp51
 70
     0
102
RTVSPost2010Prop52
140
1.0
102
RTVSPost2010PropOp52
 70
     0
102
RTVSPost2010Prop53
 90
        2
102
RTVSPost2010PropOp53
 70
     0
102
RTVSPost2010Prop54
  1
strokes_ogs.tif
102
RTVSPost2010PropOp54
 70
     0
102
RTVSPost2010Prop55
280
     0
102
RTVSPost2010PropOp55
 70
     0
102
RTVSPost2010Prop56
140
1.0
102
RTVSPost2010PropOp56
 70
     0
102
RTVSPost2010Prop57
140
1.0
102
RTVSPost2010PropOp57
 70
     0
  0
XRECORD
  5
50C
102
{ACAD_REACTORS
330
50B
102
}
330
50B
100
AcDbXrecord
280
     1
102
RTVSPropertyOp0
 70
     1
102
RTVSPropertyOp1
 70
     1
102
RTVSPropertyOp2
 70
     1
102
RTVSPropertyOp3
 70
     1
102
RTVSPropertyOp4
 70
     1
102
RTVSPropertyOp5
 70
     1
102
RTVSPropertyOp6
 70
     1
102
RTVSPropertyOp7
 70
     1
102
RTVSPropertyOp8
 70
     1
102
RTVSPropertyOp9
 70
     1
102
RTVSPropertyOp10
 70
     1
102
RTVSPropertyOp11
 70
     1
102
RTVSPropertyOp12
 70
     1
102
RTVSPropertyOp13
 70
     1
102
RTVSPropertyOp14
 70
     1
102
RTVSPropertyOp15
 70
     1
102
RTVSPropertyOp16
 70
     1
102
RTVSPropertyOp17
 70
     1
102
RTVSPropertyOp18
 70
     1
102
RTVSPropertyOp19
 70
     1
102
RTVSPropertyOp20
 70
     1
102
RTVSPropertyOp21
 70
     1
102
RTVSPropertyOp22
 70
     1
102
RTVSPropertyOp23
 70
     1
102
RTVSPropertyOp24
 70
     1
102
RTVSPropertyOp25
 70
     1
102
RTVSPropertyOp26
 70
     1
102
RTVSPropertyOp27
 70
     1
102
RTVSPropertyOp28
 70
     1
102
RTVSPropertyOp29
 70
     1
102
RTVSPropertyOp30
 70
     1
102
RTVSPropertyOp31
 70
     1
102
RTVSPropertyOp32
 70
     1
102
RTVSPropertyOp33
 70
     1
102
RTVSPropertyOp34
 70
     1
102
RTVSPropertyOp35
 70
     1
102
RTVSPropertyOp36
 70
     1
102
RTVSPropertyOp37
 70
     1
102
RTVSPropertyOp38
 70
     1
102
RTVSPropertyOp39
 70
     1
102
RTVSPropertyOp40
 70
     1
102
RTVSPropertyOp41
 70
     1
102
RTVSPropertyOp42
 70
     1
102
RTVSPropertyOp43
 70
     1
102
RTVSPropertyOp44
 70
     1
102
RTVSPropertyOp45
 70
     1
102
RTVSPropertyOp46
 70
     1
102
RTVSPropertyOp47
 70
     1
102
RTVSPropertyOp48
 70
     1
102
RTVSPropertyOp49
 70
     1
102
RTVSPropertyOp50
 70
     1
102
RTVSPropertyOp51
 70
     0
102
RTVSPropertyOp52
 70
     0
102
RTVSPropertyOp53
 70
     1
102
RTVSPropertyOp54
 70
     1
102
RTVSPropertyOp55
 70
     1
102
RTVSPropertyOp56
 70
     1
102
RTVSPropertyOp57
 70
     1
102
RTVSPost2010Prop28
280
     0
102
RTVSPost2010PropOp28
 70
     1
102
RTVSPost2010Prop29
280
     1
102
RTVSPost2010PropOp29
 70
     1
102
RTVSPost2010Prop30
280
     1
102
RTVSPost2010PropOp30
 70
     1
102
RTVSPost2010Prop31
280
     0
102
RTVSPost2010PropOp31
 70
     1
102
RTVSPost2010Prop32
280
     0
102
RTVSPost2010PropOp32
 70
     1
102
RTVSPost2010Prop33
280
     0
102
RTVSPost2010PropOp33
 70
     1
102
RTVSPost2010Prop34
280
     0
102
RTVSPost2010PropOp34
 70
     1
102
RTVSPost2010Prop35
280
     0
102
RTVSPost2010PropOp35
 70
     1
102
RTVSPost2010Prop36
280
     0
102
RTVSPost2010PropOp36
 70
     1
102
RTVSPost2010Prop37
 90
       50
102
RTVSPost2010PropOp37
 70
     1
102
RTVSPost2010Prop38
140
0.0
102
RTVSPost2010PropOp38
 70
     1
102
RTVSPost2010Prop39
140
1.0
102
RTVSPost2010PropOp39
 70
     1
102
RTVSPost2010Prop40
 90
        0
102
RTVSPost2010PropOp40
 70
     1
102
RTVSPost2010Prop41ColorIndex
 90
       18
102
RTVSPost2010Prop41ColorRGB
 90
        0
102
RTVSPost2010PropOp41
 70
     1
102
RTVSPost2010Prop42
 90
       50
102
RTVSPost2010PropOp42
 70
     1
102
RTVSPost2010Prop43
 90
        3
102
RTVSPost2010PropOp43
 70
     1
102
RTVSPost2010Prop44ColorIndex
 90
        5
102
RTVSPost2010Prop44ColorRGB
 90
      255
102
RTVSPost2010PropOp44
 70
     1
102
RTVSPost2010Prop45
280
     0
102
RTVSPost2010PropOp45
 70
     1
102
RTVSPost2010Prop46
 90
       50
102
RTVSPost2010PropOp46
 70
     1
102
RTVSPost2010Prop47
 90
       50
102
RTVSPost2010PropOp47
 70
     1
102
RTVSPost2010Prop48
 90
       50
102
RTVSPost2010PropOp48
 70
     1
102
RTVSPost2010Prop49
280
     0
102
RTVSPost2010PropOp49
 70
     1
102
RTVSPost2010Prop50
 90
       50
102
RTVSPost2010PropOp50
 70
     1
102
RTVSPost2010Prop51ColorIndex
 90
      256
102
RTVSPost2010Prop51ColorRGB
 90
-16777216
102
RTVSPost2010PropOp51
 70
     0
102
RTVSPost2010Prop52
140
1.0
102
RTVSPost2010PropOp52
 70
     0
102
RTVSPost2010Prop53
 90
        2
102
RTVSPost2010PropOp53
 70
     1
102
RTVSPost2010Prop54
  1
strokes_ogs.tif
102
RTVSPost2010PropOp54
 70
     1
102
RTVSPost2010Prop55
280
     0
102
RTVSPost2010PropOp55
 70
     1
102
RTVSPost2010Prop56
140
1.0
102
RTVSPost2010PropOp56
 70
     1
102
RTVSPost2010Prop57
140
1.0
102
RTVSPost2010PropOp57
 70
     1
  0
XRECORD
  5
52A
102
{ACAD_REACTORS
330
529
102
}
330
529
100
AcDbXrecord
280
     1
102
RTVSPropertyOp0
 70
     1
102
RTVSPropertyOp1
 70
     1
102
RTVSPropertyOp2
 70
     1
102
RTVSPropertyOp3
 70
     1
102
RTVSPropertyOp4
 70
     1
102
RTVSPropertyOp5
 70
     1
102
RTVSPropertyOp6
 70
     1
102
RTVSPropertyOp7
 70
     1
102
RTVSPropertyOp8
 70
     1
102
RTVSPropertyOp9
 70
     1
102
RTVSPropertyOp10
 70
     1
102
RTVSPropertyOp11
 70
     1
102
RTVSPropertyOp12
 70
     1
102
RTVSPropertyOp13
 70
     1
102
RTVSPropertyOp14
 70
     1
102
RTVSPropertyOp15
 70
     1
102
RTVSPropertyOp16
 70
     1
102
RTVSPropertyOp17
 70
     1
102
RTVSPropertyOp18
 70
     1
102
RTVSPropertyOp19
 70
     1
102
RTVSPropertyOp20
 70
     1
102
RTVSPropertyOp21
 70
     1
102
RTVSPropertyOp22
 70
     1
102
RTVSPropertyOp23
 70
     1
102
RTVSPropertyOp24
 70
     1
102
RTVSPropertyOp25
 70
     1
102
RTVSPropertyOp26
 70
     1
102
RTVSPropertyOp27
 70
     1
102
RTVSPropertyOp28
 70
     1
102
RTVSPropertyOp29
 70
     1
102
RTVSPropertyOp30
 70
     1
102
RTVSPropertyOp31
 70
     1
102
RTVSPropertyOp32
 70
     1
102
RTVSPropertyOp33
 70
     1
102
RTVSPropertyOp34
 70
     1
102
RTVSPropertyOp35
 70
     1
102
RTVSPropertyOp36
 70
     1
102
RTVSPropertyOp37
 70
     1
102
RTVSPropertyOp38
 70
     1
102
RTVSPropertyOp39
 70
     1
102
RTVSPropertyOp40
 70
     1
102
RTVSPropertyOp41
 70
     1
102
RTVSPropertyOp42
 70
     1
102
RTVSPropertyOp43
 70
     1
102
RTVSPropertyOp44
 70
     1
102
RTVSPropertyOp45
 70
     1
102
RTVSPropertyOp46
 70
     1
102
RTVSPropertyOp47
 70
     1
102
RTVSPropertyOp48
 70
     1
102
RTVSPropertyOp49
 70
     1
102
RTVSPropertyOp50
 70
     1
102
RTVSPropertyOp51
 70
     0
102
RTVSPropertyOp52
 70
     0
102
RTVSPropertyOp53
 70
     1
102
RTVSPropertyOp54
 70
     1
102
RTVSPropertyOp55
 70
     1
102
RTVSPropertyOp56
 70
     1
102
RTVSPropertyOp57
 70
     1
102
RTVSPost2010Prop28
280
     0
102
RTVSPost2010PropOp28
 70
     1
102
RTVSPost2010Prop29
280
     1
102
RTVSPost2010PropOp29
 70
     1
102
RTVSPost2010Prop30
280
     1
102
RTVSPost2010PropOp30
 70
     1
102
RTVSPost2010Prop31
280
     0
102
RTVSPost2010PropOp31
 70
     1
102
RTVSPost2010Prop32
280
     0
102
RTVSPost2010PropOp32
 70
     1
102
RTVSPost2010Prop33
280
     0
102
RTVSPost2010PropOp33
 70
     1
102
RTVSPost2010Prop34
280
     0
102
RTVSPost2010PropOp34
 70
     1
102
RTVSPost2010Prop35
280
     0
102
RTVSPost2010PropOp35
 70
     1
102
RTVSPost2010Prop36
280
     0
102
RTVSPost2010PropOp36
 70
     1
102
RTVSPost2010Prop37
 90
       50
102
RTVSPost2010PropOp37
 70
     1
102
RTVSPost2010Prop38
140
0.0
102
RTVSPost2010PropOp38
 70
     1
102
RTVSPost2010Prop39
140
1.0
102
RTVSPost2010PropOp39
 70
     1
102
RTVSPost2010Prop40
 90
        0
102
RTVSPost2010PropOp40
 70
     1
102
RTVSPost2010Prop41ColorIndex
 90
       18
102
RTVSPost2010Prop41ColorRGB
 90
        0
102
RTVSPost2010PropOp41
 70
     1
102
RTVSPost2010Prop42
 90
       50
102
RTVSPost2010PropOp42
 70
     1
102
RTVSPost2010Prop43
 90
        3
102
RTVSPost2010PropOp43
 70
     1
102
RTVSPost2010Prop44ColorIndex
 90
        5
102
RTVSPost2010Prop44ColorRGB
 90
      255
102
RTVSPost2010PropOp44
 70
     1
102
RTVSPost2010Prop45
280
     0
102
RTVSPost2010PropOp45
 70
     1
102
RTVSPost2010Prop46
 90
       50
102
RTVSPost2010PropOp46
 70
     1
102
RTVSPost2010Prop47
 90
       50
102
RTVSPost2010PropOp47
 70
     1
102
RTVSPost2010Prop48
 90
       50
102
RTVSPost2010PropOp48
 70
     1
102
RTVSPost2010Prop49
280
     0
102
RTVSPost2010PropOp49
 70
     1
102
RTVSPost2010Prop50
 90
       50
102
RTVSPost2010PropOp50
 70
     1
102
RTVSPost2010Prop51ColorIndex
 90
      256
102
RTVSPost2010Prop51ColorRGB
 90
-16777216
102
RTVSPost2010PropOp51
 70
     0
102
RTVSPost2010Prop52
140
1.0
102
RTVSPost2010PropOp52
 70
     0
102
RTVSPost2010Prop53
 90
        2
102
RTVSPost2010PropOp53
 70
     1
102
RTVSPost2010Prop54
  1
strokes_ogs.tif
102
RTVSPost2010PropOp54
 70
     1
102
RTVSPost2010Prop55
280
     0
102
RTVSPost2010PropOp55
 70
     1
102
RTVSPost2010Prop56
140
1.0
102
RTVSPost2010PropOp56
 70
     1
102
RTVSPost2010Prop57
140
1.0
102
RTVSPost2010PropOp57
 70
     1
  0
XRECORD
  5
528
102
{ACAD_REACTORS
330
527
102
}
330
527
100
AcDbXrecord
280
     1
102
RTVSPropertyOp0
 70
     1
102
RTVSPropertyOp1
 70
     1
102
RTVSPropertyOp2
 70
     1
102
RTVSPropertyOp3
 70
     1
102
RTVSPropertyOp4
 70
     1
102
RTVSPropertyOp5
 70
     1
102
RTVSPropertyOp6
 70
     1
102
RTVSPropertyOp7
 70
     1
102
RTVSPropertyOp8
 70
     1
102
RTVSPropertyOp9
 70
     1
102
RTVSPropertyOp10
 70
     1
102
RTVSPropertyOp11
 70
     1
102
RTVSPropertyOp12
 70
     1
102
RTVSPropertyOp13
 70
     1
102
RTVSPropertyOp14
 70
     1
102
RTVSPropertyOp15
 70
     1
102
RTVSPropertyOp16
 70
     1
102
RTVSPropertyOp17
 70
     1
102
RTVSPropertyOp18
 70
     1
102
RTVSPropertyOp19
 70
     1
102
RTVSPropertyOp20
 70
     1
102
RTVSPropertyOp21
 70
     1
102
RTVSPropertyOp22
 70
     1
102
RTVSPropertyOp23
 70
     1
102
RTVSPropertyOp24
 70
     1
102
RTVSPropertyOp25
 70
     1
102
RTVSPropertyOp26
 70
     1
102
RTVSPropertyOp27
 70
     1
102
RTVSPropertyOp28
 70
     1
102
RTVSPropertyOp29
 70
     1
102
RTVSPropertyOp30
 70
     1
102
RTVSPropertyOp31
 70
     1
102
RTVSPropertyOp32
 70
     1
102
RTVSPropertyOp33
 70
     1
102
RTVSPropertyOp34
 70
     1
102
RTVSPropertyOp35
 70
     1
102
RTVSPropertyOp36
 70
     1
102
RTVSPropertyOp37
 70
     1
102
RTVSPropertyOp38
 70
     1
102
RTVSPropertyOp39
 70
     1
102
RTVSPropertyOp40
 70
     1
102
RTVSPropertyOp41
 70
     1
102
RTVSPropertyOp42
 70
     1
102
RTVSPropertyOp43
 70
     1
102
RTVSPropertyOp44
 70
     1
102
RTVSPropertyOp45
 70
     1
102
RTVSPropertyOp46
 70
     1
102
RTVSPropertyOp47
 70
     1
102
RTVSPropertyOp48
 70
     1
102
RTVSPropertyOp49
 70
     1
102
RTVSPropertyOp50
 70
     1
102
RTVSPropertyOp51
 70
     0
102
RTVSPropertyOp52
 70
     0
102
RTVSPropertyOp53
 70
     1
102
RTVSPropertyOp54
 70
     1
102
RTVSPropertyOp55
 70
     1
102
RTVSPropertyOp56
 70
     1
102
RTVSPropertyOp57
 70
     1
102
RTVSPost2010Prop28
280
     0
102
RTVSPost2010PropOp28
 70
     1
102
RTVSPost2010Prop29
280
     1
102
RTVSPost2010PropOp29
 70
     1
102
RTVSPost2010Prop30
280
     1
102
RTVSPost2010PropOp30
 70
     1
102
RTVSPost2010Prop31
280
     0
102
RTVSPost2010PropOp31
 70
     1
102
RTVSPost2010Prop32
280
     0
102
RTVSPost2010PropOp32
 70
     1
102
RTVSPost2010Prop33
280
     0
102
RTVSPost2010PropOp33
 70
     1
102
RTVSPost2010Prop34
280
     0
102
RTVSPost2010PropOp34
 70
     1
102
RTVSPost2010Prop35
280
     0
102
RTVSPost2010PropOp35
 70
     1
102
RTVSPost2010Prop36
280
     0
102
RTVSPost2010PropOp36
 70
     1
102
RTVSPost2010Prop37
 90
       50
102
RTVSPost2010PropOp37
 70
     1
102
RTVSPost2010Prop38
140
0.0
102
RTVSPost2010PropOp38
 70
     1
102
RTVSPost2010Prop39
140
1.0
102
RTVSPost2010PropOp39
 70
     1
102
RTVSPost2010Prop40
 90
        0
102
RTVSPost2010PropOp40
 70
     1
102
RTVSPost2010Prop41ColorIndex
 90
       18
102
RTVSPost2010Prop41ColorRGB
 90
        0
102
RTVSPost2010PropOp41
 70
     1
102
RTVSPost2010Prop42
 90
       50
102
RTVSPost2010PropOp42
 70
     1
102
RTVSPost2010Prop43
 90
        3
102
RTVSPost2010PropOp43
 70
     1
102
RTVSPost2010Prop44ColorIndex
 90
        5
102
RTVSPost2010Prop44ColorRGB
 90
      255
102
RTVSPost2010PropOp44
 70
     1
102
RTVSPost2010Prop45
280
     0
102
RTVSPost2010PropOp45
 70
     1
102
RTVSPost2010Prop46
 90
       50
102
RTVSPost2010PropOp46
 70
     1
102
RTVSPost2010Prop47
 90
       50
102
RTVSPost2010PropOp47
 70
     1
102
RTVSPost2010Prop48
 90
       50
102
RTVSPost2010PropOp48
 70
     1
102
RTVSPost2010Prop49
280
     0
102
RTVSPost2010PropOp49
 70
     1
102
RTVSPost2010Prop50
 90
       50
102
RTVSPost2010PropOp50
 70
     1
102
RTVSPost2010Prop51ColorIndex
 90
      256
102
RTVSPost2010Prop51ColorRGB
 90
-16777216
102
RTVSPost2010PropOp51
 70
     0
102
RTVSPost2010Prop52
140
1.0
102
RTVSPost2010PropOp52
 70
     0
102
RTVSPost2010Prop53
 90
        2
102
RTVSPost2010PropOp53
 70
     1
102
RTVSPost2010Prop54
  1
strokes_ogs.tif
102
RTVSPost2010PropOp54
 70
     1
102
RTVSPost2010Prop55
280
     0
102
RTVSPost2010PropOp55
 70
     1
102
RTVSPost2010Prop56
140
1.0
102
RTVSPost2010PropOp56
 70
     1
102
RTVSPost2010Prop57
140
1.0
102
RTVSPost2010PropOp57
 70
     1
  0
XRECORD
  5
522
102
{ACAD_REACTORS
330
521
102
}
330
521
100
AcDbXrecord
280
     1
102
RTVSPropertyOp0
 70
     1
102
RTVSPropertyOp1
 70
     1
102
RTVSPropertyOp2
 70
     1
102
RTVSPropertyOp3
 70
     1
102
RTVSPropertyOp4
 70
     1
102
RTVSPropertyOp5
 70
     1
102
RTVSPropertyOp6
 70
     1
102
RTVSPropertyOp7
 70
     1
102
RTVSPropertyOp8
 70
     1
102
RTVSPropertyOp9
 70
     1
102
RTVSPropertyOp10
 70
     1
102
RTVSPropertyOp11
 70
     1
102
RTVSPropertyOp12
 70
     1
102
RTVSPropertyOp13
 70
     1
102
RTVSPropertyOp14
 70
     1
102
RTVSPropertyOp15
 70
     1
102
RTVSPropertyOp16
 70
     1
102
RTVSPropertyOp17
 70
     1
102
RTVSPropertyOp18
 70
     1
102
RTVSPropertyOp19
 70
     1
102
RTVSPropertyOp20
 70
     1
102
RTVSPropertyOp21
 70
     1
102
RTVSPropertyOp22
 70
     1
102
RTVSPropertyOp23
 70
     1
102
RTVSPropertyOp24
 70
     1
102
RTVSPropertyOp25
 70
     1
102
RTVSPropertyOp26
 70
     1
102
RTVSPropertyOp27
 70
     1
102
RTVSPropertyOp28
 70
     1
102
RTVSPropertyOp29
 70
     1
102
RTVSPropertyOp30
 70
     1
102
RTVSPropertyOp31
 70
     1
102
RTVSPropertyOp32
 70
     1
102
RTVSPropertyOp33
 70
     1
102
RTVSPropertyOp34
 70
     1
102
RTVSPropertyOp35
 70
     1
102
RTVSPropertyOp36
 70
     1
102
RTVSPropertyOp37
 70
     1
102
RTVSPropertyOp38
 70
     1
102
RTVSPropertyOp39
 70
     1
102
RTVSPropertyOp40
 70
     1
102
RTVSPropertyOp41
 70
     1
102
RTVSPropertyOp42
 70
     1
102
RTVSPropertyOp43
 70
     1
102
RTVSPropertyOp44
 70
     1
102
RTVSPropertyOp45
 70
     1
102
RTVSPropertyOp46
 70
     1
102
RTVSPropertyOp47
 70
     1
102
RTVSPropertyOp48
 70
     1
102
RTVSPropertyOp49
 70
     1
102
RTVSPropertyOp50
 70
     1
102
RTVSPropertyOp51
 70
     0
102
RTVSPropertyOp52
 70
     0
102
RTVSPropertyOp53
 70
     1
102
RTVSPropertyOp54
 70
     1
102
RTVSPropertyOp55
 70
     1
102
RTVSPropertyOp56
 70
     1
102
RTVSPropertyOp57
 70
     1
102
RTVSPost2010Prop28
280
     0
102
RTVSPost2010PropOp28
 70
     1
102
RTVSPost2010Prop29
280
     1
102
RTVSPost2010PropOp29
 70
     1
102
RTVSPost2010Prop30
280
     1
102
RTVSPost2010PropOp30
 70
     1
102
RTVSPost2010Prop31
280
     0
102
RTVSPost2010PropOp31
 70
     1
102
RTVSPost2010Prop32
280
     0
102
RTVSPost2010PropOp32
 70
     1
102
RTVSPost2010Prop33
280
     0
102
RTVSPost2010PropOp33
 70
     1
102
RTVSPost2010Prop34
280
     0
102
RTVSPost2010PropOp34
 70
     1
102
RTVSPost2010Prop35
280
     0
102
RTVSPost2010PropOp35
 70
     1
102
RTVSPost2010Prop36
280
     0
102
RTVSPost2010PropOp36
 70
     1
102
RTVSPost2010Prop37
 90
       50
102
RTVSPost2010PropOp37
 70
     1
102
RTVSPost2010Prop38
140
0.0
102
RTVSPost2010PropOp38
 70
     1
102
RTVSPost2010Prop39
140
1.0
102
RTVSPost2010PropOp39
 70
     1
102
RTVSPost2010Prop40
 90
        0
102
RTVSPost2010PropOp40
 70
     1
102
RTVSPost2010Prop41ColorIndex
 90
       18
102
RTVSPost2010Prop41ColorRGB
 90
        0
102
RTVSPost2010PropOp41
 70
     1
102
RTVSPost2010Prop42
 90
       50
102
RTVSPost2010PropOp42
 70
     1
102
RTVSPost2010Prop43
 90
        3
102
RTVSPost2010PropOp43
 70
     1
102
RTVSPost2010Prop44ColorIndex
 90
        5
102
RTVSPost2010Prop44ColorRGB
 90
      255
102
RTVSPost2010PropOp44
 70
     1
102
RTVSPost2010Prop45
280
     0
102
RTVSPost2010PropOp45
 70
     1
102
RTVSPost2010Prop46
 90
       50
102
RTVSPost2010PropOp46
 70
     1
102
RTVSPost2010Prop47
 90
       50
102
RTVSPost2010PropOp47
 70
     1
102
RTVSPost2010Prop48
 90
       50
102
RTVSPost2010PropOp48
 70
     1
102
RTVSPost2010Prop49
280
     0
102
RTVSPost2010PropOp49
 70
     1
102
RTVSPost2010Prop50
 90
       50
102
RTVSPost2010PropOp50
 70
     1
102
RTVSPost2010Prop51ColorIndex
 90
      256
102
RTVSPost2010Prop51ColorRGB
 90
-16777216
102
RTVSPost2010PropOp51
 70
     0
102
RTVSPost2010Prop52
140
1.0
102
RTVSPost2010PropOp52
 70
     0
102
RTVSPost2010Prop53
 90
        2
102
RTVSPost2010PropOp53
 70
     1
102
RTVSPost2010Prop54
  1
strokes_ogs.tif
102
RTVSPost2010PropOp54
 70
     1
102
RTVSPost2010Prop55
280
     0
102
RTVSPost2010PropOp55
 70
     1
102
RTVSPost2010Prop56
140
1.0
102
RTVSPost2010PropOp56
 70
     1
102
RTVSPost2010Prop57
140
1.0
102
RTVSPost2010PropOp57
 70
     1
  0
XRECORD
  5
524
102
{ACAD_REACTORS
330
523
102
}
330
523
100
AcDbXrecord
280
     1
102
RTVSPropertyOp0
 70
     1
102
RTVSPropertyOp1
 70
     1
102
RTVSPropertyOp2
 70
     1
102
RTVSPropertyOp3
 70
     1
102
RTVSPropertyOp4
 70
     1
102
RTVSPropertyOp5
 70
     1
102
RTVSPropertyOp6
 70
     1
102
RTVSPropertyOp7
 70
     1
102
RTVSPropertyOp8
 70
     1
102
RTVSPropertyOp9
 70
     1
102
RTVSPropertyOp10
 70
     1
102
RTVSPropertyOp11
 70
     1
102
RTVSPropertyOp12
 70
     1
102
RTVSPropertyOp13
 70
     1
102
RTVSPropertyOp14
 70
     1
102
RTVSPropertyOp15
 70
     1
102
RTVSPropertyOp16
 70
     1
102
RTVSPropertyOp17
 70
     1
102
RTVSPropertyOp18
 70
     1
102
RTVSPropertyOp19
 70
     1
102
RTVSPropertyOp20
 70
     1
102
RTVSPropertyOp21
 70
     1
102
RTVSPropertyOp22
 70
     1
102
RTVSPropertyOp23
 70
     1
102
RTVSPropertyOp24
 70
     1
102
RTVSPropertyOp25
 70
     1
102
RTVSPropertyOp26
 70
     1
102
RTVSPropertyOp27
 70
     1
102
RTVSPropertyOp28
 70
     1
102
RTVSPropertyOp29
 70
     1
102
RTVSPropertyOp30
 70
     1
102
RTVSPropertyOp31
 70
     1
102
RTVSPropertyOp32
 70
     1
102
RTVSPropertyOp33
 70
     1
102
RTVSPropertyOp34
 70
     1
102
RTVSPropertyOp35
 70
     1
102
RTVSPropertyOp36
 70
     1
102
RTVSPropertyOp37
 70
     1
102
RTVSPropertyOp38
 70
     1
102
RTVSPropertyOp39
 70
     1
102
RTVSPropertyOp40
 70
     1
102
RTVSPropertyOp41
 70
     1
102
RTVSPropertyOp42
 70
     1
102
RTVSPropertyOp43
 70
     1
102
RTVSPropertyOp44
 70
     1
102
RTVSPropertyOp45
 70
     1
102
RTVSPropertyOp46
 70
     1
102
RTVSPropertyOp47
 70
     1
102
RTVSPropertyOp48
 70
     1
102
RTVSPropertyOp49
 70
     1
102
RTVSPropertyOp50
 70
     1
102
RTVSPropertyOp51
 70
     0
102
RTVSPropertyOp52
 70
     0
102
RTVSPropertyOp53
 70
     1
102
RTVSPropertyOp54
 70
     1
102
RTVSPropertyOp55
 70
     1
102
RTVSPropertyOp56
 70
     1
102
RTVSPropertyOp57
 70
     1
102
RTVSPost2010Prop28
280
     0
102
RTVSPost2010PropOp28
 70
     1
102
RTVSPost2010Prop29
280
     1
102
RTVSPost2010PropOp29
 70
     1
102
RTVSPost2010Prop30
280
     1
102
RTVSPost2010PropOp30
 70
     1
102
RTVSPost2010Prop31
280
     0
102
RTVSPost2010PropOp31
 70
     1
102
RTVSPost2010Prop32
280
     0
102
RTVSPost2010PropOp32
 70
     1
102
RTVSPost2010Prop33
280
     0
102
RTVSPost2010PropOp33
 70
     1
102
RTVSPost2010Prop34
280
     0
102
RTVSPost2010PropOp34
 70
     1
102
RTVSPost2010Prop35
280
     0
102
RTVSPost2010PropOp35
 70
     1
102
RTVSPost2010Prop36
280
     0
102
RTVSPost2010PropOp36
 70
     1
102
RTVSPost2010Prop37
 90
       50
102
RTVSPost2010PropOp37
 70
     1
102
RTVSPost2010Prop38
140
0.0
102
RTVSPost2010PropOp38
 70
     1
102
RTVSPost2010Prop39
140
1.0
102
RTVSPost2010PropOp39
 70
     1
102
RTVSPost2010Prop40
 90
        0
102
RTVSPost2010PropOp40
 70
     1
102
RTVSPost2010Prop41ColorIndex
 90
       18
102
RTVSPost2010Prop41ColorRGB
 90
        0
102
RTVSPost2010PropOp41
 70
     1
102
RTVSPost2010Prop42
 90
       50
102
RTVSPost2010PropOp42
 70
     1
102
RTVSPost2010Prop43
 90
        3
102
RTVSPost2010PropOp43
 70
     1
102
RTVSPost2010Prop44ColorIndex
 90
        5
102
RTVSPost2010Prop44ColorRGB
 90
      255
102
RTVSPost2010PropOp44
 70
     1
102
RTVSPost2010Prop45
280
     0
102
RTVSPost2010PropOp45
 70
     1
102
RTVSPost2010Prop46
 90
       50
102
RTVSPost2010PropOp46
 70
     1
102
RTVSPost2010Prop47
 90
       50
102
RTVSPost2010PropOp47
 70
     1
102
RTVSPost2010Prop48
 90
       50
102
RTVSPost2010PropOp48
 70
     1
102
RTVSPost2010Prop49
280
     0
102
RTVSPost2010PropOp49
 70
     1
102
RTVSPost2010Prop50
 90
       50
102
RTVSPost2010PropOp50
 70
     1
102
RTVSPost2010Prop51ColorIndex
 90
      256
102
RTVSPost2010Prop51ColorRGB
 90
-16777216
102
RTVSPost2010PropOp51
 70
     0
102
RTVSPost2010Prop52
140
1.0
102
RTVSPost2010PropOp52
 70
     0
102
RTVSPost2010Prop53
 90
        2
102
RTVSPost2010PropOp53
 70
     1
102
RTVSPost2010Prop54
  1
strokes_ogs.tif
102
RTVSPost2010PropOp54
 70
     1
102
RTVSPost2010Prop55
280
     0
102
RTVSPost2010PropOp55
 70
     1
102
RTVSPost2010Prop56
140
1.0
102
RTVSPost2010PropOp56
 70
     1
102
RTVSPost2010Prop57
140
1.0
102
RTVSPost2010PropOp57
 70
     1
  0
XRECORD
  5
514
102
{ACAD_REACTORS
330
513
102
}
330
513
100
AcDbXrecord
280
     1
102
RTVSPropertyOp0
 70
     1
102
RTVSPropertyOp1
 70
     1
102
RTVSPropertyOp2
 70
     1
102
RTVSPropertyOp3
 70
     1
102
RTVSPropertyOp4
 70
     1
102
RTVSPropertyOp5
 70
     1
102
RTVSPropertyOp6
 70
     1
102
RTVSPropertyOp7
 70
     1
102
RTVSPropertyOp8
 70
     1
102
RTVSPropertyOp9
 70
     1
102
RTVSPropertyOp10
 70
     1
102
RTVSPropertyOp11
 70
     1
102
RTVSPropertyOp12
 70
     1
102
RTVSPropertyOp13
 70
     1
102
RTVSPropertyOp14
 70
     1
102
RTVSPropertyOp15
 70
     1
102
RTVSPropertyOp16
 70
     1
102
RTVSPropertyOp17
 70
     1
102
RTVSPropertyOp18
 70
     1
102
RTVSPropertyOp19
 70
     1
102
RTVSPropertyOp20
 70
     1
102
RTVSPropertyOp21
 70
     1
102
RTVSPropertyOp22
 70
     1
102
RTVSPropertyOp23
 70
     1
102
RTVSPropertyOp24
 70
     1
102
RTVSPropertyOp25
 70
     1
102
RTVSPropertyOp26
 70
     1
102
RTVSPropertyOp27
 70
     1
102
RTVSPropertyOp28
 70
     1
102
RTVSPropertyOp29
 70
     1
102
RTVSPropertyOp30
 70
     1
102
RTVSPropertyOp31
 70
     1
102
RTVSPropertyOp32
 70
     1
102
RTVSPropertyOp33
 70
     1
102
RTVSPropertyOp34
 70
     1
102
RTVSPropertyOp35
 70
     1
102
RTVSPropertyOp36
 70
     1
102
RTVSPropertyOp37
 70
     1
102
RTVSPropertyOp38
 70
     1
102
RTVSPropertyOp39
 70
     1
102
RTVSPropertyOp40
 70
     1
102
RTVSPropertyOp41
 70
     1
102
RTVSPropertyOp42
 70
     1
102
RTVSPropertyOp43
 70
     1
102
RTVSPropertyOp44
 70
     1
102
RTVSPropertyOp45
 70
     1
102
RTVSPropertyOp46
 70
     1
102
RTVSPropertyOp47
 70
     1
102
RTVSPropertyOp48
 70
     1
102
RTVSPropertyOp49
 70
     1
102
RTVSPropertyOp50
 70
     1
102
RTVSPropertyOp51
 70
     0
102
RTVSPropertyOp52
 70
     0
102
RTVSPropertyOp53
 70
     1
102
RTVSPropertyOp54
 70
     1
102
RTVSPropertyOp55
 70
     1
102
RTVSPropertyOp56
 70
     1
102
RTVSPropertyOp57
 70
     1
102
RTVSPost2010Prop28
280
     0
102
RTVSPost2010PropOp28
 70
     1
102
RTVSPost2010Prop29
280
     1
102
RTVSPost2010PropOp29
 70
     1
102
RTVSPost2010Prop30
280
     1
102
RTVSPost2010PropOp30
 70
     1
102
RTVSPost2010Prop31
280
     0
102
RTVSPost2010PropOp31
 70
     1
102
RTVSPost2010Prop32
280
     0
102
RTVSPost2010PropOp32
 70
     1
102
RTVSPost2010Prop33
280
     0
102
RTVSPost2010PropOp33
 70
     1
102
RTVSPost2010Prop34
280
     0
102
RTVSPost2010PropOp34
 70
     1
102
RTVSPost2010Prop35
280
     0
102
RTVSPost2010PropOp35
 70
     1
102
RTVSPost2010Prop36
280
     0
102
RTVSPost2010PropOp36
 70
     1
102
RTVSPost2010Prop37
 90
       50
102
RTVSPost2010PropOp37
 70
     1
102
RTVSPost2010Prop38
140
0.0
102
RTVSPost2010PropOp38
 70
     1
102
RTVSPost2010Prop39
140
1.0
102
RTVSPost2010PropOp39
 70
     1
102
RTVSPost2010Prop40
 90
        0
102
RTVSPost2010PropOp40
 70
     1
102
RTVSPost2010Prop41ColorIndex
 90
       18
102
RTVSPost2010Prop41ColorRGB
 90
        0
102
RTVSPost2010PropOp41
 70
     1
102
RTVSPost2010Prop42
 90
       50
102
RTVSPost2010PropOp42
 70
     1
102
RTVSPost2010Prop43
 90
        3
102
RTVSPost2010PropOp43
 70
     1
102
RTVSPost2010Prop44ColorIndex
 90
        5
102
RTVSPost2010Prop44ColorRGB
 90
      255
102
RTVSPost2010PropOp44
 70
     1
102
RTVSPost2010Prop45
280
     0
102
RTVSPost2010PropOp45
 70
     1
102
RTVSPost2010Prop46
 90
       50
102
RTVSPost2010PropOp46
 70
     1
102
RTVSPost2010Prop47
 90
       50
102
RTVSPost2010PropOp47
 70
     1
102
RTVSPost2010Prop48
 90
       50
102
RTVSPost2010PropOp48
 70
     1
102
RTVSPost2010Prop49
280
     0
102
RTVSPost2010PropOp49
 70
     1
102
RTVSPost2010Prop50
 90
       50
102
RTVSPost2010PropOp50
 70
     1
102
RTVSPost2010Prop51ColorIndex
 90
      256
102
RTVSPost2010Prop51ColorRGB
 90
-16777216
102
RTVSPost2010PropOp51
 70
     0
102
RTVSPost2010Prop52
140
1.0
102
RTVSPost2010PropOp52
 70
     0
102
RTVSPost2010Prop53
 90
        2
102
RTVSPost2010PropOp53
 70
     1
102
RTVSPost2010Prop54
  1
strokes_ogs.tif
102
RTVSPost2010PropOp54
 70
     1
102
RTVSPost2010Prop55
280
     0
102
RTVSPost2010PropOp55
 70
     1
102
RTVSPost2010Prop56
140
1.0
102
RTVSPost2010PropOp56
 70
     1
102
RTVSPost2010Prop57
140
1.0
102
RTVSPost2010PropOp57
 70
     1
  0
XRECORD
  5
506
102
{ACAD_REACTORS
330
505
102
}
330
505
100
AcDbXrecord
280
     1
102
RTVSPropertyOp0
 70
     1
102
RTVSPropertyOp1
 70
     1
102
RTVSPropertyOp2
 70
     1
102
RTVSPropertyOp3
 70
     1
102
RTVSPropertyOp4
 70
     1
102
RTVSPropertyOp5
 70
     1
102
RTVSPropertyOp6
 70
     1
102
RTVSPropertyOp7
 70
     1
102
RTVSPropertyOp8
 70
     1
102
RTVSPropertyOp9
 70
     1
102
RTVSPropertyOp10
 70
     1
102
RTVSPropertyOp11
 70
     1
102
RTVSPropertyOp12
 70
     1
102
RTVSPropertyOp13
 70
     1
102
RTVSPropertyOp14
 70
     1
102
RTVSPropertyOp15
 70
     1
102
RTVSPropertyOp16
 70
     1
102
RTVSPropertyOp17
 70
     1
102
RTVSPropertyOp18
 70
     1
102
RTVSPropertyOp19
 70
     1
102
RTVSPropertyOp20
 70
     1
102
RTVSPropertyOp21
 70
     1
102
RTVSPropertyOp22
 70
     1
102
RTVSPropertyOp23
 70
     1
102
RTVSPropertyOp24
 70
     1
102
RTVSPropertyOp25
 70
     1
102
RTVSPropertyOp26
 70
     1
102
RTVSPropertyOp27
 70
     1
102
RTVSPropertyOp28
 70
     1
102
RTVSPropertyOp29
 70
     1
102
RTVSPropertyOp30
 70
     1
102
RTVSPropertyOp31
 70
     1
102
RTVSPropertyOp32
 70
     1
102
RTVSPropertyOp33
 70
     1
102
RTVSPropertyOp34
 70
     1
102
RTVSPropertyOp35
 70
     1
102
RTVSPropertyOp36
 70
     1
102
RTVSPropertyOp37
 70
     1
102
RTVSPropertyOp38
 70
     1
102
RTVSPropertyOp39
 70
     1
102
RTVSPropertyOp40
 70
     1
102
RTVSPropertyOp41
 70
     1
102
RTVSPropertyOp42
 70
     1
102
RTVSPropertyOp43
 70
     1
102
RTVSPropertyOp44
 70
     1
102
RTVSPropertyOp45
 70
     1
102
RTVSPropertyOp46
 70
     1
102
RTVSPropertyOp47
 70
     1
102
RTVSPropertyOp48
 70
     1
102
RTVSPropertyOp49
 70
     1
102
RTVSPropertyOp50
 70
     1
102
RTVSPropertyOp51
 70
     0
102
RTVSPropertyOp52
 70
     0
102
RTVSPropertyOp53
 70
     1
102
RTVSPropertyOp54
 70
     1
102
RTVSPropertyOp55
 70
     1
102
RTVSPropertyOp56
 70
     1
102
RTVSPropertyOp57
 70
     1
102
RTVSPost2010Prop28
280
     0
102
RTVSPost2010PropOp28
 70
     1
102
RTVSPost2010Prop29
280
     1
102
RTVSPost2010PropOp29
 70
     1
102
RTVSPost2010Prop30
280
     1
102
RTVSPost2010PropOp30
 70
     1
102
RTVSPost2010Prop31
280
     0
102
RTVSPost2010PropOp31
 70
     1
102
RTVSPost2010Prop32
280
     0
102
RTVSPost2010PropOp32
 70
     1
102
RTVSPost2010Prop33
280
     0
102
RTVSPost2010PropOp33
 70
     1
102
RTVSPost2010Prop34
280
     0
102
RTVSPost2010PropOp34
 70
     1
102
RTVSPost2010Prop35
280
     0
102
RTVSPost2010PropOp35
 70
     1
102
RTVSPost2010Prop36
280
     0
102
RTVSPost2010PropOp36
 70
     1
102
RTVSPost2010Prop37
 90
       50
102
RTVSPost2010PropOp37
 70
     1
102
RTVSPost2010Prop38
140
0.0
102
RTVSPost2010PropOp38
 70
     1
102
RTVSPost2010Prop39
140
1.0
102
RTVSPost2010PropOp39
 70
     1
102
RTVSPost2010Prop40
 90
        0
102
RTVSPost2010PropOp40
 70
     1
102
RTVSPost2010Prop41ColorIndex
 90
       18
102
RTVSPost2010Prop41ColorRGB
 90
        0
102
RTVSPost2010PropOp41
 70
     1
102
RTVSPost2010Prop42
 90
       50
102
RTVSPost2010PropOp42
 70
     1
102
RTVSPost2010Prop43
 90
        3
102
RTVSPost2010PropOp43
 70
     1
102
RTVSPost2010Prop44ColorIndex
 90
        5
102
RTVSPost2010Prop44ColorRGB
 90
      255
102
RTVSPost2010PropOp44
 70
     1
102
RTVSPost2010Prop45
280
     0
102
RTVSPost2010PropOp45
 70
     1
102
RTVSPost2010Prop46
 90
       50
102
RTVSPost2010PropOp46
 70
     1
102
RTVSPost2010Prop47
 90
       50
102
RTVSPost2010PropOp47
 70
     1
102
RTVSPost2010Prop48
 90
       50
102
RTVSPost2010PropOp48
 70
     1
102
RTVSPost2010Prop49
280
     0
102
RTVSPost2010PropOp49
 70
     1
102
RTVSPost2010Prop50
 90
       50
102
RTVSPost2010PropOp50
 70
     1
102
RTVSPost2010Prop51ColorIndex
 90
      256
102
RTVSPost2010Prop51ColorRGB
 90
-16777216
102
RTVSPost2010PropOp51
 70
     0
102
RTVSPost2010Prop52
140
1.0
102
RTVSPost2010PropOp52
 70
     0
102
RTVSPost2010Prop53
 90
        2
102
RTVSPost2010PropOp53
 70
     1
102
RTVSPost2010Prop54
  1
strokes_ogs.tif
102
RTVSPost2010PropOp54
 70
     1
102
RTVSPost2010Prop55
280
     0
102
RTVSPost2010PropOp55
 70
     1
102
RTVSPost2010Prop56
140
1.0
102
RTVSPost2010PropOp56
 70
     1
102
RTVSPost2010Prop57
140
1.0
102
RTVSPost2010PropOp57
 70
     1
  0
XRECORD
  5
526
102
{ACAD_REACTORS
330
525
102
}
330
525
100
AcDbXrecord
280
     1
102
RTVSPropertyOp0
 70
     1
102
RTVSPropertyOp1
 70
     1
102
RTVSPropertyOp2
 70
     1
102
RTVSPropertyOp3
 70
     1
102
RTVSPropertyOp4
 70
     1
102
RTVSPropertyOp5
 70
     1
102
RTVSPropertyOp6
 70
     1
102
RTVSPropertyOp7
 70
     1
102
RTVSPropertyOp8
 70
     1
102
RTVSPropertyOp9
 70
     1
102
RTVSPropertyOp10
 70
     1
102
RTVSPropertyOp11
 70
     1
102
RTVSPropertyOp12
 70
     1
102
RTVSPropertyOp13
 70
     1
102
RTVSPropertyOp14
 70
     1
102
RTVSPropertyOp15
 70
     1
102
RTVSPropertyOp16
 70
     1
102
RTVSPropertyOp17
 70
     1
102
RTVSPropertyOp18
 70
     1
102
RTVSPropertyOp19
 70
     1
102
RTVSPropertyOp20
 70
     1
102
RTVSPropertyOp21
 70
     1
102
RTVSPropertyOp22
 70
     1
102
RTVSPropertyOp23
 70
     1
102
RTVSPropertyOp24
 70
     1
102
RTVSPropertyOp25
 70
     1
102
RTVSPropertyOp26
 70
     1
102
RTVSPropertyOp27
 70
     1
102
RTVSPropertyOp28
 70
     1
102
RTVSPropertyOp29
 70
     1
102
RTVSPropertyOp30
 70
     1
102
RTVSPropertyOp31
 70
     1
102
RTVSPropertyOp32
 70
     1
102
RTVSPropertyOp33
 70
     1
102
RTVSPropertyOp34
 70
     1
102
RTVSPropertyOp35
 70
     1
102
RTVSPropertyOp36
 70
     1
102
RTVSPropertyOp37
 70
     1
102
RTVSPropertyOp38
 70
     1
102
RTVSPropertyOp39
 70
     1
102
RTVSPropertyOp40
 70
     1
102
RTVSPropertyOp41
 70
     1
102
RTVSPropertyOp42
 70
     1
102
RTVSPropertyOp43
 70
     1
102
RTVSPropertyOp44
 70
     1
102
RTVSPropertyOp45
 70
     1
102
RTVSPropertyOp46
 70
     1
102
RTVSPropertyOp47
 70
     1
102
RTVSPropertyOp48
 70
     1
102
RTVSPropertyOp49
 70
     1
102
RTVSPropertyOp50
 70
     1
102
RTVSPropertyOp51
 70
     0
102
RTVSPropertyOp52
 70
     0
102
RTVSPropertyOp53
 70
     1
102
RTVSPropertyOp54
 70
     1
102
RTVSPropertyOp55
 70
     1
102
RTVSPropertyOp56
 70
     1
102
RTVSPropertyOp57
 70
     1
102
RTVSPost2010Prop28
280
     0
102
RTVSPost2010PropOp28
 70
     1
102
RTVSPost2010Prop29
280
     1
102
RTVSPost2010PropOp29
 70
     1
102
RTVSPost2010Prop30
280
     1
102
RTVSPost2010PropOp30
 70
     1
102
RTVSPost2010Prop31
280
     0
102
RTVSPost2010PropOp31
 70
     1
102
RTVSPost2010Prop32
280
     0
102
RTVSPost2010PropOp32
 70
     1
102
RTVSPost2010Prop33
280
     0
102
RTVSPost2010PropOp33
 70
     1
102
RTVSPost2010Prop34
280
     0
102
RTVSPost2010PropOp34
 70
     1
102
RTVSPost2010Prop35
280
     0
102
RTVSPost2010PropOp35
 70
     1
102
RTVSPost2010Prop36
280
     0
102
RTVSPost2010PropOp36
 70
     1
102
RTVSPost2010Prop37
 90
       50
102
RTVSPost2010PropOp37
 70
     1
102
RTVSPost2010Prop38
140
0.0
102
RTVSPost2010PropOp38
 70
     1
102
RTVSPost2010Prop39
140
1.0
102
RTVSPost2010PropOp39
 70
     1
102
RTVSPost2010Prop40
 90
        0
102
RTVSPost2010PropOp40
 70
     1
102
RTVSPost2010Prop41ColorIndex
 90
       18
102
RTVSPost2010Prop41ColorRGB
 90
        0
102
RTVSPost2010PropOp41
 70
     1
102
RTVSPost2010Prop42
 90
       50
102
RTVSPost2010PropOp42
 70
     1
102
RTVSPost2010Prop43
 90
        3
102
RTVSPost2010PropOp43
 70
     1
102
RTVSPost2010Prop44ColorIndex
 90
        5
102
RTVSPost2010Prop44ColorRGB
 90
      255
102
RTVSPost2010PropOp44
 70
     1
102
RTVSPost2010Prop45
280
     0
102
RTVSPost2010PropOp45
 70
     1
102
RTVSPost2010Prop46
 90
       50
102
RTVSPost2010PropOp46
 70
     1
102
RTVSPost2010Prop47
 90
       50
102
RTVSPost2010PropOp47
 70
     1
102
RTVSPost2010Prop48
 90
       50
102
RTVSPost2010PropOp48
 70
     1
102
RTVSPost2010Prop49
280
     0
102
RTVSPost2010PropOp49
 70
     1
102
RTVSPost2010Prop50
 90
       50
102
RTVSPost2010PropOp50
 70
     1
102
RTVSPost2010Prop51ColorIndex
 90
      256
102
RTVSPost2010Prop51ColorRGB
 90
-16777216
102
RTVSPost2010PropOp51
 70
     0
102
RTVSPost2010Prop52
140
1.0
102
RTVSPost2010PropOp52
 70
     0
102
RTVSPost2010Prop53
 90
        2
102
RTVSPost2010PropOp53
 70
     1
102
RTVSPost2010Prop54
  1
strokes_ogs.tif
102
RTVSPost2010PropOp54
 70
     1
102
RTVSPost2010Prop55
280
     0
102
RTVSPost2010PropOp55
 70
     1
102
RTVSPost2010Prop56
140
1.0
102
RTVSPost2010PropOp56
 70
     1
102
RTVSPost2010Prop57
140
1.0
102
RTVSPost2010PropOp57
 70
     1
  0
ENDSEC
  0
EOF
