0
SECTION
2
HEADER
9
$INSUNITS
70
4
9
$ACADVER
1
AC1014
9
$HANDSEED
5
FFFF
0
ENDSEC
0
SECTION
2
TABLES
0
TABLE
2
VPORT
5
8
100
AcDbSymbolTable
0
ENDTAB
0
TABLE
2
LTYPE
5
5
100
AcDbSymbolTable
0
LTYPE
5
14
100
AcDbSymbolTableRecord
100
AcDbLinetypeTableRecord
2
BYBLOCK
70
0
0
LTYPE
5
15
100
AcDbSymbolTableRecord
100
AcDbLinetypeTableRecord
2
BYLAYER
70
0
0
ENDTAB
0
TABLE
2
LAYER
5
2
100
AcDbSymbolTable
70
2
0
LAYER
5
50
100
AcDbSymbolTableRecord
100
AcDbLayerTableRecord
2
0
70
0
6
CONTINUOUS
0
ENDTAB
0
TABLE
2
STYLE
5
3
100
AcDbSymbolTable
70
1
0
STYLE
5
11
100
AcDbSymbolTableRecord
100
AcDbTextStyleTableRecord
2
STANDARD
70
0
0
ENDTAB
0
TABLE
2
VIEW
5
6
100
AcDbSymbolTable
70
0
0
ENDTAB
0
TABLE
2
UCS
5
7
100
AcDbSymbolTable
70
0
0
ENDTAB
0
TABLE
2
APPID
5
9
100
AcDbSymbolTable
70
2
0
APPID
5
12
100
AcDbSymbolTableRecord
100
AcDbRegAppTableRecord
2
ACAD
70
0
0
ENDTAB
0
TABLE
2
DIMSTYLE
5
A
100
AcDbSymbolTable
70
1
0
ENDTAB
0
TABLE
2
BLOCK_RECORD
5
1
100
AcDbSymbolTable
70
1
0
BLOCK_RECORD
5
1F
100
AcDbSymbolTableRecord
100
AcDbBlockTableRecord
2
*MODEL_SPACE
0
BLOCK_RECORD
5
1B
100
AcDbSymbolTableRecord
100
AcDbBlockTableRecord
2
*PAPER_SPACE
0
ENDTAB
0
ENDSEC
0
SECTION
2
BLOCKS
0
BLOCK
5
20
100
AcDbEntity
100
AcDbBlockBegin
2
*MODEL_SPACE
0
ENDBLK
5
21
100
AcDbEntity
100
AcDbBlockEnd
0
BLOCK
5
1C
100
AcDbEntity
100
AcDbBlockBegin
2
*PAPER_SPACE
0
ENDBLK
5
1D
100
AcDbEntity
100
AcDbBlockEnd
0
ENDSEC
0
SECTION
2
ENTITIES
0
LWPOLYLINE
5
100
100
AcDbEntity
8
0
100
AcDbPolyline
90
4
70
1
43
0.0
10
2500
20
1228.3744320414121
10
0
20
1228.3744320414121
10
0
20
8.3744320414120921
10
2500
20
8.3744320414120921
0
LWPOLYLINE
5
101
100
AcDbEntity
8
0
100
AcDbPolyline
90
4
70
1
43
0.0
10
946.79856734550958
20
50.000434652276638
10
46.79856734550944
20
50.000434652276553
10
46.798567345509525
20
450.00043465227679
10
946.79856734550958
20
450.00043465227668
0
LWPOLYLINE
5
102
100
AcDbEntity
8
0
100
AcDbPolyline
90
4
70
1
43
0.0
10
80.798567345509454
20
225.00043465227657
10
71.79856734550944
20
225.00043465227657
10
71.79856734550944
20
125.00043465227657
10
80.79856734550944
20
125.00043465227657
0
LWPOLYLINE
5
103
100
AcDbEntity
8
0
100
AcDbPolyline
90
4
70
1
43
0.0
10
80.798567345509454
20
375.00043465227657
10
71.79856734550944
20
375.00043465227657
10
71.798567345509454
20
275.00043465227657
10
80.79856734550944
20
275.00043465227657
0
LWPOLYLINE
5
104
100
AcDbEntity
8
0
100
AcDbPolyline
90
4
70
1
43
0.0
10
912.79856734550947
20
375.00043465227668
10
921.79856734550958
20
375.00043465227668
10
921.79856734550958
20
275.00043465227674
10
912.79856734550947
20
275.00043465227674
0
LWPOLYLINE
5
105
100
AcDbEntity
8
0
100
AcDbPolyline
90
4
70
1
43
0.0
10
912.79856734550947
20
225.00043465227674
10
921.79856734550958
20
225.00043465227674
10
921.79856734550958
20
125.00043465227657
10
912.79856734550947
20
125.00043465227657
0
LWPOLYLINE
5
106
100
AcDbEntity
8
0
100
AcDbPolyline
90
4
70
1
43
0.0
10
946.79856734550958
20
907.37814904202492
10
46.79856734550944
20
907.37814904202514
10
46.798567345509525
20
507.3781490420248
10
946.79856734550958
20
507.37814904202486
0
LWPOLYLINE
5
107
100
AcDbEntity
8
0
100
AcDbPolyline
90
4
70
1
43
0.0
10
80.798567345509454
20
732.37814904202514
10
71.79856734550944
20
732.37814904202514
10
71.79856734550944
20
832.37814904202514
10
80.79856734550944
20
832.37814904202514
0
LWPOLYLINE
5
108
100
AcDbEntity
8
0
100
AcDbPolyline
90
4
70
1
43
0.0
10
80.798567345509454
20
582.37814904202503
10
71.79856734550944
20
582.37814904202503
10
71.798567345509454
20
682.37814904202514
10
80.79856734550944
20
682.37814904202514
0
LWPOLYLINE
5
109
100
AcDbEntity
8
0
100
AcDbPolyline
90
4
70
1
43
0.0
10
912.79856734550947
20
582.37814904202492
10
921.79856734550958
20
582.37814904202492
10
921.79856734550958
20
682.3781490420248
10
912.79856734550947
20
682.3781490420248
0
LWPOLYLINE
5
110
100
AcDbEntity
8
0
100
AcDbPolyline
90
4
70
1
43
0.0
10
912.79856734550947
20
732.3781490420248
10
921.79856734550958
20
732.3781490420248
10
921.79856734550958
20
832.37814904202514
10
912.79856734550947
20
832.37814904202514
0
LWPOLYLINE
5
111
100
AcDbEntity
8
0
100
AcDbPolyline
90
16
70
1
43
0.0
10
1043
20
225
10
1025
20
225
10
1025
20
125
10
1043
20
125
10
1042.9999999999998
20
50.000000000000107
42
-0.16641214259607065
10
1642.9999996240929
20
53.467792277691046
10
1642.9999996240927
20
387.48973003912221
10
1612.9999996240927
20
387.48973003912221
10
1612.9999996240927
20
396.48973003912215
10
1642.9999996240927
20
396.48973003912215
10
1642.9999996240922
20
446.48973003912198
42
-0.16639862114899451
10
1043
20
450
10
1043
20
375
10
1025
20
375
10
1025
20
275
10
1043
20
275
0
LWPOLYLINE
5
112
100
AcDbEntity
8
0
100
AcDbPolyline
90
4
70
1
43
0.0
10
1574.9999999999998
20
374.99999999999989
42
-0.11111111111111101
10
1125
20
375
10
1125
20
325
10
1575
20
325
0
LWPOLYLINE
5
113
100
AcDbEntity
8
0
100
AcDbPolyline
90
5
70
1
43
0.0
10
1125.0000000000002
20
124.99999999999986
42
-0.1124826442121442
10
1575
20
125
10
1575
20
175
10
1125
20
175
10
1125
20
161.06189372566067
0
LWPOLYLINE
5
114
100
AcDbEntity
8
0
100
AcDbPolyline
90
4
70
1
43
0.0
10
1575
20
302
10
1125
20
302
10
1125
20
262
10
1575
20
262
0
LWPOLYLINE
5
115
100
AcDbEntity
8
0
100
AcDbPolyline
90
4
70
1
43
0.0
10
1575
20
238
10
1125
20
238
10
1125
20
198
10
1575
20
198
0
LINE
5
116
100
AcDbEntity
8
0
100
AcDbLine
10
1080.3725887346113
20
498.53342818683598
30
0
11
1550
21
498.53342818683598
31
0
0
LWPOLYLINE
5
117
100
AcDbEntity
8
0
100
AcDbPolyline
90
5
70
1
43
0.0
10
1125
20
836.00496264801131
10
1125
20
872.06685637367173
42
0.11248264421214431
10
1575
20
872.06685637367195
10
1575
20
822.06685637367195
10
1125
20
822.06685637367195
0
LWPOLYLINE
5
118
100
AcDbEntity
8
0
100
AcDbPolyline
90
4
70
1
43
0.0
10
1575
20
672.06685637367195
10
1575
20
622.06685637367218
42
0.11111111111111109
10
1125
20
622.06685637367195
10
1125
20
672.06685637367195
0
LWPOLYLINE
5
119
100
AcDbEntity
8
0
100
AcDbPolyline
90
16
70
1
43
0.0
10
1043
20
772.06685637367195
10
1025
20
772.06685637367195
10
1025
20
872.06685637367195
10
1043
20
872.06685637367195
10
1043
20
947.06685637367173
42
0.16641214259607068
10
1642.9999996240929
20
943.59906409598102
10
1642.9999996240929
20
609.5771263345498
10
1612.9999996240929
20
609.5771263345498
10
1612.9999996240929
20
600.5771263345498
10
1642.9999996240929
20
600.5771263345498
10
1642.9999996240927
20
550.5771263345498
42
0.16639862114899456
10
1043
20
547.06685637367195
10
1043
20
622.06685637367195
10
1025
20
622.06685637367195
10
1025
20
722.06685637367195
10
1043
20
722.06685637367195
0
LWPOLYLINE
5
120
100
AcDbEntity
8
0
100
AcDbPolyline
90
4
70
1
43
0.0
10
1575
20
695.06685637367195
10
1125
20
695.06685637367195
10
1125
20
735.06685637367195
10
1575
20
735.06685637367195
0
LWPOLYLINE
5
121
100
AcDbEntity
8
0
100
AcDbPolyline
90
4
70
1
43
0.0
10
1575
20
759.06685637367207
10
1125
20
759.06685637367207
10
1125
20
799.06685637367207
10
1575
20
799.06685637367207
0
LWPOLYLINE
5
122
100
AcDbEntity
8
0
100
AcDbPolyline
90
12
70
1
43
0.0
10
50.699591763592196
20
950
10
950.69959176359237
20
949.99999999999989
10
950.69959176359237
20
999.99999999999989
10
925.69959176359237
20
999.99999999999989
10
925.69959176359237
20
969.99999999999989
10
916.69959176359225
20
969.99999999999989
10
916.69959176359248
20
999.99999999999989
10
84.699591763592181
20
1000
10
84.699591763592196
20
970
10
75.699591763592181
20
970
10
75.699591763592181
20
999.99999999999989
10
50.699591763592181
20
999.99999999999989
0
ENDSEC
0
SECTION
2
OBJECTS
0
DICTIONARY
5
C
100
AcDbDictionary
3
ACAD_GROUP
350
D
3
ACAD_MLINESTYLE
350
17
0
DICTIONARY
5
D
100
AcDbDictionary
0
DICTIONARY
5
1A
330
C
100
AcDbDictionary
0
DICTIONARY
5
17
100
AcDbDictionary
0
ENDSEC
0
EOF
