  0
SECTION
  2
HEADER
  9
$ACADVER
  1
AC1014
  9
$HANDSEED
  5
FFFF
  9
$MEASUREMENT
 70
     1
  0
ENDSEC
  0
SECTION
  2
TABLES
  0
TABLE
  2
VPORT
  5
8
330
0
100
AcDbSymbolTable
 70
     4
  0
VPORT
  5
2E
330
8
100
AcDbSymbolTableRecord
100
AcDbViewportTableRecord
  2
*ACTIVE
 70
     0
 10
0.0
 20
0.0
 11
1.0
 21
1.0
 12
210.0
 22
148.5
 13
0.0
 23
0.0
 14
10.0
 24
10.0
 15
10.0
 25
10.0
 16
0.0
 26
0.0
 36
1.0
 17
0.0
 27
0.0
 37
0.0
 40
341.0
 41
1.24
 42
50.0
 43
0.0
 44
0.0
 50
0.0
 51
0.0
 71
     0
 72
   100
 73
     1
 74
     3
 75
     0
 76
     0
 77
     0
 78
     0
  0
ENDTAB
  0
TABLE
  2
LTYPE
  5
5
330
0
100
AcDbSymbolTable
 70
     1
  0
LTYPE
  5
14
330
5
100
AcDbSymbolTableRecord
100
AcDbLinetypeTableRecord
  2
BYBLOCK
 70
     0
  3

 72
    65
 73
     0
 40
0.0
  0
LTYPE
  5
15
330
5
100
AcDbSymbolTableRecord
100
AcDbLinetypeTableRecord
  2
BYLAYER
 70
     0
  3

 72
    65
 73
     0
 40
0.0
  0
LTYPE
  5
16
330
5
100
AcDbSymbolTableRecord
100
AcDbLinetypeTableRecord
  2
CONTINUOUS
 70
     0
  3
Solid line
 72
    65
 73
     0
 40
0.0
  0
ENDTAB
  0
TABLE
  2
LAYER
  5
2
100
AcDbSymbolTable
 70
2
  0
LAYER
  5
50
100
AcDbSymbolTableRecord
100
AcDbLayerTableRecord
  2
0
 70
0
  6
CONTINUOUS
  0
LAYER
  5
51
100
AcDbSymbolTableRecord
100
AcDbLayerTableRecord
  2
DEFAULT
 70
0
  6
CONTINUOUS
  0
ENDTAB
  0
TABLE
  2
STYLE
  5
3
330
0
100
AcDbSymbolTable
 70
     1
  0
STYLE
  5
11
330
3
100
AcDbSymbolTableRecord
100
AcDbTextStyleTableRecord
  2
STANDARD
 70
     0
 40
0.0
 41
1.0
 50
0.0
 71
     0
 42
2.5
  3
txt
  4

  0
ENDTAB
  0
TABLE
  2
VIEW
  5
6
330
0
100
AcDbSymbolTable
 70
     0
  0
ENDTAB
  0
TABLE
  2
UCS
  5
7
330
0
100
AcDbSymbolTable
 70
     0
  0
ENDTAB
  0
TABLE
  2
APPID
  5
9
330
0
100
AcDbSymbolTable
 70
     2
  0
APPID
  5
12
330
9
100
AcDbSymbolTableRecord
100
AcDbRegAppTableRecord
  2
ACAD
 70
     0
  0
ENDTAB
  0
TABLE
  2
DIMSTYLE
  5
A
330
0
100
AcDbSymbolTable
 70
     1
  0
DIMSTYLE
105
27
330
A
100
AcDbSymbolTableRecord
100
AcDbDimStyleTableRecord
  2
ISO-25
 70
     0
  3

  4

  5

  6

  7

 40
1.0
 41
2.5
 42
0.625
 43
3.75
 44
1.25
 45
0.0
 46
0.0
 47
0.0
 48
0.0
140
2.5
141
2.5
142
0.0
143
0.03937007874016
144
1.0
145
0.0
146
1.0
147
0.625
 71
     0
 72
     0
 73
     0
 74
     0
 75
     0
 76
     0
 77
     1
 78
     8
170
     0
171
     3
172
     1
173
     0
174
     0
175
     0
176
     0
177
     0
178
     0
270
     2
271
     2
272
     2
273
     2
274
     3
340
11
275
     0
280
     0
281
     0
282
     0
283
     0
284
     8
285
     0
286
     0
287
     3
288
     0
  0
ENDTAB
  0
TABLE
  2
BLOCK_RECORD
  5
1
330
0
100
AcDbSymbolTable
 70
     1
  0
BLOCK_RECORD
  5
1F
330
1
100
AcDbSymbolTableRecord
100
AcDbBlockTableRecord
  2
*MODEL_SPACE
  0
BLOCK_RECORD
  5
1B
330
1
100
AcDbSymbolTableRecord
100
AcDbBlockTableRecord
  2
*PAPER_SPACE
  0
ENDTAB
  0
ENDSEC
  0
SECTION
  2
BLOCKS
  0
BLOCK
  5
20
330
1F
100
AcDbEntity
  8
0
100
AcDbBlockBegin
  2
*MODEL_SPACE
 70
     0
 10
0.0
 20
0.0
 30
0.0
  3
*MODEL_SPACE
  1

  0
ENDBLK
  5
21
330
1F
100
AcDbEntity
  8
0
100
AcDbBlockEnd
  0
BLOCK
  5
1C
330
1B
100
AcDbEntity
 67
     1
  8
0
100
AcDbBlockBegin
  2
*PAPER_SPACE
  1

  0
ENDBLK
  5
1D
330
1B
100
AcDbEntity
 67
     1
  8
0
100
AcDbBlockEnd
  0
ENDSEC
  0
SECTION
  2
ENTITIES
  0
SPLINE
  5
100
100
AcDbEntity
  8
DEFAULT
 62
7
100
AcDbSpline
 70
8
 71
3
 72
8
 73
4
 74
0
 40
0
 40
0
 40
0
 40
0
 40
1
 40
1
 40
1
 40
1
 10
347.184698
 20
581.880581
 30
0.0
 10
334.173689
 20
581.880581
 30
0.0
 10
326.517226
 20
581.880581
 30
0.0
 10
322.013185
 20
580.829586
 30
0.0
  0
SPLINE
  5
101
100
AcDbEntity
  8
DEFAULT
 62
7
100
AcDbSpline
 70
8
 71
3
 72
8
 73
4
 74
0
 40
0
 40
0
 40
0
 40
0
 40
1
 40
1
 40
1
 40
1
 10
322.013185
 20
580.829586
 30
0.0
 10
318.309837
 20
579.970501
 30
0.0
 10
316.913316
 20
578.155177
 30
0.0
 10
315.578377
 20
576.244956
 30
0.0
  0
SPLINE
  5
102
100
AcDbEntity
  8
DEFAULT
 62
7
100
AcDbSpline
 70
8
 71
3
 72
8
 73
4
 74
0
 40
0
 40
0
 40
0
 40
0
 40
1
 40
1
 40
1
 40
1
 10
315.578377
 20
576.244956
 30
0.0
 10
314.243522
 20
574.334580
 30
0.0
 10
312.845055
 20
572.519865
 30
0.0
 10
309.139392
 20
571.660338
 30
0.0
  0
SPLINE
  5
103
100
AcDbEntity
  8
DEFAULT
 62
7
100
AcDbSpline
 70
8
 71
3
 72
8
 73
4
 74
0
 40
0
 40
0
 40
0
 40
0
 40
1
 40
1
 40
1
 40
1
 10
309.139392
 20
571.660338
 30
0.0
 10
304.636368
 20
570.609328
 30
0.0
 10
296.984081
 20
570.609328
 30
0.0
 10
283.984531
 20
570.609328
 30
0.0
  0
SPLINE
  5
104
100
AcDbEntity
  8
DEFAULT
 62
7
100
AcDbSpline
 70
8
 71
3
 72
8
 73
4
 74
0
 40
0
 40
0
 40
0
 40
0
 40
1
 40
1
 40
1
 40
1
 10
220.730304
 20
581.880581
 30
0.0
 10
207.719295
 20
581.880581
 30
0.0
 10
200.063848
 20
581.880581
 30
0.0
 10
195.562940
 20
580.829586
 30
0.0
  0
SPLINE
  5
105
100
AcDbEntity
  8
DEFAULT
 62
7
100
AcDbSpline
 70
8
 71
3
 72
8
 73
4
 74
0
 40
0
 40
0
 40
0
 40
0
 40
1
 40
1
 40
1
 40
1
 10
195.562940
 20
580.829586
 30
0.0
 10
191.864813
 20
579.970501
 30
0.0
 10
190.475602
 20
578.155177
 30
0.0
 10
189.149948
 20
576.244956
 30
0.0
  0
SPLINE
  5
106
100
AcDbEntity
  8
DEFAULT
 62
7
100
AcDbSpline
 70
8
 71
3
 72
8
 73
4
 74
0
 40
0
 40
0
 40
0
 40
0
 40
1
 40
1
 40
1
 40
1
 10
189.149948
 20
576.244956
 30
0.0
 10
187.824265
 20
574.334580
 30
0.0
 10
186.435309
 20
572.519865
 30
0.0
 10
182.732835
 20
571.660338
 30
0.0
  0
SPLINE
  5
107
100
AcDbEntity
  8
DEFAULT
 62
7
100
AcDbSpline
 70
8
 71
3
 72
8
 73
4
 74
0
 40
0
 40
0
 40
0
 40
0
 40
1
 40
1
 40
1
 40
1
 10
182.732835
 20
571.660338
 30
0.0
 10
178.236076
 20
570.609328
 30
0.0
 10
170.583761
 20
570.609328
 30
0.0
 10
157.583138
 20
570.609328
 30
0.0
  0
SPLINE
  5
108
100
AcDbEntity
  8
DEFAULT
 62
7
100
AcDbSpline
 70
8
 71
3
 72
8
 73
4
 74
0
 40
0
 40
0
 40
0
 40
0
 40
1
 40
1
 40
1
 40
1
 10
204.862190
 20
593.160636
 30
0.0
 10
219.366183
 20
593.160636
 30
0.0
 10
233.872264
 20
593.160636
 30
0.0
 10
242.285675
 20
590.247567
 30
0.0
  0
SPLINE
  5
109
100
AcDbEntity
  8
DEFAULT
 62
7
100
AcDbSpline
 70
8
 71
3
 72
8
 73
4
 74
0
 40
0
 40
0
 40
0
 40
0
 40
1
 40
1
 40
1
 40
1
 10
242.285675
 20
590.247567
 30
0.0
 10
247.183811
 20
588.576021
 30
0.0
 10
249.684244
 20
585.710619
 30
0.0
 10
251.396712
 20
582.692422
 30
0.0
  0
SPLINE
  5
10a
100
AcDbEntity
  8
DEFAULT
 62
7
100
AcDbSpline
 70
8
 71
3
 72
8
 73
4
 74
0
 40
0
 40
0
 40
0
 40
0
 40
1
 40
1
 40
1
 40
1
 10
251.396712
 20
582.692422
 30
0.0
 10
252.987260
 20
579.922693
 30
0.0
 10
253.950399
 20
577.019055
 30
0.0
 10
255.730262
 20
574.965476
 30
0.0
  0
SPLINE
  5
10b
100
AcDbEntity
  8
DEFAULT
 62
7
100
AcDbSpline
 70
8
 71
3
 72
8
 73
4
 74
0
 40
0
 40
0
 40
0
 40
0
 40
1
 40
1
 40
1
 40
1
 10
255.730262
 20
574.965476
 30
0.0
 10
259.502388
 20
570.619714
 30
0.0
 10
267.358467
 20
570.571863
 30
0.0
 10
283.984531
 20
570.571863
 30
0.0
  0
SPLINE
  5
10c
100
AcDbEntity
  8
DEFAULT
 62
7
100
AcDbSpline
 70
8
 71
3
 72
8
 73
4
 74
0
 40
0
 40
0
 40
0
 40
0
 40
1
 40
1
 40
1
 40
1
 10
94.274852
 20
581.880581
 30
0.0
 10
81.264859
 20
581.880581
 30
0.0
 10
73.609440
 20
581.880581
 30
0.0
 10
69.114769
 20
580.829586
 30
0.0
  0
SPLINE
  5
10d
100
AcDbEntity
  8
DEFAULT
 62
7
100
AcDbSpline
 70
8
 71
3
 72
8
 73
4
 74
0
 40
0
 40
0
 40
0
 40
0
 40
1
 40
1
 40
1
 40
1
 10
69.114769
 20
580.829586
 30
0.0
 10
65.418307
 20
579.970501
 30
0.0
 10
64.038861
 20
578.155177
 30
0.0
 10
62.721504
 20
576.244956
 30
0.0
  0
SPLINE
  5
10e
100
AcDbEntity
  8
DEFAULT
 62
7
100
AcDbSpline
 70
8
 71
3
 72
8
 73
4
 74
0
 40
0
 40
0
 40
0
 40
0
 40
1
 40
1
 40
1
 40
1
 10
62.721504
 20
576.244956
 30
0.0
 10
61.405361
 20
574.334580
 30
0.0
 10
60.025492
 20
572.519865
 30
0.0
 10
56.328352
 20
571.660338
 30
0.0
  0
SPLINE
  5
10f
100
AcDbEntity
  8
DEFAULT
 62
7
100
AcDbSpline
 70
8
 71
3
 72
8
 73
4
 74
0
 40
0
 40
0
 40
0
 40
0
 40
1
 40
1
 40
1
 40
1
 10
56.328352
 20
571.660338
 30
0.0
 10
51.834697
 20
570.609328
 30
0.0
 10
44.183427
 20
570.609328
 30
0.0
 10
31.182804
 20
570.609328
 30
0.0
  0
SPLINE
  5
110
100
AcDbEntity
  8
DEFAULT
 62
7
100
AcDbSpline
 70
8
 71
3
 72
8
 73
4
 74
0
 40
0
 40
0
 40
0
 40
0
 40
1
 40
1
 40
1
 40
1
 10
78.351563
 20
593.160636
 30
0.0
 10
92.856629
 20
593.160636
 30
0.0
 10
107.362766
 20
593.160636
 30
0.0
 10
115.789668
 20
590.247567
 30
0.0
  0
SPLINE
  5
111
100
AcDbEntity
  8
DEFAULT
 62
7
100
AcDbSpline
 70
8
 71
3
 72
8
 73
4
 74
0
 40
0
 40
0
 40
0
 40
0
 40
1
 40
1
 40
1
 40
1
 10
115.789668
 20
590.247567
 30
0.0
 10
120.697117
 20
588.576021
 30
0.0
 10
123.212169
 20
585.710619
 30
0.0
 10
124.938127
 20
582.692422
 30
0.0
  0
SPLINE
  5
112
100
AcDbEntity
  8
DEFAULT
 62
7
100
AcDbSpline
 70
8
 71
3
 72
8
 73
4
 74
0
 40
0
 40
0
 40
0
 40
0
 40
1
 40
1
 40
1
 40
1
 10
124.938127
 20
582.692422
 30
0.0
 10
126.543407
 20
579.922693
 30
0.0
 10
127.518626
 20
577.019055
 30
0.0
 10
129.308056
 20
574.965476
 30
0.0
  0
SPLINE
  5
113
100
AcDbEntity
  8
DEFAULT
 62
7
100
AcDbSpline
 70
8
 71
3
 72
8
 73
4
 74
0
 40
0
 40
0
 40
0
 40
0
 40
1
 40
1
 40
1
 40
1
 10
129.308056
 20
574.965476
 30
0.0
 10
133.100925
 20
570.619714
 30
0.0
 10
140.957060
 20
570.571863
 30
0.0
 10
157.583138
 20
570.571863
 30
0.0
  0
SPLINE
  5
114
100
AcDbEntity
  8
DEFAULT
 62
7
100
AcDbSpline
 70
8
 71
3
 72
8
 73
4
 74
0
 40
0
 40
0
 40
0
 40
0
 40
1
 40
1
 40
1
 40
1
 10
347.184698
 20
604.445518
 30
0.0
 10
334.165335
 20
604.445518
 30
0.0
 10
326.502663
 20
604.445518
 30
0.0
 10
321.995490
 20
603.394522
 30
0.0
  0
SPLINE
  5
115
100
AcDbEntity
  8
DEFAULT
 62
7
100
AcDbSpline
 70
8
 71
3
 72
8
 73
4
 74
0
 40
0
 40
0
 40
0
 40
0
 40
1
 40
1
 40
1
 40
1
 10
321.995490
 20
603.394522
 30
0.0
 10
318.289150
 20
602.535438
 30
0.0
 10
316.889440
 20
600.720269
 30
0.0
 10
315.552413
 20
598.809879
 30
0.0
  0
SPLINE
  5
116
100
AcDbEntity
  8
DEFAULT
 62
7
100
AcDbSpline
 70
8
 71
3
 72
8
 73
4
 74
0
 40
0
 40
0
 40
0
 40
0
 40
1
 40
1
 40
1
 40
1
 10
315.552413
 20
598.809879
 30
0.0
 10
314.216316
 20
596.899686
 30
0.0
 10
312.816974
 20
595.084969
 30
0.0
 10
309.107134
 20
594.225433
 30
0.0
  0
SPLINE
  5
117
100
AcDbEntity
  8
DEFAULT
 62
7
100
AcDbSpline
 70
8
 71
3
 72
8
 73
4
 74
0
 40
0
 40
0
 40
0
 40
0
 40
1
 40
1
 40
1
 40
1
 10
309.107134
 20
594.225433
 30
0.0
 10
304.600017
 20
593.174409
 30
0.0
 10
296.940450
 20
593.174409
 30
0.0
 10
283.929413
 20
593.174409
 30
0.0
  0
SPLINE
  5
118
100
AcDbEntity
  8
DEFAULT
 62
7
100
AcDbSpline
 70
8
 71
3
 72
8
 73
4
 74
0
 40
0
 40
0
 40
0
 40
0
 40
1
 40
1
 40
1
 40
1
 10
220.637791
 20
604.445518
 30
0.0
 10
207.618457
 20
604.445518
 30
0.0
 10
199.956773
 20
604.445518
 30
0.0
 10
195.452732
 20
603.394522
 30
0.0
  0
SPLINE
  5
119
100
AcDbEntity
  8
DEFAULT
 62
7
100
AcDbSpline
 70
8
 71
3
 72
8
 73
4
 74
0
 40
0
 40
0
 40
0
 40
0
 40
1
 40
1
 40
1
 40
1
 10
195.452732
 20
603.394522
 30
0.0
 10
191.747239
 20
602.535438
 30
0.0
 10
190.355037
 20
600.720269
 30
0.0
 10
189.025205
 20
598.809879
 30
0.0
  0
SPLINE
  5
11a
100
AcDbEntity
  8
DEFAULT
 62
7
100
AcDbSpline
 70
8
 71
3
 72
8
 73
4
 74
0
 40
0
 40
0
 40
0
 40
0
 40
1
 40
1
 40
1
 40
1
 10
189.025205
 20
598.809879
 30
0.0
 10
187.693371
 20
596.899686
 30
0.0
 10
186.300209
 20
595.084969
 30
0.0
 10
182.593474
 20
594.225433
 30
0.0
  0
SPLINE
  5
11b
100
AcDbEntity
  8
DEFAULT
 62
7
100
AcDbSpline
 70
8
 71
3
 72
8
 73
4
 74
0
 40
0
 40
0
 40
0
 40
0
 40
1
 40
1
 40
1
 40
1
 10
182.593474
 20
594.225433
 30
0.0
 10
178.090534
 20
593.174409
 30
0.0
 10
170.431926
 20
593.174409
 30
0.0
 10
157.420945
 20
593.174409
 30
0.0
  0
SPLINE
  5
11c
100
AcDbEntity
  8
DEFAULT
 62
7
100
AcDbSpline
 70
8
 71
3
 72
8
 73
4
 74
0
 40
0
 40
0
 40
0
 40
0
 40
1
 40
1
 40
1
 40
1
 10
204.777919
 20
615.730399
 30
0.0
 10
219.290293
 20
615.730399
 30
0.0
 10
233.803684
 20
615.730399
 30
0.0
 10
242.220200
 20
612.817301
 30
0.0
  0
SPLINE
  5
11d
100
AcDbEntity
  8
DEFAULT
 62
7
100
AcDbSpline
 70
8
 71
3
 72
8
 73
4
 74
0
 40
0
 40
0
 40
0
 40
0
 40
1
 40
1
 40
1
 40
1
 10
242.220200
 20
612.817301
 30
0.0
 10
247.119323
 20
611.145756
 30
0.0
 10
249.618768
 20
608.280353
 30
0.0
 10
251.328075
 20
605.262156
 30
0.0
  0
SPLINE
  5
11e
100
AcDbEntity
  8
DEFAULT
 62
7
100
AcDbSpline
 70
8
 71
3
 72
8
 73
4
 74
0
 40
0
 40
0
 40
0
 40
0
 40
1
 40
1
 40
1
 40
1
 10
251.328075
 20
605.262156
 30
0.0
 10
252.916902
 20
602.492286
 30
0.0
 10
253.877501
 20
599.583986
 30
0.0
 10
255.656405
 20
597.535222
 30
0.0
  0
SPLINE
  5
11f
100
AcDbEntity
  8
DEFAULT
 62
7
100
AcDbSpline
 70
8
 71
3
 72
8
 73
4
 74
0
 40
0
 40
0
 40
0
 40
0
 40
1
 40
1
 40
1
 40
1
 10
255.656405
 20
597.535222
 30
0.0
 10
259.425482
 20
593.189310
 30
0.0
 10
267.289802
 20
593.141615
 30
0.0
 10
283.929413
 20
593.141615
 30
0.0
  0
SPLINE
  5
120
100
AcDbEntity
  8
DEFAULT
 62
7
100
AcDbSpline
 70
8
 71
3
 72
8
 73
4
 74
0
 40
0
 40
0
 40
0
 40
0
 40
1
 40
1
 40
1
 40
1
 10
94.090815
 20
604.445518
 30
0.0
 10
81.070492
 20
604.445518
 30
0.0
 10
73.409852
 20
604.445518
 30
0.0
 10
68.909932
 20
603.394522
 30
0.0
  0
SPLINE
  5
121
100
AcDbEntity
  8
DEFAULT
 62
7
100
AcDbSpline
 70
8
 71
3
 72
8
 73
4
 74
0
 40
0
 40
0
 40
0
 40
0
 40
1
 40
1
 40
1
 40
1
 10
68.909932
 20
603.394522
 30
0.0
 10
65.207487
 20
602.535438
 30
0.0
 10
63.820534
 20
600.720269
 30
0.0
 10
62.496940
 20
598.809879
 30
0.0
  0
SPLINE
  5
122
100
AcDbEntity
  8
DEFAULT
 62
7
100
AcDbSpline
 70
8
 71
3
 72
8
 73
4
 74
0
 40
0
 40
0
 40
0
 40
0
 40
1
 40
1
 40
1
 40
1
 10
62.496940
 20
598.809879
 30
0.0
 10
61.172499
 20
596.899686
 30
0.0
 10
59.785377
 20
595.084969
 30
0.0
 10
56.080815
 20
594.225433
 30
0.0
  0
SPLINE
  5
123
100
AcDbEntity
  8
DEFAULT
 62
7
100
AcDbSpline
 70
8
 71
3
 72
8
 73
4
 74
0
 40
0
 40
0
 40
0
 40
0
 40
1
 40
1
 40
1
 40
1
 10
56.080815
 20
594.225433
 30
0.0
 10
51.580951
 20
593.174409
 30
0.0
 10
43.922428
 20
593.174409
 30
0.0
 10
30.911447
 20
593.174409
 30
0.0
  0
SPLINE
  5
124
100
AcDbEntity
  8
DEFAULT
 62
7
100
AcDbSpline
 70
8
 71
3
 72
8
 73
4
 74
0
 40
0
 40
0
 40
0
 40
0
 40
1
 40
1
 40
1
 40
1
 10
78.194563
 20
615.730399
 30
0.0
 10
92.706966
 20
615.730399
 30
0.0
 10
107.220357
 20
615.730399
 30
0.0
 10
115.645142
 20
612.817301
 30
0.0
  0
SPLINE
  5
125
100
AcDbEntity
  8
DEFAULT
 62
7
100
AcDbSpline
 70
8
 71
3
 72
8
 73
4
 74
0
 40
0
 40
0
 40
0
 40
0
 40
1
 40
1
 40
1
 40
1
 10
115.645142
 20
612.817301
 30
0.0
 10
120.550531
 20
611.145756
 30
0.0
 10
123.059373
 20
608.280353
 30
0.0
 10
124.779123
 20
605.262156
 30
0.0
  0
SPLINE
  5
126
100
AcDbEntity
  8
DEFAULT
 62
7
100
AcDbSpline
 70
8
 71
3
 72
8
 73
4
 74
0
 40
0
 40
0
 40
0
 40
0
 40
1
 40
1
 40
1
 40
1
 10
124.779123
 20
605.262156
 30
0.0
 10
126.376952
 20
602.492286
 30
0.0
 10
127.346188
 20
599.583986
 30
0.0
 10
129.132344
 20
597.535222
 30
0.0
  0
SPLINE
  5
127
100
AcDbEntity
  8
DEFAULT
 62
7
100
AcDbSpline
 70
8
 71
3
 72
8
 73
4
 74
0
 40
0
 40
0
 40
0
 40
0
 40
1
 40
1
 40
1
 40
1
 10
129.132344
 20
597.535222
 30
0.0
 10
132.915674
 20
593.189310
 30
0.0
 10
140.779232
 20
593.141615
 30
0.0
 10
157.420945
 20
593.141615
 30
0.0
  0
SPLINE
  5
128
100
AcDbEntity
  8
DEFAULT
 62
7
100
AcDbSpline
 70
8
 71
3
 72
8
 73
4
 74
0
 40
0
 40
0
 40
0
 40
0
 40
1
 40
1
 40
1
 40
1
 10
347.184698
 20
627.010454
 30
0.0
 10
334.159098
 20
627.010454
 30
0.0
 10
326.493322
 20
627.010454
 30
0.0
 10
321.983044
 20
625.959459
 30
0.0
  0
SPLINE
  5
129
100
AcDbEntity
  8
DEFAULT
 62
7
100
AcDbSpline
 70
8
 71
3
 72
8
 73
4
 74
0
 40
0
 40
0
 40
0
 40
0
 40
1
 40
1
 40
1
 40
1
 10
321.983044
 20
625.959459
 30
0.0
 10
318.274502
 20
625.100374
 30
0.0
 10
316.873805
 20
623.285206
 30
0.0
 10
315.534661
 20
621.374815
 30
0.0
  0
SPLINE
  5
12a
100
AcDbEntity
  8
DEFAULT
 62
7
100
AcDbSpline
 70
8
 71
3
 72
8
 73
4
 74
0
 40
0
 40
0
 40
0
 40
0
 40
1
 40
1
 40
1
 40
1
 10
315.534661
 20
621.374815
 30
0.0
 10
314.196363
 20
619.464622
 30
0.0
 10
312.796230
 20
617.649905
 30
0.0
 10
309.083230
 20
616.790228
 30
0.0
  0
SPLINE
  5
12b
100
AcDbEntity
  8
DEFAULT
 62
7
100
AcDbSpline
 70
8
 71
3
 72
8
 73
4
 74
0
 40
0
 40
0
 40
0
 40
0
 40
1
 40
1
 40
1
 40
1
 10
309.083230
 20
616.790228
 30
0.0
 10
304.573996
 20
615.739204
 30
0.0
 10
296.911268
 20
615.739204
 30
0.0
 10
283.893006
 20
615.739204
 30
0.0
  0
SPLINE
  5
12c
100
AcDbEntity
  8
DEFAULT
 62
7
100
AcDbSpline
 70
8
 71
3
 72
8
 73
4
 74
0
 40
0
 40
0
 40
0
 40
0
 40
1
 40
1
 40
1
 40
1
 10
220.577424
 20
627.010454
 30
0.0
 10
207.549792
 20
627.010454
 30
0.0
 10
199.883959
 20
627.010454
 30
0.0
 10
195.376814
 20
625.959459
 30
0.0
  0
SPLINE
  5
12d
100
AcDbEntity
  8
DEFAULT
 62
7
100
AcDbSpline
 70
8
 71
3
 72
8
 73
4
 74
0
 40
0
 40
0
 40
0
 40
0
 40
1
 40
1
 40
1
 40
1
 10
195.376814
 20
625.959459
 30
0.0
 10
191.669233
 20
625.100374
 30
0.0
 10
190.273898
 20
623.285206
 30
0.0
 10
188.938874
 20
621.374815
 30
0.0
  0
SPLINE
  5
12e
100
AcDbEntity
  8
DEFAULT
 62
7
100
AcDbSpline
 70
8
 71
3
 72
8
 73
4
 74
0
 40
0
 40
0
 40
0
 40
0
 40
1
 40
1
 40
1
 40
1
 10
188.938874
 20
621.374815
 30
0.0
 10
187.604922
 20
619.464622
 30
0.0
 10
186.208656
 20
617.649905
 30
0.0
 10
182.498929
 20
616.790228
 30
0.0
  0
SPLINE
  5
12f
100
AcDbEntity
  8
DEFAULT
 62
7
100
AcDbSpline
 70
8
 71
3
 72
8
 73
4
 74
0
 40
0
 40
0
 40
0
 40
0
 40
1
 40
1
 40
1
 40
1
 10
182.498929
 20
616.790228
 30
0.0
 10
177.990683
 20
615.739204
 30
0.0
 10
170.328011
 20
615.739204
 30
0.0
 10
157.307633
 20
615.739204
 30
0.0
  0
SPLINE
  5
130
100
AcDbEntity
  8
DEFAULT
 62
7
100
AcDbSpline
 70
8
 71
3
 72
8
 73
4
 74
0
 40
0
 40
0
 40
0
 40
0
 40
1
 40
1
 40
1
 40
1
 10
204.723873
 20
638.295308
 30
0.0
 10
219.241441
 20
638.295308
 30
0.0
 10
233.761012
 20
638.295308
 30
0.0
 10
242.177556
 20
635.382097
 30
0.0
  0
SPLINE
  5
131
100
AcDbEntity
  8
DEFAULT
 62
7
100
AcDbSpline
 70
8
 71
3
 72
8
 73
4
 74
0
 40
0
 40
0
 40
0
 40
0
 40
1
 40
1
 40
1
 40
1
 10
242.177556
 20
635.382097
 30
0.0
 10
247.075664
 20
633.710692
 30
0.0
 10
249.575137
 20
630.845290
 30
0.0
 10
251.282383
 20
627.822295
 30
0.0
  0
SPLINE
  5
132
100
AcDbEntity
  8
DEFAULT
 62
7
100
AcDbSpline
 70
8
 71
3
 72
8
 73
4
 74
0
 40
0
 40
0
 40
0
 40
0
 40
1
 40
1
 40
1
 40
1
 10
251.282383
 20
627.822295
 30
0.0
 10
252.871182
 20
625.052397
 30
0.0
 10
253.827407
 20
622.148923
 30
0.0
 10
255.605266
 20
620.095361
 30
0.0
  0
SPLINE
  5
133
100
AcDbEntity
  8
DEFAULT
 62
7
100
AcDbSpline
 70
8
 71
3
 72
8
 73
4
 74
0
 40
0
 40
0
 40
0
 40
0
 40
1
 40
1
 40
1
 40
1
 10
255.605266
 20
620.095361
 30
0.0
 10
259.373102
 20
615.749421
 30
0.0
 10
267.241768
 20
615.701754
 30
0.0
 10
283.892837
 20
615.701754
 30
0.0
  0
SPLINE
  5
134
100
AcDbEntity
  8
DEFAULT
 62
7
100
AcDbSpline
 70
8
 71
3
 72
8
 73
4
 74
0
 40
0
 40
0
 40
0
 40
0
 40
1
 40
1
 40
1
 40
1
 10
93.967088
 20
627.010454
 30
0.0
 10
80.941517
 20
627.010454
 30
0.0
 10
73.276785
 20
627.010454
 30
0.0
 10
68.770655
 20
625.959459
 30
0.0
  0
SPLINE
  5
135
100
AcDbEntity
  8
DEFAULT
 62
7
100
AcDbSpline
 70
8
 71
3
 72
8
 73
4
 74
0
 40
0
 40
0
 40
0
 40
0
 40
1
 40
1
 40
1
 40
1
 10
68.770655
 20
625.959459
 30
0.0
 10
65.066037
 20
625.100374
 30
0.0
 10
63.673919
 20
623.285206
 30
0.0
 10
62.344145
 20
621.374815
 30
0.0
  0
SPLINE
  5
136
100
AcDbEntity
  8
DEFAULT
 62
7
100
AcDbSpline
 70
8
 71
3
 72
8
 73
4
 74
0
 40
0
 40
0
 40
0
 40
0
 40
1
 40
1
 40
1
 40
1
 10
62.344145
 20
621.374815
 30
0.0
 10
61.013298
 20
619.464622
 30
0.0
 10
59.621293
 20
617.649905
 30
0.0
 10
55.912441
 20
616.790228
 30
0.0
  0
SPLINE
  5
137
100
AcDbEntity
  8
DEFAULT
 62
7
100
AcDbSpline
 70
8
 71
3
 72
8
 73
4
 74
0
 40
0
 40
0
 40
0
 40
0
 40
1
 40
1
 40
1
 40
1
 10
55.912441
 20
616.790228
 30
0.0
 10
51.406284
 20
615.739204
 30
0.0
 10
43.743612
 20
615.739204
 30
0.0
 10
30.724277
 20
615.739204
 30
0.0
  0
SPLINE
  5
138
100
AcDbEntity
  8
DEFAULT
 62
7
100
AcDbSpline
 70
8
 71
3
 72
8
 73
4
 74
0
 40
0
 40
0
 40
0
 40
0
 40
1
 40
1
 40
1
 40
1
 10
78.090649
 20
638.295308
 30
0.0
 10
92.609176
 20
638.295308
 30
0.0
 10
107.127788
 20
638.295308
 30
0.0
 10
115.551557
 20
635.382097
 30
0.0
  0
SPLINE
  5
139
100
AcDbEntity
  8
DEFAULT
 62
7
100
AcDbSpline
 70
8
 71
3
 72
8
 73
4
 74
0
 40
0
 40
0
 40
0
 40
0
 40
1
 40
1
 40
1
 40
1
 10
115.551557
 20
635.382097
 30
0.0
 10
120.452741
 20
633.710692
 30
0.0
 10
122.958535
 20
630.845290
 30
0.0
 10
124.671963
 20
627.822295
 30
0.0
  0
SPLINE
  5
13a
100
AcDbEntity
  8
DEFAULT
 62
7
100
AcDbSpline
 70
8
 71
3
 72
8
 73
4
 74
0
 40
0
 40
0
 40
0
 40
0
 40
1
 40
1
 40
1
 40
1
 10
124.671963
 20
627.822295
 30
0.0
 10
126.265982
 20
625.052397
 30
0.0
 10
127.229574
 20
622.148923
 30
0.0
 10
129.011779
 20
620.095361
 30
0.0
  0
SPLINE
  5
13b
100
AcDbEntity
  8
DEFAULT
 62
7
100
AcDbSpline
 70
8
 71
3
 72
8
 73
4
 74
0
 40
0
 40
0
 40
0
 40
0
 40
1
 40
1
 40
1
 40
1
 10
129.011779
 20
620.095361
 30
0.0
 10
132.789069
 20
615.749421
 30
0.0
 10
140.658610
 20
615.701754
 30
0.0
 10
157.307633
 20
615.701754
 30
0.0
  0
SPLINE
  5
13c
100
AcDbEntity
  8
DEFAULT
 62
7
100
AcDbSpline
 70
8
 71
3
 72
8
 73
4
 74
0
 40
0
 40
0
 40
0
 40
0
 40
1
 40
1
 40
1
 40
1
 10
347.184698
 20
649.580189
 30
0.0
 10
334.153962
 20
649.580189
 30
0.0
 10
326.486068
 20
649.580189
 30
0.0
 10
321.974746
 20
648.529193
 30
0.0
  0
SPLINE
  5
13d
100
AcDbEntity
  8
DEFAULT
 62
7
100
AcDbSpline
 70
8
 71
3
 72
8
 73
4
 74
0
 40
0
 40
0
 40
0
 40
0
 40
1
 40
1
 40
1
 40
1
 10
321.974746
 20
648.529193
 30
0.0
 10
318.264907
 20
647.670109
 30
0.0
 10
316.863476
 20
645.854771
 30
0.0
 10
315.524332
 20
643.944550
 30
0.0
  0
SPLINE
  5
13e
100
AcDbEntity
  8
DEFAULT
 62
7
100
AcDbSpline
 70
8
 71
3
 72
8
 73
4
 74
0
 40
0
 40
0
 40
0
 40
0
 40
1
 40
1
 40
1
 40
1
 10
315.524332
 20
643.944550
 30
0.0
 10
314.186006
 20
642.034329
 30
0.0
 10
312.783700
 20
640.219612
 30
0.0
 10
309.070756
 20
639.359934
 30
0.0
  0
SPLINE
  5
13f
100
AcDbEntity
  8
DEFAULT
 62
7
100
AcDbSpline
 70
8
 71
3
 72
8
 73
4
 74
0
 40
0
 40
0
 40
0
 40
0
 40
1
 40
1
 40
1
 40
1
 10
309.070756
 20
639.359934
 30
0.0
 10
304.558418
 20
638.308939
 30
0.0
 10
296.892585
 20
638.308939
 30
0.0
 10
283.868086
 20
638.308939
 30
0.0
  0
SPLINE
  5
140
100
AcDbEntity
  8
DEFAULT
 62
7
100
AcDbSpline
 70
8
 71
3
 72
8
 73
4
 74
0
 40
0
 40
0
 40
0
 40
0
 40
1
 40
1
 40
1
 40
1
 10
220.536953
 20
649.580189
 30
0.0
 10
207.507205
 20
649.580189
 30
0.0
 10
199.839284
 20
649.580189
 30
0.0
 10
195.328977
 20
648.529193
 30
0.0
  0
SPLINE
  5
141
100
AcDbEntity
  8
DEFAULT
 62
7
100
AcDbSpline
 70
8
 71
3
 72
8
 73
4
 74
0
 40
0
 40
0
 40
0
 40
0
 40
1
 40
1
 40
1
 40
1
 10
195.328977
 20
648.529193
 30
0.0
 10
191.620465
 20
647.670109
 30
0.0
 10
190.220896
 20
645.854771
 30
0.0
 10
188.884828
 20
643.944550
 30
0.0
  0
SPLINE
  5
142
100
AcDbEntity
  8
DEFAULT
 62
7
100
AcDbSpline
 70
8
 71
3
 72
8
 73
4
 74
0
 40
0
 40
0
 40
0
 40
0
 40
1
 40
1
 40
1
 40
1
 10
188.884828
 20
643.944550
 30
0.0
 10
187.547800
 20
642.034329
 30
0.0
 10
186.148119
 20
640.219612
 30
0.0
 10
182.435486
 20
639.359934
 30
0.0
  0
SPLINE
  5
143
100
AcDbEntity
  8
DEFAULT
 62
7
100
AcDbSpline
 70
8
 71
3
 72
8
 73
4
 74
0
 40
0
 40
0
 40
0
 40
0
 40
1
 40
1
 40
1
 40
1
 10
182.435486
 20
639.359934
 30
0.0
 10
177.925208
 20
638.308939
 30
0.0
 10
170.259375
 20
638.308939
 30
0.0
 10
157.234848
 20
638.308939
 30
0.0
  0
SPLINE
  5
144
100
AcDbEntity
  8
DEFAULT
 62
7
100
AcDbSpline
 70
8
 71
3
 72
8
 73
4
 74
0
 40
0
 40
0
 40
0
 40
0
 40
1
 40
1
 40
1
 40
1
 10
204.689527
 20
660.864901
 30
0.0
 10
219.211243
 20
660.864901
 30
0.0
 10
233.734003
 20
660.864901
 30
0.0
 10
242.150519
 20
657.951831
 30
0.0
  0
SPLINE
  5
145
100
AcDbEntity
  8
DEFAULT
 62
7
100
AcDbSpline
 70
8
 71
3
 72
8
 73
4
 74
0
 40
0
 40
0
 40
0
 40
0
 40
1
 40
1
 40
1
 40
1
 10
242.150519
 20
657.951831
 30
0.0
 10
247.049671
 20
656.280286
 30
0.0
 10
249.547027
 20
653.415024
 30
0.0
 10
251.253258
 20
650.396686
 30
0.0
  0
SPLINE
  5
146
100
AcDbEntity
  8
DEFAULT
 62
7
100
AcDbSpline
 70
8
 71
3
 72
8
 73
4
 74
0
 40
0
 40
0
 40
0
 40
0
 40
1
 40
1
 40
1
 40
1
 10
251.253258
 20
650.396686
 30
0.0
 10
252.839883
 20
647.626929
 30
0.0
 10
253.796532
 20
644.723286
 30
0.0
 10
255.573121
 20
642.669724
 30
0.0
  0
SPLINE
  5
147
100
AcDbEntity
  8
DEFAULT
 62
7
100
AcDbSpline
 70
8
 71
3
 72
8
 73
4
 74
0
 40
0
 40
0
 40
0
 40
0
 40
1
 40
1
 40
1
 40
1
 10
255.573121
 20
642.669724
 30
0.0
 10
259.340054
 20
638.323953
 30
0.0
 10
267.211711
 20
638.276116
 30
0.0
 10
283.867916
 20
638.276116
 30
0.0
  0
SPLINE
  5
148
100
AcDbEntity
  8
DEFAULT
 62
7
100
AcDbSpline
 70
8
 71
3
 72
8
 73
4
 74
0
 40
0
 40
0
 40
0
 40
0
 40
1
 40
1
 40
1
 40
1
 10
93.889082
 20
649.580189
 30
0.0
 10
80.859418
 20
649.580189
 30
0.0
 10
73.191441
 20
649.580189
 30
0.0
 10
68.682207
 20
648.529193
 30
0.0
  0
SPLINE
  5
149
100
AcDbEntity
  8
DEFAULT
 62
7
100
AcDbSpline
 70
8
 71
3
 72
8
 73
4
 74
0
 40
0
 40
0
 40
0
 40
0
 40
1
 40
1
 40
1
 40
1
 10
68.682207
 20
648.529193
 30
0.0
 10
64.974569
 20
647.670109
 30
0.0
 10
63.578246
 20
645.854771
 30
0.0
 10
62.244323
 20
643.944550
 30
0.0
  0
SPLINE
  5
14a
100
AcDbEntity
  8
DEFAULT
 62
7
100
AcDbSpline
 70
8
 71
3
 72
8
 73
4
 74
0
 40
0
 40
0
 40
0
 40
0
 40
1
 40
1
 40
1
 40
1
 10
62.244323
 20
643.944550
 30
0.0
 10
60.910343
 20
642.034329
 30
0.0
 10
59.512807
 20
640.219612
 30
0.0
 10
55.802290
 20
639.359934
 30
0.0
  0
SPLINE
  5
14b
100
AcDbEntity
  8
DEFAULT
 62
7
100
AcDbSpline
 70
8
 71
3
 72
8
 73
4
 74
0
 40
0
 40
0
 40
0
 40
0
 40
1
 40
1
 40
1
 40
1
 10
55.802290
 20
639.359934
 30
0.0
 10
51.292972
 20
638.308939
 30
0.0
 10
43.626123
 20
638.308939
 30
0.0
 10
30.602583
 20
638.308939
 30
0.0
  0
SPLINE
  5
14c
100
AcDbEntity
  8
DEFAULT
 62
7
100
AcDbSpline
 70
8
 71
3
 72
8
 73
4
 74
0
 40
0
 40
0
 40
0
 40
0
 40
1
 40
1
 40
1
 40
1
 10
78.027205
 20
660.864901
 30
0.0
 10
92.547849
 20
660.864901
 30
0.0
 10
107.070666
 20
660.864901
 30
0.0
 10
115.491246
 20
657.951831
 30
0.0
  0
SPLINE
  5
14d
100
AcDbEntity
  8
DEFAULT
 62
7
100
AcDbSpline
 70
8
 71
3
 72
8
 73
4
 74
0
 40
0
 40
0
 40
0
 40
0
 40
1
 40
1
 40
1
 40
1
 10
115.491246
 20
657.951831
 30
0.0
 10
120.393587
 20
656.280286
 30
0.0
 10
122.894076
 20
653.415024
 30
0.0
 10
124.604399
 20
650.396686
 30
0.0
  0
SPLINE
  5
14e
100
AcDbEntity
  8
DEFAULT
 62
7
100
AcDbSpline
 70
8
 71
3
 72
8
 73
4
 74
0
 40
0
 40
0
 40
0
 40
0
 40
1
 40
1
 40
1
 40
1
 10
124.604399
 20
650.396686
 30
0.0
 10
126.194100
 20
647.626929
 30
0.0
 10
127.153797
 20
644.723286
 30
0.0
 10
128.934817
 20
642.669724
 30
0.0
  0
SPLINE
  5
14f
100
AcDbEntity
  8
DEFAULT
 62
7
100
AcDbSpline
 70
8
 71
3
 72
8
 73
4
 74
0
 40
0
 40
0
 40
0
 40
0
 40
1
 40
1
 40
1
 40
1
 10
128.934817
 20
642.669724
 30
0.0
 10
132.706971
 20
638.323953
 30
0.0
 10
140.578572
 20
638.276116
 30
0.0
 10
157.234848
 20
638.276116
 30
0.0
  0
SPLINE
  5
150
100
AcDbEntity
  8
DEFAULT
 62
7
100
AcDbSpline
 70
8
 71
3
 72
8
 73
4
 74
0
 40
0
 40
0
 40
0
 40
0
 40
1
 40
1
 40
1
 40
1
 10
347.184698
 20
672.149754
 30
0.0
 10
334.152889
 20
672.149754
 30
0.0
 10
326.482908
 20
672.149754
 30
0.0
 10
321.969469
 20
671.098758
 30
0.0
  0
SPLINE
  5
151
100
AcDbEntity
  8
DEFAULT
 62
7
100
AcDbSpline
 70
8
 71
3
 72
8
 73
4
 74
0
 40
0
 40
0
 40
0
 40
0
 40
1
 40
1
 40
1
 40
1
 10
321.969469
 20
671.098758
 30
0.0
 10
318.258811
 20
670.239702
 30
0.0
 10
316.857239
 20
668.424364
 30
0.0
 10
315.518094
 20
666.514143
 30
0.0
  0
SPLINE
  5
152
100
AcDbEntity
  8
DEFAULT
 62
7
100
AcDbSpline
 70
8
 71
3
 72
8
 73
4
 74
0
 40
0
 40
0
 40
0
 40
0
 40
1
 40
1
 40
1
 40
1
 10
315.518094
 20
666.514143
 30
0.0
 10
314.178950
 20
664.603753
 30
0.0
 10
312.776193
 20
662.789064
 30
0.0
 10
309.061414
 20
661.929528
 30
0.0
  0
SPLINE
  5
153
100
AcDbEntity
  8
DEFAULT
 62
7
100
AcDbSpline
 70
8
 71
3
 72
8
 73
4
 74
0
 40
0
 40
0
 40
0
 40
0
 40
1
 40
1
 40
1
 40
1
 10
309.061414
 20
661.929528
 30
0.0
 10
304.549076
 20
660.878532
 30
0.0
 10
296.880082
 20
660.878532
 30
0.0
 10
283.852451
 20
660.878532
 30
0.0
  0
SPLINE
  5
154
100
AcDbEntity
  8
DEFAULT
 62
7
100
AcDbSpline
 70
8
 71
3
 72
8
 73
4
 74
0
 40
0
 40
0
 40
0
 40
0
 40
1
 40
1
 40
1
 40
1
 10
220.512993
 20
672.149754
 30
0.0
 10
207.481156
 20
672.149754
 30
0.0
 10
199.812219
 20
672.149754
 30
0.0
 10
195.299880
 20
671.098758
 30
0.0
  0
SPLINE
  5
155
100
AcDbEntity
  8
DEFAULT
 62
7
100
AcDbSpline
 70
8
 71
3
 72
8
 73
4
 74
0
 40
0
 40
0
 40
0
 40
0
 40
1
 40
1
 40
1
 40
1
 10
195.299880
 20
671.098758
 30
0.0
 10
191.589166
 20
670.239702
 30
0.0
 10
190.189711
 20
668.424364
 30
0.0
 10
188.851526
 20
666.514143
 30
0.0
  0
SPLINE
  5
156
100
AcDbEntity
  8
DEFAULT
 62
7
100
AcDbSpline
 70
8
 71
3
 72
8
 73
4
 74
0
 40
0
 40
0
 40
0
 40
0
 40
1
 40
1
 40
1
 40
1
 10
188.851526
 20
666.514143
 30
0.0
 10
187.512466
 20
664.603753
 30
0.0
 10
186.111797
 20
662.789064
 30
0.0
 10
182.398007
 20
661.929528
 30
0.0
  0
SPLINE
  5
157
100
AcDbEntity
  8
DEFAULT
 62
7
100
AcDbSpline
 70
8
 71
3
 72
8
 73
4
 74
0
 40
0
 40
0
 40
0
 40
0
 40
1
 40
1
 40
1
 40
1
 10
182.398007
 20
661.929528
 30
0.0
 10
177.885669
 20
660.878532
 30
0.0
 10
170.217775
 20
660.878532
 30
0.0
 10
157.191188
 20
660.878532
 30
0.0
  0
SPLINE
  5
158
100
AcDbEntity
  8
DEFAULT
 62
7
100
AcDbSpline
 70
8
 71
3
 72
8
 73
4
 74
0
 40
0
 40
0
 40
0
 40
0
 40
1
 40
1
 40
1
 40
1
 10
204.670843
 20
683.434635
 30
0.0
 10
219.194648
 20
683.434635
 30
0.0
 10
233.718453
 20
683.434635
 30
0.0
 10
242.134912
 20
680.521538
 30
0.0
  0
SPLINE
  5
159
100
AcDbEntity
  8
DEFAULT
 62
7
100
AcDbSpline
 70
8
 71
3
 72
8
 73
4
 74
0
 40
0
 40
0
 40
0
 40
0
 40
1
 40
1
 40
1
 40
1
 10
242.134912
 20
680.521538
 30
0.0
 10
247.034064
 20
678.850020
 30
0.0
 10
249.531505
 20
675.984590
 30
0.0
 10
251.235506
 20
672.966392
 30
0.0
  0
SPLINE
  5
15a
100
AcDbEntity
  8
DEFAULT
 62
7
100
AcDbSpline
 70
8
 71
3
 72
8
 73
4
 74
0
 40
0
 40
0
 40
0
 40
0
 40
1
 40
1
 40
1
 40
1
 10
251.235506
 20
672.966392
 30
0.0
 10
252.821341
 20
670.196522
 30
0.0
 10
253.776692
 20
667.288222
 30
0.0
 10
255.553732
 20
665.239458
 30
0.0
  0
SPLINE
  5
15b
100
AcDbEntity
  8
DEFAULT
 62
7
100
AcDbSpline
 70
8
 71
3
 72
8
 73
4
 74
0
 40
0
 40
0
 40
0
 40
0
 40
1
 40
1
 40
1
 40
1
 10
255.553732
 20
665.239458
 30
0.0
 10
259.319762
 20
660.893688
 30
0.0
 10
267.192266
 20
660.845851
 30
0.0
 10
283.852705
 20
660.845851
 30
0.0
  0
SPLINE
  5
15c
100
AcDbEntity
  8
DEFAULT
 62
7
100
AcDbSpline
 70
8
 71
3
 72
8
 73
4
 74
0
 40
0
 40
0
 40
0
 40
0
 40
1
 40
1
 40
1
 40
1
 10
93.842290
 20
672.149754
 30
0.0
 10
80.810537
 20
672.149754
 30
0.0
 10
73.141544
 20
672.149754
 30
0.0
 10
68.629205
 20
671.098758
 30
0.0
  0
SPLINE
  5
15d
100
AcDbEntity
  8
DEFAULT
 62
7
100
AcDbSpline
 70
8
 71
3
 72
8
 73
4
 74
0
 40
0
 40
0
 40
0
 40
0
 40
1
 40
1
 40
1
 40
1
 10
68.629205
 20
671.098758
 30
0.0
 10
64.920693
 20
670.239702
 30
0.0
 10
63.522084
 20
668.424364
 30
0.0
 10
62.185056
 20
666.514143
 30
0.0
  0
SPLINE
  5
15e
100
AcDbEntity
  8
DEFAULT
 62
7
100
AcDbSpline
 70
8
 71
3
 72
8
 73
4
 74
0
 40
0
 40
0
 40
0
 40
0
 40
1
 40
1
 40
1
 40
1
 10
62.185056
 20
666.514143
 30
0.0
 10
60.846758
 20
664.603753
 30
0.0
 10
59.448319
 20
662.789064
 30
0.0
 10
55.734670
 20
661.929528
 30
0.0
  0
SPLINE
  5
15f
100
AcDbEntity
  8
DEFAULT
 62
7
100
AcDbSpline
 70
8
 71
3
 72
8
 73
4
 74
0
 40
0
 40
0
 40
0
 40
0
 40
1
 40
1
 40
1
 40
1
 10
55.734670
 20
661.929528
 30
0.0
 10
51.223319
 20
660.878532
 30
0.0
 10
43.554382
 20
660.878532
 30
0.0
 10
30.527766
 20
660.878532
 30
0.0
  0
SPLINE
  5
160
100
AcDbEntity
  8
DEFAULT
 62
7
100
AcDbSpline
 70
8
 71
3
 72
8
 73
4
 74
0
 40
0
 40
0
 40
0
 40
0
 40
1
 40
1
 40
1
 40
1
 10
77.990827
 20
683.434635
 30
0.0
 10
92.515676
 20
683.434635
 30
0.0
 10
107.040525
 20
683.434635
 30
0.0
 10
115.457972
 20
680.521538
 30
0.0
  0
SPLINE
  5
161
100
AcDbEntity
  8
DEFAULT
 62
7
100
AcDbSpline
 70
8
 71
3
 72
8
 73
4
 74
0
 40
0
 40
0
 40
0
 40
0
 40
1
 40
1
 40
1
 40
1
 10
115.457972
 20
680.521538
 30
0.0
 10
120.359241
 20
678.850020
 30
0.0
 10
122.856625
 20
675.984590
 30
0.0
 10
124.563844
 20
672.966392
 30
0.0
  0
SPLINE
  5
162
100
AcDbEntity
  8
DEFAULT
 62
7
100
AcDbSpline
 70
8
 71
3
 72
8
 73
4
 74
0
 40
0
 40
0
 40
0
 40
0
 40
1
 40
1
 40
1
 40
1
 10
124.563844
 20
672.966392
 30
0.0
 10
126.151315
 20
670.196522
 30
0.0
 10
127.109291
 20
667.288222
 30
0.0
 10
128.888024
 20
665.239458
 30
0.0
  0
SPLINE
  5
163
100
AcDbEntity
  8
DEFAULT
 62
7
100
AcDbSpline
 70
8
 71
3
 72
8
 73
4
 74
0
 40
0
 40
0
 40
0
 40
0
 40
1
 40
1
 40
1
 40
1
 10
128.888024
 20
665.239458
 30
0.0
 10
132.657102
 20
660.893688
 30
0.0
 10
140.529747
 20
660.845851
 30
0.0
 10
157.191188
 20
660.845851
 30
0.0
  0
SPLINE
  5
164
100
AcDbEntity
  8
DEFAULT
 62
7
100
AcDbSpline
 70
8
 71
3
 72
8
 73
4
 74
0
 40
0
 40
0
 40
0
 40
0
 40
1
 40
1
 40
1
 40
1
 10
347.184698
 20
694.719488
 30
0.0
 10
334.151845
 20
694.719488
 30
0.0
 10
326.481920
 20
694.719488
 30
0.0
 10
321.966392
 20
693.668493
 30
0.0
  0
SPLINE
  5
165
100
AcDbEntity
  8
DEFAULT
 62
7
100
AcDbSpline
 70
8
 71
3
 72
8
 73
4
 74
0
 40
0
 40
0
 40
0
 40
0
 40
1
 40
1
 40
1
 40
1
 10
321.966392
 20
693.668493
 30
0.0
 10
318.256553
 20
692.809408
 30
0.0
 10
316.854106
 20
690.994240
 30
0.0
 10
315.514962
 20
689.083849
 30
0.0
  0
SPLINE
  5
166
100
AcDbEntity
  8
DEFAULT
 62
7
100
AcDbSpline
 70
8
 71
3
 72
8
 73
4
 74
0
 40
0
 40
0
 40
0
 40
0
 40
1
 40
1
 40
1
 40
1
 10
315.514962
 20
689.083849
 30
0.0
 10
314.174999
 20
687.173656
 30
0.0
 10
312.772185
 20
685.358939
 30
0.0
 10
309.056250
 20
684.499262
 30
0.0
  0
SPLINE
  5
167
100
AcDbEntity
  8
DEFAULT
 62
7
100
AcDbSpline
 70
8
 71
3
 72
8
 73
4
 74
0
 40
0
 40
0
 40
0
 40
0
 40
1
 40
1
 40
1
 40
1
 10
309.056250
 20
684.499262
 30
0.0
 10
304.541767
 20
683.448267
 30
0.0
 10
296.874890
 20
683.448267
 30
0.0
 10
283.846214
 20
683.448267
 30
0.0
  0
SPLINE
  5
168
100
AcDbEntity
  8
DEFAULT
 62
7
100
AcDbSpline
 70
8
 71
3
 72
8
 73
4
 74
0
 40
0
 40
0
 40
0
 40
0
 40
1
 40
1
 40
1
 40
1
 10
220.501535
 20
694.719488
 30
0.0
 10
207.467666
 20
694.719488
 30
0.0
 10
199.797684
 20
694.719488
 30
0.0
 10
195.285346
 20
693.668493
 30
0.0
  0
SPLINE
  5
169
100
AcDbEntity
  8
DEFAULT
 62
7
100
AcDbSpline
 70
8
 71
3
 72
8
 73
4
 74
0
 40
0
 40
0
 40
0
 40
0
 40
1
 40
1
 40
1
 40
1
 10
195.285346
 20
693.668493
 30
0.0
 10
191.573362
 20
692.809408
 30
0.0
 10
190.173060
 20
690.994240
 30
0.0
 10
188.832843
 20
689.083849
 30
0.0
  0
SPLINE
  5
16a
100
AcDbEntity
  8
DEFAULT
 62
7
100
AcDbSpline
 70
8
 71
3
 72
8
 73
4
 74
0
 40
0
 40
0
 40
0
 40
0
 40
1
 40
1
 40
1
 40
1
 10
188.832843
 20
689.083849
 30
0.0
 10
187.494517
 20
687.173656
 30
0.0
 10
186.092211
 20
685.358939
 30
0.0
 10
182.377263
 20
684.499262
 30
0.0
  0
SPLINE
  5
16b
100
AcDbEntity
  8
DEFAULT
 62
7
100
AcDbSpline
 70
8
 71
3
 72
8
 73
4
 74
0
 40
0
 40
0
 40
0
 40
0
 40
1
 40
1
 40
1
 40
1
 10
182.377263
 20
684.499262
 30
0.0
 10
177.862809
 20
683.448267
 30
0.0
 10
170.194887
 20
683.448267
 30
0.0
 10
157.165167
 20
683.448267
 30
0.0
  0
SPLINE
  5
16c
100
AcDbEntity
  8
DEFAULT
 62
7
100
AcDbSpline
 70
8
 71
3
 72
8
 73
4
 74
0
 40
0
 40
0
 40
0
 40
0
 40
1
 40
1
 40
1
 40
1
 10
204.662546
 20
706.004370
 30
0.0
 10
219.186294
 20
706.004370
 30
0.0
 10
233.712187
 20
706.004370
 30
0.0
 10
242.126615
 20
703.091131
 30
0.0
  0
SPLINE
  5
16d
100
AcDbEntity
  8
DEFAULT
 62
7
100
AcDbSpline
 70
8
 71
3
 72
8
 73
4
 74
0
 40
0
 40
0
 40
0
 40
0
 40
1
 40
1
 40
1
 40
1
 10
242.126615
 20
703.091131
 30
0.0
 10
247.025767
 20
701.419726
 30
0.0
 10
249.522135
 20
698.554324
 30
0.0
 10
251.227237
 20
695.536155
 30
0.0
  0
SPLINE
  5
16e
100
AcDbEntity
  8
DEFAULT
 62
7
100
AcDbSpline
 70
8
 71
3
 72
8
 73
4
 74
0
 40
0
 40
0
 40
0
 40
0
 40
1
 40
1
 40
1
 40
1
 10
251.227237
 20
695.536155
 30
0.0
 10
252.811746
 20
692.766257
 30
0.0
 10
253.766221
 20
689.857787
 30
0.0
 10
255.541935
 20
687.804423
 30
0.0
  0
SPLINE
  5
16f
100
AcDbEntity
  8
DEFAULT
 62
7
100
AcDbSpline
 70
8
 71
3
 72
8
 73
4
 74
0
 40
0
 40
0
 40
0
 40
0
 40
1
 40
1
 40
1
 40
1
 10
255.541935
 20
687.804423
 30
0.0
 10
259.307993
 20
683.458455
 30
0.0
 10
267.181570
 20
683.410788
 30
0.0
 10
283.846072
 20
683.410788
 30
0.0
  0
SPLINE
  5
170
100
AcDbEntity
  8
DEFAULT
 62
7
100
AcDbSpline
 70
8
 71
3
 72
8
 73
4
 74
0
 40
0
 40
0
 40
0
 40
0
 40
1
 40
1
 40
1
 40
1
 10
93.819401
 20
694.719488
 30
0.0
 10
80.785589
 20
694.719488
 30
0.0
 10
73.114563
 20
694.719488
 30
0.0
 10
68.602197
 20
693.668493
 30
0.0
  0
SPLINE
  5
171
100
AcDbEntity
  8
DEFAULT
 62
7
100
AcDbSpline
 70
8
 71
3
 72
8
 73
4
 74
0
 40
0
 40
0
 40
0
 40
0
 40
1
 40
1
 40
1
 40
1
 10
68.602197
 20
693.668493
 30
0.0
 10
64.891483
 20
692.809408
 30
0.0
 10
63.489882
 20
690.994240
 30
0.0
 10
62.151754
 20
689.083849
 30
0.0
  0
SPLINE
  5
172
100
AcDbEntity
  8
DEFAULT
 62
7
100
AcDbSpline
 70
8
 71
3
 72
8
 73
4
 74
0
 40
0
 40
0
 40
0
 40
0
 40
1
 40
1
 40
1
 40
1
 10
62.151754
 20
689.083849
 30
0.0
 10
60.812609
 20
687.173656
 30
0.0
 10
59.413323
 20
685.358939
 30
0.0
 10
55.697247
 20
684.499262
 30
0.0
  0
SPLINE
  5
173
100
AcDbEntity
  8
DEFAULT
 62
7
100
AcDbSpline
 70
8
 71
3
 72
8
 73
4
 74
0
 40
0
 40
0
 40
0
 40
0
 40
1
 40
1
 40
1
 40
1
 10
55.697247
 20
684.499262
 30
0.0
 10
51.183808
 20
683.448267
 30
0.0
 10
43.515915
 20
683.448267
 30
0.0
 10
30.486138
 20
683.448267
 30
0.0
  0
SPLINE
  5
174
100
AcDbEntity
  8
DEFAULT
 62
7
100
AcDbSpline
 70
8
 71
3
 72
8
 73
4
 74
0
 40
0
 40
0
 40
0
 40
0
 40
1
 40
1
 40
1
 40
1
 10
77.974176
 20
706.004370
 30
0.0
 10
92.499025
 20
706.004370
 30
0.0
 10
107.024861
 20
706.004370
 30
0.0
 10
115.441377
 20
703.091131
 30
0.0
  0
SPLINE
  5
175
100
AcDbEntity
  8
DEFAULT
 62
7
100
AcDbSpline
 70
8
 71
3
 72
8
 73
4
 74
0
 40
0
 40
0
 40
0
 40
0
 40
1
 40
1
 40
1
 40
1
 10
115.441377
 20
703.091131
 30
0.0
 10
120.341545
 20
701.419726
 30
0.0
 10
122.836869
 20
698.554324
 30
0.0
 10
124.543044
 20
695.536155
 30
0.0
  0
SPLINE
  5
176
100
AcDbEntity
  8
DEFAULT
 62
7
100
AcDbSpline
 70
8
 71
3
 72
8
 73
4
 74
0
 40
0
 40
0
 40
0
 40
0
 40
1
 40
1
 40
1
 40
1
 10
124.543044
 20
695.536155
 30
0.0
 10
126.128851
 20
692.766257
 30
0.0
 10
127.085076
 20
689.857787
 30
0.0
 10
128.862088
 20
687.804423
 30
0.0
  0
SPLINE
  5
177
100
AcDbEntity
  8
DEFAULT
 62
7
100
AcDbSpline
 70
8
 71
3
 72
8
 73
4
 74
0
 40
0
 40
0
 40
0
 40
0
 40
1
 40
1
 40
1
 40
1
 10
128.862088
 20
687.804423
 30
0.0
 10
132.629021
 20
683.458455
 30
0.0
 10
140.502739
 20
683.410788
 30
0.0
 10
157.165195
 20
683.410788
 30
0.0
  0
SPLINE
  5
178
100
AcDbEntity
  8
DEFAULT
 62
7
100
AcDbSpline
 70
8
 71
3
 72
8
 73
4
 74
0
 40
0
 40
0
 40
0
 40
0
 40
1
 40
1
 40
1
 40
1
 10
347.184698
 20
717.289223
 30
0.0
 10
334.149785
 20
717.289223
 30
0.0
 10
326.479803
 20
717.289223
 30
0.0
 10
321.966392
 20
716.238227
 30
0.0
  0
SPLINE
  5
179
100
AcDbEntity
  8
DEFAULT
 62
7
100
AcDbSpline
 70
8
 71
3
 72
8
 73
4
 74
0
 40
0
 40
0
 40
0
 40
0
 40
1
 40
1
 40
1
 40
1
 10
321.966392
 20
716.238227
 30
0.0
 10
318.254408
 20
715.379171
 30
0.0
 10
316.853062
 20
713.563833
 30
0.0
 10
315.512873
 20
711.653612
 30
0.0
  0
SPLINE
  5
17a
100
AcDbEntity
  8
DEFAULT
 62
7
100
AcDbSpline
 70
8
 71
3
 72
8
 73
4
 74
0
 40
0
 40
0
 40
0
 40
0
 40
1
 40
1
 40
1
 40
1
 10
315.512873
 20
711.653612
 30
0.0
 10
314.172487
 20
709.743391
 30
0.0
 10
312.769250
 20
707.928646
 30
0.0
 10
309.054161
 20
707.068968
 30
0.0
  0
SPLINE
  5
17b
100
AcDbEntity
  8
DEFAULT
 62
7
100
AcDbSpline
 70
8
 71
3
 72
8
 73
4
 74
0
 40
0
 40
0
 40
0
 40
0
 40
1
 40
1
 40
1
 40
1
 10
309.054161
 20
707.068968
 30
0.0
 10
304.539678
 20
706.017973
 30
0.0
 10
296.871813
 20
706.017973
 30
0.0
 10
283.841021
 20
706.017973
 30
0.0
  0
SPLINE
  5
17c
100
AcDbEntity
  8
DEFAULT
 62
7
100
AcDbSpline
 70
8
 71
3
 72
8
 73
4
 74
0
 40
0
 40
0
 40
0
 40
0
 40
1
 40
1
 40
1
 40
1
 10
220.495326
 20
717.289223
 30
0.0
 10
207.462473
 20
717.289223
 30
0.0
 10
199.791419
 20
717.289223
 30
0.0
 10
195.278008
 20
716.238227
 30
0.0
  0
SPLINE
  5
17d
100
AcDbEntity
  8
DEFAULT
 62
7
100
AcDbSpline
 70
8
 71
3
 72
8
 73
4
 74
0
 40
0
 40
0
 40
0
 40
0
 40
1
 40
1
 40
1
 40
1
 10
195.278008
 20
716.238227
 30
0.0
 10
191.567379
 20
715.379171
 30
0.0
 10
190.165722
 20
713.563833
 30
0.0
 10
188.825533
 20
711.653612
 30
0.0
  0
SPLINE
  5
17e
100
AcDbEntity
  8
DEFAULT
 62
7
100
AcDbSpline
 70
8
 71
3
 72
8
 73
4
 74
0
 40
0
 40
0
 40
0
 40
0
 40
1
 40
1
 40
1
 40
1
 10
188.825533
 20
711.653612
 30
0.0
 10
187.485599
 20
709.743391
 30
0.0
 10
186.081910
 20
707.928646
 30
0.0
 10
182.366821
 20
707.068968
 30
0.0
  0
SPLINE
  5
17f
100
AcDbEntity
  8
DEFAULT
 62
7
100
AcDbSpline
 70
8
 71
3
 72
8
 73
4
 74
0
 40
0
 40
0
 40
0
 40
0
 40
1
 40
1
 40
1
 40
1
 10
182.366821
 20
707.068968
 30
0.0
 10
177.853467
 20
706.017973
 30
0.0
 10
170.183457
 20
706.017973
 30
0.0
 10
157.153765
 20
706.017973
 30
0.0
  0
SPLINE
  5
180
100
AcDbEntity
  8
DEFAULT
 62
7
100
AcDbSpline
 70
8
 71
3
 72
8
 73
4
 74
0
 40
0
 40
0
 40
0
 40
0
 40
1
 40
1
 40
1
 40
1
 10
204.658397
 20
728.569306
 30
0.0
 10
219.184234
 20
728.569306
 30
0.0
 10
233.709083
 20
728.569306
 30
0.0
 10
242.124526
 20
725.656068
 30
0.0
  0
SPLINE
  5
181
100
AcDbEntity
  8
DEFAULT
 62
7
100
AcDbSpline
 70
8
 71
3
 72
8
 73
4
 74
0
 40
0
 40
0
 40
0
 40
0
 40
1
 40
1
 40
1
 40
1
 10
242.124526
 20
725.656068
 30
0.0
 10
247.022606
 20
723.984663
 30
0.0
 10
249.519003
 20
721.119261
 30
0.0
 10
251.222016
 20
718.101092
 30
0.0
  0
SPLINE
  5
182
100
AcDbEntity
  8
DEFAULT
 62
7
100
AcDbSpline
 70
8
 71
3
 72
8
 73
4
 74
0
 40
0
 40
0
 40
0
 40
0
 40
1
 40
1
 40
1
 40
1
 10
251.222016
 20
718.101092
 30
0.0
 10
252.807851
 20
715.331193
 30
0.0
 10
253.761000
 20
712.422752
 30
0.0
 10
255.538012
 20
710.369190
 30
0.0
  0
SPLINE
  5
183
100
AcDbEntity
  8
DEFAULT
 62
7
100
AcDbSpline
 70
8
 71
3
 72
8
 73
4
 74
0
 40
0
 40
0
 40
0
 40
0
 40
1
 40
1
 40
1
 40
1
 10
255.538012
 20
710.369190
 30
0.0
 10
259.301982
 20
706.023392
 30
0.0
 10
267.176631
 20
705.975724
 30
0.0
 10
283.841162
 20
705.975724
 30
0.0
  0
SPLINE
  5
184
100
AcDbEntity
  8
DEFAULT
 62
7
100
AcDbSpline
 70
8
 71
3
 72
8
 73
4
 74
0
 40
0
 40
0
 40
0
 40
0
 40
1
 40
1
 40
1
 40
1
 10
93.808028
 20
717.289223
 30
0.0
 10
80.774159
 20
717.289223
 30
0.0
 10
73.104149
 20
717.289223
 30
0.0
 10
68.589694
 20
716.238227
 30
0.0
  0
SPLINE
  5
185
100
AcDbEntity
  8
DEFAULT
 62
7
100
AcDbSpline
 70
8
 71
3
 72
8
 73
4
 74
0
 40
0
 40
0
 40
0
 40
0
 40
1
 40
1
 40
1
 40
1
 10
68.589694
 20
716.238227
 30
0.0
 10
64.878133
 20
715.379171
 30
0.0
 10
63.476336
 20
713.563833
 30
0.0
 10
62.138264
 20
711.653612
 30
0.0
  0
SPLINE
  5
186
100
AcDbEntity
  8
DEFAULT
 62
7
100
AcDbSpline
 70
8
 71
3
 72
8
 73
4
 74
0
 40
0
 40
0
 40
0
 40
0
 40
1
 40
1
 40
1
 40
1
 10
62.138264
 20
711.653612
 30
0.0
 10
60.798273
 20
709.743391
 30
0.0
 10
59.395487
 20
707.928646
 30
0.0
 10
55.678479
 20
707.068968
 30
0.0
  0
SPLINE
  5
187
100
AcDbEntity
  8
DEFAULT
 62
7
100
AcDbSpline
 70
8
 71
3
 72
8
 73
4
 74
0
 40
0
 40
0
 40
0
 40
0
 40
1
 40
1
 40
1
 40
1
 10
55.678479
 20
707.068968
 30
0.0
 10
51.166197
 20
706.017973
 30
0.0
 10
43.497204
 20
706.017973
 30
0.0
 10
30.467512
 20
706.017973
 30
0.0
  0
SPLINE
  5
188
100
AcDbEntity
  8
DEFAULT
 62
7
100
AcDbSpline
 70
8
 71
3
 72
8
 73
4
 74
0
 40
0
 40
0
 40
0
 40
0
 40
1
 40
1
 40
1
 40
1
 10
77.968955
 20
728.569306
 30
0.0
 10
92.493804
 20
728.569306
 30
0.0
 10
107.018653
 20
728.569306
 30
0.0
 10
115.435168
 20
725.656068
 30
0.0
  0
SPLINE
  5
189
100
AcDbEntity
  8
DEFAULT
 62
7
100
AcDbSpline
 70
8
 71
3
 72
8
 73
4
 74
0
 40
0
 40
0
 40
0
 40
0
 40
1
 40
1
 40
1
 40
1
 10
115.435168
 20
725.656068
 30
0.0
 10
120.334292
 20
723.984663
 30
0.0
 10
122.829616
 20
721.119261
 30
0.0
 10
124.534747
 20
718.101092
 30
0.0
  0
SPLINE
  5
18a
100
AcDbEntity
  8
DEFAULT
 62
7
100
AcDbSpline
 70
8
 71
3
 72
8
 73
4
 74
0
 40
0
 40
0
 40
0
 40
0
 40
1
 40
1
 40
1
 40
1
 10
124.534747
 20
718.101092
 30
0.0
 10
126.119199
 20
715.331193
 30
0.0
 10
127.072884
 20
712.422752
 30
0.0
 10
128.850743
 20
710.369190
 30
0.0
  0
SPLINE
  5
18b
100
AcDbEntity
  8
DEFAULT
 62
7
100
AcDbSpline
 70
8
 71
3
 72
8
 73
4
 74
0
 40
0
 40
0
 40
0
 40
0
 40
1
 40
1
 40
1
 40
1
 10
128.850743
 20
710.369190
 30
0.0
 10
132.614628
 20
706.023392
 30
0.0
 10
140.490406
 20
705.975724
 30
0.0
 10
157.153906
 20
705.975724
 30
0.0
  0
SPLINE
  5
18c
100
AcDbEntity
  8
DEFAULT
 62
7
100
AcDbSpline
 70
8
 71
3
 72
8
 73
4
 74
0
 40
0
 40
0
 40
0
 40
0
 40
1
 40
1
 40
1
 40
1
 10
347.184698
 20
739.854018
 30
0.0
 10
334.149785
 20
739.854018
 30
0.0
 10
326.479803
 20
739.854018
 30
0.0
 10
321.966392
 20
738.803023
 30
0.0
  0
SPLINE
  5
18d
100
AcDbEntity
  8
DEFAULT
 62
7
100
AcDbSpline
 70
8
 71
3
 72
8
 73
4
 74
0
 40
0
 40
0
 40
0
 40
0
 40
1
 40
1
 40
1
 40
1
 10
321.966392
 20
738.803023
 30
0.0
 10
318.254408
 20
737.943938
 30
0.0
 10
316.853062
 20
736.128600
 30
0.0
 10
315.512873
 20
734.218379
 30
0.0
  0
SPLINE
  5
18e
100
AcDbEntity
  8
DEFAULT
 62
7
100
AcDbSpline
 70
8
 71
3
 72
8
 73
4
 74
0
 40
0
 40
0
 40
0
 40
0
 40
1
 40
1
 40
1
 40
1
 10
315.512873
 20
734.218379
 30
0.0
 10
314.172487
 20
732.308186
 30
0.0
 10
312.769250
 20
730.493300
 30
0.0
 10
309.054161
 20
729.633764
 30
0.0
  0
SPLINE
  5
18f
100
AcDbEntity
  8
DEFAULT
 62
7
100
AcDbSpline
 70
8
 71
3
 72
8
 73
4
 74
0
 40
0
 40
0
 40
0
 40
0
 40
1
 40
1
 40
1
 40
1
 10
309.054161
 20
729.633764
 30
0.0
 10
304.539678
 20
728.582768
 30
0.0
 10
296.869697
 20
728.582768
 30
0.0
 10
283.839976
 20
728.582768
 30
0.0
  0
SPLINE
  5
190
100
AcDbEntity
  8
DEFAULT
 62
7
100
AcDbSpline
 70
8
 71
3
 72
8
 73
4
 74
0
 40
0
 40
0
 40
0
 40
0
 40
1
 40
1
 40
1
 40
1
 10
220.494253
 20
739.854018
 30
0.0
 10
207.460413
 20
739.854018
 30
0.0
 10
199.789387
 20
739.854018
 30
0.0
 10
195.277020
 20
738.803023
 30
0.0
  0
SPLINE
  5
191
100
AcDbEntity
  8
DEFAULT
 62
7
100
AcDbSpline
 70
8
 71
3
 72
8
 73
4
 74
0
 40
0
 40
0
 40
0
 40
0
 40
1
 40
1
 40
1
 40
1
 10
195.277020
 20
738.803023
 30
0.0
 10
191.564189
 20
737.943938
 30
0.0
 10
190.161601
 20
736.128600
 30
0.0
 10
188.822457
 20
734.218379
 30
0.0
  0
SPLINE
  5
192
100
AcDbEntity
  8
DEFAULT
 62
7
100
AcDbSpline
 70
8
 71
3
 72
8
 73
4
 74
0
 40
0
 40
0
 40
0
 40
0
 40
1
 40
1
 40
1
 40
1
 10
188.822457
 20
734.218379
 30
0.0
 10
187.482466
 20
732.308186
 30
0.0
 10
186.078834
 20
730.493300
 30
0.0
 10
182.363717
 20
729.633764
 30
0.0
  0
SPLINE
  5
193
100
AcDbEntity
  8
DEFAULT
 62
7
100
AcDbSpline
 70
8
 71
3
 72
8
 73
4
 74
0
 40
0
 40
0
 40
0
 40
0
 40
1
 40
1
 40
1
 40
1
 10
182.363717
 20
729.633764
 30
0.0
 10
177.849318
 20
728.582768
 30
0.0
 10
170.179337
 20
728.582768
 30
0.0
 10
157.150661
 20
728.582768
 30
0.0
  0
SPLINE
  5
194
100
AcDbEntity
  8
DEFAULT
 62
7
100
AcDbSpline
 70
8
 71
3
 72
8
 73
4
 74
0
 40
0
 40
0
 40
0
 40
0
 40
1
 40
1
 40
1
 40
1
 10
204.658397
 20
751.138872
 30
0.0
 10
219.184234
 20
751.138872
 30
0.0
 10
233.709083
 20
751.138872
 30
0.0
 10
242.124526
 20
748.225774
 30
0.0
  0
SPLINE
  5
195
100
AcDbEntity
  8
DEFAULT
 62
7
100
AcDbSpline
 70
8
 71
3
 72
8
 73
4
 74
0
 40
0
 40
0
 40
0
 40
0
 40
1
 40
1
 40
1
 40
1
 10
242.124526
 20
748.225774
 30
0.0
 10
247.022606
 20
746.554256
 30
0.0
 10
249.516886
 20
743.688826
 30
0.0
 10
251.222016
 20
740.670657
 30
0.0
  0
SPLINE
  5
196
100
AcDbEntity
  8
DEFAULT
 62
7
100
AcDbSpline
 70
8
 71
3
 72
8
 73
4
 74
0
 40
0
 40
0
 40
0
 40
0
 40
1
 40
1
 40
1
 40
1
 10
251.222016
 20
740.670657
 30
0.0
 10
252.806468
 20
737.900758
 30
0.0
 10
253.758855
 20
734.997256
 30
0.0
 10
255.536742
 20
732.943723
 30
0.0
  0
SPLINE
  5
197
100
AcDbEntity
  8
DEFAULT
 62
7
100
AcDbSpline
 70
8
 71
3
 72
8
 73
4
 74
0
 40
0
 40
0
 40
0
 40
0
 40
1
 40
1
 40
1
 40
1
 10
255.536742
 20
732.943723
 30
0.0
 10
259.300655
 20
728.597924
 30
0.0
 10
267.175305
 20
728.550087
 30
0.0
 10
283.839864
 20
728.550087
 30
0.0
  0
SPLINE
  5
198
100
AcDbEntity
  8
DEFAULT
 62
7
100
AcDbSpline
 70
8
 71
3
 72
8
 73
4
 74
0
 40
0
 40
0
 40
0
 40
0
 40
1
 40
1
 40
1
 40
1
 10
93.804895
 20
739.854018
 30
0.0
 10
80.771026
 20
739.854018
 30
0.0
 10
73.100029
 20
739.854018
 30
0.0
 10
68.586533
 20
738.803023
 30
0.0
  0
SPLINE
  5
199
100
AcDbEntity
  8
DEFAULT
 62
7
100
AcDbSpline
 70
8
 71
3
 72
8
 73
4
 74
0
 40
0
 40
0
 40
0
 40
0
 40
1
 40
1
 40
1
 40
1
 10
68.586533
 20
738.803023
 30
0.0
 10
64.874973
 20
737.943938
 30
0.0
 10
63.472215
 20
736.128600
 30
0.0
 10
62.133071
 20
734.218379
 30
0.0
  0
SPLINE
  5
19a
100
AcDbEntity
  8
DEFAULT
 62
7
100
AcDbSpline
 70
8
 71
3
 72
8
 73
4
 74
0
 40
0
 40
0
 40
0
 40
0
 40
1
 40
1
 40
1
 40
1
 10
62.133071
 20
734.218379
 30
0.0
 10
60.791669
 20
732.308186
 30
0.0
 10
59.390322
 20
730.493300
 30
0.0
 10
55.673286
 20
729.633764
 30
0.0
  0
SPLINE
  5
19b
100
AcDbEntity
  8
DEFAULT
 62
7
100
AcDbSpline
 70
8
 71
3
 72
8
 73
4
 74
0
 40
0
 40
0
 40
0
 40
0
 40
1
 40
1
 40
1
 40
1
 10
55.673286
 20
729.633764
 30
0.0
 10
51.158860
 20
728.582768
 30
0.0
 10
43.490938
 20
728.582768
 30
0.0
 10
30.460174
 20
728.582768
 30
0.0
  0
SPLINE
  5
19c
100
AcDbEntity
  8
DEFAULT
 62
7
100
AcDbSpline
 70
8
 71
3
 72
8
 73
4
 74
0
 40
0
 40
0
 40
0
 40
0
 40
1
 40
1
 40
1
 40
1
 10
186.730533
 20
794.128287
 30
0.0
 10
196.378243
 20
794.128287
 30
0.0
 10
205.295223
 20
792.541380
 30
0.0
 10
214.424774
 20
790.455560
 30
0.0
  0
SPLINE
  5
19d
100
AcDbEntity
  8
DEFAULT
 62
7
100
AcDbSpline
 70
8
 71
3
 72
8
 73
4
 74
0
 40
0
 40
0
 40
0
 40
0
 40
1
 40
1
 40
1
 40
1
 10
214.424774
 20
790.455560
 30
0.0
 10
221.896240
 20
788.732565
 30
0.0
 10
230.269689
 20
787.009570
 30
0.0
 10
242.896650
 20
787.009570
 30
0.0
  0
SPLINE
  5
19e
100
AcDbEntity
  8
DEFAULT
 62
7
100
AcDbSpline
 70
8
 71
3
 72
8
 73
4
 74
0
 40
0
 40
0
 40
0
 40
0
 40
1
 40
1
 40
1
 40
1
 10
205.395553
 20
802.190190
 30
0.0
 10
218.032420
 20
802.190190
 30
0.0
 10
226.411739
 20
800.467196
 30
0.0
 10
233.885351
 20
798.744229
 30
0.0
  0
SPLINE
  5
19f
100
AcDbEntity
  8
DEFAULT
 62
7
100
AcDbSpline
 70
8
 71
3
 72
8
 73
4
 74
0
 40
0
 40
0
 40
0
 40
0
 40
1
 40
1
 40
1
 40
1
 10
233.885351
 20
798.744229
 30
0.0
 10
243.014873
 20
796.658381
 30
0.0
 10
251.927761
 20
795.071474
 30
0.0
 10
261.573383
 20
795.071474
 30
0.0
  0
SPLINE
  5
1a0
100
AcDbEntity
  8
DEFAULT
 62
7
100
AcDbSpline
 70
8
 71
3
 72
8
 73
4
 74
0
 40
0
 40
0
 40
0
 40
0
 40
1
 40
1
 40
1
 40
1
 10
261.573383
 20
795.071474
 30
0.0
 10
271.222871
 20
795.071474
 30
0.0
 10
280.126276
 20
796.658381
 30
0.0
 10
289.243911
 20
798.744229
 30
0.0
  0
SPLINE
  5
1a1
100
AcDbEntity
  8
DEFAULT
 62
7
100
AcDbSpline
 70
8
 71
3
 72
8
 73
4
 74
0
 40
0
 40
0
 40
0
 40
0
 40
1
 40
1
 40
1
 40
1
 10
289.243911
 20
798.744229
 30
0.0
 10
296.705500
 20
800.467196
 30
0.0
 10
305.072937
 20
802.190190
 30
0.0
 10
317.709973
 20
802.190190
 30
0.0
  0
SPLINE
  5
1a2
100
AcDbEntity
  8
DEFAULT
 62
7
100
AcDbSpline
 70
8
 71
3
 72
8
 73
4
 74
0
 40
0
 40
0
 40
0
 40
0
 40
1
 40
1
 40
1
 40
1
 10
186.730533
 20
794.128287
 30
0.0
 10
177.083077
 20
794.128287
 30
0.0
 10
168.187771
 20
792.541380
 30
0.0
 10
159.085822
 20
790.455560
 30
0.0
  0
SPLINE
  5
1a3
100
AcDbEntity
  8
DEFAULT
 62
7
100
AcDbSpline
 70
8
 71
3
 72
8
 73
4
 74
0
 40
0
 40
0
 40
0
 40
0
 40
1
 40
1
 40
1
 40
1
 10
159.085822
 20
790.455560
 30
0.0
 10
151.639840
 20
788.732565
 30
0.0
 10
143.286203
 20
787.009570
 30
0.0
 10
130.661077
 20
787.009570
 30
0.0
  0
SPLINE
  5
1a4
100
AcDbEntity
  8
DEFAULT
 62
7
100
AcDbSpline
 70
8
 71
3
 72
8
 73
4
 74
0
 40
0
 40
0
 40
0
 40
0
 40
1
 40
1
 40
1
 40
1
 10
37.033177
 20
794.128287
 30
0.0
 10
46.680803
 20
794.128287
 30
0.0
 10
55.609439
 20
792.541380
 30
0.0
 10
64.752903
 20
790.455560
 30
0.0
  0
SPLINE
  5
1a5
100
AcDbEntity
  8
DEFAULT
 62
7
100
AcDbSpline
 70
8
 71
3
 72
8
 73
4
 74
0
 40
0
 40
0
 40
0
 40
0
 40
1
 40
1
 40
1
 40
1
 10
64.752903
 20
790.455560
 30
0.0
 10
72.234247
 20
788.732565
 30
0.0
 10
80.619352
 20
787.009570
 30
0.0
 10
93.246538
 20
787.009570
 30
0.0
  0
SPLINE
  5
1a6
100
AcDbEntity
  8
DEFAULT
 62
7
100
AcDbSpline
 70
8
 71
3
 72
8
 73
4
 74
0
 40
0
 40
0
 40
0
 40
0
 40
1
 40
1
 40
1
 40
1
 10
55.642939
 20
802.190190
 30
0.0
 10
68.280003
 20
802.190190
 30
0.0
 10
76.672869
 20
800.467196
 30
0.0
 10
84.156358
 20
798.744229
 30
0.0
  0
SPLINE
  5
1a7
100
AcDbEntity
  8
DEFAULT
 62
7
100
AcDbSpline
 70
8
 71
3
 72
8
 73
4
 74
0
 40
0
 40
0
 40
0
 40
0
 40
1
 40
1
 40
1
 40
1
 10
84.156358
 20
798.744229
 30
0.0
 10
93.299596
 20
796.658381
 30
0.0
 10
102.222644
 20
795.071474
 30
0.0
 10
111.870242
 20
795.071474
 30
0.0
  0
SPLINE
  5
1a8
100
AcDbEntity
  8
DEFAULT
 62
7
100
AcDbSpline
 70
8
 71
3
 72
8
 73
4
 74
0
 40
0
 40
0
 40
0
 40
0
 40
1
 40
1
 40
1
 40
1
 10
111.870242
 20
795.071474
 30
0.0
 10
121.519673
 20
795.071474
 30
0.0
 10
130.413032
 20
796.658381
 30
0.0
 10
139.515065
 20
798.744229
 30
0.0
  0
SPLINE
  5
1a9
100
AcDbEntity
  8
DEFAULT
 62
7
100
AcDbSpline
 70
8
 71
3
 72
8
 73
4
 74
0
 40
0
 40
0
 40
0
 40
0
 40
1
 40
1
 40
1
 40
1
 10
139.515065
 20
798.744229
 30
0.0
 10
146.964801
 20
800.467196
 30
0.0
 10
155.322445
 20
802.190190
 30
0.0
 10
167.957477
 20
802.190190
 30
0.0
  0
SPLINE
  5
1aa
100
AcDbEntity
  8
DEFAULT
 62
7
100
AcDbSpline
 70
8
 71
3
 72
8
 73
4
 74
0
 40
0
 40
0
 40
0
 40
0
 40
1
 40
1
 40
1
 40
1
 10
186.643919
 20
810.256638
 30
0.0
 10
196.299334
 20
810.256638
 30
0.0
 10
205.204545
 20
811.843545
 30
0.0
 10
214.322355
 20
813.929393
 30
0.0
  0
SPLINE
  5
1ab
100
AcDbEntity
  8
DEFAULT
 62
7
100
AcDbSpline
 70
8
 71
3
 72
8
 73
4
 74
0
 40
0
 40
0
 40
0
 40
0
 40
1
 40
1
 40
1
 40
1
 10
214.322355
 20
813.929393
 30
0.0
 10
221.785976
 20
815.652360
 30
0.0
 10
230.155502
 20
817.375326
 30
0.0
 10
242.796320
 20
817.375326
 30
0.0
  0
SPLINE
  5
1ac
100
AcDbEntity
  8
DEFAULT
 62
7
100
AcDbSpline
 70
8
 71
3
 72
8
 73
4
 74
0
 40
0
 40
0
 40
0
 40
0
 40
1
 40
1
 40
1
 40
1
 10
186.588829
 20
824.485069
 30
0.0
 10
196.246248
 20
824.485069
 30
0.0
 10
205.167207
 20
822.898020
 30
0.0
 10
214.300652
 20
820.812342
 30
0.0
  0
SPLINE
  5
1ad
100
AcDbEntity
  8
DEFAULT
 62
7
100
AcDbSpline
 70
8
 71
3
 72
8
 73
4
 74
0
 40
0
 40
0
 40
0
 40
0
 40
1
 40
1
 40
1
 40
1
 10
214.300652
 20
820.812342
 30
0.0
 10
221.776183
 20
819.089347
 30
0.0
 10
230.155502
 20
817.366211
 30
0.0
 10
242.796320
 20
817.366211
 30
0.0
  0
SPLINE
  5
1ae
100
AcDbEntity
  8
DEFAULT
 62
7
100
AcDbSpline
 70
8
 71
3
 72
8
 73
4
 74
0
 40
0
 40
0
 40
0
 40
0
 40
1
 40
1
 40
1
 40
1
 10
205.395553
 20
802.190190
 30
0.0
 10
218.032420
 20
802.190190
 30
0.0
 10
226.398051
 20
803.913157
 30
0.0
 10
233.859781
 20
805.636293
 30
0.0
  0
SPLINE
  5
1af
100
AcDbEntity
  8
DEFAULT
 62
7
100
AcDbSpline
 70
8
 71
3
 72
8
 73
4
 74
0
 40
0
 40
0
 40
0
 40
0
 40
1
 40
1
 40
1
 40
1
 10
233.859781
 20
805.636293
 30
0.0
 10
242.977450
 20
807.722000
 30
0.0
 10
251.884496
 20
809.309020
 30
0.0
 10
261.536016
 20
809.309020
 30
0.0
  0
SPLINE
  5
1b0
100
AcDbEntity
  8
DEFAULT
 62
7
100
AcDbSpline
 70
8
 71
3
 72
8
 73
4
 74
0
 40
0
 40
0
 40
0
 40
0
 40
1
 40
1
 40
1
 40
1
 10
261.536016
 20
809.309020
 30
0.0
 10
271.191318
 20
809.309020
 30
0.0
 10
280.106380
 20
807.722000
 30
0.0
 10
289.232001
 20
805.636293
 30
0.0
  0
SPLINE
  5
1b1
100
AcDbEntity
  8
DEFAULT
 62
7
100
AcDbSpline
 70
8
 71
3
 72
8
 73
4
 74
0
 40
0
 40
0
 40
0
 40
0
 40
1
 40
1
 40
1
 40
1
 10
289.232001
 20
805.636293
 30
0.0
 10
296.699545
 20
803.913157
 30
0.0
 10
305.072937
 20
802.190190
 30
0.0
 10
317.709973
 20
802.190190
 30
0.0
  0
SPLINE
  5
1b2
100
AcDbEntity
  8
DEFAULT
 62
7
100
AcDbSpline
 70
8
 71
3
 72
8
 73
4
 74
0
 40
0
 40
0
 40
0
 40
0
 40
1
 40
1
 40
1
 40
1
 10
205.291103
 20
832.546944
 30
0.0
 10
217.937848
 20
832.546944
 30
0.0
 10
226.321174
 20
830.823836
 30
0.0
 10
233.796563
 20
829.100841
 30
0.0
  0
SPLINE
  5
1b3
100
AcDbEntity
  8
DEFAULT
 62
7
100
AcDbSpline
 70
8
 71
3
 72
8
 73
4
 74
0
 40
0
 40
0
 40
0
 40
0
 40
1
 40
1
 40
1
 40
1
 10
233.796563
 20
829.100841
 30
0.0
 10
242.928174
 20
827.015163
 30
0.0
 10
251.847102
 20
825.428142
 30
0.0
 10
261.504577
 20
825.428142
 30
0.0
  0
SPLINE
  5
1b4
100
AcDbEntity
  8
DEFAULT
 62
7
100
AcDbSpline
 70
8
 71
3
 72
8
 73
4
 74
0
 40
0
 40
0
 40
0
 40
0
 40
1
 40
1
 40
1
 40
1
 10
261.504577
 20
825.428142
 30
0.0
 10
271.161967
 20
825.428142
 30
0.0
 10
280.076803
 20
827.015163
 30
0.0
 10
289.204428
 20
829.100841
 30
0.0
  0
SPLINE
  5
1b5
100
AcDbEntity
  8
DEFAULT
 62
7
100
AcDbSpline
 70
8
 71
3
 72
8
 73
4
 74
0
 40
0
 40
0
 40
0
 40
0
 40
1
 40
1
 40
1
 40
1
 10
289.204428
 20
829.100841
 30
0.0
 10
296.671972
 20
830.823836
 30
0.0
 10
305.047537
 20
832.546944
 30
0.0
 10
317.694225
 20
832.546944
 30
0.0
  0
SPLINE
  5
1b6
100
AcDbEntity
  8
DEFAULT
 62
7
100
AcDbSpline
 70
8
 71
3
 72
8
 73
4
 74
0
 40
0
 40
0
 40
0
 40
0
 40
1
 40
1
 40
1
 40
1
 10
186.588829
 20
824.485069
 30
0.0
 10
176.931439
 20
824.485069
 30
0.0
 10
168.024364
 20
822.898020
 30
0.0
 10
158.906470
 20
820.812342
 30
0.0
  0
SPLINE
  5
1b7
100
AcDbEntity
  8
DEFAULT
 62
7
100
AcDbSpline
 70
8
 71
3
 72
8
 73
4
 74
0
 40
0
 40
0
 40
0
 40
0
 40
1
 40
1
 40
1
 40
1
 10
158.906470
 20
820.812342
 30
0.0
 10
151.444994
 20
819.089347
 30
0.0
 10
143.079476
 20
817.366211
 30
0.0
 10
130.436541
 20
817.366211
 30
0.0
  0
SPLINE
  5
1b8
100
AcDbEntity
  8
DEFAULT
 62
7
100
AcDbSpline
 70
8
 71
3
 72
8
 73
4
 74
0
 40
0
 40
0
 40
0
 40
0
 40
1
 40
1
 40
1
 40
1
 10
186.643919
 20
810.256638
 30
0.0
 10
176.992455
 20
810.256638
 30
0.0
 10
168.073584
 20
811.843545
 30
0.0
 10
158.938050
 20
813.929393
 30
0.0
  0
SPLINE
  5
1b9
100
AcDbEntity
  8
DEFAULT
 62
7
100
AcDbSpline
 70
8
 71
3
 72
8
 73
4
 74
0
 40
0
 40
0
 40
0
 40
0
 40
1
 40
1
 40
1
 40
1
 10
158.938050
 20
813.929393
 30
0.0
 10
151.462661
 20
815.652360
 30
0.0
 10
143.079476
 20
817.375326
 30
0.0
 10
130.436541
 20
817.375326
 30
0.0
  0
SPLINE
  5
1ba
100
AcDbEntity
  8
DEFAULT
 62
7
100
AcDbSpline
 70
8
 71
3
 72
8
 73
4
 74
0
 40
0
 40
0
 40
0
 40
0
 40
1
 40
1
 40
1
 40
1
 10
36.861812
 20
810.256638
 30
0.0
 10
46.515308
 20
810.256638
 30
0.0
 10
55.414508
 20
811.843545
 30
0.0
 10
64.524501
 20
813.929393
 30
0.0
  0
SPLINE
  5
1bb
100
AcDbEntity
  8
DEFAULT
 62
7
100
AcDbSpline
 70
8
 71
3
 72
8
 73
4
 74
0
 40
0
 40
0
 40
0
 40
0
 40
1
 40
1
 40
1
 40
1
 10
64.524501
 20
813.929393
 30
0.0
 10
71.980247
 20
815.652360
 30
0.0
 10
80.343790
 20
817.375326
 30
0.0
 10
92.984580
 20
817.375326
 30
0.0
  0
SPLINE
  5
1bc
100
AcDbEntity
  8
DEFAULT
 62
7
100
AcDbSpline
 70
8
 71
3
 72
8
 73
4
 74
0
 40
0
 40
0
 40
0
 40
0
 40
1
 40
1
 40
1
 40
1
 10
36.749657
 20
824.485069
 30
0.0
 10
46.406963
 20
824.485069
 30
0.0
 10
55.335768
 20
822.898020
 30
0.0
 10
64.475281
 20
820.812342
 30
0.0
  0
SPLINE
  5
1bd
100
AcDbEntity
  8
DEFAULT
 62
7
100
AcDbSpline
 70
8
 71
3
 72
8
 73
4
 74
0
 40
0
 40
0
 40
0
 40
0
 40
1
 40
1
 40
1
 40
1
 10
64.475281
 20
820.812342
 30
0.0
 10
71.956512
 20
819.089347
 30
0.0
 10
80.343790
 20
817.366211
 30
0.0
 10
92.984580
 20
817.366211
 30
0.0
  0
SPLINE
  5
1be
100
AcDbEntity
  8
DEFAULT
 62
7
100
AcDbSpline
 70
8
 71
3
 72
8
 73
4
 74
0
 40
0
 40
0
 40
0
 40
0
 40
1
 40
1
 40
1
 40
1
 10
55.642939
 20
802.190190
 30
0.0
 10
68.280003
 20
802.190190
 30
0.0
 10
76.639426
 20
803.913157
 30
0.0
 10
84.093253
 20
805.636293
 30
0.0
  0
SPLINE
  5
1bf
100
AcDbEntity
  8
DEFAULT
 62
7
100
AcDbSpline
 70
8
 71
3
 72
8
 73
4
 74
0
 40
0
 40
0
 40
0
 40
0
 40
1
 40
1
 40
1
 40
1
 10
84.093253
 20
805.636293
 30
0.0
 10
93.203302
 20
807.722000
 30
0.0
 10
102.104421
 20
809.309020
 30
0.0
 10
111.755942
 20
809.309020
 30
0.0
  0
SPLINE
  5
1c0
100
AcDbEntity
  8
DEFAULT
 62
7
100
AcDbSpline
 70
8
 71
3
 72
8
 73
4
 74
0
 40
0
 40
0
 40
0
 40
0
 40
1
 40
1
 40
1
 40
1
 10
111.755942
 20
809.309020
 30
0.0
 10
121.409296
 20
809.309020
 30
0.0
 10
130.332232
 20
807.722000
 30
0.0
 10
139.467737
 20
805.636293
 30
0.0
  0
SPLINE
  5
1c1
100
AcDbEntity
  8
DEFAULT
 62
7
100
AcDbSpline
 70
8
 71
3
 72
8
 73
4
 74
0
 40
0
 40
0
 40
0
 40
0
 40
1
 40
1
 40
1
 40
1
 10
139.467737
 20
805.636293
 30
0.0
 10
146.941038
 20
803.913157
 30
0.0
 10
155.322445
 20
802.190190
 30
0.0
 10
167.957477
 20
802.190190
 30
0.0
  0
SPLINE
  5
1c2
100
AcDbEntity
  8
DEFAULT
 62
7
100
AcDbSpline
 70
8
 71
3
 72
8
 73
4
 74
0
 40
0
 40
0
 40
0
 40
0
 40
1
 40
1
 40
1
 40
1
 10
55.420548
 20
832.546944
 30
0.0
 10
68.067151
 20
832.546944
 30
0.0
 10
76.456405
 20
830.823836
 30
0.0
 10
83.939668
 20
829.100841
 30
0.0
  0
SPLINE
  5
1c3
100
AcDbEntity
  8
DEFAULT
 62
7
100
AcDbSpline
 70
8
 71
3
 72
8
 73
4
 74
0
 40
0
 40
0
 40
0
 40
0
 40
1
 40
1
 40
1
 40
1
 10
83.939668
 20
829.100841
 30
0.0
 10
93.081100
 20
827.015163
 30
0.0
 10
102.005982
 20
825.428142
 30
0.0
 10
111.661341
 20
825.428142
 30
0.0
  0
SPLINE
  5
1c4
100
AcDbEntity
  8
DEFAULT
 62
7
100
AcDbSpline
 70
8
 71
3
 72
8
 73
4
 74
0
 40
0
 40
0
 40
0
 40
0
 40
1
 40
1
 40
1
 40
1
 10
111.661341
 20
825.428142
 30
0.0
 10
121.318703
 20
825.428142
 30
0.0
 10
130.227809
 20
827.015163
 30
0.0
 10
139.345478
 20
829.100841
 30
0.0
  0
SPLINE
  5
1c5
100
AcDbEntity
  8
DEFAULT
 62
7
100
AcDbSpline
 70
8
 71
3
 72
8
 73
4
 74
0
 40
0
 40
0
 40
0
 40
0
 40
1
 40
1
 40
1
 40
1
 10
139.345478
 20
829.100841
 30
0.0
 10
146.807349
 20
830.823836
 30
0.0
 10
155.176621
 20
832.546944
 30
0.0
 10
167.823450
 20
832.546944
 30
0.0
  0
SPLINE
  5
1c6
100
AcDbEntity
  8
DEFAULT
 62
7
100
AcDbSpline
 70
8
 71
3
 72
8
 73
4
 74
0
 40
0
 40
0
 40
0
 40
0
 40
1
 40
1
 40
1
 40
1
 10
186.539638
 20
840.608706
 30
0.0
 10
196.198891
 20
840.608706
 30
0.0
 10
205.115871
 20
842.195755
 30
0.0
 10
214.243615
 20
844.281434
 30
0.0
  0
SPLINE
  5
1c7
100
AcDbEntity
  8
DEFAULT
 62
7
100
AcDbSpline
 70
8
 71
3
 72
8
 73
4
 74
0
 40
0
 40
0
 40
0
 40
0
 40
1
 40
1
 40
1
 40
1
 10
214.243615
 20
844.281434
 30
0.0
 10
221.712937
 20
846.004570
 30
0.0
 10
230.090449
 20
847.727564
 30
0.0
 10
242.739226
 20
847.727564
 30
0.0
  0
SPLINE
  5
1c8
100
AcDbEntity
  8
DEFAULT
 62
7
100
AcDbSpline
 70
8
 71
3
 72
8
 73
4
 74
0
 40
0
 40
0
 40
0
 40
0
 40
1
 40
1
 40
1
 40
1
 10
186.510117
 20
854.837137
 30
0.0
 10
196.173350
 20
854.837137
 30
0.0
 10
205.096257
 20
853.250258
 30
0.0
 10
214.231705
 20
851.164410
 30
0.0
  0
SPLINE
  5
1c9
100
AcDbEntity
  8
DEFAULT
 62
7
100
AcDbSpline
 70
8
 71
3
 72
8
 73
4
 74
0
 40
0
 40
0
 40
0
 40
0
 40
1
 40
1
 40
1
 40
1
 10
214.231705
 20
851.164410
 30
0.0
 10
221.709211
 20
849.441415
 30
0.0
 10
230.090449
 20
847.718449
 30
0.0
 10
242.739226
 20
847.718449
 30
0.0
  0
SPLINE
  5
1ca
100
AcDbEntity
  8
DEFAULT
 62
7
100
AcDbSpline
 70
8
 71
3
 72
8
 73
4
 74
0
 40
0
 40
0
 40
0
 40
0
 40
1
 40
1
 40
1
 40
1
 10
205.291103
 20
832.546944
 30
0.0
 10
217.937848
 20
832.546944
 30
0.0
 10
226.311325
 20
834.269967
 30
0.0
 10
233.782989
 20
835.992934
 30
0.0
  0
SPLINE
  5
1cb
100
AcDbEntity
  8
DEFAULT
 62
7
100
AcDbSpline
 70
8
 71
3
 72
8
 73
4
 74
0
 40
0
 40
0
 40
0
 40
0
 40
1
 40
1
 40
1
 40
1
 10
233.782989
 20
835.992934
 30
0.0
 10
242.908418
 20
838.078612
 30
0.0
 10
251.823480
 20
839.665661
 30
0.0
 10
261.482789
 20
839.665661
 30
0.0
  0
SPLINE
  5
1cc
100
AcDbEntity
  8
DEFAULT
 62
7
100
AcDbSpline
 70
8
 71
3
 72
8
 73
4
 74
0
 40
0
 40
0
 40
0
 40
0
 40
1
 40
1
 40
1
 40
1
 10
261.482789
 20
839.665661
 30
0.0
 10
271.144187
 20
839.665661
 30
0.0
 10
280.062974
 20
838.078612
 30
0.0
 10
289.196582
 20
835.992934
 30
0.0
  0
SPLINE
  5
1cd
100
AcDbEntity
  8
DEFAULT
 62
7
100
AcDbSpline
 70
8
 71
3
 72
8
 73
4
 74
0
 40
0
 40
0
 40
0
 40
0
 40
1
 40
1
 40
1
 40
1
 10
289.196582
 20
835.992934
 30
0.0
 10
296.668105
 20
834.269967
 30
0.0
 10
305.047537
 20
832.546944
 30
0.0
 10
317.694225
 20
832.546944
 30
0.0
  0
SPLINE
  5
1ce
100
AcDbEntity
  8
DEFAULT
 62
7
100
AcDbSpline
 70
8
 71
3
 72
8
 73
4
 74
0
 40
0
 40
0
 40
0
 40
0
 40
1
 40
1
 40
1
 40
1
 10
205.234179
 20
862.903585
 30
0.0
 10
217.886681
 20
862.903585
 30
0.0
 10
226.271983
 20
861.180618
 30
0.0
 10
233.747457
 20
859.457623
 30
0.0
  0
SPLINE
  5
1cf
100
AcDbEntity
  8
DEFAULT
 62
7
100
AcDbSpline
 70
8
 71
3
 72
8
 73
4
 74
0
 40
0
 40
0
 40
0
 40
0
 40
1
 40
1
 40
1
 40
1
 10
233.747457
 20
859.457623
 30
0.0
 10
242.882877
 20
857.371775
 30
0.0
 10
251.805784
 20
855.784924
 30
0.0
 10
261.465094
 20
855.784924
 30
0.0
  0
SPLINE
  5
1d0
100
AcDbEntity
  8
DEFAULT
 62
7
100
AcDbSpline
 70
8
 71
3
 72
8
 73
4
 74
0
 40
0
 40
0
 40
0
 40
0
 40
1
 40
1
 40
1
 40
1
 10
261.465094
 20
855.784924
 30
0.0
 10
271.128467
 20
855.784924
 30
0.0
 10
280.047367
 20
857.371775
 30
0.0
 10
289.180806
 20
859.457623
 30
0.0
  0
SPLINE
  5
1d1
100
AcDbEntity
  8
DEFAULT
 62
7
100
AcDbSpline
 70
8
 71
3
 72
8
 73
4
 74
0
 40
0
 40
0
 40
0
 40
0
 40
1
 40
1
 40
1
 40
1
 10
289.180806
 20
859.457623
 30
0.0
 10
296.654276
 20
861.180618
 30
0.0
 10
305.035684
 20
862.903585
 30
0.0
 10
317.686380
 20
862.903585
 30
0.0
  0
SPLINE
  5
1d2
100
AcDbEntity
  8
DEFAULT
 62
7
100
AcDbSpline
 70
8
 71
3
 72
8
 73
4
 74
0
 40
0
 40
0
 40
0
 40
0
 40
1
 40
1
 40
1
 40
1
 10
186.510117
 20
854.837137
 30
0.0
 10
176.848776
 20
854.837137
 30
0.0
 10
167.931965
 20
853.250258
 30
0.0
 10
158.806140
 20
851.164410
 30
0.0
  0
SPLINE
  5
1d3
100
AcDbEntity
  8
DEFAULT
 62
7
100
AcDbSpline
 70
8
 71
3
 72
8
 73
4
 74
0
 40
0
 40
0
 40
0
 40
0
 40
1
 40
1
 40
1
 40
1
 10
158.806140
 20
851.164410
 30
0.0
 10
151.336479
 20
849.441415
 30
0.0
 10
142.961253
 20
847.718449
 30
0.0
 10
130.312476
 20
847.718449
 30
0.0
  0
SPLINE
  5
1d4
100
AcDbEntity
  8
DEFAULT
 62
7
100
AcDbSpline
 70
8
 71
3
 72
8
 73
4
 74
0
 40
0
 40
0
 40
0
 40
0
 40
1
 40
1
 40
1
 40
1
 10
186.539638
 20
840.608706
 30
0.0
 10
176.880215
 20
840.608706
 30
0.0
 10
167.959312
 20
842.195755
 30
0.0
 10
158.821888
 20
844.281434
 30
0.0
  0
SPLINE
  5
1d5
100
AcDbEntity
  8
DEFAULT
 62
7
100
AcDbSpline
 70
8
 71
3
 72
8
 73
4
 74
0
 40
0
 40
0
 40
0
 40
0
 40
1
 40
1
 40
1
 40
1
 10
158.821888
 20
844.281434
 30
0.0
 10
151.346357
 20
846.004570
 30
0.0
 10
142.961253
 20
847.727564
 30
0.0
 10
130.312476
 20
847.727564
 30
0.0
  0
SPLINE
  5
1d6
100
AcDbEntity
  8
DEFAULT
 62
7
100
AcDbSpline
 70
8
 71
3
 72
8
 73
4
 74
0
 40
0
 40
0
 40
0
 40
0
 40
1
 40
1
 40
1
 40
1
 10
36.651161
 20
840.608706
 30
0.0
 10
46.312362
 20
840.608706
 30
0.0
 10
55.223500
 20
842.195755
 30
0.0
 10
64.347265
 20
844.281434
 30
0.0
  0
SPLINE
  5
1d7
100
AcDbEntity
  8
DEFAULT
 62
7
100
AcDbSpline
 70
8
 71
3
 72
8
 73
4
 74
0
 40
0
 40
0
 40
0
 40
0
 40
1
 40
1
 40
1
 40
1
 10
64.347265
 20
844.281434
 30
0.0
 10
71.812805
 20
846.004570
 30
0.0
 10
80.186225
 20
847.727564
 30
0.0
 10
92.834945
 20
847.727564
 30
0.0
  0
SPLINE
  5
1d8
100
AcDbEntity
  8
DEFAULT
 62
7
100
AcDbSpline
 70
8
 71
3
 72
8
 73
4
 74
0
 40
0
 40
0
 40
0
 40
0
 40
1
 40
1
 40
1
 40
1
 10
36.592064
 20
854.837137
 30
0.0
 10
46.253377
 20
854.837137
 30
0.0
 10
55.180264
 20
853.250258
 30
0.0
 10
64.321583
 20
851.164410
 30
0.0
  0
SPLINE
  5
1d9
100
AcDbEntity
  8
DEFAULT
 62
7
100
AcDbSpline
 70
8
 71
3
 72
8
 73
4
 74
0
 40
0
 40
0
 40
0
 40
0
 40
1
 40
1
 40
1
 40
1
 10
64.321583
 20
851.164410
 30
0.0
 10
71.800951
 20
849.441415
 30
0.0
 10
80.186225
 20
847.718449
 30
0.0
 10
92.834945
 20
847.718449
 30
0.0
  0
SPLINE
  5
1da
100
AcDbEntity
  8
DEFAULT
 62
7
100
AcDbSpline
 70
8
 71
3
 72
8
 73
4
 74
0
 40
0
 40
0
 40
0
 40
0
 40
1
 40
1
 40
1
 40
1
 10
55.420548
 20
832.546944
 30
0.0
 10
68.067151
 20
832.546944
 30
0.0
 10
76.436649
 20
834.269967
 30
0.0
 10
83.902132
 20
835.992934
 30
0.0
  0
SPLINE
  5
1db
100
AcDbEntity
  8
DEFAULT
 62
7
100
AcDbSpline
 70
8
 71
3
 72
8
 73
4
 74
0
 40
0
 40
0
 40
0
 40
0
 40
1
 40
1
 40
1
 40
1
 10
83.902132
 20
835.992934
 30
0.0
 10
93.026010
 20
838.078612
 30
0.0
 10
101.937148
 20
839.665661
 30
0.0
 10
111.596401
 20
839.665661
 30
0.0
  0
SPLINE
  5
1dc
100
AcDbEntity
  8
DEFAULT
 62
7
100
AcDbSpline
 70
8
 71
3
 72
8
 73
4
 74
0
 40
0
 40
0
 40
0
 40
0
 40
1
 40
1
 40
1
 40
1
 10
111.596401
 20
839.665661
 30
0.0
 10
121.257799
 20
839.665661
 30
0.0
 10
130.180509
 20
838.078612
 30
0.0
 10
139.320078
 20
835.992934
 30
0.0
  0
SPLINE
  5
1dd
100
AcDbEntity
  8
DEFAULT
 62
7
100
AcDbSpline
 70
8
 71
3
 72
8
 73
4
 74
0
 40
0
 40
0
 40
0
 40
0
 40
1
 40
1
 40
1
 40
1
 10
139.320078
 20
835.992934
 30
0.0
 10
146.795467
 20
834.269967
 30
0.0
 10
155.176621
 20
832.546944
 30
0.0
 10
167.823450
 20
832.546944
 30
0.0
  0
SPLINE
  5
1de
100
AcDbEntity
  8
DEFAULT
 62
7
100
AcDbSpline
 70
8
 71
3
 72
8
 73
4
 74
0
 40
0
 40
0
 40
0
 40
0
 40
1
 40
1
 40
1
 40
1
 10
55.300321
 20
862.903585
 30
0.0
 10
67.950904
 20
862.903585
 30
0.0
 10
76.342105
 20
861.180618
 30
0.0
 10
83.821445
 20
859.457623
 30
0.0
  0
SPLINE
  5
1df
100
AcDbEntity
  8
DEFAULT
 62
7
100
AcDbSpline
 70
8
 71
3
 72
8
 73
4
 74
0
 40
0
 40
0
 40
0
 40
0
 40
1
 40
1
 40
1
 40
1
 10
83.821445
 20
859.457623
 30
0.0
 10
92.961014
 20
857.371775
 30
0.0
 10
101.885784
 20
855.784924
 30
0.0
 10
111.545122
 20
855.784924
 30
0.0
  0
SPLINE
  5
1e0
100
AcDbEntity
  8
DEFAULT
 62
7
100
AcDbSpline
 70
8
 71
3
 72
8
 73
4
 74
0
 40
0
 40
0
 40
0
 40
0
 40
1
 40
1
 40
1
 40
1
 10
111.545122
 20
855.784924
 30
0.0
 10
121.208467
 20
855.784924
 30
0.0
 10
130.125363
 20
857.371775
 30
0.0
 10
139.252994
 20
859.457623
 30
0.0
  0
SPLINE
  5
1e1
100
AcDbEntity
  8
DEFAULT
 62
7
100
AcDbSpline
 70
8
 71
3
 72
8
 73
4
 74
0
 40
0
 40
0
 40
0
 40
0
 40
1
 40
1
 40
1
 40
1
 10
139.252994
 20
859.457623
 30
0.0
 10
146.724630
 20
861.180618
 30
0.0
 10
155.099941
 20
862.903585
 30
0.0
 10
167.752584
 20
862.903585
 30
0.0
  0
SPLINE
  5
1e2
100
AcDbEntity
  8
DEFAULT
 62
7
100
AcDbSpline
 70
8
 71
3
 72
8
 73
4
 74
0
 40
0
 40
0
 40
0
 40
0
 40
1
 40
1
 40
1
 40
1
 10
186.486382
 20
870.965488
 30
0.0
 10
196.147837
 20
870.965488
 30
0.0
 10
205.070603
 20
872.552396
 30
0.0
 10
214.202185
 20
874.638244
 30
0.0
  0
SPLINE
  5
1e3
100
AcDbEntity
  8
DEFAULT
 62
7
100
AcDbSpline
 70
8
 71
3
 72
8
 73
4
 74
0
 40
0
 40
0
 40
0
 40
0
 40
1
 40
1
 40
1
 40
1
 10
214.202185
 20
874.638244
 30
0.0
 10
221.675627
 20
876.361210
 30
0.0
 10
230.056950
 20
878.084177
 30
0.0
 10
242.711540
 20
878.084177
 30
0.0
  0
SPLINE
  5
1e4
100
AcDbEntity
  8
DEFAULT
 62
7
100
AcDbSpline
 70
8
 71
3
 72
8
 73
4
 74
0
 40
0
 40
0
 40
0
 40
0
 40
1
 40
1
 40
1
 40
1
 10
186.472666
 20
885.193919
 30
0.0
 10
196.136012
 20
885.193919
 30
0.0
 10
205.058834
 20
883.606871
 30
0.0
 10
214.198431
 20
881.521192
 30
0.0
  0
SPLINE
  5
1e5
100
AcDbEntity
  8
DEFAULT
 62
7
100
AcDbSpline
 70
8
 71
3
 72
8
 73
4
 74
0
 40
0
 40
0
 40
0
 40
0
 40
1
 40
1
 40
1
 40
1
 10
214.198431
 20
881.521192
 30
0.0
 10
221.673680
 20
879.798197
 30
0.0
 10
230.056950
 20
878.075089
 30
0.0
 10
242.711540
 20
878.075089
 30
0.0
  0
SPLINE
  5
1e6
100
AcDbEntity
  8
DEFAULT
 62
7
100
AcDbSpline
 70
8
 71
3
 72
8
 73
4
 74
0
 40
0
 40
0
 40
0
 40
0
 40
1
 40
1
 40
1
 40
1
 10
205.234179
 20
862.903585
 30
0.0
 10
217.886681
 20
862.903585
 30
0.0
 10
226.268088
 20
864.626580
 30
0.0
 10
233.741417
 20
866.349574
 30
0.0
  0
SPLINE
  5
1e7
100
AcDbEntity
  8
DEFAULT
 62
7
100
AcDbSpline
 70
8
 71
3
 72
8
 73
4
 74
0
 40
0
 40
0
 40
0
 40
0
 40
1
 40
1
 40
1
 40
1
 10
233.741417
 20
866.349574
 30
0.0
 10
242.873028
 20
868.435366
 30
0.0
 10
251.791984
 20
870.022302
 30
0.0
 10
261.455301
 20
870.022302
 30
0.0
  0
SPLINE
  5
1e8
100
AcDbEntity
  8
DEFAULT
 62
7
100
AcDbSpline
 70
8
 71
3
 72
8
 73
4
 74
0
 40
0
 40
0
 40
0
 40
0
 40
1
 40
1
 40
1
 40
1
 10
261.455301
 20
870.022302
 30
0.0
 10
271.120509
 20
870.022302
 30
0.0
 10
280.041469
 20
868.435366
 30
0.0
 10
289.179000
 20
866.349574
 30
0.0
  0
SPLINE
  5
1e9
100
AcDbEntity
  8
DEFAULT
 62
7
100
AcDbSpline
 70
8
 71
3
 72
8
 73
4
 74
0
 40
0
 40
0
 40
0
 40
0
 40
1
 40
1
 40
1
 40
1
 10
289.179000
 20
866.349574
 30
0.0
 10
296.654276
 20
864.626580
 30
0.0
 10
305.035684
 20
862.903585
 30
0.0
 10
317.686380
 20
862.903585
 30
0.0
  0
SPLINE
  5
1ea
100
AcDbEntity
  8
DEFAULT
 62
7
100
AcDbSpline
 70
8
 71
3
 72
8
 73
4
 74
0
 40
0
 40
0
 40
0
 40
0
 40
1
 40
1
 40
1
 40
1
 10
205.210472
 20
893.255682
 30
0.0
 10
217.865006
 20
893.255682
 30
0.0
 10
226.248248
 20
891.532715
 30
0.0
 10
233.725697
 20
889.809720
 30
0.0
  0
SPLINE
  5
1eb
100
AcDbEntity
  8
DEFAULT
 62
7
100
AcDbSpline
 70
8
 71
3
 72
8
 73
4
 74
0
 40
0
 40
0
 40
0
 40
0
 40
1
 40
1
 40
1
 40
1
 10
233.725697
 20
889.809720
 30
0.0
 10
242.861174
 20
887.724041
 30
0.0
 10
251.784081
 20
886.136993
 30
0.0
 10
261.447483
 20
886.136993
 30
0.0
  0
SPLINE
  5
1ec
100
AcDbEntity
  8
DEFAULT
 62
7
100
AcDbSpline
 70
8
 71
3
 72
8
 73
4
 74
0
 40
0
 40
0
 40
0
 40
0
 40
1
 40
1
 40
1
 40
1
 10
261.447483
 20
886.136993
 30
0.0
 10
271.112578
 20
886.136993
 30
0.0
 10
280.035514
 20
887.724041
 30
0.0
 10
289.171041
 20
889.809720
 30
0.0
  0
SPLINE
  5
1ed
100
AcDbEntity
  8
DEFAULT
 62
7
100
AcDbSpline
 70
8
 71
3
 72
8
 73
4
 74
0
 40
0
 40
0
 40
0
 40
0
 40
1
 40
1
 40
1
 40
1
 10
289.171041
 20
889.809720
 30
0.0
 10
296.646515
 20
891.532715
 30
0.0
 10
305.027640
 20
893.255682
 30
0.0
 10
317.682316
 20
893.255682
 30
0.0
  0
SPLINE
  5
1ee
100
AcDbEntity
  8
DEFAULT
 62
7
100
AcDbSpline
 70
8
 71
3
 72
8
 73
4
 74
0
 40
0
 40
0
 40
0
 40
0
 40
1
 40
1
 40
1
 40
1
 10
186.472666
 20
885.193919
 30
0.0
 10
176.809321
 20
885.193919
 30
0.0
 10
167.888361
 20
883.606871
 30
0.0
 10
158.755029
 20
881.521192
 30
0.0
  0
SPLINE
  5
1ef
100
AcDbEntity
  8
DEFAULT
 62
7
100
AcDbSpline
 70
8
 71
3
 72
8
 73
4
 74
0
 40
0
 40
0
 40
0
 40
0
 40
1
 40
1
 40
1
 40
1
 10
158.755029
 20
881.521192
 30
0.0
 10
151.281361
 20
879.798197
 30
0.0
 10
142.902155
 20
878.075089
 30
0.0
 10
130.247480
 20
878.075089
 30
0.0
  0
SPLINE
  5
1f0
100
AcDbEntity
  8
DEFAULT
 62
7
100
AcDbSpline
 70
8
 71
3
 72
8
 73
4
 74
0
 40
0
 40
0
 40
0
 40
0
 40
1
 40
1
 40
1
 40
1
 10
186.486382
 20
870.965488
 30
0.0
 10
176.823122
 20
870.965488
 30
0.0
 10
167.898408
 20
872.552396
 30
0.0
 10
158.762762
 20
874.638244
 30
0.0
  0
SPLINE
  5
1f1
100
AcDbEntity
  8
DEFAULT
 62
7
100
AcDbSpline
 70
8
 71
3
 72
8
 73
4
 74
0
 40
0
 40
0
 40
0
 40
0
 40
1
 40
1
 40
1
 40
1
 10
158.762762
 20
874.638244
 30
0.0
 10
151.285425
 20
876.361210
 30
0.0
 10
142.902155
 20
878.084177
 30
0.0
 10
130.247480
 20
878.084177
 30
0.0
  0
SPLINE
  5
1f2
100
AcDbEntity
  8
DEFAULT
 62
7
100
AcDbSpline
 70
8
 71
3
 72
8
 73
4
 74
0
 40
0
 40
0
 40
0
 40
0
 40
1
 40
1
 40
1
 40
1
 10
36.542873
 20
870.965488
 30
0.0
 10
46.206218
 20
870.965488
 30
0.0
 10
55.125118
 20
872.552396
 30
0.0
 10
64.256813
 20
874.638244
 30
0.0
  0
SPLINE
  5
1f3
100
AcDbEntity
  8
DEFAULT
 62
7
100
AcDbSpline
 70
8
 71
3
 72
8
 73
4
 74
0
 40
0
 40
0
 40
0
 40
0
 40
1
 40
1
 40
1
 40
1
 10
64.256813
 20
874.638244
 30
0.0
 10
71.728082
 20
876.361210
 30
0.0
 10
80.107372
 20
878.084177
 30
0.0
 10
92.760100
 20
878.084177
 30
0.0
  0
SPLINE
  5
1f4
100
AcDbEntity
  8
DEFAULT
 62
7
100
AcDbSpline
 70
8
 71
3
 72
8
 73
4
 74
0
 40
0
 40
0
 40
0
 40
0
 40
1
 40
1
 40
1
 40
1
 10
36.517303
 20
885.193919
 30
0.0
 10
46.180564
 20
885.193919
 30
0.0
 10
55.105334
 20
883.606871
 30
0.0
 10
64.244903
 20
881.521192
 30
0.0
  0
SPLINE
  5
1f5
100
AcDbEntity
  8
DEFAULT
 62
7
100
AcDbSpline
 70
8
 71
3
 72
8
 73
4
 74
0
 40
0
 40
0
 40
0
 40
0
 40
1
 40
1
 40
1
 40
1
 10
64.244903
 20
881.521192
 30
0.0
 10
71.722211
 20
879.798197
 30
0.0
 10
80.107372
 20
878.075089
 30
0.0
 10
92.760100
 20
878.075089
 30
0.0
  0
SPLINE
  5
1f6
100
AcDbEntity
  8
DEFAULT
 62
7
100
AcDbSpline
 70
8
 71
3
 72
8
 73
4
 74
0
 40
0
 40
0
 40
0
 40
0
 40
1
 40
1
 40
1
 40
1
 10
55.300321
 20
862.903585
 30
0.0
 10
67.950904
 20
862.903585
 30
0.0
 10
76.330421
 20
864.626580
 30
0.0
 10
83.803778
 20
866.349574
 30
0.0
  0
SPLINE
  5
1f7
100
AcDbEntity
  8
DEFAULT
 62
7
100
AcDbSpline
 70
8
 71
3
 72
8
 73
4
 74
0
 40
0
 40
0
 40
0
 40
0
 40
1
 40
1
 40
1
 40
1
 10
83.803778
 20
866.349574
 30
0.0
 10
92.931409
 20
868.435366
 30
0.0
 10
101.850309
 20
870.022302
 30
0.0
 10
111.513682
 20
870.022302
 30
0.0
  0
SPLINE
  5
1f8
100
AcDbEntity
  8
DEFAULT
 62
7
100
AcDbSpline
 70
8
 71
3
 72
8
 73
4
 74
0
 40
0
 40
0
 40
0
 40
0
 40
1
 40
1
 40
1
 40
1
 10
111.513682
 20
870.022302
 30
0.0
 10
121.178918
 20
870.022302
 30
0.0
 10
130.101825
 20
868.435366
 30
0.0
 10
139.239391
 20
866.349574
 30
0.0
  0
SPLINE
  5
1f9
100
AcDbEntity
  8
DEFAULT
 62
7
100
AcDbSpline
 70
8
 71
3
 72
8
 73
4
 74
0
 40
0
 40
0
 40
0
 40
0
 40
1
 40
1
 40
1
 40
1
 10
139.239391
 20
866.349574
 30
0.0
 10
146.716586
 20
864.626580
 30
0.0
 10
155.099941
 20
862.903585
 30
0.0
 10
167.752584
 20
862.903585
 30
0.0
  0
SPLINE
  5
1fa
100
AcDbEntity
  8
DEFAULT
 62
7
100
AcDbSpline
 70
8
 71
3
 72
8
 73
4
 74
0
 40
0
 40
0
 40
0
 40
0
 40
1
 40
1
 40
1
 40
1
 10
55.245203
 20
893.255682
 30
0.0
 10
67.899878
 20
893.255682
 30
0.0
 10
76.286958
 20
891.532715
 30
0.0
 10
83.764295
 20
889.809720
 30
0.0
  0
SPLINE
  5
1fb
100
AcDbEntity
  8
DEFAULT
 62
7
100
AcDbSpline
 70
8
 71
3
 72
8
 73
4
 74
0
 40
0
 40
0
 40
0
 40
0
 40
1
 40
1
 40
1
 40
1
 10
83.764295
 20
889.809720
 30
0.0
 10
92.901860
 20
887.724041
 30
0.0
 10
101.826687
 20
886.136993
 30
0.0
 10
111.490032
 20
886.136993
 30
0.0
  0
SPLINE
  5
1fc
100
AcDbEntity
  8
DEFAULT
 62
7
100
AcDbSpline
 70
8
 71
3
 72
8
 73
4
 74
0
 40
0
 40
0
 40
0
 40
0
 40
1
 40
1
 40
1
 40
1
 10
111.490032
 20
886.136993
 30
0.0
 10
121.155212
 20
886.136993
 30
0.0
 10
130.076087
 20
887.724041
 30
0.0
 10
139.211677
 20
889.809720
 30
0.0
  0
SPLINE
  5
1fd
100
AcDbEntity
  8
DEFAULT
 62
7
100
AcDbSpline
 70
8
 71
3
 72
8
 73
4
 74
0
 40
0
 40
0
 40
0
 40
0
 40
1
 40
1
 40
1
 40
1
 10
139.211677
 20
889.809720
 30
0.0
 10
146.683087
 20
891.532715
 30
0.0
 10
155.066413
 20
893.255682
 30
0.0
 10
167.719169
 20
893.255682
 30
0.0
  0
SPLINE
  5
1fe
100
AcDbEntity
  8
DEFAULT
 62
7
100
AcDbSpline
 70
8
 71
3
 72
8
 73
4
 74
0
 40
0
 40
0
 40
0
 40
0
 40
1
 40
1
 40
1
 40
1
 10
186.462873
 20
901.322129
 30
0.0
 10
196.128025
 20
901.322129
 30
0.0
 10
205.048956
 20
902.909177
 30
0.0
 10
214.184490
 20
904.994856
 30
0.0
  0
SPLINE
  5
1ff
100
AcDbEntity
  8
DEFAULT
 62
7
100
AcDbSpline
 70
8
 71
3
 72
8
 73
4
 74
0
 40
0
 40
0
 40
0
 40
0
 40
1
 40
1
 40
1
 40
1
 10
214.184490
 20
904.994856
 30
0.0
 10
221.659851
 20
906.717851
 30
0.0
 10
230.043205
 20
908.440846
 30
0.0
 10
242.697768
 20
908.440846
 30
0.0
  0
SPLINE
  5
200
100
AcDbEntity
  8
DEFAULT
 62
7
100
AcDbSpline
 70
8
 71
3
 72
8
 73
4
 74
0
 40
0
 40
0
 40
0
 40
0
 40
1
 40
1
 40
1
 40
1
 10
186.456975
 20
915.550588
 30
0.0
 10
196.124130
 20
915.550588
 30
0.0
 10
205.046953
 20
913.963540
 30
0.0
 10
214.182429
 20
911.877861
 30
0.0
  0
SPLINE
  5
201
100
AcDbEntity
  8
DEFAULT
 62
7
100
AcDbSpline
 70
8
 71
3
 72
8
 73
4
 74
0
 40
0
 40
0
 40
0
 40
0
 40
1
 40
1
 40
1
 40
1
 10
214.182429
 20
911.877861
 30
0.0
 10
221.659851
 20
910.154866
 30
0.0
 10
230.043205
 20
908.431899
 30
0.0
 10
242.697768
 20
908.431899
 30
0.0
  0
SPLINE
  5
202
100
AcDbEntity
  8
DEFAULT
 62
7
100
AcDbSpline
 70
8
 71
3
 72
8
 73
4
 74
0
 40
0
 40
0
 40
0
 40
0
 40
1
 40
1
 40
1
 40
1
 10
205.210472
 20
893.255682
 30
0.0
 10
217.865006
 20
893.255682
 30
0.0
 10
226.246413
 20
894.978818
 30
0.0
 10
233.721916
 20
896.701784
 30
0.0
  0
SPLINE
  5
203
100
AcDbEntity
  8
DEFAULT
 62
7
100
AcDbSpline
 70
8
 71
3
 72
8
 73
4
 74
0
 40
0
 40
0
 40
0
 40
0
 40
1
 40
1
 40
1
 40
1
 10
233.721916
 20
896.701784
 30
0.0
 10
242.857449
 20
898.787463
 30
0.0
 10
251.778183
 20
900.374511
 30
0.0
 10
261.443419
 20
900.374511
 30
0.0
  0
SPLINE
  5
204
100
AcDbEntity
  8
DEFAULT
 62
7
100
AcDbSpline
 70
8
 71
3
 72
8
 73
4
 74
0
 40
0
 40
0
 40
0
 40
0
 40
1
 40
1
 40
1
 40
1
 10
261.443419
 20
900.374511
 30
0.0
 10
271.108599
 20
900.374511
 30
0.0
 10
280.031647
 20
898.787463
 30
0.0
 10
289.169094
 20
896.701784
 30
0.0
  0
SPLINE
  5
205
100
AcDbEntity
  8
DEFAULT
 62
7
100
AcDbSpline
 70
8
 71
3
 72
8
 73
4
 74
0
 40
0
 40
0
 40
0
 40
0
 40
1
 40
1
 40
1
 40
1
 10
289.169094
 20
896.701784
 30
0.0
 10
296.644483
 20
894.978818
 30
0.0
 10
305.027640
 20
893.255682
 30
0.0
 10
317.682316
 20
893.255682
 30
0.0
  0
SPLINE
  5
206
100
AcDbEntity
  8
DEFAULT
 62
7
100
AcDbSpline
 70
8
 71
3
 72
8
 73
4
 74
0
 40
0
 40
0
 40
0
 40
0
 40
1
 40
1
 40
1
 40
1
 10
205.202570
 20
923.612463
 30
0.0
 10
217.857273
 20
923.612463
 30
0.0
 10
226.240515
 20
921.889468
 30
0.0
 10
233.717823
 20
920.166502
 30
0.0
  0
SPLINE
  5
207
100
AcDbEntity
  8
DEFAULT
 62
7
100
AcDbSpline
 70
8
 71
3
 72
8
 73
4
 74
0
 40
0
 40
0
 40
0
 40
0
 40
1
 40
1
 40
1
 40
1
 10
233.717823
 20
920.166502
 30
0.0
 10
242.853300
 20
918.080654
 30
0.0
 10
251.776179
 20
916.493803
 30
0.0
 10
261.439440
 20
916.493803
 30
0.0
  0
SPLINE
  5
208
100
AcDbEntity
  8
DEFAULT
 62
7
100
AcDbSpline
 70
8
 71
3
 72
8
 73
4
 74
0
 40
0
 40
0
 40
0
 40
0
 40
1
 40
1
 40
1
 40
1
 10
261.439440
 20
916.493803
 30
0.0
 10
271.106680
 20
916.493803
 30
0.0
 10
280.031647
 20
918.080654
 30
0.0
 10
289.167090
 20
920.166502
 30
0.0
  0
SPLINE
  5
209
100
AcDbEntity
  8
DEFAULT
 62
7
100
AcDbSpline
 70
8
 71
3
 72
8
 73
4
 74
0
 40
0
 40
0
 40
0
 40
0
 40
1
 40
1
 40
1
 40
1
 10
289.167090
 20
920.166502
 30
0.0
 10
296.644483
 20
921.889468
 30
0.0
 10
305.025580
 20
923.612463
 30
0.0
 10
317.680396
 20
923.612463
 30
0.0
  0
SPLINE
  5
20a
100
AcDbEntity
  8
DEFAULT
 62
7
100
AcDbSpline
 70
8
 71
3
 72
8
 73
4
 74
0
 40
0
 40
0
 40
0
 40
0
 40
1
 40
1
 40
1
 40
1
 10
186.456975
 20
915.550588
 30
0.0
 10
176.793714
 20
915.550588
 30
0.0
 10
167.868690
 20
913.963540
 30
0.0
 10
158.735133
 20
911.877861
 30
0.0
  0
SPLINE
  5
20b
100
AcDbEntity
  8
DEFAULT
 62
7
100
AcDbSpline
 70
8
 71
3
 72
8
 73
4
 74
0
 40
0
 40
0
 40
0
 40
0
 40
1
 40
1
 40
1
 40
1
 10
158.735133
 20
911.877861
 30
0.0
 10
151.259884
 20
910.154866
 30
0.0
 10
142.876671
 20
908.431899
 30
0.0
 10
130.221996
 20
908.431899
 30
0.0
  0
SPLINE
  5
20c
100
AcDbEntity
  8
DEFAULT
 62
7
100
AcDbSpline
 70
8
 71
3
 72
8
 73
4
 74
0
 40
0
 40
0
 40
0
 40
0
 40
1
 40
1
 40
1
 40
1
 10
186.462873
 20
901.322129
 30
0.0
 10
176.797468
 20
901.322129
 30
0.0
 10
167.872726
 20
902.909177
 30
0.0
 10
158.737277
 20
904.994856
 30
0.0
  0
SPLINE
  5
20d
100
AcDbEntity
  8
DEFAULT
 62
7
100
AcDbSpline
 70
8
 71
3
 72
8
 73
4
 74
0
 40
0
 40
0
 40
0
 40
0
 40
1
 40
1
 40
1
 40
1
 10
158.737277
 20
904.994856
 30
0.0
 10
151.259884
 20
906.717851
 30
0.0
 10
142.876671
 20
908.440846
 30
0.0
 10
130.221996
 20
908.440846
 30
0.0
  0
SPLINE
  5
20e
100
AcDbEntity
  8
DEFAULT
 62
7
100
AcDbSpline
 70
8
 71
3
 72
8
 73
4
 74
0
 40
0
 40
0
 40
0
 40
0
 40
1
 40
1
 40
1
 40
1
 10
36.495544
 20
901.322129
 30
0.0
 10
46.160809
 20
901.322129
 30
0.0
 10
55.083631
 20
902.909177
 30
0.0
 10
64.217302
 20
904.994856
 30
0.0
  0
SPLINE
  5
20f
100
AcDbEntity
  8
DEFAULT
 62
7
100
AcDbSpline
 70
8
 71
3
 72
8
 73
4
 74
0
 40
0
 40
0
 40
0
 40
0
 40
1
 40
1
 40
1
 40
1
 10
64.217302
 20
904.994856
 30
0.0
 10
71.692691
 20
906.717851
 30
0.0
 10
80.073929
 20
908.440846
 30
0.0
 10
92.728548
 20
908.440846
 30
0.0
  0
SPLINE
  5
210
100
AcDbEntity
  8
DEFAULT
 62
7
100
AcDbSpline
 70
8
 71
3
 72
8
 73
4
 74
0
 40
0
 40
0
 40
0
 40
0
 40
1
 40
1
 40
1
 40
1
 10
36.487783
 20
915.550588
 30
0.0
 10
46.150987
 20
915.550588
 30
0.0
 10
55.075842
 20
913.963540
 30
0.0
 10
64.213435
 20
911.877861
 30
0.0
  0
SPLINE
  5
211
100
AcDbEntity
  8
DEFAULT
 62
7
100
AcDbSpline
 70
8
 71
3
 72
8
 73
4
 74
0
 40
0
 40
0
 40
0
 40
0
 40
1
 40
1
 40
1
 40
1
 10
64.213435
 20
911.877861
 30
0.0
 10
71.688683
 20
910.154866
 30
0.0
 10
80.073929
 20
908.431899
 30
0.0
 10
92.728548
 20
908.431899
 30
0.0
  0
SPLINE
  5
212
100
AcDbEntity
  8
DEFAULT
 62
7
100
AcDbSpline
 70
8
 71
3
 72
8
 73
4
 74
0
 40
0
 40
0
 40
0
 40
0
 40
1
 40
1
 40
1
 40
1
 10
55.245203
 20
893.255682
 30
0.0
 10
67.899878
 20
893.255682
 30
0.0
 10
76.283205
 20
894.978818
 30
0.0
 10
83.758622
 20
896.701784
 30
0.0
  0
SPLINE
  5
213
100
AcDbEntity
  8
DEFAULT
 62
7
100
AcDbSpline
 70
8
 71
3
 72
8
 73
4
 74
0
 40
0
 40
0
 40
0
 40
0
 40
1
 40
1
 40
1
 40
1
 10
83.758622
 20
896.701784
 30
0.0
 10
92.892011
 20
898.787463
 30
0.0
 10
101.813055
 20
900.374511
 30
0.0
 10
111.478150
 20
900.374511
 30
0.0
  0
SPLINE
  5
214
100
AcDbEntity
  8
DEFAULT
 62
7
100
AcDbSpline
 70
8
 71
3
 72
8
 73
4
 74
0
 40
0
 40
0
 40
0
 40
0
 40
1
 40
1
 40
1
 40
1
 10
111.478150
 20
900.374511
 30
0.0
 10
121.141552
 20
900.374511
 30
0.0
 10
130.068326
 20
898.787463
 30
0.0
 10
139.205806
 20
896.701784
 30
0.0
  0
SPLINE
  5
215
100
AcDbEntity
  8
DEFAULT
 62
7
100
AcDbSpline
 70
8
 71
3
 72
8
 73
4
 74
0
 40
0
 40
0
 40
0
 40
0
 40
1
 40
1
 40
1
 40
1
 10
139.205806
 20
896.701784
 30
0.0
 10
146.681365
 20
894.978818
 30
0.0
 10
155.066413
 20
893.255682
 30
0.0
 10
167.719169
 20
893.255682
 30
0.0
  0
SPLINE
  5
216
100
AcDbEntity
  8
DEFAULT
 62
7
100
AcDbSpline
 70
8
 71
3
 72
8
 73
4
 74
0
 40
0
 40
0
 40
0
 40
0
 40
1
 40
1
 40
1
 40
1
 10
55.227649
 20
923.612463
 30
0.0
 10
67.884102
 20
923.612463
 30
0.0
 10
76.269291
 20
921.889468
 30
0.0
 10
83.744624
 20
920.166502
 30
0.0
  0
SPLINE
  5
217
100
AcDbEntity
  8
DEFAULT
 62
7
100
AcDbSpline
 70
8
 71
3
 72
8
 73
4
 74
0
 40
0
 40
0
 40
0
 40
0
 40
1
 40
1
 40
1
 40
1
 10
83.744624
 20
920.166502
 30
0.0
 10
92.880270
 20
918.080654
 30
0.0
 10
101.805040
 20
916.493803
 30
0.0
 10
111.468357
 20
916.493803
 30
0.0
  0
SPLINE
  5
218
100
AcDbEntity
  8
DEFAULT
 62
7
100
AcDbSpline
 70
8
 71
3
 72
8
 73
4
 74
0
 40
0
 40
0
 40
0
 40
0
 40
1
 40
1
 40
1
 40
1
 10
111.468357
 20
916.493803
 30
0.0
 10
121.135541
 20
916.493803
 30
0.0
 10
130.058533
 20
918.080654
 30
0.0
 10
139.195787
 20
920.166502
 30
0.0
  0
SPLINE
  5
219
100
AcDbEntity
  8
DEFAULT
 62
7
100
AcDbSpline
 70
8
 71
3
 72
8
 73
4
 74
0
 40
0
 40
0
 40
0
 40
0
 40
1
 40
1
 40
1
 40
1
 10
139.195787
 20
920.166502
 30
0.0
 10
146.671403
 20
921.889468
 30
0.0
 10
155.054531
 20
923.612463
 30
0.0
 10
167.709348
 20
923.612463
 30
0.0
  0
SPLINE
  5
21a
100
AcDbEntity
  8
DEFAULT
 62
7
100
AcDbSpline
 70
8
 71
3
 72
8
 73
4
 74
0
 40
0
 40
0
 40
0
 40
0
 40
1
 40
1
 40
1
 40
1
 10
186.454830
 20
931.678770
 30
0.0
 10
196.120151
 20
931.678770
 30
0.0
 10
205.045005
 20
933.265846
 30
0.0
 10
214.180510
 20
935.351525
 30
0.0
  0
SPLINE
  5
21b
100
AcDbEntity
  8
DEFAULT
 62
7
100
AcDbSpline
 70
8
 71
3
 72
8
 73
4
 74
0
 40
0
 40
0
 40
0
 40
0
 40
1
 40
1
 40
1
 40
1
 10
214.180510
 20
935.351525
 30
0.0
 10
221.655984
 20
937.074661
 30
0.0
 10
230.039141
 20
938.797599
 30
0.0
 10
242.693901
 20
938.797599
 30
0.0
  0
SPLINE
  5
21c
100
AcDbEntity
  8
DEFAULT
 62
7
100
AcDbSpline
 70
8
 71
3
 72
8
 73
4
 74
0
 40
0
 40
0
 40
0
 40
0
 40
1
 40
1
 40
1
 40
1
 10
186.452939
 20
945.907229
 30
0.0
 10
196.120151
 20
945.907229
 30
0.0
 10
205.042945
 20
944.320350
 30
0.0
 10
214.178563
 20
942.234473
 30
0.0
  0
SPLINE
  5
21d
100
AcDbEntity
  8
DEFAULT
 62
7
100
AcDbSpline
 70
8
 71
3
 72
8
 73
4
 74
0
 40
0
 40
0
 40
0
 40
0
 40
1
 40
1
 40
1
 40
1
 10
214.178563
 20
942.234473
 30
0.0
 10
221.655984
 20
940.511478
 30
0.0
 10
230.039141
 20
938.788540
 30
0.0
 10
242.693901
 20
938.788540
 30
0.0
  0
SPLINE
  5
21e
100
AcDbEntity
  8
DEFAULT
 62
7
100
AcDbSpline
 70
8
 71
3
 72
8
 73
4
 74
0
 40
0
 40
0
 40
0
 40
0
 40
1
 40
1
 40
1
 40
1
 10
205.202570
 20
923.612463
 30
0.0
 10
217.857273
 20
923.612463
 30
0.0
 10
226.240515
 20
925.335458
 30
0.0
 10
233.715763
 20
927.058453
 30
0.0
  0
SPLINE
  5
21f
100
AcDbEntity
  8
DEFAULT
 62
7
100
AcDbSpline
 70
8
 71
3
 72
8
 73
4
 74
0
 40
0
 40
0
 40
0
 40
0
 40
1
 40
1
 40
1
 40
1
 10
233.715763
 20
927.058453
 30
0.0
 10
242.853300
 20
929.144273
 30
0.0
 10
251.774260
 20
930.731180
 30
0.0
 10
261.439440
 20
930.731180
 30
0.0
  0
SPLINE
  5
220
100
AcDbEntity
  8
DEFAULT
 62
7
100
AcDbSpline
 70
8
 71
3
 72
8
 73
4
 74
0
 40
0
 40
0
 40
0
 40
0
 40
1
 40
1
 40
1
 40
1
 10
261.439440
 20
930.731180
 30
0.0
 10
271.104874
 20
930.731180
 30
0.0
 10
280.029587
 20
929.144273
 30
0.0
 10
289.167090
 20
927.058453
 30
0.0
  0
SPLINE
  5
221
100
AcDbEntity
  8
DEFAULT
 62
7
100
AcDbSpline
 70
8
 71
3
 72
8
 73
4
 74
0
 40
0
 40
0
 40
0
 40
0
 40
1
 40
1
 40
1
 40
1
 10
289.167090
 20
927.058453
 30
0.0
 10
296.644483
 20
925.335458
 30
0.0
 10
305.025580
 20
923.612463
 30
0.0
 10
317.680396
 20
923.612463
 30
0.0
  0
SPLINE
  5
222
100
AcDbEntity
  8
DEFAULT
 62
7
100
AcDbSpline
 70
8
 71
3
 72
8
 73
4
 74
0
 40
0
 40
0
 40
0
 40
0
 40
1
 40
1
 40
1
 40
1
 10
205.200623
 20
953.969132
 30
0.0
 10
217.857273
 20
953.969132
 30
0.0
 10
226.240515
 20
952.246137
 30
0.0
 10
233.715763
 20
950.523142
 30
0.0
  0
SPLINE
  5
223
100
AcDbEntity
  8
DEFAULT
 62
7
100
AcDbSpline
 70
8
 71
3
 72
8
 73
4
 74
0
 40
0
 40
0
 40
0
 40
0
 40
1
 40
1
 40
1
 40
1
 10
233.715763
 20
950.523142
 30
0.0
 10
242.851466
 20
948.437294
 30
0.0
 10
251.774260
 20
946.850415
 30
0.0
 10
261.439440
 20
946.850415
 30
0.0
  0
SPLINE
  5
224
100
AcDbEntity
  8
DEFAULT
 62
7
100
AcDbSpline
 70
8
 71
3
 72
8
 73
4
 74
0
 40
0
 40
0
 40
0
 40
0
 40
1
 40
1
 40
1
 40
1
 10
261.439440
 20
946.850415
 30
0.0
 10
271.104874
 20
946.850415
 30
0.0
 10
280.029587
 20
948.437294
 30
0.0
 10
289.167090
 20
950.523142
 30
0.0
  0
SPLINE
  5
225
100
AcDbEntity
  8
DEFAULT
 62
7
100
AcDbSpline
 70
8
 71
3
 72
8
 73
4
 74
0
 40
0
 40
0
 40
0
 40
0
 40
1
 40
1
 40
1
 40
1
 10
289.167090
 20
950.523142
 30
0.0
 10
296.642536
 20
952.246137
 30
0.0
 10
305.025580
 20
953.969132
 30
0.0
 10
317.680396
 20
953.969132
 30
0.0
  0
SPLINE
  5
226
100
AcDbEntity
  8
DEFAULT
 62
7
100
AcDbSpline
 70
8
 71
3
 72
8
 73
4
 74
0
 40
0
 40
0
 40
0
 40
0
 40
1
 40
1
 40
1
 40
1
 10
186.452939
 20
945.907229
 30
0.0
 10
176.787646
 20
945.907229
 30
0.0
 10
167.864965
 20
944.320350
 30
0.0
 10
158.729234
 20
942.234473
 30
0.0
  0
SPLINE
  5
227
100
AcDbEntity
  8
DEFAULT
 62
7
100
AcDbSpline
 70
8
 71
3
 72
8
 73
4
 74
0
 40
0
 40
0
 40
0
 40
0
 40
1
 40
1
 40
1
 40
1
 10
158.729234
 20
942.234473
 30
0.0
 10
151.253958
 20
940.511478
 30
0.0
 10
142.868684
 20
938.788540
 30
0.0
 10
130.213896
 20
938.788540
 30
0.0
  0
SPLINE
  5
228
100
AcDbEntity
  8
DEFAULT
 62
7
100
AcDbSpline
 70
8
 71
3
 72
8
 73
4
 74
0
 40
0
 40
0
 40
0
 40
0
 40
1
 40
1
 40
1
 40
1
 10
186.454830
 20
931.678770
 30
0.0
 10
176.787646
 20
931.678770
 30
0.0
 10
167.866771
 20
933.265846
 30
0.0
 10
158.731181
 20
935.351525
 30
0.0
  0
SPLINE
  5
229
100
AcDbEntity
  8
DEFAULT
 62
7
100
AcDbSpline
 70
8
 71
3
 72
8
 73
4
 74
0
 40
0
 40
0
 40
0
 40
0
 40
1
 40
1
 40
1
 40
1
 10
158.731181
 20
935.351525
 30
0.0
 10
151.253958
 20
937.074661
 30
0.0
 10
142.868684
 20
938.797599
 30
0.0
 10
130.213896
 20
938.797599
 30
0.0
  0
SPLINE
  5
22a
100
AcDbEntity
  8
DEFAULT
 62
7
100
AcDbSpline
 70
8
 71
3
 72
8
 73
4
 74
0
 40
0
 40
0
 40
0
 40
0
 40
1
 40
1
 40
1
 40
1
 10
36.481715
 20
931.678770
 30
0.0
 10
46.145173
 20
931.678770
 30
0.0
 10
55.069943
 20
933.265846
 30
0.0
 10
64.205392
 20
935.351525
 30
0.0
  0
SPLINE
  5
22b
100
AcDbEntity
  8
DEFAULT
 62
7
100
AcDbSpline
 70
8
 71
3
 72
8
 73
4
 74
0
 40
0
 40
0
 40
0
 40
0
 40
1
 40
1
 40
1
 40
1
 10
64.205392
 20
935.351525
 30
0.0
 10
71.680809
 20
937.074661
 30
0.0
 10
80.066083
 20
938.797599
 30
0.0
 10
92.720758
 20
938.797599
 30
0.0
  0
SPLINE
  5
22c
100
AcDbEntity
  8
DEFAULT
 62
7
100
AcDbSpline
 70
8
 71
3
 72
8
 73
4
 74
0
 40
0
 40
0
 40
0
 40
0
 40
1
 40
1
 40
1
 40
1
 10
36.479909
 20
945.907229
 30
0.0
 10
46.145173
 20
945.907229
 30
0.0
 10
55.067883
 20
944.320350
 30
0.0
 10
64.205392
 20
942.234473
 30
0.0
  0
SPLINE
  5
22d
100
AcDbEntity
  8
DEFAULT
 62
7
100
AcDbSpline
 70
8
 71
3
 72
8
 73
4
 74
0
 40
0
 40
0
 40
0
 40
0
 40
1
 40
1
 40
1
 40
1
 10
64.205392
 20
942.234473
 30
0.0
 10
71.680809
 20
940.511478
 30
0.0
 10
80.066083
 20
938.788540
 30
0.0
 10
92.720758
 20
938.788540
 30
0.0
  0
SPLINE
  5
22e
100
AcDbEntity
  8
DEFAULT
 62
7
100
AcDbSpline
 70
8
 71
3
 72
8
 73
4
 74
0
 40
0
 40
0
 40
0
 40
0
 40
1
 40
1
 40
1
 40
1
 10
55.227649
 20
923.612463
 30
0.0
 10
67.884102
 20
923.612463
 30
0.0
 10
76.267203
 20
925.335458
 30
0.0
 10
83.744624
 20
927.058453
 30
0.0
  0
SPLINE
  5
22f
100
AcDbEntity
  8
DEFAULT
 62
7
100
AcDbSpline
 70
8
 71
3
 72
8
 73
4
 74
0
 40
0
 40
0
 40
0
 40
0
 40
1
 40
1
 40
1
 40
1
 10
83.744624
 20
927.058453
 30
0.0
 10
92.878238
 20
929.144273
 30
0.0
 10
101.801033
 20
930.731180
 30
0.0
 10
111.466325
 20
930.731180
 30
0.0
  0
SPLINE
  5
230
100
AcDbEntity
  8
DEFAULT
 62
7
100
AcDbSpline
 70
8
 71
3
 72
8
 73
4
 74
0
 40
0
 40
0
 40
0
 40
0
 40
1
 40
1
 40
1
 40
1
 10
111.466325
 20
930.731180
 30
0.0
 10
121.131590
 20
930.731180
 30
0.0
 10
130.056416
 20
929.144273
 30
0.0
 10
139.194094
 20
927.058453
 30
0.0
  0
SPLINE
  5
231
100
AcDbEntity
  8
DEFAULT
 62
7
100
AcDbSpline
 70
8
 71
3
 72
8
 73
4
 74
0
 40
0
 40
0
 40
0
 40
0
 40
1
 40
1
 40
1
 40
1
 10
139.194094
 20
927.058453
 30
0.0
 10
146.669483
 20
925.335458
 30
0.0
 10
155.054531
 20
923.612463
 30
0.0
 10
167.709348
 20
923.612463
 30
0.0
  0
SPLINE
  5
232
100
AcDbEntity
  8
DEFAULT
 62
7
100
AcDbSpline
 70
8
 71
3
 72
8
 73
4
 74
0
 40
0
 40
0
 40
0
 40
0
 40
1
 40
1
 40
1
 40
1
 10
248.035346
 20
394.448221
 30
0.0
 10
248.048780
 20
392.181181
 30
0.0
 10
249.380271
 20
391.682384
 30
0.0
 10
250.837731
 20
390.866158
 30
0.0
  0
SPLINE
  5
233
100
AcDbEntity
  8
DEFAULT
 62
7
100
AcDbSpline
 70
8
 71
3
 72
8
 73
4
 74
0
 40
0
 40
0
 40
0
 40
0
 40
1
 40
1
 40
1
 40
1
 10
250.837731
 20
390.866158
 30
0.0
 10
254.648050
 20
388.735075
 30
0.0
 10
258.324971
 20
388.553714
 30
0.0
 10
262.409240
 20
388.825742
 30
0.0
  0
SPLINE
  5
234
100
AcDbEntity
  8
DEFAULT
 62
7
100
AcDbSpline
 70
8
 71
3
 72
8
 73
4
 74
0
 40
0
 40
0
 40
0
 40
0
 40
1
 40
1
 40
1
 40
1
 10
262.409240
 20
388.825742
 30
0.0
 10
265.839688
 20
389.279843
 30
0.0
 10
268.850703
 20
390.503457
 30
0.0
 10
272.009503
 20
391.636980
 30
0.0
  0
SPLINE
  5
235
100
AcDbEntity
  8
DEFAULT
 62
7
100
AcDbSpline
 70
8
 71
3
 72
8
 73
4
 74
0
 40
0
 40
0
 40
0
 40
0
 40
1
 40
1
 40
1
 40
1
 10
272.009503
 20
391.636980
 30
0.0
 10
276.542754
 20
393.224026
 30
0.0
 10
280.772777
 20
393.133342
 30
0.0
 10
285.351474
 20
392.271850
 30
0.0
  0
SPLINE
  5
236
100
AcDbEntity
  8
DEFAULT
 62
7
100
AcDbSpline
 70
8
 71
3
 72
8
 73
4
 74
0
 40
0
 40
0
 40
0
 40
0
 40
1
 40
1
 40
1
 40
1
 10
285.351474
 20
392.271850
 30
0.0
 10
292.846534
 20
390.910977
 30
0.0
 10
300.174208
 20
388.735075
 30
0.0
 10
307.586662
 20
386.989460
 30
0.0
  0
SPLINE
  5
237
100
AcDbEntity
  8
DEFAULT
 62
7
100
AcDbSpline
 70
8
 71
3
 72
8
 73
4
 74
0
 40
0
 40
0
 40
0
 40
0
 40
1
 40
1
 40
1
 40
1
 10
307.586662
 20
386.989460
 30
0.0
 10
316.816768
 20
384.813089
 30
0.0
 10
325.999433
 20
383.770092
 30
0.0
 10
335.430424
 20
383.770092
 30
0.0
  0
SPLINE
  5
238
100
AcDbEntity
  8
DEFAULT
 62
7
100
AcDbSpline
 70
8
 71
3
 72
8
 73
4
 74
0
 40
0
 40
0
 40
0
 40
0
 40
1
 40
1
 40
1
 40
1
 10
235.599148
 20
382.350887
 30
0.0
 10
245.034060
 20
382.350887
 30
0.0
 10
254.220760
 20
381.307449
 30
0.0
 10
263.452878
 20
379.131674
 30
0.0
  0
SPLINE
  5
239
100
AcDbEntity
  8
DEFAULT
 62
7
100
AcDbSpline
 70
8
 71
3
 72
8
 73
4
 74
0
 40
0
 40
0
 40
0
 40
0
 40
1
 40
1
 40
1
 40
1
 10
263.452878
 20
379.131674
 30
0.0
 10
270.861282
 20
377.363281
 30
0.0
 10
278.183171
 20
375.232184
 30
0.0
 10
285.674308
 20
373.849278
 30
0.0
  0
SPLINE
  5
23a
100
AcDbEntity
  8
DEFAULT
 62
7
100
AcDbSpline
 70
8
 71
3
 72
8
 73
4
 74
0
 40
0
 40
0
 40
0
 40
0
 40
1
 40
1
 40
1
 40
1
 10
285.674308
 20
373.849278
 30
0.0
 10
290.250993
 20
372.988074
 30
0.0
 10
294.476988
 20
372.896964
 30
0.0
 10
299.006486
 20
374.484148
 30
0.0
  0
SPLINE
  5
23b
100
AcDbEntity
  8
DEFAULT
 62
7
100
AcDbSpline
 70
8
 71
3
 72
8
 73
4
 74
0
 40
0
 40
0
 40
0
 40
0
 40
1
 40
1
 40
1
 40
1
 10
299.006486
 20
374.484148
 30
0.0
 10
302.166895
 20
375.617231
 30
0.0
 10
305.176118
 20
377.068621
 30
0.0
 10
308.602803
 20
377.295386
 30
0.0
  0
SPLINE
  5
23c
100
AcDbEntity
  8
DEFAULT
 62
7
100
AcDbSpline
 70
8
 71
3
 72
8
 73
4
 74
0
 40
0
 40
0
 40
0
 40
0
 40
1
 40
1
 40
1
 40
1
 10
308.602803
 20
377.295386
 30
0.0
 10
312.685204
 20
377.748034
 30
0.0
 10
316.357818
 20
377.295386
 30
0.0
 10
320.164488
 20
375.254962
 30
0.0
  0
SPLINE
  5
23d
100
AcDbEntity
  8
DEFAULT
 62
7
100
AcDbSpline
 70
8
 71
3
 72
8
 73
4
 74
0
 40
0
 40
0
 40
0
 40
0
 40
1
 40
1
 40
1
 40
1
 10
320.164488
 20
375.254962
 30
0.0
 10
321.621545
 20
374.439326
 30
0.0
 10
322.954876
 20
373.939657
 30
0.0
 10
322.956936
 20
371.672913
 30
0.0
  0
SPLINE
  5
23e
100
AcDbEntity
  8
DEFAULT
 62
7
100
AcDbSpline
 70
8
 71
3
 72
8
 73
4
 74
0
 40
0
 40
0
 40
0
 40
0
 40
1
 40
1
 40
1
 40
1
 10
48.274698
 20
394.448221
 30
0.0
 10
48.301650
 20
392.181181
 30
0.0
 10
49.645378
 20
391.682384
 30
0.0
 10
51.106468
 20
390.866158
 30
0.0
  0
SPLINE
  5
23f
100
AcDbEntity
  8
DEFAULT
 62
7
100
AcDbSpline
 70
8
 71
3
 72
8
 73
4
 74
0
 40
0
 40
0
 40
0
 40
0
 40
1
 40
1
 40
1
 40
1
 10
51.106468
 20
390.866158
 30
0.0
 10
54.920964
 20
388.735075
 30
0.0
 10
58.603549
 20
388.553714
 30
0.0
 10
62.695763
 20
388.825742
 30
0.0
  0
SPLINE
  5
240
100
AcDbEntity
  8
DEFAULT
 62
7
100
AcDbSpline
 70
8
 71
3
 72
8
 73
4
 74
0
 40
0
 40
0
 40
0
 40
0
 40
1
 40
1
 40
1
 40
1
 10
62.695763
 20
388.825742
 30
0.0
 10
66.116519
 20
389.279843
 30
0.0
 10
69.119552
 20
390.503457
 30
0.0
 10
72.270541
 20
391.636980
 30
0.0
  0
SPLINE
  5
241
100
AcDbEntity
  8
DEFAULT
 62
7
100
AcDbSpline
 70
8
 71
3
 72
8
 73
4
 74
0
 40
0
 40
0
 40
0
 40
0
 40
1
 40
1
 40
1
 40
1
 10
72.270541
 20
391.636980
 30
0.0
 10
76.803795
 20
393.224026
 30
0.0
 10
81.031839
 20
393.133342
 30
0.0
 10
85.608485
 20
392.271850
 30
0.0
  0
SPLINE
  5
242
100
AcDbEntity
  8
DEFAULT
 62
7
100
AcDbSpline
 70
8
 71
3
 72
8
 73
4
 74
0
 40
0
 40
0
 40
0
 40
0
 40
1
 40
1
 40
1
 40
1
 10
85.608485
 20
392.271850
 30
0.0
 10
93.119296
 20
390.910977
 30
0.0
 10
100.460872
 20
388.735075
 30
0.0
 10
107.886929
 20
386.989460
 30
0.0
  0
SPLINE
  5
243
100
AcDbEntity
  8
DEFAULT
 62
7
100
AcDbSpline
 70
8
 71
3
 72
8
 73
4
 74
0
 40
0
 40
0
 40
0
 40
0
 40
1
 40
1
 40
1
 40
1
 10
107.886929
 20
386.989460
 30
0.0
 10
117.124965
 20
384.813089
 30
0.0
 10
126.315589
 20
383.770092
 30
0.0
 10
135.754265
 20
383.770092
 30
0.0
  0
SPLINE
  5
244
100
AcDbEntity
  8
DEFAULT
 62
7
100
AcDbSpline
 70
8
 71
3
 72
8
 73
4
 74
0
 40
0
 40
0
 40
0
 40
0
 40
1
 40
1
 40
1
 40
1
 10
223.064719
 20
394.448221
 30
0.0
 10
223.078153
 20
392.181181
 30
0.0
 10
221.743222
 20
391.682384
 30
0.0
 10
220.291838
 20
390.866158
 30
0.0
  0
SPLINE
  5
245
100
AcDbEntity
  8
DEFAULT
 62
7
100
AcDbSpline
 70
8
 71
3
 72
8
 73
4
 74
0
 40
0
 40
0
 40
0
 40
0
 40
1
 40
1
 40
1
 40
1
 10
220.291838
 20
390.866158
 30
0.0
 10
216.487183
 20
388.735075
 30
0.0
 10
212.814439
 20
388.553714
 30
0.0
 10
208.732199
 20
388.825742
 30
0.0
  0
SPLINE
  5
246
100
AcDbEntity
  8
DEFAULT
 62
7
100
AcDbSpline
 70
8
 71
3
 72
8
 73
4
 74
0
 40
0
 40
0
 40
0
 40
0
 40
1
 40
1
 40
1
 40
1
 10
208.732199
 20
388.825742
 30
0.0
 10
205.297560
 20
389.279843
 30
0.0
 10
202.282800
 20
390.503457
 30
0.0
 10
199.114159
 20
391.636980
 30
0.0
  0
SPLINE
  5
247
100
AcDbEntity
  8
DEFAULT
 62
7
100
AcDbSpline
 70
8
 71
3
 72
8
 73
4
 74
0
 40
0
 40
0
 40
0
 40
0
 40
1
 40
1
 40
1
 40
1
 10
199.114159
 20
391.636980
 30
0.0
 10
194.578882
 20
393.224026
 30
0.0
 10
190.346940
 20
393.133342
 30
0.0
 10
185.766250
 20
392.271850
 30
0.0
  0
SPLINE
  5
248
100
AcDbEntity
  8
DEFAULT
 62
7
100
AcDbSpline
 70
8
 71
3
 72
8
 73
4
 74
0
 40
0
 40
0
 40
0
 40
0
 40
1
 40
1
 40
1
 40
1
 10
185.766250
 20
392.271850
 30
0.0
 10
178.284937
 20
390.910977
 30
0.0
 10
170.971125
 20
388.735075
 30
0.0
 10
163.572421
 20
386.989460
 30
0.0
  0
SPLINE
  5
249
100
AcDbEntity
  8
DEFAULT
 62
7
100
AcDbSpline
 70
8
 71
3
 72
8
 73
4
 74
0
 40
0
 40
0
 40
0
 40
0
 40
1
 40
1
 40
1
 40
1
 10
163.572421
 20
386.989460
 30
0.0
 10
154.352159
 20
384.813089
 30
0.0
 10
145.179336
 20
383.770092
 30
0.0
 10
135.754265
 20
383.770092
 30
0.0
  0
SPLINE
  5
24a
100
AcDbEntity
  8
DEFAULT
 62
7
100
AcDbSpline
 70
8
 71
3
 72
8
 73
4
 74
0
 40
0
 40
0
 40
0
 40
0
 40
1
 40
1
 40
1
 40
1
 10
235.599148
 20
382.350887
 30
0.0
 10
226.170304
 20
382.350887
 30
0.0
 10
216.993436
 20
381.307449
 30
0.0
 10
207.771294
 20
379.131674
 30
0.0
  0
SPLINE
  5
24b
100
AcDbEntity
  8
DEFAULT
 62
7
100
AcDbSpline
 70
8
 71
3
 72
8
 73
4
 74
0
 40
0
 40
0
 40
0
 40
0
 40
1
 40
1
 40
1
 40
1
 10
207.771294
 20
379.131674
 30
0.0
 10
200.374606
 20
377.363281
 30
0.0
 10
193.066588
 20
375.232184
 30
0.0
 10
185.589184
 20
373.849278
 30
0.0
  0
SPLINE
  5
24c
100
AcDbEntity
  8
DEFAULT
 62
7
100
AcDbSpline
 70
8
 71
3
 72
8
 73
4
 74
0
 40
0
 40
0
 40
0
 40
0
 40
1
 40
1
 40
1
 40
1
 10
185.589184
 20
373.849278
 30
0.0
 10
181.010529
 20
372.988074
 30
0.0
 10
176.782479
 20
372.896964
 30
0.0
 10
172.253125
 20
374.484148
 30
0.0
  0
SPLINE
  5
24d
100
AcDbEntity
  8
DEFAULT
 62
7
100
AcDbSpline
 70
8
 71
3
 72
8
 73
4
 74
0
 40
0
 40
0
 40
0
 40
0
 40
1
 40
1
 40
1
 40
1
 10
172.253125
 20
374.484148
 30
0.0
 10
169.084487
 20
375.617231
 30
0.0
 10
166.067709
 20
377.068621
 30
0.0
 10
162.633206
 20
377.295386
 30
0.0
  0
SPLINE
  5
24e
100
AcDbEntity
  8
DEFAULT
 62
7
100
AcDbSpline
 70
8
 71
3
 72
8
 73
4
 74
0
 40
0
 40
0
 40
0
 40
0
 40
1
 40
1
 40
1
 40
1
 10
162.633206
 20
377.295386
 30
0.0
 10
158.556760
 20
377.748034
 30
0.0
 10
154.887930
 20
377.295386
 30
0.0
 10
151.087167
 20
375.254962
 30
0.0
  0
SPLINE
  5
24f
100
AcDbEntity
  8
DEFAULT
 62
7
100
AcDbSpline
 70
8
 71
3
 72
8
 73
4
 74
0
 40
0
 40
0
 40
0
 40
0
 40
1
 40
1
 40
1
 40
1
 10
151.087167
 20
375.254962
 30
0.0
 10
149.637939
 20
374.439326
 30
0.0
 10
148.310656
 20
373.894104
 30
0.0
 10
148.324257
 20
371.672913
 30
0.0
  0
SPLINE
  5
250
100
AcDbEntity
  8
DEFAULT
 62
7
100
AcDbSpline
 70
8
 71
3
 72
8
 73
4
 74
0
 40
0
 40
0
 40
0
 40
0
 40
1
 40
1
 40
1
 40
1
 10
35.935130
 20
382.350887
 30
0.0
 10
45.377851
 20
382.350887
 30
0.0
 10
54.572501
 20
381.307449
 30
0.0
 10
63.814322
 20
379.131674
 30
0.0
  0
SPLINE
  5
251
100
AcDbEntity
  8
DEFAULT
 62
7
100
AcDbSpline
 70
8
 71
3
 72
8
 73
4
 74
0
 40
0
 40
0
 40
0
 40
0
 40
1
 40
1
 40
1
 40
1
 10
63.814322
 20
379.131674
 30
0.0
 10
71.236609
 20
377.363281
 30
0.0
 10
78.574141
 20
375.232184
 30
0.0
 10
86.079163
 20
373.849278
 30
0.0
  0
SPLINE
  5
252
100
AcDbEntity
  8
DEFAULT
 62
7
100
AcDbSpline
 70
8
 71
3
 72
8
 73
4
 74
0
 40
0
 40
0
 40
0
 40
0
 40
1
 40
1
 40
1
 40
1
 10
86.079163
 20
373.849278
 30
0.0
 10
90.653653
 20
372.988074
 30
0.0
 10
94.877921
 20
372.896964
 30
0.0
 10
99.405242
 20
374.484148
 30
0.0
  0
SPLINE
  5
253
100
AcDbEntity
  8
DEFAULT
 62
7
100
AcDbSpline
 70
8
 71
3
 72
8
 73
4
 74
0
 40
0
 40
0
 40
0
 40
0
 40
1
 40
1
 40
1
 40
1
 10
99.405242
 20
374.484148
 30
0.0
 10
102.557975
 20
375.617231
 30
0.0
 10
105.559256
 20
377.068621
 30
0.0
 10
108.979885
 20
377.295386
 30
0.0
  0
SPLINE
  5
254
100
AcDbEntity
  8
DEFAULT
 62
7
100
AcDbSpline
 70
8
 71
3
 72
8
 73
4
 74
0
 40
0
 40
0
 40
0
 40
0
 40
1
 40
1
 40
1
 40
1
 10
108.979885
 20
377.295386
 30
0.0
 10
113.066037
 20
377.748034
 30
0.0
 10
116.746864
 20
377.295386
 30
0.0
 10
120.559336
 20
375.254962
 30
0.0
  0
SPLINE
  5
255
100
AcDbEntity
  8
DEFAULT
 62
7
100
AcDbSpline
 70
8
 71
3
 72
8
 73
4
 74
0
 40
0
 40
0
 40
0
 40
0
 40
1
 40
1
 40
1
 40
1
 10
120.559336
 20
375.254962
 30
0.0
 10
122.018414
 20
374.439326
 30
0.0
 10
123.357547
 20
373.939657
 30
0.0
 10
123.379388
 20
371.672913
 30
0.0
  0
SPLINE
  5
256
100
AcDbEntity
  8
DEFAULT
 62
7
100
AcDbSpline
 70
8
 71
3
 72
8
 73
4
 74
0
 40
0
 40
0
 40
0
 40
0
 40
1
 40
1
 40
1
 40
1
 10
248.035346
 20
394.448221
 30
0.0
 10
248.035346
 20
396.669996
 30
0.0
 10
249.366670
 20
397.214196
 30
0.0
 10
250.820084
 20
398.030270
 30
0.0
  0
SPLINE
  5
257
100
AcDbEntity
  8
DEFAULT
 62
7
100
AcDbSpline
 70
8
 71
3
 72
8
 73
4
 74
0
 40
0
 40
0
 40
0
 40
0
 40
1
 40
1
 40
1
 40
1
 10
250.820084
 20
398.030270
 30
0.0
 10
254.628785
 20
400.161381
 30
0.0
 10
258.303409
 20
400.342714
 30
0.0
 10
262.387678
 20
400.070683
 30
0.0
  0
SPLINE
  5
258
100
AcDbEntity
  8
DEFAULT
 62
7
100
AcDbSpline
 70
8
 71
3
 72
8
 73
4
 74
0
 40
0
 40
0
 40
0
 40
0
 40
1
 40
1
 40
1
 40
1
 10
262.387678
 20
400.070683
 30
0.0
 10
265.820296
 20
399.618035
 30
0.0
 10
268.835180
 20
398.392971
 30
0.0
 10
271.999766
 20
397.259448
 30
0.0
  0
SPLINE
  5
259
100
AcDbEntity
  8
DEFAULT
 62
7
100
AcDbSpline
 70
8
 71
3
 72
8
 73
4
 74
0
 40
0
 40
0
 40
0
 40
0
 40
1
 40
1
 40
1
 40
1
 10
271.999766
 20
397.259448
 30
0.0
 10
276.533046
 20
395.672552
 30
0.0
 10
280.765100
 20
395.763235
 30
0.0
 10
285.345519
 20
396.624578
 30
0.0
  0
SPLINE
  5
25a
100
AcDbEntity
  8
DEFAULT
 62
7
100
AcDbSpline
 70
8
 71
3
 72
8
 73
4
 74
0
 40
0
 40
0
 40
0
 40
0
 40
1
 40
1
 40
1
 40
1
 10
285.345519
 20
396.624578
 30
0.0
 10
292.838858
 20
397.985450
 30
0.0
 10
300.164500
 20
400.161228
 30
0.0
 10
307.576954
 20
401.906993
 30
0.0
  0
SPLINE
  5
25b
100
AcDbEntity
  8
DEFAULT
 62
7
100
AcDbSpline
 70
8
 71
3
 72
8
 73
4
 74
0
 40
0
 40
0
 40
0
 40
0
 40
1
 40
1
 40
1
 40
1
 10
307.576954
 20
401.906993
 30
0.0
 10
316.806919
 20
404.083338
 30
0.0
 10
325.995679
 20
405.126186
 30
0.0
 10
335.430566
 20
405.126186
 30
0.0
  0
SPLINE
  5
25c
100
AcDbEntity
  8
DEFAULT
 62
7
100
AcDbSpline
 70
8
 71
3
 72
8
 73
4
 74
0
 40
0
 40
0
 40
0
 40
0
 40
1
 40
1
 40
1
 40
1
 10
247.968364
 20
439.981054
 30
0.0
 10
247.968364
 20
437.713864
 30
0.0
 10
249.309529
 20
437.215231
 30
0.0
 10
250.766588
 20
436.398999
 30
0.0
  0
SPLINE
  5
25d
100
AcDbEntity
  8
DEFAULT
 62
7
100
AcDbSpline
 70
8
 71
3
 72
8
 73
4
 74
0
 40
0
 40
0
 40
0
 40
0
 40
1
 40
1
 40
1
 40
1
 10
250.766588
 20
436.398999
 30
0.0
 10
254.579058
 20
434.267894
 30
0.0
 10
258.257870
 20
434.086532
 30
0.0
 10
262.344019
 20
434.358564
 30
0.0
  0
SPLINE
  5
25e
100
AcDbEntity
  8
DEFAULT
 62
7
100
AcDbSpline
 70
8
 71
3
 72
8
 73
4
 74
0
 40
0
 40
0
 40
0
 40
0
 40
1
 40
1
 40
1
 40
1
 10
262.344019
 20
434.358564
 30
0.0
 10
265.776634
 20
434.811211
 30
0.0
 10
268.793553
 20
436.036299
 30
0.0
 10
271.956135
 20
437.169816
 30
0.0
  0
SPLINE
  5
25f
100
AcDbEntity
  8
DEFAULT
 62
7
100
AcDbSpline
 70
8
 71
3
 72
8
 73
4
 74
0
 40
0
 40
0
 40
0
 40
0
 40
1
 40
1
 40
1
 40
1
 10
271.956135
 20
437.169816
 30
0.0
 10
276.493422
 20
438.756845
 30
0.0
 10
280.727396
 20
438.666178
 30
0.0
 10
285.309818
 20
437.804683
 30
0.0
  0
SPLINE
  5
260
100
AcDbEntity
  8
DEFAULT
 62
7
100
AcDbSpline
 70
8
 71
3
 72
8
 73
4
 74
0
 40
0
 40
0
 40
0
 40
0
 40
1
 40
1
 40
1
 40
1
 10
285.309818
 20
437.804683
 30
0.0
 10
292.810946
 20
436.445289
 30
0.0
 10
300.142543
 20
434.268046
 30
0.0
 10
307.560924
 20
432.517871
 30
0.0
  0
SPLINE
  5
261
100
AcDbEntity
  8
DEFAULT
 62
7
100
AcDbSpline
 70
8
 71
3
 72
8
 73
4
 74
0
 40
0
 40
0
 40
0
 40
0
 40
1
 40
1
 40
1
 40
1
 10
307.560924
 20
432.517871
 30
0.0
 10
316.798847
 20
430.341362
 30
0.0
 10
325.989583
 20
429.298514
 30
0.0
 10
335.430312
 20
429.298514
 30
0.0
  0
SPLINE
  5
262
100
AcDbEntity
  8
DEFAULT
 62
7
100
AcDbSpline
 70
8
 71
3
 72
8
 73
4
 74
0
 40
0
 40
0
 40
0
 40
0
 40
1
 40
1
 40
1
 40
1
 10
322.939100
 20
417.214704
 30
0.0
 10
322.939100
 20
414.947514
 30
0.0
 10
321.604132
 20
414.448717
 30
0.0
 10
320.150772
 20
413.632641
 30
0.0
  0
SPLINE
  5
263
100
AcDbEntity
  8
DEFAULT
 62
7
100
AcDbSpline
 70
8
 71
3
 72
8
 73
4
 74
0
 40
0
 40
0
 40
0
 40
0
 40
1
 40
1
 40
1
 40
1
 10
320.150772
 20
413.632641
 30
0.0
 10
316.339897
 20
411.501561
 30
0.0
 10
312.663501
 20
411.320199
 30
0.0
 10
308.577206
 20
411.592228
 30
0.0
  0
SPLINE
  5
264
100
AcDbEntity
  8
DEFAULT
 62
7
100
AcDbSpline
 70
8
 71
3
 72
8
 73
4
 74
0
 40
0
 40
0
 40
0
 40
0
 40
1
 40
1
 40
1
 40
1
 10
308.577206
 20
411.592228
 30
0.0
 10
305.146625
 20
412.046337
 30
0.0
 10
302.129698
 20
413.269802
 30
0.0
 10
298.965112
 20
414.403466
 30
0.0
  0
SPLINE
  5
265
100
AcDbEntity
  8
DEFAULT
 62
7
100
AcDbSpline
 70
8
 71
3
 72
8
 73
4
 74
0
 40
0
 40
0
 40
0
 40
0
 40
1
 40
1
 40
1
 40
1
 10
298.965112
 20
414.403466
 30
0.0
 10
294.429829
 20
415.990362
 30
0.0
 10
290.197850
 20
415.899692
 30
0.0
 10
285.615324
 20
415.038333
 30
0.0
  0
SPLINE
  5
266
100
AcDbEntity
  8
DEFAULT
 62
7
100
AcDbSpline
 70
8
 71
3
 72
8
 73
4
 74
0
 40
0
 40
0
 40
0
 40
0
 40
1
 40
1
 40
1
 40
1
 10
285.615324
 20
415.038333
 30
0.0
 10
278.122154
 20
413.677474
 30
0.0
 10
270.794452
 20
411.501710
 30
0.0
 10
263.384019
 20
409.751382
 30
0.0
  0
SPLINE
  5
267
100
AcDbEntity
  8
DEFAULT
 62
7
100
AcDbSpline
 70
8
 71
3
 72
8
 73
4
 74
0
 40
0
 40
0
 40
0
 40
0
 40
1
 40
1
 40
1
 40
1
 10
263.384019
 20
409.751382
 30
0.0
 10
254.152039
 20
407.575028
 30
0.0
 10
244.965197
 20
406.532181
 30
0.0
 10
235.530421
 20
406.532181
 30
0.0
  0
SPLINE
  5
268
100
AcDbEntity
  8
DEFAULT
 62
7
100
AcDbSpline
 70
8
 71
3
 72
8
 73
4
 74
0
 40
0
 40
0
 40
0
 40
0
 40
1
 40
1
 40
1
 40
1
 10
235.492965
 20
427.883720
 30
0.0
 10
244.937712
 20
427.883720
 30
0.0
 10
254.130209
 20
426.840282
 30
0.0
 10
263.372160
 20
424.664363
 30
0.0
  0
SPLINE
  5
269
100
AcDbEntity
  8
DEFAULT
 62
7
100
AcDbSpline
 70
8
 71
3
 72
8
 73
4
 74
0
 40
0
 40
0
 40
0
 40
0
 40
1
 40
1
 40
1
 40
1
 10
263.372160
 20
424.664363
 30
0.0
 10
270.784461
 20
422.896122
 30
0.0
 10
278.116199
 20
420.765020
 30
0.0
 10
285.613150
 20
419.381959
 30
0.0
  0
SPLINE
  5
26a
100
AcDbEntity
  8
DEFAULT
 62
7
100
AcDbSpline
 70
8
 71
3
 72
8
 73
4
 74
0
 40
0
 40
0
 40
0
 40
0
 40
1
 40
1
 40
1
 40
1
 10
285.613150
 20
419.381959
 30
0.0
 10
290.195847
 20
418.520758
 30
0.0
 10
294.425934
 20
418.429631
 30
0.0
 10
298.961048
 20
420.016829
 30
0.0
  0
SPLINE
  5
26b
100
AcDbEntity
  8
DEFAULT
 62
7
100
AcDbSpline
 70
8
 71
3
 72
8
 73
4
 74
0
 40
0
 40
0
 40
0
 40
0
 40
1
 40
1
 40
1
 40
1
 10
298.961048
 20
420.016829
 30
0.0
 10
302.125803
 20
421.149915
 30
0.0
 10
305.140699
 20
422.601307
 30
0.0
 10
308.571138
 20
422.828070
 30
0.0
  0
SPLINE
  5
26c
100
AcDbEntity
  8
DEFAULT
 62
7
100
AcDbSpline
 70
8
 71
3
 72
8
 73
4
 74
0
 40
0
 40
0
 40
0
 40
0
 40
1
 40
1
 40
1
 40
1
 10
308.571138
 20
422.828070
 30
0.0
 10
312.659466
 20
423.282191
 30
0.0
 10
316.336116
 20
422.828070
 30
0.0
 10
320.146680
 20
420.787660
 30
0.0
  0
SPLINE
  5
26d
100
AcDbEntity
  8
DEFAULT
 62
7
100
AcDbSpline
 70
8
 71
3
 72
8
 73
4
 74
0
 40
0
 40
0
 40
0
 40
0
 40
1
 40
1
 40
1
 40
1
 10
320.146680
 20
420.787660
 30
0.0
 10
321.603878
 20
419.972006
 30
0.0
 10
322.939241
 20
419.472324
 30
0.0
 10
322.939241
 20
417.205599
 30
0.0
  0
SPLINE
  5
26e
100
AcDbEntity
  8
DEFAULT
 62
7
100
AcDbSpline
 70
8
 71
3
 72
8
 73
4
 74
0
 40
0
 40
0
 40
0
 40
0
 40
1
 40
1
 40
1
 40
1
 10
223.064719
 20
394.448221
 30
0.0
 10
223.064719
 20
396.715397
 30
0.0
 10
221.723687
 20
397.214196
 30
0.0
 10
220.268523
 20
398.030270
 30
0.0
  0
SPLINE
  5
26f
100
AcDbEntity
  8
DEFAULT
 62
7
100
AcDbSpline
 70
8
 71
3
 72
8
 73
4
 74
0
 40
0
 40
0
 40
0
 40
0
 40
1
 40
1
 40
1
 40
1
 10
220.268523
 20
398.030270
 30
0.0
 10
216.456054
 20
400.161381
 30
0.0
 10
212.779263
 20
400.342714
 30
0.0
 10
208.692979
 20
400.070683
 30
0.0
  0
SPLINE
  5
270
100
AcDbEntity
  8
DEFAULT
 62
7
100
AcDbSpline
 70
8
 71
3
 72
8
 73
4
 74
0
 40
0
 40
0
 40
0
 40
0
 40
1
 40
1
 40
1
 40
1
 10
208.692979
 20
400.070683
 30
0.0
 10
205.264543
 20
399.618035
 30
0.0
 10
202.253565
 20
398.392971
 30
0.0
 10
199.092727
 20
397.259448
 30
0.0
  0
SPLINE
  5
271
100
AcDbEntity
  8
DEFAULT
 62
7
100
AcDbSpline
 70
8
 71
3
 72
8
 73
4
 74
0
 40
0
 40
0
 40
0
 40
0
 40
1
 40
1
 40
1
 40
1
 10
199.092727
 20
397.259448
 30
0.0
 10
194.559479
 20
395.672552
 30
0.0
 10
190.327526
 20
395.763235
 30
0.0
 10
185.748859
 20
396.624578
 30
0.0
  0
SPLINE
  5
272
100
AcDbEntity
  8
DEFAULT
 62
7
100
AcDbSpline
 70
8
 71
3
 72
8
 73
4
 74
0
 40
0
 40
0
 40
0
 40
0
 40
1
 40
1
 40
1
 40
1
 10
185.748859
 20
396.624578
 30
0.0
 10
178.247746
 20
397.985450
 30
0.0
 10
170.916148
 20
400.161228
 30
0.0
 10
163.499792
 20
401.906993
 30
0.0
  0
SPLINE
  5
273
100
AcDbEntity
  8
DEFAULT
 62
7
100
AcDbSpline
 70
8
 71
3
 72
8
 73
4
 74
0
 40
0
 40
0
 40
0
 40
0
 40
1
 40
1
 40
1
 40
1
 10
163.499792
 20
401.906993
 30
0.0
 10
154.263897
 20
404.083338
 30
0.0
 10
145.075179
 20
405.126186
 30
0.0
 10
135.634343
 20
405.126186
 30
0.0
  0
SPLINE
  5
274
100
AcDbEntity
  8
DEFAULT
 62
7
100
AcDbSpline
 70
8
 71
3
 72
8
 73
4
 74
0
 40
0
 40
0
 40
0
 40
0
 40
1
 40
1
 40
1
 40
1
 10
48.274698
 20
394.448221
 30
0.0
 10
48.261180
 20
396.669996
 30
0.0
 10
49.596195
 20
397.214196
 30
0.0
 10
51.049202
 20
398.030270
 30
0.0
  0
SPLINE
  5
275
100
AcDbEntity
  8
DEFAULT
 62
7
100
AcDbSpline
 70
8
 71
3
 72
8
 73
4
 74
0
 40
0
 40
0
 40
0
 40
0
 40
1
 40
1
 40
1
 40
1
 10
51.049202
 20
398.030270
 30
0.0
 10
54.855880
 20
400.161381
 30
0.0
 10
58.526604
 20
400.342714
 30
0.0
 10
62.606826
 20
400.070683
 30
0.0
  0
SPLINE
  5
276
100
AcDbEntity
  8
DEFAULT
 62
7
100
AcDbSpline
 70
8
 71
3
 72
8
 73
4
 74
0
 40
0
 40
0
 40
0
 40
0
 40
1
 40
1
 40
1
 40
1
 10
62.606826
 20
400.070683
 30
0.0
 10
66.043215
 20
399.618035
 30
0.0
 10
69.062151
 20
398.392971
 30
0.0
 10
72.228905
 20
397.259448
 30
0.0
  0
SPLINE
  5
277
100
AcDbEntity
  8
DEFAULT
 62
7
100
AcDbSpline
 70
8
 71
3
 72
8
 73
4
 74
0
 40
0
 40
0
 40
0
 40
0
 40
1
 40
1
 40
1
 40
1
 10
72.228905
 20
397.259448
 30
0.0
 10
76.764176
 20
395.672552
 30
0.0
 10
80.996127
 20
395.763235
 30
0.0
 10
85.578699
 20
396.624578
 30
0.0
  0
SPLINE
  5
278
100
AcDbEntity
  8
DEFAULT
 62
7
100
AcDbSpline
 70
8
 71
3
 72
8
 73
4
 74
0
 40
0
 40
0
 40
0
 40
0
 40
1
 40
1
 40
1
 40
1
 10
85.578699
 20
396.624578
 30
0.0
 10
93.065944
 20
397.985450
 30
0.0
 10
100.385815
 20
400.161228
 30
0.0
 10
107.790305
 20
401.906993
 30
0.0
  0
SPLINE
  5
279
100
AcDbEntity
  8
DEFAULT
 62
7
100
AcDbSpline
 70
8
 71
3
 72
8
 73
4
 74
0
 40
0
 40
0
 40
0
 40
0
 40
1
 40
1
 40
1
 40
1
 10
107.790305
 20
401.906993
 30
0.0
 10
117.018387
 20
404.083338
 30
0.0
 10
126.201046
 20
405.126186
 30
0.0
 10
135.634067
 20
405.126186
 30
0.0
  0
SPLINE
  5
27a
100
AcDbEntity
  8
DEFAULT
 62
7
100
AcDbSpline
 70
8
 71
3
 72
8
 73
4
 74
0
 40
0
 40
0
 40
0
 40
0
 40
1
 40
1
 40
1
 40
1
 10
48.056137
 20
439.981054
 30
0.0
 10
48.069627
 20
437.713864
 30
0.0
 10
49.407008
 20
437.215231
 30
0.0
 10
50.864186
 20
436.398999
 30
0.0
  0
SPLINE
  5
27b
100
AcDbEntity
  8
DEFAULT
 62
7
100
AcDbSpline
 70
8
 71
3
 72
8
 73
4
 74
0
 40
0
 40
0
 40
0
 40
0
 40
1
 40
1
 40
1
 40
1
 10
50.864186
 20
436.398999
 30
0.0
 10
54.678552
 20
434.267894
 30
0.0
 10
58.361128
 20
434.086532
 30
0.0
 10
62.451457
 20
434.358564
 30
0.0
  0
SPLINE
  5
27c
100
AcDbEntity
  8
DEFAULT
 62
7
100
AcDbSpline
 70
8
 71
3
 72
8
 73
4
 74
0
 40
0
 40
0
 40
0
 40
0
 40
1
 40
1
 40
1
 40
1
 10
62.451457
 20
434.358564
 30
0.0
 10
65.879901
 20
434.811211
 30
0.0
 10
68.891020
 20
436.036299
 30
0.0
 10
72.051709
 20
437.169816
 30
0.0
  0
SPLINE
  5
27d
100
AcDbEntity
  8
DEFAULT
 62
7
100
AcDbSpline
 70
8
 71
3
 72
8
 73
4
 74
0
 40
0
 40
0
 40
0
 40
0
 40
1
 40
1
 40
1
 40
1
 10
72.051709
 20
437.169816
 30
0.0
 10
76.589001
 20
438.756845
 30
0.0
 10
80.822975
 20
438.666178
 30
0.0
 10
85.403529
 20
437.804683
 30
0.0
  0
SPLINE
  5
27e
100
AcDbEntity
  8
DEFAULT
 62
7
100
AcDbSpline
 70
8
 71
3
 72
8
 73
4
 74
0
 40
0
 40
0
 40
0
 40
0
 40
1
 40
1
 40
1
 40
1
 10
85.403529
 20
437.804683
 30
0.0
 10
92.910437
 20
436.445289
 30
0.0
 10
100.249984
 20
434.268046
 30
0.0
 10
107.674159
 20
432.517871
 30
0.0
  0
SPLINE
  5
27f
100
AcDbEntity
  8
DEFAULT
 62
7
100
AcDbSpline
 70
8
 71
3
 72
8
 73
4
 74
0
 40
0
 40
0
 40
0
 40
0
 40
1
 40
1
 40
1
 40
1
 10
107.674159
 20
432.517871
 30
0.0
 10
116.913956
 20
430.341362
 30
0.0
 10
126.108601
 20
429.298514
 30
0.0
 10
135.551333
 20
429.298514
 30
0.0
  0
SPLINE
  5
280
100
AcDbEntity
  8
DEFAULT
 62
7
100
AcDbSpline
 70
8
 71
3
 72
8
 73
4
 74
0
 40
0
 40
0
 40
0
 40
0
 40
1
 40
1
 40
1
 40
1
 10
222.978215
 20
439.981054
 30
0.0
 10
222.978215
 20
437.713864
 30
0.0
 10
221.648909
 20
437.215231
 30
0.0
 10
220.193342
 20
436.398999
 30
0.0
  0
SPLINE
  5
281
100
AcDbEntity
  8
DEFAULT
 62
7
100
AcDbSpline
 70
8
 71
3
 72
8
 73
4
 74
0
 40
0
 40
0
 40
0
 40
0
 40
1
 40
1
 40
1
 40
1
 10
220.193342
 20
436.398999
 30
0.0
 10
216.383015
 20
434.267894
 30
0.0
 10
212.706102
 20
434.086532
 30
0.0
 10
208.621830
 20
434.358564
 30
0.0
  0
SPLINE
  5
282
100
AcDbEntity
  8
DEFAULT
 62
7
100
AcDbSpline
 70
8
 71
3
 72
8
 73
4
 74
0
 40
0
 40
0
 40
0
 40
0
 40
1
 40
1
 40
1
 40
1
 10
208.621830
 20
434.358564
 30
0.0
 10
205.183421
 20
434.811211
 30
0.0
 10
202.168396
 20
436.036299
 30
0.0
 10
198.999896
 20
437.169816
 30
0.0
  0
SPLINE
  5
283
100
AcDbEntity
  8
DEFAULT
 62
7
100
AcDbSpline
 70
8
 71
3
 72
8
 73
4
 74
0
 40
0
 40
0
 40
0
 40
0
 40
1
 40
1
 40
1
 40
1
 10
198.999896
 20
437.169816
 30
0.0
 10
194.462727
 20
438.756845
 30
0.0
 10
190.228618
 20
438.666178
 30
0.0
 10
185.644169
 20
437.804683
 30
0.0
  0
SPLINE
  5
284
100
AcDbEntity
  8
DEFAULT
 62
7
100
AcDbSpline
 70
8
 71
3
 72
8
 73
4
 74
0
 40
0
 40
0
 40
0
 40
0
 40
1
 40
1
 40
1
 40
1
 10
185.644169
 20
437.804683
 30
0.0
 10
178.148973
 20
436.445289
 30
0.0
 10
170.823303
 20
434.268046
 30
0.0
 10
163.410846
 20
432.517871
 30
0.0
  0
SPLINE
  5
285
100
AcDbEntity
  8
DEFAULT
 62
7
100
AcDbSpline
 70
8
 71
3
 72
8
 73
4
 74
0
 40
0
 40
0
 40
0
 40
0
 40
1
 40
1
 40
1
 40
1
 10
163.410846
 20
432.517871
 30
0.0
 10
154.176846
 20
430.341362
 30
0.0
 10
144.990145
 20
429.298514
 30
0.0
 10
135.551333
 20
429.298514
 30
0.0
  0
SPLINE
  5
286
100
AcDbEntity
  8
DEFAULT
 62
7
100
AcDbSpline
 70
8
 71
3
 72
8
 73
4
 74
0
 40
0
 40
0
 40
0
 40
0
 40
1
 40
1
 40
1
 40
1
 10
235.492965
 20
427.883720
 30
0.0
 10
226.054006
 20
427.883720
 30
0.0
 10
216.863405
 20
426.840282
 30
0.0
 10
207.627508
 20
424.664363
 30
0.0
  0
SPLINE
  5
287
100
AcDbEntity
  8
DEFAULT
 62
7
100
AcDbSpline
 70
8
 71
3
 72
8
 73
4
 74
0
 40
0
 40
0
 40
0
 40
0
 40
1
 40
1
 40
1
 40
1
 10
207.627508
 20
424.664363
 30
0.0
 10
200.218966
 20
422.896122
 30
0.0
 10
192.895178
 20
420.765020
 30
0.0
 10
185.404040
 20
419.381959
 30
0.0
  0
SPLINE
  5
288
100
AcDbEntity
  8
DEFAULT
 62
7
100
AcDbSpline
 70
8
 71
3
 72
8
 73
4
 74
0
 40
0
 40
0
 40
0
 40
0
 40
1
 40
1
 40
1
 40
1
 10
185.404040
 20
419.381959
 30
0.0
 10
180.821468
 20
418.520758
 30
0.0
 10
176.587635
 20
418.429631
 30
0.0
 10
172.052228
 20
420.016829
 30
0.0
  0
SPLINE
  5
289
100
AcDbEntity
  8
DEFAULT
 62
7
100
AcDbSpline
 70
8
 71
3
 72
8
 73
4
 74
0
 40
0
 40
0
 40
0
 40
0
 40
1
 40
1
 40
1
 40
1
 10
172.052228
 20
420.016829
 30
0.0
 10
168.885602
 20
421.149915
 30
0.0
 10
165.866671
 20
422.601307
 30
0.0
 10
162.432294
 20
422.828070
 30
0.0
  0
SPLINE
  5
28a
100
AcDbEntity
  8
DEFAULT
 62
7
100
AcDbSpline
 70
8
 71
3
 72
8
 73
4
 74
0
 40
0
 40
0
 40
0
 40
0
 40
1
 40
1
 40
1
 40
1
 10
162.432294
 20
422.828070
 30
0.0
 10
158.348164
 20
423.282191
 30
0.0
 10
154.673266
 20
422.828070
 30
0.0
 10
150.864835
 20
420.787660
 30
0.0
  0
SPLINE
  5
28b
100
AcDbEntity
  8
DEFAULT
 62
7
100
AcDbSpline
 70
8
 71
3
 72
8
 73
4
 74
0
 40
0
 40
0
 40
0
 40
0
 40
1
 40
1
 40
1
 40
1
 10
150.864835
 20
420.787660
 30
0.0
 10
149.409274
 20
419.972006
 30
0.0
 10
148.076325
 20
419.472324
 30
0.0
 10
148.081980
 20
417.205599
 30
0.0
  0
SPLINE
  5
28c
100
AcDbEntity
  8
DEFAULT
 62
7
100
AcDbSpline
 70
8
 71
3
 72
8
 73
4
 74
0
 40
0
 40
0
 40
0
 40
0
 40
1
 40
1
 40
1
 40
1
 10
148.082121
 20
417.214704
 30
0.0
 10
148.095555
 20
414.947514
 30
0.0
 10
149.426922
 20
414.448717
 30
0.0
 10
150.884374
 20
413.632641
 30
0.0
  0
SPLINE
  5
28d
100
AcDbEntity
  8
DEFAULT
 62
7
100
AcDbSpline
 70
8
 71
3
 72
8
 73
4
 74
0
 40
0
 40
0
 40
0
 40
0
 40
1
 40
1
 40
1
 40
1
 10
150.884374
 20
413.632641
 30
0.0
 10
154.698875
 20
411.501561
 30
0.0
 10
158.377676
 20
411.320199
 30
0.0
 10
162.463833
 20
411.592228
 30
0.0
  0
SPLINE
  5
28e
100
AcDbEntity
  8
DEFAULT
 62
7
100
AcDbSpline
 70
8
 71
3
 72
8
 73
4
 74
0
 40
0
 40
0
 40
0
 40
0
 40
1
 40
1
 40
1
 40
1
 10
162.463833
 20
411.592228
 30
0.0
 10
165.894419
 20
412.046337
 30
0.0
 10
168.905411
 20
413.269802
 30
0.0
 10
172.068117
 20
414.403466
 30
0.0
  0
SPLINE
  5
28f
100
AcDbEntity
  8
DEFAULT
 62
7
100
AcDbSpline
 70
8
 71
3
 72
8
 73
4
 74
0
 40
0
 40
0
 40
0
 40
0
 40
1
 40
1
 40
1
 40
1
 10
172.068117
 20
414.403466
 30
0.0
 10
176.601509
 20
415.990362
 30
0.0
 10
180.835342
 20
415.899692
 30
0.0
 10
185.416029
 20
415.038333
 30
0.0
  0
SPLINE
  5
290
100
AcDbEntity
  8
DEFAULT
 62
7
100
AcDbSpline
 70
8
 71
3
 72
8
 73
4
 74
0
 40
0
 40
0
 40
0
 40
0
 40
1
 40
1
 40
1
 40
1
 10
185.416029
 20
415.038333
 30
0.0
 10
192.914987
 20
413.677474
 30
0.0
 10
200.246728
 20
411.501710
 30
0.0
 10
207.667002
 20
409.751382
 30
0.0
  0
SPLINE
  5
291
100
AcDbEntity
  8
DEFAULT
 62
7
100
AcDbSpline
 70
8
 71
3
 72
8
 73
4
 74
0
 40
0
 40
0
 40
0
 40
0
 40
1
 40
1
 40
1
 40
1
 10
207.667002
 20
409.751382
 30
0.0
 10
216.901003
 20
407.575028
 30
0.0
 10
226.091609
 20
406.532181
 30
0.0
 10
235.530421
 20
406.532181
 30
0.0
  0
SPLINE
  5
292
100
AcDbEntity
  8
DEFAULT
 62
7
100
AcDbSpline
 70
8
 71
3
 72
8
 73
4
 74
0
 40
0
 40
0
 40
0
 40
0
 40
1
 40
1
 40
1
 40
1
 10
123.103688
 20
417.214704
 30
0.0
 10
123.117122
 20
414.947514
 30
0.0
 10
121.779504
 20
414.448717
 30
0.0
 10
120.325010
 20
413.632641
 30
0.0
  0
SPLINE
  5
293
100
AcDbEntity
  8
DEFAULT
 62
7
100
AcDbSpline
 70
8
 71
3
 72
8
 73
4
 74
0
 40
0
 40
0
 40
0
 40
0
 40
1
 40
1
 40
1
 40
1
 10
120.325010
 20
413.632641
 30
0.0
 10
116.518326
 20
411.501561
 30
0.0
 10
112.843699
 20
411.320199
 30
0.0
 10
108.761459
 20
411.592228
 30
0.0
  0
SPLINE
  5
294
100
AcDbEntity
  8
DEFAULT
 62
7
100
AcDbSpline
 70
8
 71
3
 72
8
 73
4
 74
0
 40
0
 40
0
 40
0
 40
0
 40
1
 40
1
 40
1
 40
1
 10
108.761459
 20
411.592228
 30
0.0
 10
105.326821
 20
412.046337
 30
0.0
 10
102.306001
 20
413.269802
 30
0.0
 10
99.139378
 20
414.403466
 30
0.0
  0
SPLINE
  5
295
100
AcDbEntity
  8
DEFAULT
 62
7
100
AcDbSpline
 70
8
 71
3
 72
8
 73
4
 74
0
 40
0
 40
0
 40
0
 40
0
 40
1
 40
1
 40
1
 40
1
 10
99.139378
 20
414.403466
 30
0.0
 10
94.604106
 20
415.990362
 30
0.0
 10
90.370276
 20
415.899692
 30
0.0
 10
85.787566
 20
415.038333
 30
0.0
  0
SPLINE
  5
296
100
AcDbEntity
  8
DEFAULT
 62
7
100
AcDbSpline
 70
8
 71
3
 72
8
 73
4
 74
0
 40
0
 40
0
 40
0
 40
0
 40
1
 40
1
 40
1
 40
1
 10
85.787566
 20
415.038333
 30
0.0
 10
78.298576
 20
413.677474
 30
0.0
 10
70.976673
 20
411.501710
 30
0.0
 10
63.572173
 20
409.751382
 30
0.0
  0
SPLINE
  5
297
100
AcDbEntity
  8
DEFAULT
 62
7
100
AcDbSpline
 70
8
 71
3
 72
8
 73
4
 74
0
 40
0
 40
0
 40
0
 40
0
 40
1
 40
1
 40
1
 40
1
 10
63.572173
 20
409.751382
 30
0.0
 10
54.344104
 20
407.575028
 30
0.0
 10
45.161175
 20
406.532181
 30
0.0
 10
35.730307
 20
406.532181
 30
0.0
  0
SPLINE
  5
298
100
AcDbEntity
  8
DEFAULT
 62
7
100
AcDbSpline
 70
8
 71
3
 72
8
 73
4
 74
0
 40
0
 40
0
 40
0
 40
0
 40
1
 40
1
 40
1
 40
1
 10
35.621965
 20
427.883720
 30
0.0
 10
45.066712
 20
427.883720
 30
0.0
 10
54.265274
 20
426.840282
 30
0.0
 10
63.511128
 20
424.664363
 30
0.0
  0
SPLINE
  5
299
100
AcDbEntity
  8
DEFAULT
 62
7
100
AcDbSpline
 70
8
 71
3
 72
8
 73
4
 74
0
 40
0
 40
0
 40
0
 40
0
 40
1
 40
1
 40
1
 40
1
 10
63.511128
 20
424.664363
 30
0.0
 10
70.929376
 20
422.896122
 30
0.0
 10
78.264885
 20
420.765020
 30
0.0
 10
85.767895
 20
419.381959
 30
0.0
  0
SPLINE
  5
29a
100
AcDbEntity
  8
DEFAULT
 62
7
100
AcDbSpline
 70
8
 71
3
 72
8
 73
4
 74
0
 40
0
 40
0
 40
0
 40
0
 40
1
 40
1
 40
1
 40
1
 10
85.767895
 20
419.381959
 30
0.0
 10
90.348446
 20
418.520758
 30
0.0
 10
94.580529
 20
418.429631
 30
0.0
 10
99.115793
 20
420.016829
 30
0.0
  0
SPLINE
  5
29b
100
AcDbEntity
  8
DEFAULT
 62
7
100
AcDbSpline
 70
8
 71
3
 72
8
 73
4
 74
0
 40
0
 40
0
 40
0
 40
0
 40
1
 40
1
 40
1
 40
1
 10
99.115793
 20
420.016829
 30
0.0
 10
102.278236
 20
421.149915
 30
0.0
 10
105.287476
 20
422.601307
 30
0.0
 10
108.717927
 20
422.828070
 30
0.0
  0
SPLINE
  5
29c
100
AcDbEntity
  8
DEFAULT
 62
7
100
AcDbSpline
 70
8
 71
3
 72
8
 73
4
 74
0
 40
0
 40
0
 40
0
 40
0
 40
1
 40
1
 40
1
 40
1
 10
108.717927
 20
422.828070
 30
0.0
 10
112.804219
 20
423.282191
 30
0.0
 10
116.484902
 20
422.828070
 30
0.0
 10
120.299407
 20
420.787660
 30
0.0
  0
SPLINE
  5
29d
100
AcDbEntity
  8
DEFAULT
 62
7
100
AcDbSpline
 70
8
 71
3
 72
8
 73
4
 74
0
 40
0
 40
0
 40
0
 40
0
 40
1
 40
1
 40
1
 40
1
 10
120.299407
 20
420.787660
 30
0.0
 10
121.756591
 20
419.972006
 30
0.0
 10
123.095599
 20
419.472324
 30
0.0
 10
123.103812
 20
417.205599
 30
0.0
  0
SPLINE
  5
29e
100
AcDbEntity
  8
DEFAULT
 62
7
100
AcDbSpline
 70
8
 71
3
 72
8
 73
4
 74
0
 40
0
 40
0
 40
0
 40
0
 40
1
 40
1
 40
1
 40
1
 10
247.968364
 20
439.981054
 30
0.0
 10
247.968364
 20
442.248083
 30
0.0
 10
249.303334
 20
442.746871
 30
0.0
 10
250.758771
 20
443.563106
 30
0.0
  0
SPLINE
  5
29f
100
AcDbEntity
  8
DEFAULT
 62
7
100
AcDbSpline
 70
8
 71
3
 72
8
 73
4
 74
0
 40
0
 40
0
 40
0
 40
0
 40
1
 40
1
 40
1
 40
1
 10
250.758771
 20
443.563106
 30
0.0
 10
254.569225
 20
445.694200
 30
0.0
 10
258.250052
 20
445.875550
 30
0.0
 10
262.336342
 20
445.603530
 30
0.0
  0
SPLINE
  5
2a0
100
AcDbEntity
  8
DEFAULT
 62
7
100
AcDbSpline
 70
8
 71
3
 72
8
 73
4
 74
0
 40
0
 40
0
 40
0
 40
0
 40
1
 40
1
 40
1
 40
1
 10
262.336342
 20
445.603530
 30
0.0
 10
265.768819
 20
445.149404
 30
0.0
 10
268.787626
 20
443.925807
 30
0.0
 10
271.952353
 20
442.792292
 30
0.0
  0
SPLINE
  5
2a1
100
AcDbEntity
  8
DEFAULT
 62
7
100
AcDbSpline
 70
8
 71
3
 72
8
 73
4
 74
0
 40
0
 40
0
 40
0
 40
0
 40
1
 40
1
 40
1
 40
1
 10
271.952353
 20
442.792292
 30
0.0
 10
276.491672
 20
441.205235
 30
0.0
 10
280.725505
 20
441.295927
 30
0.0
 10
285.308068
 20
442.157413
 30
0.0
  0
SPLINE
  5
2a2
100
AcDbEntity
  8
DEFAULT
 62
7
100
AcDbSpline
 70
8
 71
3
 72
8
 73
4
 74
0
 40
0
 40
0
 40
0
 40
0
 40
1
 40
1
 40
1
 40
1
 10
285.308068
 20
442.157413
 30
0.0
 10
292.807051
 20
443.518283
 30
0.0
 10
300.140793
 20
445.694200
 30
0.0
 10
307.555138
 20
447.439815
 30
0.0
  0
SPLINE
  5
2a3
100
AcDbEntity
  8
DEFAULT
 62
7
100
AcDbSpline
 70
8
 71
3
 72
8
 73
4
 74
0
 40
0
 40
0
 40
0
 40
0
 40
1
 40
1
 40
1
 40
1
 10
307.555138
 20
447.439815
 30
0.0
 10
316.795094
 20
449.616327
 30
0.0
 10
325.989696
 20
450.659169
 30
0.0
 10
335.430424
 20
450.659169
 30
0.0
  0
SPLINE
  5
2a4
100
AcDbEntity
  8
DEFAULT
 62
7
100
AcDbSpline
 70
8
 71
3
 72
8
 73
4
 74
0
 40
0
 40
0
 40
0
 40
0
 40
1
 40
1
 40
1
 40
1
 10
247.946675
 20
485.513867
 30
0.0
 10
247.946675
 20
483.246689
 30
0.0
 10
249.285819
 20
482.747906
 30
0.0
 10
250.741248
 20
481.931827
 30
0.0
  0
SPLINE
  5
2a5
100
AcDbEntity
  8
DEFAULT
 62
7
100
AcDbSpline
 70
8
 71
3
 72
8
 73
4
 74
0
 40
0
 40
0
 40
0
 40
0
 40
1
 40
1
 40
1
 40
1
 10
250.741248
 20
481.931827
 30
0.0
 10
254.555749
 20
479.800719
 30
0.0
 10
258.236308
 20
479.619374
 30
0.0
 10
262.324613
 20
479.891388
 30
0.0
  0
SPLINE
  5
2a6
100
AcDbEntity
  8
DEFAULT
 62
7
100
AcDbSpline
 70
8
 71
3
 72
8
 73
4
 74
0
 40
0
 40
0
 40
0
 40
0
 40
1
 40
1
 40
1
 40
1
 10
262.324613
 20
479.891388
 30
0.0
 10
265.757096
 20
480.344036
 30
0.0
 10
268.774136
 20
481.568965
 30
0.0
 10
271.940754
 20
482.702632
 30
0.0
  0
SPLINE
  5
2a7
100
AcDbEntity
  8
DEFAULT
 62
7
100
AcDbSpline
 70
8
 71
3
 72
8
 73
4
 74
0
 40
0
 40
0
 40
0
 40
0
 40
1
 40
1
 40
1
 40
1
 10
271.940754
 20
482.702632
 30
0.0
 10
276.475896
 20
484.289536
 30
0.0
 10
280.713764
 20
484.198867
 30
0.0
 10
285.298360
 20
483.337508
 30
0.0
  0
SPLINE
  5
2a8
100
AcDbEntity
  8
DEFAULT
 62
7
100
AcDbSpline
 70
8
 71
3
 72
8
 73
4
 74
0
 40
0
 40
0
 40
0
 40
0
 40
1
 40
1
 40
1
 40
1
 10
285.298360
 20
483.337508
 30
0.0
 10
292.799347
 20
481.976638
 30
0.0
 10
300.133117
 20
479.800874
 30
0.0
 10
307.553247
 20
478.055106
 30
0.0
  0
SPLINE
  5
2a9
100
AcDbEntity
  8
DEFAULT
 62
7
100
AcDbSpline
 70
8
 71
3
 72
8
 73
4
 74
0
 40
0
 40
0
 40
0
 40
0
 40
1
 40
1
 40
1
 40
1
 10
307.553247
 20
478.055106
 30
0.0
 10
316.793174
 20
475.878747
 30
0.0
 10
325.987833
 20
474.835902
 30
0.0
 10
335.430566
 20
474.835902
 30
0.0
  0
SPLINE
  5
2aa
100
AcDbEntity
  8
DEFAULT
 62
7
100
AcDbSpline
 70
8
 71
3
 72
8
 73
4
 74
0
 40
0
 40
0
 40
0
 40
0
 40
1
 40
1
 40
1
 40
1
 10
322.933342
 20
462.747384
 30
0.0
 10
322.933342
 20
460.480347
 30
0.0
 10
321.598234
 20
459.981564
 30
0.0
 10
320.142814
 20
459.165333
 30
0.0
  0
SPLINE
  5
2ab
100
AcDbEntity
  8
DEFAULT
 62
7
100
AcDbSpline
 70
8
 71
3
 72
8
 73
4
 74
0
 40
0
 40
0
 40
0
 40
0
 40
1
 40
1
 40
1
 40
1
 10
320.142814
 20
459.165333
 30
0.0
 10
316.330302
 20
457.034241
 30
0.0
 10
312.649616
 20
456.852888
 30
0.0
 10
308.563349
 20
457.124905
 30
0.0
  0
SPLINE
  5
2ac
100
AcDbEntity
  8
DEFAULT
 62
7
100
AcDbSpline
 70
8
 71
3
 72
8
 73
4
 74
0
 40
0
 40
0
 40
0
 40
0
 40
1
 40
1
 40
1
 40
1
 10
308.563349
 20
457.124905
 30
0.0
 10
305.128676
 20
457.579035
 30
0.0
 10
302.111918
 20
458.802635
 30
0.0
 10
298.947332
 20
459.936146
 30
0.0
  0
SPLINE
  5
2ad
100
AcDbEntity
  8
DEFAULT
 62
7
100
AcDbSpline
 70
8
 71
3
 72
8
 73
4
 74
0
 40
0
 40
0
 40
0
 40
0
 40
1
 40
1
 40
1
 40
1
 10
298.947332
 20
459.936146
 30
0.0
 10
294.408126
 20
461.523200
 30
0.0
 10
290.174031
 20
461.432508
 30
0.0
 10
285.591589
 20
460.571031
 30
0.0
  0
SPLINE
  5
2ae
100
AcDbEntity
  8
DEFAULT
 62
7
100
AcDbSpline
 70
8
 71
3
 72
8
 73
4
 74
0
 40
0
 40
0
 40
0
 40
0
 40
1
 40
1
 40
1
 40
1
 10
285.591589
 20
460.571031
 30
0.0
 10
278.088711
 20
459.210155
 30
0.0
 10
270.756973
 20
457.034241
 30
0.0
 10
263.340627
 20
455.284080
 30
0.0
  0
SPLINE
  5
2af
100
AcDbEntity
  8
DEFAULT
 62
7
100
AcDbSpline
 70
8
 71
3
 72
8
 73
4
 74
0
 40
0
 40
0
 40
0
 40
0
 40
1
 40
1
 40
1
 40
1
 10
263.340627
 20
455.284080
 30
0.0
 10
254.100705
 20
453.107695
 30
0.0
 10
244.910085
 20
452.064712
 30
0.0
 10
235.467353
 20
452.064712
 30
0.0
  0
SPLINE
  5
2b0
100
AcDbEntity
  8
DEFAULT
 62
7
100
AcDbSpline
 70
8
 71
3
 72
8
 73
4
 74
0
 40
0
 40
0
 40
0
 40
0
 40
1
 40
1
 40
1
 40
1
 10
235.457523
 20
473.420956
 30
0.0
 10
244.900250
 20
473.420956
 30
0.0
 10
254.098682
 20
472.377518
 30
0.0
 10
263.340627
 20
470.201740
 30
0.0
  0
SPLINE
  5
2b1
100
AcDbEntity
  8
DEFAULT
 62
7
100
AcDbSpline
 70
8
 71
3
 72
8
 73
4
 74
0
 40
0
 40
0
 40
0
 40
0
 40
1
 40
1
 40
1
 40
1
 10
263.340627
 20
470.201740
 30
0.0
 10
270.756973
 20
468.433361
 30
0.0
 10
278.088711
 20
466.302256
 30
0.0
 10
285.589585
 20
464.919350
 30
0.0
  0
SPLINE
  5
2b2
100
AcDbEntity
  8
DEFAULT
 62
7
100
AcDbSpline
 70
8
 71
3
 72
8
 73
4
 74
0
 40
0
 40
0
 40
0
 40
0
 40
1
 40
1
 40
1
 40
1
 10
285.589585
 20
464.919350
 30
0.0
 10
290.172253
 20
464.058146
 30
0.0
 10
294.408126
 20
463.967022
 30
0.0
 10
298.945300
 20
465.554217
 30
0.0
  0
SPLINE
  5
2b3
100
AcDbEntity
  8
DEFAULT
 62
7
100
AcDbSpline
 70
8
 71
3
 72
8
 73
4
 74
0
 40
0
 40
0
 40
0
 40
0
 40
1
 40
1
 40
1
 40
1
 10
298.945300
 20
465.554217
 30
0.0
 10
302.111918
 20
466.687300
 30
0.0
 10
305.126954
 20
468.138839
 30
0.0
 10
308.561317
 20
468.365455
 30
0.0
  0
SPLINE
  5
2b4
100
AcDbEntity
  8
DEFAULT
 62
7
100
AcDbSpline
 70
8
 71
3
 72
8
 73
4
 74
0
 40
0
 40
0
 40
0
 40
0
 40
1
 40
1
 40
1
 40
1
 10
308.561317
 20
468.365455
 30
0.0
 10
312.647612
 20
468.819582
 30
0.0
 10
316.328326
 20
468.365455
 30
0.0
 10
320.140782
 20
466.325045
 30
0.0
  0
SPLINE
  5
2b5
100
AcDbEntity
  8
DEFAULT
 62
7
100
AcDbSpline
 70
8
 71
3
 72
8
 73
4
 74
0
 40
0
 40
0
 40
0
 40
0
 40
1
 40
1
 40
1
 40
1
 10
320.140782
 20
466.325045
 30
0.0
 10
321.596202
 20
465.509395
 30
0.0
 10
322.933342
 20
465.009714
 30
0.0
 10
322.933342
 20
462.742982
 30
0.0
  0
SPLINE
  5
2b6
100
AcDbEntity
  8
DEFAULT
 62
7
100
AcDbSpline
 70
8
 71
3
 72
8
 73
4
 74
0
 40
0
 40
0
 40
0
 40
0
 40
1
 40
1
 40
1
 40
1
 10
222.978215
 20
439.981054
 30
0.0
 10
222.978215
 20
442.248083
 30
0.0
 10
221.640953
 20
442.746871
 30
0.0
 10
220.183501
 20
443.563106
 30
0.0
  0
SPLINE
  5
2b7
100
AcDbEntity
  8
DEFAULT
 62
7
100
AcDbSpline
 70
8
 71
3
 72
8
 73
4
 74
0
 40
0
 40
0
 40
0
 40
0
 40
1
 40
1
 40
1
 40
1
 10
220.183501
 20
443.563106
 30
0.0
 10
216.371023
 20
445.694200
 30
0.0
 10
212.692350
 20
445.875550
 30
0.0
 10
208.604180
 20
445.603530
 30
0.0
  0
SPLINE
  5
2b8
100
AcDbEntity
  8
DEFAULT
 62
7
100
AcDbSpline
 70
8
 71
3
 72
8
 73
4
 74
0
 40
0
 40
0
 40
0
 40
0
 40
1
 40
1
 40
1
 40
1
 10
208.604180
 20
445.603530
 30
0.0
 10
205.171568
 20
445.149404
 30
0.0
 10
202.156678
 20
443.925807
 30
0.0
 10
198.990057
 20
442.792292
 30
0.0
  0
SPLINE
  5
2b9
100
AcDbEntity
  8
DEFAULT
 62
7
100
AcDbSpline
 70
8
 71
3
 72
8
 73
4
 74
0
 40
0
 40
0
 40
0
 40
0
 40
1
 40
1
 40
1
 40
1
 10
198.990057
 20
442.792292
 30
0.0
 10
194.454777
 20
441.205235
 30
0.0
 10
190.218785
 20
441.295927
 30
0.0
 10
185.636213
 20
442.157413
 30
0.0
  0
SPLINE
  5
2ba
100
AcDbEntity
  8
DEFAULT
 62
7
100
AcDbSpline
 70
8
 71
3
 72
8
 73
4
 74
0
 40
0
 40
0
 40
0
 40
0
 40
1
 40
1
 40
1
 40
1
 10
185.636213
 20
442.157413
 30
0.0
 10
178.133341
 20
443.518283
 30
0.0
 10
170.801614
 20
445.694200
 30
0.0
 10
163.381340
 20
447.439815
 30
0.0
  0
SPLINE
  5
2bb
100
AcDbEntity
  8
DEFAULT
 62
7
100
AcDbSpline
 70
8
 71
3
 72
8
 73
4
 74
0
 40
0
 40
0
 40
0
 40
0
 40
1
 40
1
 40
1
 40
1
 10
163.381340
 20
447.439815
 30
0.0
 10
154.143304
 20
449.616327
 30
0.0
 10
144.948780
 20
450.659169
 30
0.0
 10
135.506051
 20
450.659169
 30
0.0
  0
SPLINE
  5
2bc
100
AcDbEntity
  8
DEFAULT
 62
7
100
AcDbSpline
 70
8
 71
3
 72
8
 73
4
 74
0
 40
0
 40
0
 40
0
 40
0
 40
1
 40
1
 40
1
 40
1
 10
48.056137
 20
439.981054
 30
0.0
 10
48.056137
 20
442.248083
 30
0.0
 10
49.387464
 20
442.746871
 30
0.0
 10
50.840744
 20
443.563106
 30
0.0
  0
SPLINE
  5
2bd
100
AcDbEntity
  8
DEFAULT
 62
7
100
AcDbSpline
 70
8
 71
3
 72
8
 73
4
 74
0
 40
0
 40
0
 40
0
 40
0
 40
1
 40
1
 40
1
 40
1
 10
50.840744
 20
443.563106
 30
0.0
 10
54.655373
 20
445.694200
 30
0.0
 10
58.332020
 20
445.875550
 30
0.0
 10
62.418313
 20
445.603530
 30
0.0
  0
SPLINE
  5
2be
100
AcDbEntity
  8
DEFAULT
 62
7
100
AcDbSpline
 70
8
 71
3
 72
8
 73
4
 74
0
 40
0
 40
0
 40
0
 40
0
 40
1
 40
1
 40
1
 40
1
 10
62.418313
 20
445.603530
 30
0.0
 10
65.852545
 20
445.149404
 30
0.0
 10
68.869591
 20
443.925807
 30
0.0
 10
72.036212
 20
442.792292
 30
0.0
  0
SPLINE
  5
2bf
100
AcDbEntity
  8
DEFAULT
 62
7
100
AcDbSpline
 70
8
 71
3
 72
8
 73
4
 74
0
 40
0
 40
0
 40
0
 40
0
 40
1
 40
1
 40
1
 40
1
 10
72.036212
 20
442.792292
 30
0.0
 10
76.573507
 20
441.205235
 30
0.0
 10
80.807478
 20
441.295927
 30
0.0
 10
85.393959
 20
442.157413
 30
0.0
  0
SPLINE
  5
2c0
100
AcDbEntity
  8
DEFAULT
 62
7
100
AcDbSpline
 70
8
 71
3
 72
8
 73
4
 74
0
 40
0
 40
0
 40
0
 40
0
 40
1
 40
1
 40
1
 40
1
 10
85.393959
 20
442.157413
 30
0.0
 10
92.891034
 20
443.518283
 30
0.0
 10
100.220738
 20
445.694200
 30
0.0
 10
107.636965
 20
447.439815
 30
0.0
  0
SPLINE
  5
2c1
100
AcDbEntity
  8
DEFAULT
 62
7
100
AcDbSpline
 70
8
 71
3
 72
8
 73
4
 74
0
 40
0
 40
0
 40
0
 40
0
 40
1
 40
1
 40
1
 40
1
 10
107.636965
 20
447.439815
 30
0.0
 10
116.875012
 20
449.616327
 30
0.0
 10
126.065619
 20
450.659169
 30
0.0
 10
135.506327
 20
450.659169
 30
0.0
  0
SPLINE
  5
2c2
100
AcDbEntity
  8
DEFAULT
 62
7
100
AcDbSpline
 70
8
 71
3
 72
8
 73
4
 74
0
 40
0
 40
0
 40
0
 40
0
 40
1
 40
1
 40
1
 40
1
 10
47.987150
 20
485.513867
 30
0.0
 10
47.987150
 20
483.246689
 30
0.0
 10
49.328310
 20
482.747906
 30
0.0
 10
50.785361
 20
481.931827
 30
0.0
  0
SPLINE
  5
2c3
100
AcDbEntity
  8
DEFAULT
 62
7
100
AcDbSpline
 70
8
 71
3
 72
8
 73
4
 74
0
 40
0
 40
0
 40
0
 40
0
 40
1
 40
1
 40
1
 40
1
 10
50.785361
 20
481.931827
 30
0.0
 10
54.599857
 20
479.800719
 30
0.0
 10
58.278525
 20
479.619374
 30
0.0
 10
62.368724
 20
479.891388
 30
0.0
  0
SPLINE
  5
2c4
100
AcDbEntity
  8
DEFAULT
 62
7
100
AcDbSpline
 70
8
 71
3
 72
8
 73
4
 74
0
 40
0
 40
0
 40
0
 40
0
 40
1
 40
1
 40
1
 40
1
 10
62.368724
 20
479.891388
 30
0.0
 10
65.801339
 20
480.344036
 30
0.0
 10
68.818252
 20
481.568965
 30
0.0
 10
71.980829
 20
482.702632
 30
0.0
  0
SPLINE
  5
2c5
100
AcDbEntity
  8
DEFAULT
 62
7
100
AcDbSpline
 70
8
 71
3
 72
8
 73
4
 74
0
 40
0
 40
0
 40
0
 40
0
 40
1
 40
1
 40
1
 40
1
 10
71.980829
 20
482.702632
 30
0.0
 10
76.520012
 20
484.289536
 30
0.0
 10
80.754116
 20
484.198867
 30
0.0
 10
85.338576
 20
483.337508
 30
0.0
  0
SPLINE
  5
2c6
100
AcDbEntity
  8
DEFAULT
 62
7
100
AcDbSpline
 70
8
 71
3
 72
8
 73
4
 74
0
 40
0
 40
0
 40
0
 40
0
 40
1
 40
1
 40
1
 40
1
 10
85.338576
 20
483.337508
 30
0.0
 10
92.843471
 20
481.976638
 30
0.0
 10
100.178969
 20
479.800874
 30
0.0
 10
107.599373
 20
478.055106
 30
0.0
  0
SPLINE
  5
2c7
100
AcDbEntity
  8
DEFAULT
 62
7
100
AcDbSpline
 70
8
 71
3
 72
8
 73
4
 74
0
 40
0
 40
0
 40
0
 40
0
 40
1
 40
1
 40
1
 40
1
 10
107.599373
 20
478.055106
 30
0.0
 10
116.841191
 20
475.878747
 30
0.0
 10
126.035839
 20
474.835902
 30
0.0
 10
135.480586
 20
474.835902
 30
0.0
  0
SPLINE
  5
2c8
100
AcDbEntity
  8
DEFAULT
 62
7
100
AcDbSpline
 70
8
 71
3
 72
8
 73
4
 74
0
 40
0
 40
0
 40
0
 40
0
 40
1
 40
1
 40
1
 40
1
 10
222.952471
 20
485.513867
 30
0.0
 10
222.952471
 20
483.246689
 30
0.0
 10
221.617503
 20
482.747906
 30
0.0
 10
220.162075
 20
481.931827
 30
0.0
  0
SPLINE
  5
2c9
100
AcDbEntity
  8
DEFAULT
 62
7
100
AcDbSpline
 70
8
 71
3
 72
8
 73
4
 74
0
 40
0
 40
0
 40
0
 40
0
 40
1
 40
1
 40
1
 40
1
 10
220.162075
 20
481.931827
 30
0.0
 10
216.349597
 20
479.800719
 30
0.0
 10
212.668776
 20
479.619374
 30
0.0
 10
208.582618
 20
479.891388
 30
0.0
  0
SPLINE
  5
2ca
100
AcDbEntity
  8
DEFAULT
 62
7
100
AcDbSpline
 70
8
 71
3
 72
8
 73
4
 74
0
 40
0
 40
0
 40
0
 40
0
 40
1
 40
1
 40
1
 40
1
 10
208.582618
 20
479.891388
 30
0.0
 10
205.147988
 20
480.344036
 30
0.0
 10
202.131210
 20
481.568965
 30
0.0
 10
198.964590
 20
482.702632
 30
0.0
  0
SPLINE
  5
2cb
100
AcDbEntity
  8
DEFAULT
 62
7
100
AcDbSpline
 70
8
 71
3
 72
8
 73
4
 74
0
 40
0
 40
0
 40
0
 40
0
 40
1
 40
1
 40
1
 40
1
 10
198.964590
 20
482.702632
 30
0.0
 10
194.425403
 20
484.289536
 30
0.0
 10
190.187521
 20
484.198867
 30
0.0
 10
185.604954
 20
483.337508
 30
0.0
  0
SPLINE
  5
2cc
100
AcDbEntity
  8
DEFAULT
 62
7
100
AcDbSpline
 70
8
 71
3
 72
8
 73
4
 74
0
 40
0
 40
0
 40
0
 40
0
 40
1
 40
1
 40
1
 40
1
 10
185.604954
 20
483.337508
 30
0.0
 10
178.103973
 20
481.976638
 30
0.0
 10
170.772232
 20
479.800874
 30
0.0
 10
163.355872
 20
478.055106
 30
0.0
  0
SPLINE
  5
2cd
100
AcDbEntity
  8
DEFAULT
 62
7
100
AcDbSpline
 70
8
 71
3
 72
8
 73
4
 74
0
 40
0
 40
0
 40
0
 40
0
 40
1
 40
1
 40
1
 40
1
 10
163.355872
 20
478.055106
 30
0.0
 10
154.115937
 20
475.878747
 30
0.0
 10
144.923312
 20
474.835902
 30
0.0
 10
135.480586
 20
474.835902
 30
0.0
  0
SPLINE
  5
2ce
100
AcDbEntity
  8
DEFAULT
 62
7
100
AcDbSpline
 70
8
 71
3
 72
8
 73
4
 74
0
 40
0
 40
0
 40
0
 40
0
 40
1
 40
1
 40
1
 40
1
 10
235.457523
 20
473.420956
 30
0.0
 10
226.012773
 20
473.420956
 30
0.0
 10
216.816107
 20
472.377518
 30
0.0
 10
207.574298
 20
470.201740
 30
0.0
  0
SPLINE
  5
2cf
100
AcDbEntity
  8
DEFAULT
 62
7
100
AcDbSpline
 70
8
 71
3
 72
8
 73
4
 74
0
 40
0
 40
0
 40
0
 40
0
 40
1
 40
1
 40
1
 40
1
 10
207.574298
 20
470.201740
 30
0.0
 10
200.159950
 20
468.433361
 30
0.0
 10
192.830368
 20
466.302256
 30
0.0
 10
185.331137
 20
464.919350
 30
0.0
  0
SPLINE
  5
2d0
100
AcDbEntity
  8
DEFAULT
 62
7
100
AcDbSpline
 70
8
 71
3
 72
8
 73
4
 74
0
 40
0
 40
0
 40
0
 40
0
 40
1
 40
1
 40
1
 40
1
 10
185.331137
 20
464.919350
 30
0.0
 10
180.748706
 20
464.058146
 30
0.0
 10
176.512703
 20
463.967022
 30
0.0
 10
171.975546
 20
465.554217
 30
0.0
  0
SPLINE
  5
2d1
100
AcDbEntity
  8
DEFAULT
 62
7
100
AcDbSpline
 70
8
 71
3
 72
8
 73
4
 74
0
 40
0
 40
0
 40
0
 40
0
 40
1
 40
1
 40
1
 40
1
 10
171.975546
 20
465.554217
 30
0.0
 10
168.808925
 20
466.687300
 30
0.0
 10
165.792012
 20
468.138839
 30
0.0
 10
162.357511
 20
468.365455
 30
0.0
  0
SPLINE
  5
2d2
100
AcDbEntity
  8
DEFAULT
 62
7
100
AcDbSpline
 70
8
 71
3
 72
8
 73
4
 74
0
 40
0
 40
0
 40
0
 40
0
 40
1
 40
1
 40
1
 40
1
 10
162.357511
 20
468.365455
 30
0.0
 10
158.271362
 20
468.819582
 30
0.0
 10
154.592686
 20
468.365455
 30
0.0
 10
150.780081
 20
466.325045
 30
0.0
  0
SPLINE
  5
2d3
100
AcDbEntity
  8
DEFAULT
 62
7
100
AcDbSpline
 70
8
 71
3
 72
8
 73
4
 74
0
 40
0
 40
0
 40
0
 40
0
 40
1
 40
1
 40
1
 40
1
 10
150.780081
 20
466.325045
 30
0.0
 10
149.324517
 20
465.509395
 30
0.0
 10
147.987529
 20
465.009714
 30
0.0
 10
147.989544
 20
462.742982
 30
0.0
  0
SPLINE
  5
2d4
100
AcDbEntity
  8
DEFAULT
 62
7
100
AcDbSpline
 70
8
 71
3
 72
8
 73
4
 74
0
 40
0
 40
0
 40
0
 40
0
 40
1
 40
1
 40
1
 40
1
 10
147.989544
 20
462.747384
 30
0.0
 10
147.989544
 20
460.480347
 30
0.0
 10
149.330709
 20
459.981564
 30
0.0
 10
150.785740
 20
459.165333
 30
0.0
  0
SPLINE
  5
2d5
100
AcDbEntity
  8
DEFAULT
 62
7
100
AcDbSpline
 70
8
 71
3
 72
8
 73
4
 74
0
 40
0
 40
0
 40
0
 40
0
 40
1
 40
1
 40
1
 40
1
 10
150.785740
 20
459.165333
 30
0.0
 10
154.598212
 20
457.034241
 30
0.0
 10
158.278903
 20
456.852888
 30
0.0
 10
162.367208
 20
457.124905
 30
0.0
  0
SPLINE
  5
2d6
100
AcDbEntity
  8
DEFAULT
 62
7
100
AcDbSpline
 70
8
 71
3
 72
8
 73
4
 74
0
 40
0
 40
0
 40
0
 40
0
 40
1
 40
1
 40
1
 40
1
 10
162.367208
 20
457.124905
 30
0.0
 10
165.797667
 20
457.579035
 30
0.0
 10
168.814586
 20
458.802635
 30
0.0
 10
171.979189
 20
459.936146
 30
0.0
  0
SPLINE
  5
2d7
100
AcDbEntity
  8
DEFAULT
 62
7
100
AcDbSpline
 70
8
 71
3
 72
8
 73
4
 74
0
 40
0
 40
0
 40
0
 40
0
 40
1
 40
1
 40
1
 40
1
 10
171.979189
 20
459.936146
 30
0.0
 10
176.518499
 20
461.523200
 30
0.0
 10
180.752479
 20
461.432508
 30
0.0
 10
185.336931
 20
460.571031
 30
0.0
  0
SPLINE
  5
2d8
100
AcDbEntity
  8
DEFAULT
 62
7
100
AcDbSpline
 70
8
 71
3
 72
8
 73
4
 74
0
 40
0
 40
0
 40
0
 40
0
 40
1
 40
1
 40
1
 40
1
 10
185.336931
 20
460.571031
 30
0.0
 10
192.838047
 20
459.210155
 30
0.0
 10
200.171538
 20
457.034241
 30
0.0
 10
207.591807
 20
455.284080
 30
0.0
  0
SPLINE
  5
2d9
100
AcDbEntity
  8
DEFAULT
 62
7
100
AcDbSpline
 70
8
 71
3
 72
8
 73
4
 74
0
 40
0
 40
0
 40
0
 40
0
 40
1
 40
1
 40
1
 40
1
 10
207.591807
 20
455.284080
 30
0.0
 10
216.831740
 20
453.107695
 30
0.0
 10
226.024505
 20
452.064712
 30
0.0
 10
235.467229
 20
452.064712
 30
0.0
  0
SPLINE
  5
2da
100
AcDbEntity
  8
DEFAULT
 62
7
100
AcDbSpline
 70
8
 71
3
 72
8
 73
4
 74
0
 40
0
 40
0
 40
0
 40
0
 40
1
 40
1
 40
1
 40
1
 10
122.997231
 20
462.747384
 30
0.0
 10
122.997231
 20
460.480347
 30
0.0
 10
121.662263
 20
459.981564
 30
0.0
 10
120.208991
 20
459.165333
 30
0.0
  0
SPLINE
  5
2db
100
AcDbEntity
  8
DEFAULT
 62
7
100
AcDbSpline
 70
8
 71
3
 72
8
 73
4
 74
0
 40
0
 40
0
 40
0
 40
0
 40
1
 40
1
 40
1
 40
1
 10
120.208991
 20
459.165333
 30
0.0
 10
116.396505
 20
457.034241
 30
0.0
 10
112.719731
 20
456.852888
 30
0.0
 10
108.633308
 20
457.124905
 30
0.0
  0
SPLINE
  5
2dc
100
AcDbEntity
  8
DEFAULT
 62
7
100
AcDbSpline
 70
8
 71
3
 72
8
 73
4
 74
0
 40
0
 40
0
 40
0
 40
0
 40
1
 40
1
 40
1
 40
1
 10
108.633308
 20
457.124905
 30
0.0
 10
105.199203
 20
457.579035
 30
0.0
 10
102.178124
 20
458.802635
 30
0.0
 10
99.011503
 20
459.936146
 30
0.0
  0
SPLINE
  5
2dd
100
AcDbEntity
  8
DEFAULT
 62
7
100
AcDbSpline
 70
8
 71
3
 72
8
 73
4
 74
0
 40
0
 40
0
 40
0
 40
0
 40
1
 40
1
 40
1
 40
1
 10
99.011503
 20
459.936146
 30
0.0
 10
94.476229
 20
461.523200
 30
0.0
 10
90.238219
 20
461.432508
 30
0.0
 10
85.653759
 20
460.571031
 30
0.0
  0
SPLINE
  5
2de
100
AcDbEntity
  8
DEFAULT
 62
7
100
AcDbSpline
 70
8
 71
3
 72
8
 73
4
 74
0
 40
0
 40
0
 40
0
 40
0
 40
1
 40
1
 40
1
 40
1
 10
85.653759
 20
460.571031
 30
0.0
 10
78.156683
 20
459.210155
 30
0.0
 10
70.826969
 20
457.034241
 30
0.0
 10
63.410606
 20
455.284080
 30
0.0
  0
SPLINE
  5
2df
100
AcDbEntity
  8
DEFAULT
 62
7
100
AcDbSpline
 70
8
 71
3
 72
8
 73
4
 74
0
 40
0
 40
0
 40
0
 40
0
 40
1
 40
1
 40
1
 40
1
 10
63.410606
 20
455.284080
 30
0.0
 10
54.172702
 20
453.107695
 30
0.0
 10
44.982088
 20
452.064712
 30
0.0
 10
35.541249
 20
452.064712
 30
0.0
  0
SPLINE
  5
2e0
100
AcDbEntity
  8
DEFAULT
 62
7
100
AcDbSpline
 70
8
 71
3
 72
8
 73
4
 74
0
 40
0
 40
0
 40
0
 40
0
 40
1
 40
1
 40
1
 40
1
 10
35.509716
 20
473.420956
 30
0.0
 10
44.956490
 20
473.420956
 30
0.0
 10
54.152893
 20
472.377518
 30
0.0
 10
63.396865
 20
470.201740
 30
0.0
  0
SPLINE
  5
2e1
100
AcDbEntity
  8
DEFAULT
 62
7
100
AcDbSpline
 70
8
 71
3
 72
8
 73
4
 74
0
 40
0
 40
0
 40
0
 40
0
 40
1
 40
1
 40
1
 40
1
 10
63.396865
 20
470.201740
 30
0.0
 10
70.815110
 20
468.433361
 30
0.0
 10
78.148730
 20
466.302256
 30
0.0
 10
85.649720
 20
464.919350
 30
0.0
  0
SPLINE
  5
2e2
100
AcDbEntity
  8
DEFAULT
 62
7
100
AcDbSpline
 70
8
 71
3
 72
8
 73
4
 74
0
 40
0
 40
0
 40
0
 40
0
 40
1
 40
1
 40
1
 40
1
 10
85.649720
 20
464.919350
 30
0.0
 10
90.232289
 20
464.058146
 30
0.0
 10
94.468278
 20
463.967022
 30
0.0
 10
99.005432
 20
465.554217
 30
0.0
  0
SPLINE
  5
2e3
100
AcDbEntity
  8
DEFAULT
 62
7
100
AcDbSpline
 70
8
 71
3
 72
8
 73
4
 74
0
 40
0
 40
0
 40
0
 40
0
 40
1
 40
1
 40
1
 40
1
 10
99.005432
 20
465.554217
 30
0.0
 10
102.170168
 20
466.687300
 30
0.0
 10
105.185058
 20
468.138839
 30
0.0
 10
108.617537
 20
468.365455
 30
0.0
  0
SPLINE
  5
2e4
100
AcDbEntity
  8
DEFAULT
 62
7
100
AcDbSpline
 70
8
 71
3
 72
8
 73
4
 74
0
 40
0
 40
0
 40
0
 40
0
 40
1
 40
1
 40
1
 40
1
 10
108.617537
 20
468.365455
 30
0.0
 10
112.707877
 20
468.819582
 30
0.0
 10
116.386407
 20
468.365455
 30
0.0
 10
120.200900
 20
466.325045
 30
0.0
  0
SPLINE
  5
2e5
100
AcDbEntity
  8
DEFAULT
 62
7
100
AcDbSpline
 70
8
 71
3
 72
8
 73
4
 74
0
 40
0
 40
0
 40
0
 40
0
 40
1
 40
1
 40
1
 40
1
 10
120.200900
 20
466.325045
 30
0.0
 10
121.656475
 20
465.509395
 30
0.0
 10
122.995605
 20
465.009714
 30
0.0
 10
122.997095
 20
462.742982
 30
0.0
  0
SPLINE
  5
2e6
100
AcDbEntity
  8
DEFAULT
 62
7
100
AcDbSpline
 70
8
 71
3
 72
8
 73
4
 74
0
 40
0
 40
0
 40
0
 40
0
 40
1
 40
1
 40
1
 40
1
 10
247.946675
 20
485.513867
 30
0.0
 10
247.946675
 20
487.780916
 30
0.0
 10
249.283801
 20
488.279690
 30
0.0
 10
250.741248
 20
489.095919
 30
0.0
  0
SPLINE
  5
2e7
100
AcDbEntity
  8
DEFAULT
 62
7
100
AcDbSpline
 70
8
 71
3
 72
8
 73
4
 74
0
 40
0
 40
0
 40
0
 40
0
 40
1
 40
1
 40
1
 40
1
 10
250.741248
 20
489.095919
 30
0.0
 10
254.553728
 20
491.226875
 30
0.0
 10
258.232529
 20
491.408389
 30
0.0
 10
262.320710
 20
491.136202
 30
0.0
  0
SPLINE
  5
2e8
100
AcDbEntity
  8
DEFAULT
 62
7
100
AcDbSpline
 70
8
 71
3
 72
8
 73
4
 74
0
 40
0
 40
0
 40
0
 40
0
 40
1
 40
1
 40
1
 40
1
 10
262.320710
 20
491.136202
 30
0.0
 10
265.753325
 20
490.683558
 30
0.0
 10
268.772132
 20
489.458631
 30
0.0
 10
271.938750
 20
488.324967
 30
0.0
  0
SPLINE
  5
2e9
100
AcDbEntity
  8
DEFAULT
 62
7
100
AcDbSpline
 70
8
 71
3
 72
8
 73
4
 74
0
 40
0
 40
0
 40
0
 40
0
 40
1
 40
1
 40
1
 40
1
 10
271.938750
 20
488.324967
 30
0.0
 10
276.475896
 20
486.738077
 30
0.0
 10
280.711902
 20
486.828741
 30
0.0
 10
285.298360
 20
487.690097
 30
0.0
  0
SPLINE
  5
2ea
100
AcDbEntity
  8
DEFAULT
 62
7
100
AcDbSpline
 70
8
 71
3
 72
8
 73
4
 74
0
 40
0
 40
0
 40
0
 40
0
 40
1
 40
1
 40
1
 40
1
 10
285.298360
 20
487.690097
 30
0.0
 10
292.799347
 20
489.050947
 30
0.0
 10
300.133117
 20
491.226725
 30
0.0
 10
307.551356
 20
492.977048
 30
0.0
  0
SPLINE
  5
2eb
100
AcDbEntity
  8
DEFAULT
 62
7
100
AcDbSpline
 70
8
 71
3
 72
8
 73
4
 74
0
 40
0
 40
0
 40
0
 40
0
 40
1
 40
1
 40
1
 40
1
 10
307.551356
 20
492.977048
 30
0.0
 10
316.791142
 20
495.153407
 30
0.0
 10
325.987833
 20
496.196249
 30
0.0
 10
335.430566
 20
496.196249
 30
0.0
  0
SPLINE
  5
2ec
100
AcDbEntity
  8
DEFAULT
 62
7
100
AcDbSpline
 70
8
 71
3
 72
8
 73
4
 74
0
 40
0
 40
0
 40
0
 40
0
 40
1
 40
1
 40
1
 40
1
 10
247.946675
 20
531.046559
 30
0.0
 10
247.946675
 20
528.779516
 30
0.0
 10
249.281648
 20
528.280722
 30
0.0
 10
250.737209
 20
527.464496
 30
0.0
  0
SPLINE
  5
2ed
100
AcDbEntity
  8
DEFAULT
 62
7
100
AcDbSpline
 70
8
 71
3
 72
8
 73
4
 74
0
 40
0
 40
0
 40
0
 40
0
 40
1
 40
1
 40
1
 40
1
 10
250.737209
 20
527.464496
 30
0.0
 10
254.551569
 20
525.333413
 30
0.0
 10
258.232396
 20
525.152052
 30
0.0
 10
262.320569
 20
525.424080
 30
0.0
  0
SPLINE
  5
2ee
100
AcDbEntity
  8
DEFAULT
 62
7
100
AcDbSpline
 70
8
 71
3
 72
8
 73
4
 74
0
 40
0
 40
0
 40
0
 40
0
 40
1
 40
1
 40
1
 40
1
 10
262.320569
 20
525.424080
 30
0.0
 10
265.753187
 20
525.878195
 30
0.0
 10
268.769959
 20
527.101792
 30
0.0
 10
271.938609
 20
528.235318
 30
0.0
  0
SPLINE
  5
2ef
100
AcDbEntity
  8
DEFAULT
 62
7
100
AcDbSpline
 70
8
 71
3
 72
8
 73
4
 74
0
 40
0
 40
0
 40
0
 40
0
 40
1
 40
1
 40
1
 40
1
 10
271.938609
 20
528.235318
 30
0.0
 10
276.475754
 20
529.822364
 30
0.0
 10
280.709728
 20
529.731680
 30
0.0
 10
285.294183
 20
528.870186
 30
0.0
  0
SPLINE
  5
2f0
100
AcDbEntity
  8
DEFAULT
 62
7
100
AcDbSpline
 70
8
 71
3
 72
8
 73
4
 74
0
 40
0
 40
0
 40
0
 40
0
 40
1
 40
1
 40
1
 40
1
 10
285.294183
 20
528.870186
 30
0.0
 10
292.797202
 20
527.509316
 30
0.0
 10
300.132835
 20
525.333413
 30
0.0
 10
307.551074
 20
523.587796
 30
0.0
  0
SPLINE
  5
2f1
100
AcDbEntity
  8
DEFAULT
 62
7
100
AcDbSpline
 70
8
 71
3
 72
8
 73
4
 74
0
 40
0
 40
0
 40
0
 40
0
 40
1
 40
1
 40
1
 40
1
 10
307.551074
 20
523.587796
 30
0.0
 10
316.791030
 20
521.411272
 30
0.0
 10
325.987720
 20
520.368433
 30
0.0
 10
335.430424
 20
520.368433
 30
0.0
  0
SPLINE
  5
2f2
100
AcDbEntity
  8
DEFAULT
 62
7
100
AcDbSpline
 70
8
 71
3
 72
8
 73
4
 74
0
 40
0
 40
0
 40
0
 40
0
 40
1
 40
1
 40
1
 40
1
 10
322.931310
 20
508.280215
 30
0.0
 10
322.931310
 20
506.013036
 30
0.0
 10
321.596202
 20
505.514389
 30
0.0
 10
320.138750
 20
504.698157
 30
0.0
  0
SPLINE
  5
2f3
100
AcDbEntity
  8
DEFAULT
 62
7
100
AcDbSpline
 70
8
 71
3
 72
8
 73
4
 74
0
 40
0
 40
0
 40
0
 40
0
 40
1
 40
1
 40
1
 40
1
 10
320.138750
 20
504.698157
 30
0.0
 10
316.326266
 20
502.567055
 30
0.0
 10
312.647612
 20
502.385719
 30
0.0
 10
308.557394
 20
502.657750
 30
0.0
  0
SPLINE
  5
2f4
100
AcDbEntity
  8
DEFAULT
 62
7
100
AcDbSpline
 70
8
 71
3
 72
8
 73
4
 74
0
 40
0
 40
0
 40
0
 40
0
 40
1
 40
1
 40
1
 40
1
 10
308.557394
 20
502.657750
 30
0.0
 10
305.124781
 20
503.110383
 30
0.0
 10
302.105991
 20
504.335462
 30
0.0
 10
298.941405
 20
505.468988
 30
0.0
  0
SPLINE
  5
2f5
100
AcDbEntity
  8
DEFAULT
 62
7
100
AcDbSpline
 70
8
 71
3
 72
8
 73
4
 74
0
 40
0
 40
0
 40
0
 40
0
 40
1
 40
1
 40
1
 40
1
 10
298.941405
 20
505.468988
 30
0.0
 10
294.404119
 20
507.056017
 30
0.0
 10
290.166213
 20
506.965350
 30
0.0
 10
285.581739
 20
506.103855
 30
0.0
  0
SPLINE
  5
2f6
100
AcDbEntity
  8
DEFAULT
 62
7
100
AcDbSpline
 70
8
 71
3
 72
8
 73
4
 74
0
 40
0
 40
0
 40
0
 40
0
 40
1
 40
1
 40
1
 40
1
 10
285.581739
 20
506.103855
 30
0.0
 10
278.080639
 20
504.742985
 30
0.0
 10
270.747010
 20
502.567207
 30
0.0
 10
263.328635
 20
500.821589
 30
0.0
  0
SPLINE
  5
2f7
100
AcDbEntity
  8
DEFAULT
 62
7
100
AcDbSpline
 70
8
 71
3
 72
8
 73
4
 74
0
 40
0
 40
0
 40
0
 40
0
 40
1
 40
1
 40
1
 40
1
 10
263.328635
 20
500.821589
 30
0.0
 10
254.086820
 20
498.645080
 30
0.0
 10
244.892299
 20
497.602247
 30
0.0
 10
235.449581
 20
497.602247
 30
0.0
  0
SPLINE
  5
2f8
100
AcDbEntity
  8
DEFAULT
 62
7
100
AcDbSpline
 70
8
 71
3
 72
8
 73
4
 74
0
 40
0
 40
0
 40
0
 40
0
 40
1
 40
1
 40
1
 40
1
 10
235.447685
 20
518.953783
 30
0.0
 10
244.894193
 20
518.953783
 30
0.0
 10
254.090867
 20
517.910354
 30
0.0
 10
263.334703
 20
515.734432
 30
0.0
  0
SPLINE
  5
2f9
100
AcDbEntity
  8
DEFAULT
 62
7
100
AcDbSpline
 70
8
 71
3
 72
8
 73
4
 74
0
 40
0
 40
0
 40
0
 40
0
 40
1
 40
1
 40
1
 40
1
 10
263.334703
 20
515.734432
 30
0.0
 10
270.750933
 20
513.966177
 30
0.0
 10
278.084675
 20
511.835080
 30
0.0
 10
285.581739
 20
510.452163
 30
0.0
  0
SPLINE
  5
2fa
100
AcDbEntity
  8
DEFAULT
 62
7
100
AcDbSpline
 70
8
 71
3
 72
8
 73
4
 74
0
 40
0
 40
0
 40
0
 40
0
 40
1
 40
1
 40
1
 40
1
 10
285.581739
 20
510.452163
 30
0.0
 10
290.166213
 20
509.590970
 30
0.0
 10
294.404119
 20
509.499846
 30
0.0
 10
298.939514
 20
511.087061
 30
0.0
  0
SPLINE
  5
2fb
100
AcDbEntity
  8
DEFAULT
 62
7
100
AcDbSpline
 70
8
 71
3
 72
8
 73
4
 74
0
 40
0
 40
0
 40
0
 40
0
 40
1
 40
1
 40
1
 40
1
 10
298.939514
 20
511.087061
 30
0.0
 10
302.106104
 20
512.220116
 30
0.0
 10
305.123032
 20
513.671517
 30
0.0
 10
308.557394
 20
513.898271
 30
0.0
  0
SPLINE
  5
2fc
100
AcDbEntity
  8
DEFAULT
 62
7
100
AcDbSpline
 70
8
 71
3
 72
8
 73
4
 74
0
 40
0
 40
0
 40
0
 40
0
 40
1
 40
1
 40
1
 40
1
 10
308.557394
 20
513.898271
 30
0.0
 10
312.645580
 20
514.350919
 30
0.0
 10
316.324375
 20
513.898271
 30
0.0
 10
320.138750
 20
511.857861
 30
0.0
  0
SPLINE
  5
2fd
100
AcDbEntity
  8
DEFAULT
 62
7
100
AcDbSpline
 70
8
 71
3
 72
8
 73
4
 74
0
 40
0
 40
0
 40
0
 40
0
 40
1
 40
1
 40
1
 40
1
 10
320.138750
 20
511.857861
 30
0.0
 10
321.594339
 20
511.042211
 30
0.0
 10
322.931423
 20
510.542556
 30
0.0
 10
322.931423
 20
508.275806
 30
0.0
  0
SPLINE
  5
2fe
100
AcDbEntity
  8
DEFAULT
 62
7
100
AcDbSpline
 70
8
 71
3
 72
8
 73
4
 74
0
 40
0
 40
0
 40
0
 40
0
 40
1
 40
1
 40
1
 40
1
 10
222.952471
 20
485.513867
 30
0.0
 10
222.952471
 20
487.780916
 30
0.0
 10
221.615350
 20
488.279690
 30
0.0
 10
220.157901
 20
489.095919
 30
0.0
  0
SPLINE
  5
2ff
100
AcDbEntity
  8
DEFAULT
 62
7
100
AcDbSpline
 70
8
 71
3
 72
8
 73
4
 74
0
 40
0
 40
0
 40
0
 40
0
 40
1
 40
1
 40
1
 40
1
 10
220.157901
 20
489.095919
 30
0.0
 10
216.345420
 20
491.226875
 30
0.0
 10
212.666761
 20
491.408389
 30
0.0
 10
208.578577
 20
491.136202
 30
0.0
  0
SPLINE
  5
300
100
AcDbEntity
  8
DEFAULT
 62
7
100
AcDbSpline
 70
8
 71
3
 72
8
 73
4
 74
0
 40
0
 40
0
 40
0
 40
0
 40
1
 40
1
 40
1
 40
1
 10
208.578577
 20
491.136202
 30
0.0
 10
205.143944
 20
490.683558
 30
0.0
 10
202.129054
 20
489.458631
 30
0.0
 10
198.962433
 20
488.324967
 30
0.0
  0
SPLINE
  5
301
100
AcDbEntity
  8
DEFAULT
 62
7
100
AcDbSpline
 70
8
 71
3
 72
8
 73
4
 74
0
 40
0
 40
0
 40
0
 40
0
 40
1
 40
1
 40
1
 40
1
 10
198.962433
 20
488.324967
 30
0.0
 10
194.423247
 20
486.738077
 30
0.0
 10
190.187255
 20
486.828741
 30
0.0
 10
185.602657
 20
487.690097
 30
0.0
  0
SPLINE
  5
302
100
AcDbEntity
  8
DEFAULT
 62
7
100
AcDbSpline
 70
8
 71
3
 72
8
 73
4
 74
0
 40
0
 40
0
 40
0
 40
0
 40
1
 40
1
 40
1
 40
1
 10
185.602657
 20
487.690097
 30
0.0
 10
178.099796
 20
489.050947
 30
0.0
 10
170.766303
 20
491.226725
 30
0.0
 10
163.347792
 20
492.977048
 30
0.0
  0
SPLINE
  5
303
100
AcDbEntity
  8
DEFAULT
 62
7
100
AcDbSpline
 70
8
 71
3
 72
8
 73
4
 74
0
 40
0
 40
0
 40
0
 40
0
 40
1
 40
1
 40
1
 40
1
 10
163.347792
 20
492.977048
 30
0.0
 10
154.107998
 20
495.153407
 30
0.0
 10
144.911459
 20
496.196249
 30
0.0
 10
135.468591
 20
496.196249
 30
0.0
  0
SPLINE
  5
304
100
AcDbEntity
  8
DEFAULT
 62
7
100
AcDbSpline
 70
8
 71
3
 72
8
 73
4
 74
0
 40
0
 40
0
 40
0
 40
0
 40
1
 40
1
 40
1
 40
1
 10
47.987150
 20
485.513867
 30
0.0
 10
47.987150
 20
487.780916
 30
0.0
 10
49.324136
 20
488.279690
 30
0.0
 10
50.777679
 20
489.095919
 30
0.0
  0
SPLINE
  5
305
100
AcDbEntity
  8
DEFAULT
 62
7
100
AcDbSpline
 70
8
 71
3
 72
8
 73
4
 74
0
 40
0
 40
0
 40
0
 40
0
 40
1
 40
1
 40
1
 40
1
 10
50.777679
 20
489.095919
 30
0.0
 10
54.594066
 20
491.226875
 30
0.0
 10
58.272734
 20
491.408389
 30
0.0
 10
62.360906
 20
491.136202
 30
0.0
  0
SPLINE
  5
306
100
AcDbEntity
  8
DEFAULT
 62
7
100
AcDbSpline
 70
8
 71
3
 72
8
 73
4
 74
0
 40
0
 40
0
 40
0
 40
0
 40
1
 40
1
 40
1
 40
1
 10
62.360906
 20
491.136202
 30
0.0
 10
65.795548
 20
490.683558
 30
0.0
 10
68.812323
 20
489.458631
 30
0.0
 10
71.978943
 20
488.324967
 30
0.0
  0
SPLINE
  5
307
100
AcDbEntity
  8
DEFAULT
 62
7
100
AcDbSpline
 70
8
 71
3
 72
8
 73
4
 74
0
 40
0
 40
0
 40
0
 40
0
 40
1
 40
1
 40
1
 40
1
 10
71.978943
 20
488.324967
 30
0.0
 10
76.516238
 20
486.738077
 30
0.0
 10
80.752233
 20
486.828741
 30
0.0
 10
85.336555
 20
487.690097
 30
0.0
  0
SPLINE
  5
308
100
AcDbEntity
  8
DEFAULT
 62
7
100
AcDbSpline
 70
8
 71
3
 72
8
 73
4
 74
0
 40
0
 40
0
 40
0
 40
0
 40
1
 40
1
 40
1
 40
1
 10
85.336555
 20
487.690097
 30
0.0
 10
92.837677
 20
489.050947
 30
0.0
 10
100.171287
 20
491.226725
 30
0.0
 10
107.589664
 20
492.977048
 30
0.0
  0
SPLINE
  5
309
100
AcDbEntity
  8
DEFAULT
 62
7
100
AcDbSpline
 70
8
 71
3
 72
8
 73
4
 74
0
 40
0
 40
0
 40
0
 40
0
 40
1
 40
1
 40
1
 40
1
 10
107.589664
 20
492.977048
 30
0.0
 10
116.831485
 20
495.153407
 30
0.0
 10
126.025997
 20
496.196249
 30
0.0
 10
135.468730
 20
496.196249
 30
0.0
  0
SPLINE
  5
30a
100
AcDbEntity
  8
DEFAULT
 62
7
100
AcDbSpline
 70
8
 71
3
 72
8
 73
4
 74
0
 40
0
 40
0
 40
0
 40
0
 40
1
 40
1
 40
1
 40
1
 10
47.977312
 20
531.046559
 30
0.0
 10
47.977312
 20
528.779516
 30
0.0
 10
49.316318
 20
528.280722
 30
0.0
 10
50.773499
 20
527.464496
 30
0.0
  0
SPLINE
  5
30b
100
AcDbEntity
  8
DEFAULT
 62
7
100
AcDbSpline
 70
8
 71
3
 72
8
 73
4
 74
0
 40
0
 40
0
 40
0
 40
0
 40
1
 40
1
 40
1
 40
1
 10
50.773499
 20
527.464496
 30
0.0
 10
54.585845
 20
525.333413
 30
0.0
 10
58.264642
 20
525.152052
 30
0.0
 10
62.354979
 20
525.424080
 30
0.0
  0
SPLINE
  5
30c
100
AcDbEntity
  8
DEFAULT
 62
7
100
AcDbSpline
 70
8
 71
3
 72
8
 73
4
 74
0
 40
0
 40
0
 40
0
 40
0
 40
1
 40
1
 40
1
 40
1
 10
62.354979
 20
525.424080
 30
0.0
 10
65.787456
 20
525.878195
 30
0.0
 10
68.806260
 20
527.101792
 30
0.0
 10
71.970999
 20
528.235318
 30
0.0
  0
SPLINE
  5
30d
100
AcDbEntity
  8
DEFAULT
 62
7
100
AcDbSpline
 70
8
 71
3
 72
8
 73
4
 74
0
 40
0
 40
0
 40
0
 40
0
 40
1
 40
1
 40
1
 40
1
 10
71.970999
 20
528.235318
 30
0.0
 10
76.508288
 20
529.822364
 30
0.0
 10
80.746033
 20
529.731680
 30
0.0
 10
85.330625
 20
528.870186
 30
0.0
  0
SPLINE
  5
30e
100
AcDbEntity
  8
DEFAULT
 62
7
100
AcDbSpline
 70
8
 71
3
 72
8
 73
4
 74
0
 40
0
 40
0
 40
0
 40
0
 40
1
 40
1
 40
1
 40
1
 10
85.330625
 20
528.870186
 30
0.0
 10
92.831604
 20
527.509316
 30
0.0
 10
100.167251
 20
525.333413
 30
0.0
 10
107.585487
 20
523.587796
 30
0.0
  0
SPLINE
  5
30f
100
AcDbEntity
  8
DEFAULT
 62
7
100
AcDbSpline
 70
8
 71
3
 72
8
 73
4
 74
0
 40
0
 40
0
 40
0
 40
0
 40
1
 40
1
 40
1
 40
1
 10
107.585487
 20
523.587796
 30
0.0
 10
116.827444
 20
521.411272
 30
0.0
 10
126.020068
 20
520.368433
 30
0.0
 10
135.466712
 20
520.368433
 30
0.0
  0
SPLINE
  5
310
100
AcDbEntity
  8
DEFAULT
 62
7
100
AcDbSpline
 70
8
 71
3
 72
8
 73
4
 74
0
 40
0
 40
0
 40
0
 40
0
 40
1
 40
1
 40
1
 40
1
 10
222.950591
 20
531.046559
 30
0.0
 10
222.950591
 20
528.779516
 30
0.0
 10
221.613468
 20
528.280722
 30
0.0
 10
220.155883
 20
527.464496
 30
0.0
  0
SPLINE
  5
311
100
AcDbEntity
  8
DEFAULT
 62
7
100
AcDbSpline
 70
8
 71
3
 72
8
 73
4
 74
0
 40
0
 40
0
 40
0
 40
0
 40
1
 40
1
 40
1
 40
1
 10
220.155883
 20
527.464496
 30
0.0
 10
216.343397
 20
525.333413
 30
0.0
 10
212.662843
 20
525.152052
 30
0.0
 10
208.576559
 20
525.424080
 30
0.0
  0
SPLINE
  5
312
100
AcDbEntity
  8
DEFAULT
 62
7
100
AcDbSpline
 70
8
 71
3
 72
8
 73
4
 74
0
 40
0
 40
0
 40
0
 40
0
 40
1
 40
1
 40
1
 40
1
 10
208.576559
 20
525.424080
 30
0.0
 10
205.142332
 20
525.878195
 30
0.0
 10
202.125140
 20
527.101792
 30
0.0
 10
198.958519
 20
528.235318
 30
0.0
  0
SPLINE
  5
313
100
AcDbEntity
  8
DEFAULT
 62
7
100
AcDbSpline
 70
8
 71
3
 72
8
 73
4
 74
0
 40
0
 40
0
 40
0
 40
0
 40
1
 40
1
 40
1
 40
1
 10
198.958519
 20
528.235318
 30
0.0
 10
194.419209
 20
529.822364
 30
0.0
 10
190.183344
 20
529.731680
 30
0.0
 10
185.598895
 20
528.870186
 30
0.0
  0
SPLINE
  5
314
100
AcDbEntity
  8
DEFAULT
 62
7
100
AcDbSpline
 70
8
 71
3
 72
8
 73
4
 74
0
 40
0
 40
0
 40
0
 40
0
 40
1
 40
1
 40
1
 40
1
 10
185.598895
 20
528.870186
 30
0.0
 10
178.097778
 20
527.509316
 30
0.0
 10
170.764279
 20
525.333413
 30
0.0
 10
163.344016
 20
523.587796
 30
0.0
  0
SPLINE
  5
315
100
AcDbEntity
  8
DEFAULT
 62
7
100
AcDbSpline
 70
8
 71
3
 72
8
 73
4
 74
0
 40
0
 40
0
 40
0
 40
0
 40
1
 40
1
 40
1
 40
1
 10
163.344016
 20
523.587796
 30
0.0
 10
154.102065
 20
521.411272
 30
0.0
 10
144.909438
 20
520.368433
 30
0.0
 10
135.466712
 20
520.368433
 30
0.0
  0
SPLINE
  5
316
100
AcDbEntity
  8
DEFAULT
 62
7
100
AcDbSpline
 70
8
 71
3
 72
8
 73
4
 74
0
 40
0
 40
0
 40
0
 40
0
 40
1
 40
1
 40
1
 40
1
 10
235.447685
 20
518.953783
 30
0.0
 10
226.000917
 20
518.953783
 30
0.0
 10
216.804240
 20
517.910354
 30
0.0
 10
207.560545
 20
515.734432
 30
0.0
  0
SPLINE
  5
317
100
AcDbEntity
  8
DEFAULT
 62
7
100
AcDbSpline
 70
8
 71
3
 72
8
 73
4
 74
0
 40
0
 40
0
 40
0
 40
0
 40
1
 40
1
 40
1
 40
1
 10
207.560545
 20
515.734432
 30
0.0
 10
200.146203
 20
513.966177
 30
0.0
 10
192.814476
 20
511.835080
 30
0.0
 10
185.313484
 20
510.452163
 30
0.0
  0
SPLINE
  5
318
100
AcDbEntity
  8
DEFAULT
 62
7
100
AcDbSpline
 70
8
 71
3
 72
8
 73
4
 74
0
 40
0
 40
0
 40
0
 40
0
 40
1
 40
1
 40
1
 40
1
 10
185.313484
 20
510.452163
 30
0.0
 10
180.728894
 20
509.590970
 30
0.0
 10
176.493035
 20
509.499846
 30
0.0
 10
171.957760
 20
511.087061
 30
0.0
  0
SPLINE
  5
319
100
AcDbEntity
  8
DEFAULT
 62
7
100
AcDbSpline
 70
8
 71
3
 72
8
 73
4
 74
0
 40
0
 40
0
 40
0
 40
0
 40
1
 40
1
 40
1
 40
1
 10
171.957760
 20
511.087061
 30
0.0
 10
168.789119
 20
512.220116
 30
0.0
 10
165.772341
 20
513.671517
 30
0.0
 10
162.337837
 20
513.898271
 30
0.0
  0
SPLINE
  5
31a
100
AcDbEntity
  8
DEFAULT
 62
7
100
AcDbSpline
 70
8
 71
3
 72
8
 73
4
 74
0
 40
0
 40
0
 40
0
 40
0
 40
1
 40
1
 40
1
 40
1
 10
162.337837
 20
513.898271
 30
0.0
 10
158.251553
 20
514.350919
 30
0.0
 10
154.570862
 20
513.898271
 30
0.0
 10
150.758390
 20
511.857861
 30
0.0
  0
SPLINE
  5
31b
100
AcDbEntity
  8
DEFAULT
 62
7
100
AcDbSpline
 70
8
 71
3
 72
8
 73
4
 74
0
 40
0
 40
0
 40
0
 40
0
 40
1
 40
1
 40
1
 40
1
 10
150.758390
 20
511.857861
 30
0.0
 10
149.302953
 20
511.042211
 30
0.0
 10
147.963805
 20
510.542556
 30
0.0
 10
147.963805
 20
508.275806
 30
0.0
  0
SPLINE
  5
31c
100
AcDbEntity
  8
DEFAULT
 62
7
100
AcDbSpline
 70
8
 71
3
 72
8
 73
4
 74
0
 40
0
 40
0
 40
0
 40
0
 40
1
 40
1
 40
1
 40
1
 10
147.963944
 20
508.280215
 30
0.0
 10
147.963944
 20
506.013036
 30
0.0
 10
149.303082
 20
505.514389
 30
0.0
 10
150.758511
 20
504.698157
 30
0.0
  0
SPLINE
  5
31d
100
AcDbEntity
  8
DEFAULT
 62
7
100
AcDbSpline
 70
8
 71
3
 72
8
 73
4
 74
0
 40
0
 40
0
 40
0
 40
0
 40
1
 40
1
 40
1
 40
1
 10
150.758511
 20
504.698157
 30
0.0
 10
154.573015
 20
502.567055
 30
0.0
 10
158.251689
 20
502.385719
 30
0.0
 10
162.337979
 20
502.657750
 30
0.0
  0
SPLINE
  5
31e
100
AcDbEntity
  8
DEFAULT
 62
7
100
AcDbSpline
 70
8
 71
3
 72
8
 73
4
 74
0
 40
0
 40
0
 40
0
 40
0
 40
1
 40
1
 40
1
 40
1
 10
162.337979
 20
502.657750
 30
0.0
 10
165.772617
 20
503.110383
 30
0.0
 10
168.789390
 20
504.335462
 30
0.0
 10
171.958034
 20
505.468988
 30
0.0
  0
SPLINE
  5
31f
100
AcDbEntity
  8
DEFAULT
 62
7
100
AcDbSpline
 70
8
 71
3
 72
8
 73
4
 74
0
 40
0
 40
0
 40
0
 40
0
 40
1
 40
1
 40
1
 40
1
 10
171.958034
 20
505.468988
 30
0.0
 10
176.493170
 20
507.056017
 30
0.0
 10
180.729032
 20
506.965350
 30
0.0
 10
185.313616
 20
506.103855
 30
0.0
  0
SPLINE
  5
320
100
AcDbEntity
  8
DEFAULT
 62
7
100
AcDbSpline
 70
8
 71
3
 72
8
 73
4
 74
0
 40
0
 40
0
 40
0
 40
0
 40
1
 40
1
 40
1
 40
1
 10
185.313616
 20
506.103855
 30
0.0
 10
192.818650
 20
504.742985
 30
0.0
 10
200.152138
 20
502.567207
 30
0.0
 10
207.570654
 20
500.821589
 30
0.0
  0
SPLINE
  5
321
100
AcDbEntity
  8
DEFAULT
 62
7
100
AcDbSpline
 70
8
 71
3
 72
8
 73
4
 74
0
 40
0
 40
0
 40
0
 40
0
 40
1
 40
1
 40
1
 40
1
 10
207.570654
 20
500.821589
 30
0.0
 10
216.810449
 20
498.645080
 30
0.0
 10
226.007114
 20
497.602247
 30
0.0
 10
235.449841
 20
497.602247
 30
0.0
  0
SPLINE
  5
322
100
AcDbEntity
  8
DEFAULT
 62
7
100
AcDbSpline
 70
8
 71
3
 72
8
 73
4
 74
0
 40
0
 40
0
 40
0
 40
0
 40
1
 40
1
 40
1
 40
1
 10
122.969745
 20
508.280215
 30
0.0
 10
122.969745
 20
506.013036
 30
0.0
 10
121.632616
 20
505.514389
 30
0.0
 10
120.177187
 20
504.698157
 30
0.0
  0
SPLINE
  5
323
100
AcDbEntity
  8
DEFAULT
 62
7
100
AcDbSpline
 70
8
 71
3
 72
8
 73
4
 74
0
 40
0
 40
0
 40
0
 40
0
 40
1
 40
1
 40
1
 40
1
 10
120.177187
 20
504.698157
 30
0.0
 10
116.364707
 20
502.567055
 30
0.0
 10
112.684154
 20
502.385719
 30
0.0
 10
108.595849
 20
502.657750
 30
0.0
  0
SPLINE
  5
324
100
AcDbEntity
  8
DEFAULT
 62
7
100
AcDbSpline
 70
8
 71
3
 72
8
 73
4
 74
0
 40
0
 40
0
 40
0
 40
0
 40
1
 40
1
 40
1
 40
1
 10
108.595849
 20
502.657750
 30
0.0
 10
105.161210
 20
503.110383
 30
0.0
 10
102.144426
 20
504.335462
 30
0.0
 10
98.977808
 20
505.468988
 30
0.0
  0
SPLINE
  5
325
100
AcDbEntity
  8
DEFAULT
 62
7
100
AcDbSpline
 70
8
 71
3
 72
8
 73
4
 74
0
 40
0
 40
0
 40
0
 40
0
 40
1
 40
1
 40
1
 40
1
 10
98.977808
 20
505.468988
 30
0.0
 10
94.440652
 20
507.056017
 30
0.0
 10
90.204665
 20
506.965350
 30
0.0
 10
85.620073
 20
506.103855
 30
0.0
  0
SPLINE
  5
326
100
AcDbEntity
  8
DEFAULT
 62
7
100
AcDbSpline
 70
8
 71
3
 72
8
 73
4
 74
0
 40
0
 40
0
 40
0
 40
0
 40
1
 40
1
 40
1
 40
1
 10
85.620073
 20
506.103855
 30
0.0
 10
78.119089
 20
504.742985
 30
0.0
 10
70.785462
 20
502.567207
 30
0.0
 10
63.365197
 20
500.821589
 30
0.0
  0
SPLINE
  5
327
100
AcDbEntity
  8
DEFAULT
 62
7
100
AcDbSpline
 70
8
 71
3
 72
8
 73
4
 74
0
 40
0
 40
0
 40
0
 40
0
 40
1
 40
1
 40
1
 40
1
 10
63.365197
 20
500.821589
 30
0.0
 10
54.125264
 20
498.645080
 30
0.0
 10
44.930619
 20
497.602247
 30
0.0
 10
35.487892
 20
497.602247
 30
0.0
  0
LWPOLYLINE
  5
328
100
AcDbEntity
  8
DEFAULT
 62
7
100
AcDbPolyline
 90
5
 70
1
 10
34.925658
 20
532.893382
 30
0.0
 10
334.915744
 20
532.893382
 30
0.0
 10
334.915744
 20
367.906158
 30
0.0
 10
34.925658
 20
367.906158
 30
0.0
 10
34.925658
 20
532.893382
 30
0.0
  0
LWPOLYLINE
  5
329
100
AcDbEntity
  8
DEFAULT
 62
7
100
AcDbPolyline
 90
5
 70
1
 10
29.398033
 20
757.182096
 30
0.0
 10
349.490075
 20
757.182096
 30
0.0
 10
349.490075
 20
564.039294
 30
0.0
 10
29.398033
 20
564.039294
 30
0.0
 10
29.398033
 20
757.182096
 30
0.0
  0
LWPOLYLINE
  5
32a
100
AcDbEntity
  8
DEFAULT
 62
7
100
AcDbPolyline
 90
5
 70
1
 10
34.587095
 20
954.901736
 30
0.0
 10
321.162313
 20
954.901736
 30
0.0
 10
321.162313
 20
785.768235
 30
0.0
 10
34.587095
 20
785.768235
 30
0.0
 10
34.587095
 20
954.901736
 30
0.0
  0
ENDSEC
  0
SECTION
  2
OBJECTS
  0
DICTIONARY
  5
C
330
0
100
AcDbDictionary
  3
ACAD_GROUP
350
D
  3
ACAD_MLINESTYLE
350
17
  0
DICTIONARY
  5
D
330
C
100
AcDbDictionary
  0
DICTIONARY
  5
1A
330
C
100
AcDbDictionary
  0
DICTIONARY
  5
17
330
C
100
AcDbDictionary
  3
STANDARD
350
18
  0
DICTIONARY
  5
19
330
C
100
AcDbDictionary
  0
ENDSEC
  0
EOF
