  0
SECTION
  2
HEADER
  9
$ACADVER
  1
AC1014
  9
$HANDSEED
  5
FFFF
  9
$MEASUREMENT
 70
     1
  0
ENDSEC
  0
SECTION
  2
TABLES
  0
TABLE
  2
VPORT
  5
8
330
0
100
AcDbSymbolTable
 70
     4
  0
VPORT
  5
2E
330
8
100
AcDbSymbolTableRecord
100
AcDbViewportTableRecord
  2
*ACTIVE
 70
     0
 10
0.0
 20
0.0
 11
1.0
 21
1.0
 12
210.0
 22
148.5
 13
0.0
 23
0.0
 14
10.0
 24
10.0
 15
10.0
 25
10.0
 16
0.0
 26
0.0
 36
1.0
 17
0.0
 27
0.0
 37
0.0
 40
341.0
 41
1.24
 42
50.0
 43
0.0
 44
0.0
 50
0.0
 51
0.0
 71
     0
 72
   100
 73
     1
 74
     3
 75
     0
 76
     0
 77
     0
 78
     0
  0
ENDTAB
  0
TABLE
  2
LTYPE
  5
5
330
0
100
AcDbSymbolTable
 70
     1
  0
LTYPE
  5
14
330
5
100
AcDbSymbolTableRecord
100
AcDbLinetypeTableRecord
  2
BYBLOCK
 70
     0
  3

 72
    65
 73
     0
 40
0.0
  0
LTYPE
  5
15
330
5
100
AcDbSymbolTableRecord
100
AcDbLinetypeTableRecord
  2
BYLAYER
 70
     0
  3

 72
    65
 73
     0
 40
0.0
  0
LTYPE
  5
16
330
5
100
AcDbSymbolTableRecord
100
AcDbLinetypeTableRecord
  2
CONTINUOUS
 70
     0
  3
Solid line
 72
    65
 73
     0
 40
0.0
  0
ENDTAB
  0
TABLE
  2
LAYER
  5
2
100
AcDbSymbolTable
 70
2
  0
LAYER
  5
50
100
AcDbSymbolTableRecord
100
AcDbLayerTableRecord
  2
0
 70
0
  6
CONTINUOUS
  0
LAYER
  5
51
100
AcDbSymbolTableRecord
100
AcDbLayerTableRecord
  2
150215_pen_stand
 70
0
  6
CONTINUOUS
  0
ENDTAB
  0
TABLE
  2
STYLE
  5
3
330
0
100
AcDbSymbolTable
 70
     1
  0
STYLE
  5
11
330
3
100
AcDbSymbolTableRecord
100
AcDbTextStyleTableRecord
  2
STANDARD
 70
     0
 40
0.0
 41
1.0
 50
0.0
 71
     0
 42
2.5
  3
txt
  4

  0
ENDTAB
  0
TABLE
  2
VIEW
  5
6
330
0
100
AcDbSymbolTable
 70
     0
  0
ENDTAB
  0
TABLE
  2
UCS
  5
7
330
0
100
AcDbSymbolTable
 70
     0
  0
ENDTAB
  0
TABLE
  2
APPID
  5
9
330
0
100
AcDbSymbolTable
 70
     2
  0
APPID
  5
12
330
9
100
AcDbSymbolTableRecord
100
AcDbRegAppTableRecord
  2
ACAD
 70
     0
  0
ENDTAB
  0
TABLE
  2
DIMSTYLE
  5
A
330
0
100
AcDbSymbolTable
 70
     1
  0
DIMSTYLE
105
27
330
A
100
AcDbSymbolTableRecord
100
AcDbDimStyleTableRecord
  2
ISO-25
 70
     0
  3

  4

  5

  6

  7

 40
1.0
 41
2.5
 42
0.625
 43
3.75
 44
1.25
 45
0.0
 46
0.0
 47
0.0
 48
0.0
140
2.5
141
2.5
142
0.0
143
0.03937007874016
144
1.0
145
0.0
146
1.0
147
0.625
 71
     0
 72
     0
 73
     0
 74
     0
 75
     0
 76
     0
 77
     1
 78
     8
170
     0
171
     3
172
     1
173
     0
174
     0
175
     0
176
     0
177
     0
178
     0
270
     2
271
     2
272
     2
273
     2
274
     3
340
11
275
     0
280
     0
281
     0
282
     0
283
     0
284
     8
285
     0
286
     0
287
     3
288
     0
  0
ENDTAB
  0
TABLE
  2
BLOCK_RECORD
  5
1
330
0
100
AcDbSymbolTable
 70
     1
  0
BLOCK_RECORD
  5
1F
330
1
100
AcDbSymbolTableRecord
100
AcDbBlockTableRecord
  2
*MODEL_SPACE
  0
BLOCK_RECORD
  5
1B
330
1
100
AcDbSymbolTableRecord
100
AcDbBlockTableRecord
  2
*PAPER_SPACE
  0
ENDTAB
  0
ENDSEC
  0
SECTION
  2
BLOCKS
  0
BLOCK
  5
20
330
1F
100
AcDbEntity
  8
0
100
AcDbBlockBegin
  2
*MODEL_SPACE
 70
     0
 10
0.0
 20
0.0
 30
0.0
  3
*MODEL_SPACE
  1

  0
ENDBLK
  5
21
330
1F
100
AcDbEntity
  8
0
100
AcDbBlockEnd
  0
BLOCK
  5
1C
330
1B
100
AcDbEntity
 67
     1
  8
0
100
AcDbBlockBegin
  2
*PAPER_SPACE
  1

  0
ENDBLK
  5
1D
330
1B
100
AcDbEntity
 67
     1
  8
0
100
AcDbBlockEnd
  0
ENDSEC
  0
SECTION
  2
ENTITIES
  0
LWPOLYLINE
  5
100
100
AcDbEntity
  8
150215_pen_stand
 62
5
100
AcDbPolyline
 90
22
 70
1
 10
2.092413
 20
294.937609
 30
0.0
 10
2.092413
 20
281.243217
 30
0.0
 10
9.575712
 20
281.243217
 30
0.0
 10
9.575712
 20
278.654710
 30
0.0
 10
2.092413
 20
278.654710
 30
0.0
 10
2.092413
 20
264.960317
 30
0.0
 10
15.786806
 20
264.960317
 30
0.0
 10
15.786806
 20
272.443065
 30
0.0
 10
18.375864
 20
272.443065
 30
0.0
 10
18.375864
 20
264.960317
 30
0.0
 10
32.070257
 20
264.960317
 30
0.0
 10
32.070257
 20
278.654710
 30
0.0
 10
24.586958
 20
278.654710
 30
0.0
 10
24.586958
 20
281.243217
 30
0.0
 10
32.070257
 20
281.243217
 30
0.0
 10
32.070257
 20
294.937609
 30
0.0
 10
18.375864
 20
294.937609
 30
0.0
 10
18.375864
 20
287.454310
 30
0.0
 10
15.786806
 20
287.454310
 30
0.0
 10
15.786806
 20
294.937609
 30
0.0
 10
2.092413
 20
294.937609
 30
0.0
 10
2.092413
 20
294.937609
 30
0.0
  0
LWPOLYLINE
  5
101
100
AcDbEntity
  8
150215_pen_stand
 62
5
100
AcDbPolyline
 90
22
 70
1
 10
34.265746
 20
294.937609
 30
0.0
 10
34.265746
 20
281.342986
 30
0.0
 10
41.749045
 20
281.342986
 30
0.0
 10
41.749045
 20
278.654710
 30
0.0
 10
34.265746
 20
278.654710
 30
0.0
 10
34.265746
 20
264.960317
 30
0.0
 10
47.960139
 20
264.960317
 30
0.0
 10
47.960139
 20
272.443065
 30
0.0
 10
50.648965
 20
272.443065
 30
0.0
 10
50.648965
 20
264.960317
 30
0.0
 10
64.243592
 20
264.960317
 30
0.0
 10
64.243592
 20
278.654710
 30
0.0
 10
56.760290
 20
278.654710
 30
0.0
 10
56.760290
 20
281.342986
 30
0.0
 10
64.243592
 20
281.342986
 30
0.0
 10
64.243592
 20
294.937609
 30
0.0
 10
50.648965
 20
294.937609
 30
0.0
 10
50.648965
 20
287.454310
 30
0.0
 10
47.960139
 20
287.454310
 30
0.0
 10
47.960139
 20
294.937609
 30
0.0
 10
34.265746
 20
294.937609
 30
0.0
 10
34.265746
 20
294.937609
 30
0.0
  0
LWPOLYLINE
  5
102
100
AcDbEntity
  8
150215_pen_stand
 62
5
100
AcDbPolyline
 90
22
 70
1
 10
68.132413
 20
294.937609
 30
0.0
 10
68.132413
 20
281.442755
 30
0.0
 10
75.615712
 20
281.442755
 30
0.0
 10
75.615712
 20
278.654710
 30
0.0
 10
68.132413
 20
278.654710
 30
0.0
 10
68.132413
 20
264.960317
 30
0.0
 10
81.827356
 20
264.960317
 30
0.0
 10
81.827356
 20
272.443065
 30
0.0
 10
84.615405
 20
272.443065
 30
0.0
 10
84.615405
 20
264.960317
 30
0.0
 10
98.110259
 20
264.960317
 30
0.0
 10
98.110259
 20
278.654710
 30
0.0
 10
90.626957
 20
278.654710
 30
0.0
 10
90.626957
 20
281.442755
 30
0.0
 10
98.110259
 20
281.442755
 30
0.0
 10
98.110259
 20
294.937609
 30
0.0
 10
84.615405
 20
294.937609
 30
0.0
 10
84.615405
 20
287.454310
 30
0.0
 10
81.827356
 20
287.454310
 30
0.0
 10
81.827356
 20
294.937609
 30
0.0
 10
68.132413
 20
294.937609
 30
0.0
 10
68.132413
 20
294.937609
 30
0.0
  0
LWPOLYLINE
  5
103
100
AcDbEntity
  8
150215_pen_stand
 62
5
100
AcDbPolyline
 90
22
 70
1
 10
101.999080
 20
294.937609
 30
0.0
 10
101.999080
 20
281.542527
 30
0.0
 10
109.482378
 20
281.542527
 30
0.0
 10
109.482378
 20
278.654710
 30
0.0
 10
101.999080
 20
278.654710
 30
0.0
 10
101.999080
 20
264.960317
 30
0.0
 10
115.694023
 20
264.960317
 30
0.0
 10
115.694023
 20
272.443065
 30
0.0
 10
118.581840
 20
272.443065
 30
0.0
 10
118.581840
 20
264.960317
 30
0.0
 10
131.976925
 20
264.960317
 30
0.0
 10
131.976925
 20
278.654710
 30
0.0
 10
124.493623
 20
278.654710
 30
0.0
 10
124.493623
 20
281.542527
 30
0.0
 10
131.976925
 20
281.542527
 30
0.0
 10
131.976925
 20
294.937609
 30
0.0
 10
118.581840
 20
294.937609
 30
0.0
 10
118.581840
 20
287.454310
 30
0.0
 10
115.694023
 20
287.454310
 30
0.0
 10
115.694023
 20
294.937609
 30
0.0
 10
101.999080
 20
294.937609
 30
0.0
 10
101.999080
 20
294.937609
 30
0.0
  0
LWPOLYLINE
  5
104
100
AcDbEntity
  8
150215_pen_stand
 62
5
100
AcDbPolyline
 90
22
 70
1
 10
135.865747
 20
294.937609
 30
0.0
 10
135.865747
 20
281.642847
 30
0.0
 10
143.349045
 20
281.642847
 30
0.0
 10
143.349045
 20
278.654710
 30
0.0
 10
135.865747
 20
278.654710
 30
0.0
 10
135.865747
 20
264.960317
 30
0.0
 10
149.560689
 20
264.960317
 30
0.0
 10
149.560689
 20
272.443065
 30
0.0
 10
152.548276
 20
272.443065
 30
0.0
 10
152.548276
 20
264.960317
 30
0.0
 10
165.843592
 20
264.960317
 30
0.0
 10
165.843592
 20
278.654710
 30
0.0
 10
158.360290
 20
278.654710
 30
0.0
 10
158.360290
 20
281.642847
 30
0.0
 10
165.843592
 20
281.642847
 30
0.0
 10
165.843592
 20
294.937609
 30
0.0
 10
152.548276
 20
294.937609
 30
0.0
 10
152.548276
 20
287.454310
 30
0.0
 10
149.560689
 20
287.454310
 30
0.0
 10
149.560689
 20
294.937609
 30
0.0
 10
135.865747
 20
294.937609
 30
0.0
 10
135.865747
 20
294.937609
 30
0.0
  0
SPLINE
  5
105
100
AcDbEntity
  8
150215_pen_stand
 62
1
100
AcDbSpline
 70
8
 71
3
 72
8
 73
4
 74
0
 40
0
 40
0
 40
0
 40
0
 40
1
 40
1
 40
1
 40
1
 10
13.887368
 20
278.202720
 30
0.0
 10
14.151492
 20
278.476031
 30
0.0
 10
14.510931
 20
278.842360
 30
0.0
 10
14.965683
 20
279.301708
 30
0.0
  0
SPLINE
  5
106
100
AcDbEntity
  8
150215_pen_stand
 62
1
100
AcDbSpline
 70
8
 71
3
 72
8
 73
4
 74
0
 40
0
 40
0
 40
0
 40
0
 40
1
 40
1
 40
1
 40
1
 10
14.965683
 20
279.301708
 30
0.0
 10
15.422732
 20
279.763350
 30
0.0
 10
15.709824
 20
280.060776
 30
0.0
 10
15.826957
 20
280.193985
 30
0.0
  0
SPLINE
  5
107
100
AcDbEntity
  8
150215_pen_stand
 62
1
100
AcDbSpline
 70
8
 71
3
 72
8
 73
4
 74
0
 40
0
 40
0
 40
0
 40
0
 40
1
 40
1
 40
1
 40
1
 10
15.826957
 20
280.193985
 30
0.0
 10
16.049740
 20
280.444330
 30
0.0
 10
16.204769
 20
280.655630
 30
0.0
 10
16.292045
 20
280.827884
 30
0.0
  0
SPLINE
  5
108
100
AcDbEntity
  8
150215_pen_stand
 62
1
100
AcDbSpline
 70
8
 71
3
 72
8
 73
4
 74
0
 40
0
 40
0
 40
0
 40
0
 40
1
 40
1
 40
1
 40
1
 10
16.292045
 20
280.827884
 30
0.0
 10
16.381617
 20
281.002434
 30
0.0
 10
16.426404
 20
281.173541
 30
0.0
 10
16.426404
 20
281.341204
 30
0.0
  0
SPLINE
  5
109
100
AcDbEntity
  8
150215_pen_stand
 62
1
100
AcDbSpline
 70
8
 71
3
 72
8
 73
4
 74
0
 40
0
 40
0
 40
0
 40
0
 40
1
 40
1
 40
1
 40
1
 10
16.426404
 20
281.341204
 30
0.0
 10
16.426404
 20
281.614513
 30
0.0
 10
16.329941
 20
281.837295
 30
0.0
 10
16.137016
 20
282.009552
 30
0.0
  0
SPLINE
  5
10a
100
AcDbEntity
  8
150215_pen_stand
 62
1
100
AcDbSpline
 70
8
 71
3
 72
8
 73
4
 74
0
 40
0
 40
0
 40
0
 40
0
 40
1
 40
1
 40
1
 40
1
 10
16.137016
 20
282.009552
 30
0.0
 10
15.946387
 20
282.181806
 30
0.0
 10
15.697192
 20
282.267934
 30
0.0
 10
15.389430
 20
282.267934
 30
0.0
  0
SPLINE
  5
10b
100
AcDbEntity
  8
150215_pen_stand
 62
1
100
AcDbSpline
 70
8
 71
3
 72
8
 73
4
 74
0
 40
0
 40
0
 40
0
 40
0
 40
1
 40
1
 40
1
 40
1
 10
15.389430
 20
282.267934
 30
0.0
 10
15.171241
 20
282.267934
 30
0.0
 10
14.940419
 20
282.230037
 30
0.0
 10
14.696966
 20
282.154244
 30
0.0
  0
SPLINE
  5
10c
100
AcDbEntity
  8
150215_pen_stand
 62
1
100
AcDbSpline
 70
8
 71
3
 72
8
 73
4
 74
0
 40
0
 40
0
 40
0
 40
0
 40
1
 40
1
 40
1
 40
1
 10
14.696966
 20
282.154244
 30
0.0
 10
14.455809
 20
282.078453
 30
0.0
 10
14.197427
 20
281.963617
 30
0.0
 10
13.921819
 20
281.809735
 30
0.0
  0
LWPOLYLINE
  5
10d
100
AcDbEntity
  8
150215_pen_stand
 62
1
100
AcDbPolyline
 90
5
 70
1
 10
14.724526
 20
278.202720
 30
0.0
 10
17.153319
 20
278.202720
 30
0.0
 10
17.153319
 20
277.617053
 30
0.0
 10
13.887368
 20
277.617053
 30
0.0
 10
13.887368
 20
278.202720
 30
0.0
  0
SPLINE
  5
10e
100
AcDbEntity
  8
150215_pen_stand
 62
1
100
AcDbSpline
 70
8
 71
3
 72
8
 73
4
 74
0
 40
0
 40
0
 40
0
 40
0
 40
1
 40
1
 40
1
 40
1
 10
13.921819
 20
282.512536
 30
0.0
 10
14.202020
 20
282.625074
 30
0.0
 10
14.463848
 20
282.710052
 30
0.0
 10
14.707301
 20
282.767471
 30
0.0
  0
SPLINE
  5
10f
100
AcDbEntity
  8
150215_pen_stand
 62
1
100
AcDbSpline
 70
8
 71
3
 72
8
 73
4
 74
0
 40
0
 40
0
 40
0
 40
0
 40
1
 40
1
 40
1
 40
1
 10
14.707301
 20
282.767471
 30
0.0
 10
14.950754
 20
282.824889
 30
0.0
 10
15.173537
 20
282.853598
 30
0.0
 10
15.375649
 20
282.853598
 30
0.0
  0
SPLINE
  5
110
100
AcDbEntity
  8
150215_pen_stand
 62
1
100
AcDbSpline
 70
8
 71
3
 72
8
 73
4
 74
0
 40
0
 40
0
 40
0
 40
0
 40
1
 40
1
 40
1
 40
1
 10
15.375649
 20
282.853598
 30
0.0
 10
15.908491
 20
282.853598
 30
0.0
 10
16.333386
 20
282.720388
 30
0.0
 10
16.650335
 20
282.453967
 30
0.0
  0
SPLINE
  5
111
100
AcDbEntity
  8
150215_pen_stand
 62
1
100
AcDbSpline
 70
8
 71
3
 72
8
 73
4
 74
0
 40
0
 40
0
 40
0
 40
0
 40
1
 40
1
 40
1
 40
1
 10
16.650335
 20
282.453967
 30
0.0
 10
16.967284
 20
282.187547
 30
0.0
 10
17.125758
 20
281.831555
 30
0.0
 10
17.125758
 20
281.385989
 30
0.0
  0
SPLINE
  5
112
100
AcDbEntity
  8
150215_pen_stand
 62
1
100
AcDbSpline
 70
8
 71
3
 72
8
 73
4
 74
0
 40
0
 40
0
 40
0
 40
0
 40
1
 40
1
 40
1
 40
1
 10
17.125758
 20
281.385989
 30
0.0
 10
17.125758
 20
281.174689
 30
0.0
 10
17.085565
 20
280.973725
 30
0.0
 10
17.005180
 20
280.783096
 30
0.0
  0
SPLINE
  5
113
100
AcDbEntity
  8
150215_pen_stand
 62
1
100
AcDbSpline
 70
8
 71
3
 72
8
 73
4
 74
0
 40
0
 40
0
 40
0
 40
0
 40
1
 40
1
 40
1
 40
1
 10
17.005180
 20
280.783096
 30
0.0
 10
16.927091
 20
280.594764
 30
0.0
 10
16.783545
 20
280.371981
 30
0.0
 10
16.574543
 20
280.114747
 30
0.0
  0
SPLINE
  5
114
100
AcDbEntity
  8
150215_pen_stand
 62
1
100
AcDbSpline
 70
8
 71
3
 72
8
 73
4
 74
0
 40
0
 40
0
 40
0
 40
0
 40
1
 40
1
 40
1
 40
1
 10
16.574543
 20
280.114747
 30
0.0
 10
16.517124
 20
280.048143
 30
0.0
 10
16.334534
 20
279.855218
 30
0.0
 10
16.026773
 20
279.535973
 30
0.0
  0
SPLINE
  5
115
100
AcDbEntity
  8
150215_pen_stand
 62
1
100
AcDbSpline
 70
8
 71
3
 72
8
 73
4
 74
0
 40
0
 40
0
 40
0
 40
0
 40
1
 40
1
 40
1
 40
1
 10
16.026773
 20
279.535973
 30
0.0
 10
15.719011
 20
279.219023
 30
0.0
 10
15.284929
 20
278.774606
 30
0.0
 10
14.724526
 20
278.202720
 30
0.0
  0
LWPOLYLINE
  5
116
100
AcDbEntity
  8
150215_pen_stand
 62
1
100
AcDbPolyline
 90
2
 70
1
 10
13.921819
 20
281.809735
 30
0.0
 10
13.921819
 20
282.512536
 30
0.0
  0
SPLINE
  5
117
100
AcDbEntity
  8
150215_pen_stand
 62
1
100
AcDbSpline
 70
8
 71
3
 72
8
 73
4
 74
0
 40
0
 40
0
 40
0
 40
0
 40
1
 40
1
 40
1
 40
1
 10
20.191893
 20
280.466149
 30
0.0
 10
19.879538
 20
280.466149
 30
0.0
 10
19.631491
 20
280.359351
 30
0.0
 10
19.447752
 20
280.145753
 30
0.0
  0
SPLINE
  5
118
100
AcDbEntity
  8
150215_pen_stand
 62
1
100
AcDbSpline
 70
8
 71
3
 72
8
 73
4
 74
0
 40
0
 40
0
 40
0
 40
0
 40
1
 40
1
 40
1
 40
1
 10
19.447752
 20
280.145753
 30
0.0
 10
19.266311
 20
279.932158
 30
0.0
 10
19.175590
 20
279.639325
 30
0.0
 10
19.175590
 20
279.267255
 30
0.0
  0
SPLINE
  5
119
100
AcDbEntity
  8
150215_pen_stand
 62
1
100
AcDbSpline
 70
8
 71
3
 72
8
 73
4
 74
0
 40
0
 40
0
 40
0
 40
0
 40
1
 40
1
 40
1
 40
1
 10
19.175590
 20
279.267255
 30
0.0
 10
19.175590
 20
278.897481
 30
0.0
 10
19.266311
 20
278.604647
 30
0.0
 10
19.447752
 20
278.388754
 30
0.0
  0
SPLINE
  5
11a
100
AcDbEntity
  8
150215_pen_stand
 62
1
100
AcDbSpline
 70
8
 71
3
 72
8
 73
4
 74
0
 40
0
 40
0
 40
0
 40
0
 40
1
 40
1
 40
1
 40
1
 10
19.447752
 20
278.388754
 30
0.0
 10
19.631491
 20
278.175159
 30
0.0
 10
19.879538
 20
278.068361
 30
0.0
 10
20.191893
 20
278.068361
 30
0.0
  0
SPLINE
  5
11b
100
AcDbEntity
  8
150215_pen_stand
 62
1
100
AcDbSpline
 70
8
 71
3
 72
8
 73
4
 74
0
 40
0
 40
0
 40
0
 40
0
 40
1
 40
1
 40
1
 40
1
 10
20.191893
 20
278.068361
 30
0.0
 10
20.504248
 20
278.068361
 30
0.0
 10
20.751147
 20
278.175159
 30
0.0
 10
20.932589
 20
278.388754
 30
0.0
  0
SPLINE
  5
11c
100
AcDbEntity
  8
150215_pen_stand
 62
1
100
AcDbSpline
 70
8
 71
3
 72
8
 73
4
 74
0
 40
0
 40
0
 40
0
 40
0
 40
1
 40
1
 40
1
 40
1
 10
20.932589
 20
278.388754
 30
0.0
 10
21.116327
 20
278.604647
 30
0.0
 10
21.208196
 20
278.897481
 30
0.0
 10
21.208196
 20
279.267255
 30
0.0
  0
SPLINE
  5
11d
100
AcDbEntity
  8
150215_pen_stand
 62
1
100
AcDbSpline
 70
8
 71
3
 72
8
 73
4
 74
0
 40
0
 40
0
 40
0
 40
0
 40
1
 40
1
 40
1
 40
1
 10
21.208196
 20
279.267255
 30
0.0
 10
21.208196
 20
279.639325
 30
0.0
 10
21.116327
 20
279.932158
 30
0.0
 10
20.932589
 20
280.145753
 30
0.0
  0
SPLINE
  5
11e
100
AcDbEntity
  8
150215_pen_stand
 62
1
100
AcDbSpline
 70
8
 71
3
 72
8
 73
4
 74
0
 40
0
 40
0
 40
0
 40
0
 40
1
 40
1
 40
1
 40
1
 10
20.932589
 20
280.145753
 30
0.0
 10
20.751147
 20
280.359351
 30
0.0
 10
20.504248
 20
280.466149
 30
0.0
 10
20.191893
 20
280.466149
 30
0.0
  0
LWPOLYLINE
  5
11f
100
AcDbEntity
  8
150215_pen_stand
 62
1
100
AcDbPolyline
 90
2
 70
1
 10
14.724526
 20
278.202720
 30
0.0
 10
14.724526
 20
278.202720
 30
0.0
  0
LWPOLYLINE
  5
120
100
AcDbEntity
  8
150215_pen_stand
 62
1
100
AcDbPolyline
 90
2
 70
1
 10
20.191893
 20
280.466149
 30
0.0
 10
20.191893
 20
280.466149
 30
0.0
  0
SPLINE
  5
121
100
AcDbEntity
  8
150215_pen_stand
 62
1
100
AcDbSpline
 70
8
 71
3
 72
8
 73
4
 74
0
 40
0
 40
0
 40
0
 40
0
 40
1
 40
1
 40
1
 40
1
 10
21.573376
 20
282.012995
 30
0.0
 10
21.398825
 20
282.095677
 30
0.0
 10
21.221977
 20
282.158837
 30
0.0
 10
21.042832
 20
282.202476
 30
0.0
  0
SPLINE
  5
122
100
AcDbEntity
  8
150215_pen_stand
 62
1
100
AcDbSpline
 70
8
 71
3
 72
8
 73
4
 74
0
 40
0
 40
0
 40
0
 40
0
 40
1
 40
1
 40
1
 40
1
 10
21.042832
 20
282.202476
 30
0.0
 10
20.865983
 20
282.246114
 30
0.0
 10
20.690283
 20
282.267934
 30
0.0
 10
20.515732
 20
282.267934
 30
0.0
  0
SPLINE
  5
123
100
AcDbEntity
  8
150215_pen_stand
 62
1
100
AcDbSpline
 70
8
 71
3
 72
8
 73
4
 74
0
 40
0
 40
0
 40
0
 40
0
 40
1
 40
1
 40
1
 40
1
 10
20.515732
 20
282.267934
 30
0.0
 10
20.056386
 20
282.267934
 30
0.0
 10
19.704986
 20
282.112904
 30
0.0
 10
19.461533
 20
281.802846
 30
0.0
  0
SPLINE
  5
124
100
AcDbEntity
  8
150215_pen_stand
 62
1
100
AcDbSpline
 70
8
 71
3
 72
8
 73
4
 74
0
 40
0
 40
0
 40
0
 40
0
 40
1
 40
1
 40
1
 40
1
 10
19.461533
 20
281.802846
 30
0.0
 10
19.220376
 20
281.492787
 30
0.0
 10
19.082572
 20
281.024253
 30
0.0
 10
19.048121
 20
280.397245
 30
0.0
  0
SPLINE
  5
125
100
AcDbEntity
  8
150215_pen_stand
 62
1
100
AcDbSpline
 70
8
 71
3
 72
8
 73
4
 74
0
 40
0
 40
0
 40
0
 40
0
 40
1
 40
1
 40
1
 40
1
 10
19.048121
 20
280.397245
 30
0.0
 10
19.183629
 20
280.597061
 30
0.0
 10
19.353587
 20
280.749793
 30
0.0
 10
19.557995
 20
280.855443
 30
0.0
  0
SPLINE
  5
126
100
AcDbEntity
  8
150215_pen_stand
 62
1
100
AcDbSpline
 70
8
 71
3
 72
8
 73
4
 74
0
 40
0
 40
0
 40
0
 40
0
 40
1
 40
1
 40
1
 40
1
 10
19.557995
 20
280.855443
 30
0.0
 10
19.762405
 20
280.963391
 30
0.0
 10
19.987484
 20
281.017365
 30
0.0
 10
20.233234
 20
281.017365
 30
0.0
  0
SPLINE
  5
127
100
AcDbEntity
  8
150215_pen_stand
 62
1
100
AcDbSpline
 70
8
 71
3
 72
8
 73
4
 74
0
 40
0
 40
0
 40
0
 40
0
 40
1
 40
1
 40
1
 40
1
 10
20.233234
 20
281.017365
 30
0.0
 10
20.749998
 20
281.017365
 30
0.0
 10
21.157668
 20
280.860039
 30
0.0
 10
21.456243
 20
280.545387
 30
0.0
  0
SPLINE
  5
128
100
AcDbEntity
  8
150215_pen_stand
 62
1
100
AcDbSpline
 70
8
 71
3
 72
8
 73
4
 74
0
 40
0
 40
0
 40
0
 40
0
 40
1
 40
1
 40
1
 40
1
 10
21.456243
 20
280.545387
 30
0.0
 10
21.757115
 20
280.233030
 30
0.0
 10
21.907550
 20
279.806986
 30
0.0
 10
21.907550
 20
279.267255
 30
0.0
  0
SPLINE
  5
129
100
AcDbEntity
  8
150215_pen_stand
 62
1
100
AcDbSpline
 70
8
 71
3
 72
8
 73
4
 74
0
 40
0
 40
0
 40
0
 40
0
 40
1
 40
1
 40
1
 40
1
 10
21.907550
 20
279.267255
 30
0.0
 10
21.907550
 20
278.739008
 30
0.0
 10
21.751373
 20
278.315261
 30
0.0
 10
21.439017
 20
277.996013
 30
0.0
  0
SPLINE
  5
12a
100
AcDbEntity
  8
150215_pen_stand
 62
1
100
AcDbSpline
 70
8
 71
3
 72
8
 73
4
 74
0
 40
0
 40
0
 40
0
 40
0
 40
1
 40
1
 40
1
 40
1
 10
21.439017
 20
277.996013
 30
0.0
 10
21.126662
 20
277.676768
 30
0.0
 10
20.710954
 20
277.517146
 30
0.0
 10
20.191893
 20
277.517146
 30
0.0
  0
SPLINE
  5
12b
100
AcDbEntity
  8
150215_pen_stand
 62
1
100
AcDbSpline
 70
8
 71
3
 72
8
 73
4
 74
0
 40
0
 40
0
 40
0
 40
0
 40
1
 40
1
 40
1
 40
1
 10
20.191893
 20
277.517146
 30
0.0
 10
19.597040
 20
277.517146
 30
0.0
 10
19.142287
 20
277.744523
 30
0.0
 10
18.827635
 20
278.199277
 30
0.0
  0
SPLINE
  5
12c
100
AcDbEntity
  8
150215_pen_stand
 62
1
100
AcDbSpline
 70
8
 71
3
 72
8
 73
4
 74
0
 40
0
 40
0
 40
0
 40
0
 40
1
 40
1
 40
1
 40
1
 10
18.827635
 20
278.199277
 30
0.0
 10
18.512983
 20
278.656324
 30
0.0
 10
18.355657
 20
279.317782
 30
0.0
 10
18.355657
 20
280.183652
 30
0.0
  0
SPLINE
  5
12d
100
AcDbEntity
  8
150215_pen_stand
 62
1
100
AcDbSpline
 70
8
 71
3
 72
8
 73
4
 74
0
 40
0
 40
0
 40
0
 40
0
 40
1
 40
1
 40
1
 40
1
 10
18.355657
 20
280.183652
 30
0.0
 10
18.355657
 20
280.996694
 30
0.0
 10
18.548582
 20
281.644372
 30
0.0
 10
18.934433
 20
282.126685
 30
0.0
  0
SPLINE
  5
12e
100
AcDbEntity
  8
150215_pen_stand
 62
1
100
AcDbSpline
 70
8
 71
3
 72
8
 73
4
 74
0
 40
0
 40
0
 40
0
 40
0
 40
1
 40
1
 40
1
 40
1
 10
18.934433
 20
282.126685
 30
0.0
 10
19.320284
 20
282.611293
 30
0.0
 10
19.838197
 20
282.853598
 30
0.0
 10
20.488171
 20
282.853598
 30
0.0
  0
SPLINE
  5
12f
100
AcDbEntity
  8
150215_pen_stand
 62
1
100
AcDbSpline
 70
8
 71
3
 72
8
 73
4
 74
0
 40
0
 40
0
 40
0
 40
0
 40
1
 40
1
 40
1
 40
1
 10
20.488171
 20
282.853598
 30
0.0
 10
20.662723
 20
282.853598
 30
0.0
 10
20.838423
 20
282.836373
 30
0.0
 10
21.015271
 20
282.801923
 30
0.0
  0
SPLINE
  5
130
100
AcDbEntity
  8
150215_pen_stand
 62
1
100
AcDbSpline
 70
8
 71
3
 72
8
 73
4
 74
0
 40
0
 40
0
 40
0
 40
0
 40
1
 40
1
 40
1
 40
1
 10
21.015271
 20
282.801923
 30
0.0
 10
21.194416
 20
282.767473
 30
0.0
 10
21.380451
 20
282.715797
 30
0.0
 10
21.573376
 20
282.646895
 30
0.0
  0
LWPOLYLINE
  5
131
100
AcDbEntity
  8
150215_pen_stand
 62
1
100
AcDbPolyline
 90
2
 70
1
 10
21.573376
 20
282.646895
 30
0.0
 10
21.573376
 20
282.012995
 30
0.0
  0
LWPOLYLINE
  5
132
100
AcDbEntity
  8
150215_pen_stand
 62
1
100
AcDbPolyline
 90
2
 70
1
 10
21.573376
 20
282.646895
 30
0.0
 10
21.573376
 20
282.646895
 30
0.0
  0
SPLINE
  5
133
100
AcDbEntity
  8
150215_pen_stand
 62
1
100
AcDbSpline
 70
8
 71
3
 72
8
 73
4
 74
0
 40
0
 40
0
 40
0
 40
0
 40
1
 40
1
 40
1
 40
1
 10
46.016732
 20
278.152767
 30
0.0
 10
46.280857
 20
278.426078
 30
0.0
 10
46.640295
 20
278.792406
 30
0.0
 10
47.095047
 20
279.251751
 30
0.0
  0
SPLINE
  5
134
100
AcDbEntity
  8
150215_pen_stand
 62
1
100
AcDbSpline
 70
8
 71
3
 72
8
 73
4
 74
0
 40
0
 40
0
 40
0
 40
0
 40
1
 40
1
 40
1
 40
1
 10
47.095047
 20
279.251751
 30
0.0
 10
47.552096
 20
279.713393
 30
0.0
 10
47.839188
 20
280.010820
 30
0.0
 10
47.956322
 20
280.144032
 30
0.0
  0
SPLINE
  5
135
100
AcDbEntity
  8
150215_pen_stand
 62
1
100
AcDbSpline
 70
8
 71
3
 72
8
 73
4
 74
0
 40
0
 40
0
 40
0
 40
0
 40
1
 40
1
 40
1
 40
1
 10
47.956322
 20
280.144032
 30
0.0
 10
48.179103
 20
280.394374
 30
0.0
 10
48.334133
 20
280.605674
 30
0.0
 10
48.421410
 20
280.777931
 30
0.0
  0
SPLINE
  5
136
100
AcDbEntity
  8
150215_pen_stand
 62
1
100
AcDbSpline
 70
8
 71
3
 72
8
 73
4
 74
0
 40
0
 40
0
 40
0
 40
0
 40
1
 40
1
 40
1
 40
1
 10
48.421410
 20
280.777931
 30
0.0
 10
48.510983
 20
280.952481
 30
0.0
 10
48.555769
 20
281.123586
 30
0.0
 10
48.555769
 20
281.291247
 30
0.0
  0
SPLINE
  5
137
100
AcDbEntity
  8
150215_pen_stand
 62
1
100
AcDbSpline
 70
8
 71
3
 72
8
 73
4
 74
0
 40
0
 40
0
 40
0
 40
0
 40
1
 40
1
 40
1
 40
1
 10
48.555769
 20
281.291247
 30
0.0
 10
48.555769
 20
281.564558
 30
0.0
 10
48.459305
 20
281.787342
 30
0.0
 10
48.266378
 20
281.959599
 30
0.0
  0
SPLINE
  5
138
100
AcDbEntity
  8
150215_pen_stand
 62
1
100
AcDbSpline
 70
8
 71
3
 72
8
 73
4
 74
0
 40
0
 40
0
 40
0
 40
0
 40
1
 40
1
 40
1
 40
1
 10
48.266378
 20
281.959599
 30
0.0
 10
48.075751
 20
282.131853
 30
0.0
 10
47.826556
 20
282.217980
 30
0.0
 10
47.518793
 20
282.217980
 30
0.0
  0
SPLINE
  5
139
100
AcDbEntity
  8
150215_pen_stand
 62
1
100
AcDbSpline
 70
8
 71
3
 72
8
 73
4
 74
0
 40
0
 40
0
 40
0
 40
0
 40
1
 40
1
 40
1
 40
1
 10
47.518793
 20
282.217980
 30
0.0
 10
47.300604
 20
282.217980
 30
0.0
 10
47.069783
 20
282.180084
 30
0.0
 10
46.826329
 20
282.104291
 30
0.0
  0
SPLINE
  5
13a
100
AcDbEntity
  8
150215_pen_stand
 62
1
100
AcDbSpline
 70
8
 71
3
 72
8
 73
4
 74
0
 40
0
 40
0
 40
0
 40
0
 40
1
 40
1
 40
1
 40
1
 10
46.826329
 20
282.104291
 30
0.0
 10
46.585172
 20
282.028500
 30
0.0
 10
46.326791
 20
281.913664
 30
0.0
 10
46.051184
 20
281.759782
 30
0.0
  0
LWPOLYLINE
  5
13b
100
AcDbEntity
  8
150215_pen_stand
 62
1
100
AcDbPolyline
 90
5
 70
1
 10
46.853891
 20
278.152767
 30
0.0
 10
49.282682
 20
278.152767
 30
0.0
 10
49.282682
 20
277.567099
 30
0.0
 10
46.016732
 20
277.567099
 30
0.0
 10
46.016732
 20
278.152767
 30
0.0
  0
SPLINE
  5
13c
100
AcDbEntity
  8
150215_pen_stand
 62
1
100
AcDbSpline
 70
8
 71
3
 72
8
 73
4
 74
0
 40
0
 40
0
 40
0
 40
0
 40
1
 40
1
 40
1
 40
1
 10
46.051184
 20
282.462582
 30
0.0
 10
46.331384
 20
282.575121
 30
0.0
 10
46.593211
 20
282.660099
 30
0.0
 10
46.836665
 20
282.717517
 30
0.0
  0
SPLINE
  5
13d
100
AcDbEntity
  8
150215_pen_stand
 62
1
100
AcDbSpline
 70
8
 71
3
 72
8
 73
4
 74
0
 40
0
 40
0
 40
0
 40
0
 40
1
 40
1
 40
1
 40
1
 10
46.836665
 20
282.717517
 30
0.0
 10
47.080119
 20
282.774935
 30
0.0
 10
47.302902
 20
282.803644
 30
0.0
 10
47.505013
 20
282.803644
 30
0.0
  0
SPLINE
  5
13e
100
AcDbEntity
  8
150215_pen_stand
 62
1
100
AcDbSpline
 70
8
 71
3
 72
8
 73
4
 74
0
 40
0
 40
0
 40
0
 40
0
 40
1
 40
1
 40
1
 40
1
 10
47.505013
 20
282.803644
 30
0.0
 10
48.037856
 20
282.803644
 30
0.0
 10
48.462751
 20
282.670434
 30
0.0
 10
48.779698
 20
282.404014
 30
0.0
  0
SPLINE
  5
13f
100
AcDbEntity
  8
150215_pen_stand
 62
1
100
AcDbSpline
 70
8
 71
3
 72
8
 73
4
 74
0
 40
0
 40
0
 40
0
 40
0
 40
1
 40
1
 40
1
 40
1
 10
48.779698
 20
282.404014
 30
0.0
 10
49.096648
 20
282.137594
 30
0.0
 10
49.255123
 20
281.781601
 30
0.0
 10
49.255123
 20
281.336036
 30
0.0
  0
SPLINE
  5
140
100
AcDbEntity
  8
150215_pen_stand
 62
1
100
AcDbSpline
 70
8
 71
3
 72
8
 73
4
 74
0
 40
0
 40
0
 40
0
 40
0
 40
1
 40
1
 40
1
 40
1
 10
49.255123
 20
281.336036
 30
0.0
 10
49.255123
 20
281.124736
 30
0.0
 10
49.214929
 20
280.923772
 30
0.0
 10
49.134543
 20
280.733142
 30
0.0
  0
SPLINE
  5
141
100
AcDbEntity
  8
150215_pen_stand
 62
1
100
AcDbSpline
 70
8
 71
3
 72
8
 73
4
 74
0
 40
0
 40
0
 40
0
 40
0
 40
1
 40
1
 40
1
 40
1
 10
49.134543
 20
280.733142
 30
0.0
 10
49.056455
 20
280.544811
 30
0.0
 10
48.912909
 20
280.322028
 30
0.0
 10
48.703907
 20
280.064794
 30
0.0
  0
SPLINE
  5
142
100
AcDbEntity
  8
150215_pen_stand
 62
1
100
AcDbSpline
 70
8
 71
3
 72
8
 73
4
 74
0
 40
0
 40
0
 40
0
 40
0
 40
1
 40
1
 40
1
 40
1
 10
48.703907
 20
280.064794
 30
0.0
 10
48.646489
 20
279.998190
 30
0.0
 10
48.463898
 20
279.805265
 30
0.0
 10
48.156135
 20
279.486020
 30
0.0
  0
SPLINE
  5
143
100
AcDbEntity
  8
150215_pen_stand
 62
1
100
AcDbSpline
 70
8
 71
3
 72
8
 73
4
 74
0
 40
0
 40
0
 40
0
 40
0
 40
1
 40
1
 40
1
 40
1
 10
48.156135
 20
279.486020
 30
0.0
 10
47.848374
 20
279.169070
 30
0.0
 10
47.414293
 20
278.724652
 30
0.0
 10
46.853891
 20
278.152767
 30
0.0
  0
LWPOLYLINE
  5
144
100
AcDbEntity
  8
150215_pen_stand
 62
1
100
AcDbPolyline
 90
2
 70
1
 10
46.051184
 20
281.759782
 30
0.0
 10
46.051184
 20
282.462582
 30
0.0
  0
LWPOLYLINE
  5
145
100
AcDbEntity
  8
150215_pen_stand
 62
1
100
AcDbPolyline
 90
2
 70
1
 10
46.853891
 20
278.152767
 30
0.0
 10
46.853891
 20
278.152767
 30
0.0
  0
LWPOLYLINE
  5
146
100
AcDbEntity
  8
150215_pen_stand
 62
1
100
AcDbPolyline
 90
9
 70
1
 10
50.571150
 20
282.710627
 30
0.0
 10
53.878441
 20
282.710627
 30
0.0
 10
53.878441
 20
282.414351
 30
0.0
 10
52.011199
 20
277.567099
 30
0.0
 10
51.284283
 20
277.567099
 30
0.0
 10
53.041282
 20
282.124963
 30
0.0
 10
50.571150
 20
282.124963
 30
0.0
 10
50.571150
 20
282.710627
 30
0.0
 10
50.571150
 20
282.710627
 30
0.0
  0
SPLINE
  5
147
100
AcDbEntity
  8
150215_pen_stand
 62
1
100
AcDbSpline
 70
8
 71
3
 72
8
 73
4
 74
0
 40
0
 40
0
 40
0
 40
0
 40
1
 40
1
 40
1
 40
1
 10
81.139506
 20
278.202720
 30
0.0
 10
81.403631
 20
278.476031
 30
0.0
 10
81.763070
 20
278.842360
 30
0.0
 10
82.217824
 20
279.301708
 30
0.0
  0
SPLINE
  5
148
100
AcDbEntity
  8
150215_pen_stand
 62
1
100
AcDbSpline
 70
8
 71
3
 72
8
 73
4
 74
0
 40
0
 40
0
 40
0
 40
0
 40
1
 40
1
 40
1
 40
1
 10
82.217824
 20
279.301708
 30
0.0
 10
82.674872
 20
279.763350
 30
0.0
 10
82.961962
 20
280.060776
 30
0.0
 10
83.079096
 20
280.193985
 30
0.0
  0
SPLINE
  5
149
100
AcDbEntity
  8
150215_pen_stand
 62
1
100
AcDbSpline
 70
8
 71
3
 72
8
 73
4
 74
0
 40
0
 40
0
 40
0
 40
0
 40
1
 40
1
 40
1
 40
1
 10
83.079096
 20
280.193985
 30
0.0
 10
83.301880
 20
280.444330
 30
0.0
 10
83.456909
 20
280.655630
 30
0.0
 10
83.544184
 20
280.827884
 30
0.0
  0
SPLINE
  5
14a
100
AcDbEntity
  8
150215_pen_stand
 62
1
100
AcDbSpline
 70
8
 71
3
 72
8
 73
4
 74
0
 40
0
 40
0
 40
0
 40
0
 40
1
 40
1
 40
1
 40
1
 10
83.544184
 20
280.827884
 30
0.0
 10
83.633757
 20
281.002434
 30
0.0
 10
83.678543
 20
281.173541
 30
0.0
 10
83.678543
 20
281.341204
 30
0.0
  0
SPLINE
  5
14b
100
AcDbEntity
  8
150215_pen_stand
 62
1
100
AcDbSpline
 70
8
 71
3
 72
8
 73
4
 74
0
 40
0
 40
0
 40
0
 40
0
 40
1
 40
1
 40
1
 40
1
 10
83.678543
 20
281.341204
 30
0.0
 10
83.678543
 20
281.614513
 30
0.0
 10
83.582081
 20
281.837295
 30
0.0
 10
83.389156
 20
282.009552
 30
0.0
  0
SPLINE
  5
14c
100
AcDbEntity
  8
150215_pen_stand
 62
1
100
AcDbSpline
 70
8
 71
3
 72
8
 73
4
 74
0
 40
0
 40
0
 40
0
 40
0
 40
1
 40
1
 40
1
 40
1
 10
83.389156
 20
282.009552
 30
0.0
 10
83.198527
 20
282.181806
 30
0.0
 10
82.949332
 20
282.267934
 30
0.0
 10
82.641571
 20
282.267934
 30
0.0
  0
SPLINE
  5
14d
100
AcDbEntity
  8
150215_pen_stand
 62
1
100
AcDbSpline
 70
8
 71
3
 72
8
 73
4
 74
0
 40
0
 40
0
 40
0
 40
0
 40
1
 40
1
 40
1
 40
1
 10
82.641571
 20
282.267934
 30
0.0
 10
82.423380
 20
282.267934
 30
0.0
 10
82.192558
 20
282.230037
 30
0.0
 10
81.949107
 20
282.154244
 30
0.0
  0
SPLINE
  5
14e
100
AcDbEntity
  8
150215_pen_stand
 62
1
100
AcDbSpline
 70
8
 71
3
 72
8
 73
4
 74
0
 40
0
 40
0
 40
0
 40
0
 40
1
 40
1
 40
1
 40
1
 10
81.949107
 20
282.154244
 30
0.0
 10
81.707950
 20
282.078453
 30
0.0
 10
81.449567
 20
281.963617
 30
0.0
 10
81.173959
 20
281.809735
 30
0.0
  0
LWPOLYLINE
  5
14f
100
AcDbEntity
  8
150215_pen_stand
 62
1
100
AcDbPolyline
 90
5
 70
1
 10
81.976666
 20
278.202720
 30
0.0
 10
84.405459
 20
278.202720
 30
0.0
 10
84.405459
 20
277.617053
 30
0.0
 10
81.139506
 20
277.617053
 30
0.0
 10
81.139506
 20
278.202720
 30
0.0
  0
SPLINE
  5
150
100
AcDbEntity
  8
150215_pen_stand
 62
1
100
AcDbSpline
 70
8
 71
3
 72
8
 73
4
 74
0
 40
0
 40
0
 40
0
 40
0
 40
1
 40
1
 40
1
 40
1
 10
81.173959
 20
282.512536
 30
0.0
 10
81.454161
 20
282.625074
 30
0.0
 10
81.715987
 20
282.710052
 30
0.0
 10
81.959439
 20
282.767471
 30
0.0
  0
SPLINE
  5
151
100
AcDbEntity
  8
150215_pen_stand
 62
1
100
AcDbSpline
 70
8
 71
3
 72
8
 73
4
 74
0
 40
0
 40
0
 40
0
 40
0
 40
1
 40
1
 40
1
 40
1
 10
81.959439
 20
282.767471
 30
0.0
 10
82.202894
 20
282.824889
 30
0.0
 10
82.425676
 20
282.853598
 30
0.0
 10
82.627787
 20
282.853598
 30
0.0
  0
SPLINE
  5
152
100
AcDbEntity
  8
150215_pen_stand
 62
1
100
AcDbSpline
 70
8
 71
3
 72
8
 73
4
 74
0
 40
0
 40
0
 40
0
 40
0
 40
1
 40
1
 40
1
 40
1
 10
82.627787
 20
282.853598
 30
0.0
 10
83.160630
 20
282.853598
 30
0.0
 10
83.585526
 20
282.720388
 30
0.0
 10
83.902476
 20
282.453967
 30
0.0
  0
SPLINE
  5
153
100
AcDbEntity
  8
150215_pen_stand
 62
1
100
AcDbSpline
 70
8
 71
3
 72
8
 73
4
 74
0
 40
0
 40
0
 40
0
 40
0
 40
1
 40
1
 40
1
 40
1
 10
83.902476
 20
282.453967
 30
0.0
 10
84.219423
 20
282.187547
 30
0.0
 10
84.377897
 20
281.831555
 30
0.0
 10
84.377897
 20
281.385989
 30
0.0
  0
SPLINE
  5
154
100
AcDbEntity
  8
150215_pen_stand
 62
1
100
AcDbSpline
 70
8
 71
3
 72
8
 73
4
 74
0
 40
0
 40
0
 40
0
 40
0
 40
1
 40
1
 40
1
 40
1
 10
84.377897
 20
281.385989
 30
0.0
 10
84.377897
 20
281.174689
 30
0.0
 10
84.337705
 20
280.973725
 30
0.0
 10
84.257321
 20
280.783096
 30
0.0
  0
SPLINE
  5
155
100
AcDbEntity
  8
150215_pen_stand
 62
1
100
AcDbSpline
 70
8
 71
3
 72
8
 73
4
 74
0
 40
0
 40
0
 40
0
 40
0
 40
1
 40
1
 40
1
 40
1
 10
84.257321
 20
280.783096
 30
0.0
 10
84.179230
 20
280.594764
 30
0.0
 10
84.035684
 20
280.371981
 30
0.0
 10
83.826682
 20
280.114747
 30
0.0
  0
SPLINE
  5
156
100
AcDbEntity
  8
150215_pen_stand
 62
1
100
AcDbSpline
 70
8
 71
3
 72
8
 73
4
 74
0
 40
0
 40
0
 40
0
 40
0
 40
1
 40
1
 40
1
 40
1
 10
83.826682
 20
280.114747
 30
0.0
 10
83.769263
 20
280.048143
 30
0.0
 10
83.586674
 20
279.855218
 30
0.0
 10
83.278913
 20
279.535973
 30
0.0
  0
SPLINE
  5
157
100
AcDbEntity
  8
150215_pen_stand
 62
1
100
AcDbSpline
 70
8
 71
3
 72
8
 73
4
 74
0
 40
0
 40
0
 40
0
 40
0
 40
1
 40
1
 40
1
 40
1
 10
83.278913
 20
279.535973
 30
0.0
 10
82.971150
 20
279.219023
 30
0.0
 10
82.537067
 20
278.774606
 30
0.0
 10
81.976666
 20
278.202720
 30
0.0
  0
LWPOLYLINE
  5
158
100
AcDbEntity
  8
150215_pen_stand
 62
1
100
AcDbPolyline
 90
2
 70
1
 10
81.173959
 20
281.809735
 30
0.0
 10
81.173959
 20
282.512536
 30
0.0
  0
SPLINE
  5
159
100
AcDbEntity
  8
150215_pen_stand
 62
1
100
AcDbSpline
 70
8
 71
3
 72
8
 73
4
 74
0
 40
0
 40
0
 40
0
 40
0
 40
1
 40
1
 40
1
 40
1
 10
87.357906
 20
280.059626
 30
0.0
 10
87.027177
 20
280.059626
 30
0.0
 10
86.766498
 20
279.971202
 30
0.0
 10
86.575868
 20
279.794355
 30
0.0
  0
SPLINE
  5
15a
100
AcDbEntity
  8
150215_pen_stand
 62
1
100
AcDbSpline
 70
8
 71
3
 72
8
 73
4
 74
0
 40
0
 40
0
 40
0
 40
0
 40
1
 40
1
 40
1
 40
1
 10
86.575868
 20
279.794355
 30
0.0
 10
86.387537
 20
279.617507
 30
0.0
 10
86.293371
 20
279.374054
 30
0.0
 10
86.293371
 20
279.063995
 30
0.0
  0
SPLINE
  5
15b
100
AcDbEntity
  8
150215_pen_stand
 62
1
100
AcDbSpline
 70
8
 71
3
 72
8
 73
4
 74
0
 40
0
 40
0
 40
0
 40
0
 40
1
 40
1
 40
1
 40
1
 10
86.293371
 20
279.063995
 30
0.0
 10
86.293371
 20
278.753937
 30
0.0
 10
86.387537
 20
278.510482
 30
0.0
 10
86.575868
 20
278.333632
 30
0.0
  0
SPLINE
  5
15c
100
AcDbEntity
  8
150215_pen_stand
 62
1
100
AcDbSpline
 70
8
 71
3
 72
8
 73
4
 74
0
 40
0
 40
0
 40
0
 40
0
 40
1
 40
1
 40
1
 40
1
 10
86.575868
 20
278.333632
 30
0.0
 10
86.766498
 20
278.156785
 30
0.0
 10
87.027177
 20
278.068361
 30
0.0
 10
87.357906
 20
278.068361
 30
0.0
  0
SPLINE
  5
15d
100
AcDbEntity
  8
150215_pen_stand
 62
1
100
AcDbSpline
 70
8
 71
3
 72
8
 73
4
 74
0
 40
0
 40
0
 40
0
 40
0
 40
1
 40
1
 40
1
 40
1
 10
87.357906
 20
278.068361
 30
0.0
 10
87.688635
 20
278.068361
 30
0.0
 10
87.949313
 20
278.156785
 30
0.0
 10
88.139940
 20
278.333632
 30
0.0
  0
SPLINE
  5
15e
100
AcDbEntity
  8
150215_pen_stand
 62
1
100
AcDbSpline
 70
8
 71
3
 72
8
 73
4
 74
0
 40
0
 40
0
 40
0
 40
0
 40
1
 40
1
 40
1
 40
1
 10
88.139940
 20
278.333632
 30
0.0
 10
88.330570
 20
278.512778
 30
0.0
 10
88.425884
 20
278.756232
 30
0.0
 10
88.425884
 20
279.063995
 30
0.0
  0
SPLINE
  5
15f
100
AcDbEntity
  8
150215_pen_stand
 62
1
100
AcDbSpline
 70
8
 71
3
 72
8
 73
4
 74
0
 40
0
 40
0
 40
0
 40
0
 40
1
 40
1
 40
1
 40
1
 10
88.425884
 20
279.063995
 30
0.0
 10
88.425884
 20
279.374054
 30
0.0
 10
88.330570
 20
279.617507
 30
0.0
 10
88.139940
 20
279.794355
 30
0.0
  0
SPLINE
  5
160
100
AcDbEntity
  8
150215_pen_stand
 62
1
100
AcDbSpline
 70
8
 71
3
 72
8
 73
4
 74
0
 40
0
 40
0
 40
0
 40
0
 40
1
 40
1
 40
1
 40
1
 10
88.139940
 20
279.794355
 30
0.0
 10
87.951609
 20
279.971202
 30
0.0
 10
87.690931
 20
280.059626
 30
0.0
 10
87.357906
 20
280.059626
 30
0.0
  0
LWPOLYLINE
  5
161
100
AcDbEntity
  8
150215_pen_stand
 62
1
100
AcDbPolyline
 90
2
 70
1
 10
81.976666
 20
278.202720
 30
0.0
 10
81.976666
 20
278.202720
 30
0.0
  0
SPLINE
  5
162
100
AcDbEntity
  8
150215_pen_stand
 62
1
100
AcDbSpline
 70
8
 71
3
 72
8
 73
4
 74
0
 40
0
 40
0
 40
0
 40
0
 40
1
 40
1
 40
1
 40
1
 10
86.661995
 20
280.355906
 30
0.0
 10
86.363421
 20
280.429402
 30
0.0
 10
86.130303
 20
280.568354
 30
0.0
 10
85.962642
 20
280.772763
 30
0.0
  0
SPLINE
  5
163
100
AcDbEntity
  8
150215_pen_stand
 62
1
100
AcDbSpline
 70
8
 71
3
 72
8
 73
4
 74
0
 40
0
 40
0
 40
0
 40
0
 40
1
 40
1
 40
1
 40
1
 10
85.962642
 20
280.772763
 30
0.0
 10
85.797276
 20
280.977172
 30
0.0
 10
85.714593
 20
281.226367
 30
0.0
 10
85.714593
 20
281.520348
 30
0.0
  0
SPLINE
  5
164
100
AcDbEntity
  8
150215_pen_stand
 62
1
100
AcDbSpline
 70
8
 71
3
 72
8
 73
4
 74
0
 40
0
 40
0
 40
0
 40
0
 40
1
 40
1
 40
1
 40
1
 10
85.714593
 20
281.520348
 30
0.0
 10
85.714593
 20
281.931461
 30
0.0
 10
85.860436
 20
282.256448
 30
0.0
 10
86.152122
 20
282.495310
 30
0.0
  0
SPLINE
  5
165
100
AcDbEntity
  8
150215_pen_stand
 62
1
100
AcDbSpline
 70
8
 71
3
 72
8
 73
4
 74
0
 40
0
 40
0
 40
0
 40
0
 40
1
 40
1
 40
1
 40
1
 10
86.152122
 20
282.495310
 30
0.0
 10
86.446104
 20
282.734168
 30
0.0
 10
86.848032
 20
282.853598
 30
0.0
 10
87.357906
 20
282.853598
 30
0.0
  0
SPLINE
  5
166
100
AcDbEntity
  8
150215_pen_stand
 62
1
100
AcDbSpline
 70
8
 71
3
 72
8
 73
4
 74
0
 40
0
 40
0
 40
0
 40
0
 40
1
 40
1
 40
1
 40
1
 10
87.357906
 20
282.853598
 30
0.0
 10
87.870076
 20
282.853598
 30
0.0
 10
88.272004
 20
282.734168
 30
0.0
 10
88.563690
 20
282.495310
 30
0.0
  0
SPLINE
  5
167
100
AcDbEntity
  8
150215_pen_stand
 62
1
100
AcDbSpline
 70
8
 71
3
 72
8
 73
4
 74
0
 40
0
 40
0
 40
0
 40
0
 40
1
 40
1
 40
1
 40
1
 10
88.563690
 20
282.495310
 30
0.0
 10
88.855374
 20
282.256448
 30
0.0
 10
89.001215
 20
281.931461
 30
0.0
 10
89.001215
 20
281.520348
 30
0.0
  0
SPLINE
  5
168
100
AcDbEntity
  8
150215_pen_stand
 62
1
100
AcDbSpline
 70
8
 71
3
 72
8
 73
4
 74
0
 40
0
 40
0
 40
0
 40
0
 40
1
 40
1
 40
1
 40
1
 10
89.001215
 20
281.520348
 30
0.0
 10
89.001215
 20
281.226367
 30
0.0
 10
88.917385
 20
280.977172
 30
0.0
 10
88.749724
 20
280.772763
 30
0.0
  0
SPLINE
  5
169
100
AcDbEntity
  8
150215_pen_stand
 62
1
100
AcDbSpline
 70
8
 71
3
 72
8
 73
4
 74
0
 40
0
 40
0
 40
0
 40
0
 40
1
 40
1
 40
1
 40
1
 10
88.749724
 20
280.772763
 30
0.0
 10
88.584360
 20
280.568354
 30
0.0
 10
88.353539
 20
280.429402
 30
0.0
 10
88.057260
 20
280.355906
 30
0.0
  0
SPLINE
  5
16a
100
AcDbEntity
  8
150215_pen_stand
 62
1
100
AcDbSpline
 70
8
 71
3
 72
8
 73
4
 74
0
 40
0
 40
0
 40
0
 40
0
 40
1
 40
1
 40
1
 40
1
 10
88.057260
 20
280.355906
 30
0.0
 10
88.392582
 20
280.277818
 30
0.0
 10
88.653261
 20
280.125085
 30
0.0
 10
88.839298
 20
279.897708
 30
0.0
  0
SPLINE
  5
16b
100
AcDbEntity
  8
150215_pen_stand
 62
1
100
AcDbSpline
 70
8
 71
3
 72
8
 73
4
 74
0
 40
0
 40
0
 40
0
 40
0
 40
1
 40
1
 40
1
 40
1
 10
88.839298
 20
279.897708
 30
0.0
 10
89.027629
 20
279.670331
 30
0.0
 10
89.121795
 20
279.392427
 30
0.0
 10
89.121795
 20
279.063995
 30
0.0
  0
SPLINE
  5
16c
100
AcDbEntity
  8
150215_pen_stand
 62
1
100
AcDbSpline
 70
8
 71
3
 72
8
 73
4
 74
0
 40
0
 40
0
 40
0
 40
0
 40
1
 40
1
 40
1
 40
1
 10
89.121795
 20
279.063995
 30
0.0
 10
89.121795
 20
278.565605
 30
0.0
 10
88.969062
 20
278.183199
 30
0.0
 10
88.663597
 20
277.916776
 30
0.0
  0
SPLINE
  5
16d
100
AcDbEntity
  8
150215_pen_stand
 62
1
100
AcDbSpline
 70
8
 71
3
 72
8
 73
4
 74
0
 40
0
 40
0
 40
0
 40
0
 40
1
 40
1
 40
1
 40
1
 10
88.663597
 20
277.916776
 30
0.0
 10
88.360429
 20
277.650356
 30
0.0
 10
87.925199
 20
277.517146
 30
0.0
 10
87.357906
 20
277.517146
 30
0.0
  0
SPLINE
  5
16e
100
AcDbEntity
  8
150215_pen_stand
 62
1
100
AcDbSpline
 70
8
 71
3
 72
8
 73
4
 74
0
 40
0
 40
0
 40
0
 40
0
 40
1
 40
1
 40
1
 40
1
 10
87.357906
 20
277.517146
 30
0.0
 10
86.790613
 20
277.517146
 30
0.0
 10
86.354234
 20
277.650356
 30
0.0
 10
86.048769
 20
277.916776
 30
0.0
  0
SPLINE
  5
16f
100
AcDbEntity
  8
150215_pen_stand
 62
1
100
AcDbSpline
 70
8
 71
3
 72
8
 73
4
 74
0
 40
0
 40
0
 40
0
 40
0
 40
1
 40
1
 40
1
 40
1
 10
86.048769
 20
277.916776
 30
0.0
 10
85.745601
 20
278.183199
 30
0.0
 10
85.594017
 20
278.565605
 30
0.0
 10
85.594017
 20
279.063995
 30
0.0
  0
SPLINE
  5
170
100
AcDbEntity
  8
150215_pen_stand
 62
1
100
AcDbSpline
 70
8
 71
3
 72
8
 73
4
 74
0
 40
0
 40
0
 40
0
 40
0
 40
1
 40
1
 40
1
 40
1
 10
85.594017
 20
279.063995
 30
0.0
 10
85.594017
 20
279.392427
 30
0.0
 10
85.688183
 20
279.670331
 30
0.0
 10
85.876515
 20
279.897708
 30
0.0
  0
SPLINE
  5
171
100
AcDbEntity
  8
150215_pen_stand
 62
1
100
AcDbSpline
 70
8
 71
3
 72
8
 73
4
 74
0
 40
0
 40
0
 40
0
 40
0
 40
1
 40
1
 40
1
 40
1
 10
85.876515
 20
279.897708
 30
0.0
 10
86.064846
 20
280.125085
 30
0.0
 10
86.326673
 20
280.277818
 30
0.0
 10
86.661995
 20
280.355906
 30
0.0
  0
LWPOLYLINE
  5
172
100
AcDbEntity
  8
150215_pen_stand
 62
1
100
AcDbPolyline
 90
2
 70
1
 10
87.357906
 20
280.059626
 30
0.0
 10
87.357906
 20
280.059626
 30
0.0
  0
SPLINE
  5
173
100
AcDbEntity
  8
150215_pen_stand
 62
1
100
AcDbSpline
 70
8
 71
3
 72
8
 73
4
 74
0
 40
0
 40
0
 40
0
 40
0
 40
1
 40
1
 40
1
 40
1
 10
86.407061
 20
281.454890
 30
0.0
 10
86.407061
 20
281.188470
 30
0.0
 10
86.489742
 20
280.980616
 30
0.0
 10
86.655106
 20
280.831327
 30
0.0
  0
SPLINE
  5
174
100
AcDbEntity
  8
150215_pen_stand
 62
1
100
AcDbSpline
 70
8
 71
3
 72
8
 73
4
 74
0
 40
0
 40
0
 40
0
 40
0
 40
1
 40
1
 40
1
 40
1
 10
86.655106
 20
280.831327
 30
0.0
 10
86.822767
 20
280.682041
 30
0.0
 10
87.057034
 20
280.607398
 30
0.0
 10
87.357906
 20
280.607398
 30
0.0
  0
SPLINE
  5
175
100
AcDbEntity
  8
150215_pen_stand
 62
1
100
AcDbSpline
 70
8
 71
3
 72
8
 73
4
 74
0
 40
0
 40
0
 40
0
 40
0
 40
1
 40
1
 40
1
 40
1
 10
87.357906
 20
280.607398
 30
0.0
 10
87.656481
 20
280.607398
 30
0.0
 10
87.889599
 20
280.682041
 30
0.0
 10
88.057260
 20
280.831327
 30
0.0
  0
SPLINE
  5
176
100
AcDbEntity
  8
150215_pen_stand
 62
1
100
AcDbSpline
 70
8
 71
3
 72
8
 73
4
 74
0
 40
0
 40
0
 40
0
 40
0
 40
1
 40
1
 40
1
 40
1
 10
88.057260
 20
280.831327
 30
0.0
 10
88.227219
 20
280.980616
 30
0.0
 10
88.312198
 20
281.188470
 30
0.0
 10
88.312198
 20
281.454890
 30
0.0
  0
SPLINE
  5
177
100
AcDbEntity
  8
150215_pen_stand
 62
1
100
AcDbSpline
 70
8
 71
3
 72
8
 73
4
 74
0
 40
0
 40
0
 40
0
 40
0
 40
1
 40
1
 40
1
 40
1
 10
88.312198
 20
281.454890
 30
0.0
 10
88.312198
 20
281.721310
 30
0.0
 10
88.227219
 20
281.929165
 30
0.0
 10
88.057260
 20
282.078453
 30
0.0
  0
SPLINE
  5
178
100
AcDbEntity
  8
150215_pen_stand
 62
1
100
AcDbSpline
 70
8
 71
3
 72
8
 73
4
 74
0
 40
0
 40
0
 40
0
 40
0
 40
1
 40
1
 40
1
 40
1
 10
88.057260
 20
282.078453
 30
0.0
 10
87.889599
 20
282.227739
 30
0.0
 10
87.656481
 20
282.302382
 30
0.0
 10
87.357906
 20
282.302382
 30
0.0
  0
SPLINE
  5
179
100
AcDbEntity
  8
150215_pen_stand
 62
1
100
AcDbSpline
 70
8
 71
3
 72
8
 73
4
 74
0
 40
0
 40
0
 40
0
 40
0
 40
1
 40
1
 40
1
 40
1
 10
87.357906
 20
282.302382
 30
0.0
 10
87.057034
 20
282.302382
 30
0.0
 10
86.822767
 20
282.227739
 30
0.0
 10
86.655106
 20
282.078453
 30
0.0
  0
SPLINE
  5
17a
100
AcDbEntity
  8
150215_pen_stand
 62
1
100
AcDbSpline
 70
8
 71
3
 72
8
 73
4
 74
0
 40
0
 40
0
 40
0
 40
0
 40
1
 40
1
 40
1
 40
1
 10
86.655106
 20
282.078453
 30
0.0
 10
86.489742
 20
281.929165
 30
0.0
 10
86.407061
 20
281.721310
 30
0.0
 10
86.407061
 20
281.454890
 30
0.0
  0
LWPOLYLINE
  5
17b
100
AcDbEntity
  8
150215_pen_stand
 62
1
100
AcDbPolyline
 90
2
 70
1
 10
86.661995
 20
280.355906
 30
0.0
 10
86.661995
 20
280.355906
 30
0.0
  0
LWPOLYLINE
  5
17c
100
AcDbEntity
  8
150215_pen_stand
 62
1
100
AcDbPolyline
 90
2
 70
1
 10
86.407061
 20
281.454890
 30
0.0
 10
86.407061
 20
281.454890
 30
0.0
  0
SPLINE
  5
17d
100
AcDbEntity
  8
150215_pen_stand
 62
1
100
AcDbSpline
 70
8
 71
3
 72
8
 73
4
 74
0
 40
0
 40
0
 40
0
 40
0
 40
1
 40
1
 40
1
 40
1
 10
112.071506
 20
278.202720
 30
0.0
 10
112.335631
 20
278.476031
 30
0.0
 10
112.695069
 20
278.842360
 30
0.0
 10
113.149821
 20
279.301708
 30
0.0
  0
SPLINE
  5
17e
100
AcDbEntity
  8
150215_pen_stand
 62
1
100
AcDbSpline
 70
8
 71
3
 72
8
 73
4
 74
0
 40
0
 40
0
 40
0
 40
0
 40
1
 40
1
 40
1
 40
1
 10
113.149821
 20
279.301708
 30
0.0
 10
113.606870
 20
279.763350
 30
0.0
 10
113.893962
 20
280.060776
 30
0.0
 10
114.011096
 20
280.193985
 30
0.0
  0
SPLINE
  5
17f
100
AcDbEntity
  8
150215_pen_stand
 62
1
100
AcDbSpline
 70
8
 71
3
 72
8
 73
4
 74
0
 40
0
 40
0
 40
0
 40
0
 40
1
 40
1
 40
1
 40
1
 10
114.011096
 20
280.193985
 30
0.0
 10
114.233880
 20
280.444330
 30
0.0
 10
114.388909
 20
280.655630
 30
0.0
 10
114.476184
 20
280.827884
 30
0.0
  0
SPLINE
  5
180
100
AcDbEntity
  8
150215_pen_stand
 62
1
100
AcDbSpline
 70
8
 71
3
 72
8
 73
4
 74
0
 40
0
 40
0
 40
0
 40
0
 40
1
 40
1
 40
1
 40
1
 10
114.476184
 20
280.827884
 30
0.0
 10
114.565757
 20
281.002434
 30
0.0
 10
114.610543
 20
281.173541
 30
0.0
 10
114.610543
 20
281.341204
 30
0.0
  0
SPLINE
  5
181
100
AcDbEntity
  8
150215_pen_stand
 62
1
100
AcDbSpline
 70
8
 71
3
 72
8
 73
4
 74
0
 40
0
 40
0
 40
0
 40
0
 40
1
 40
1
 40
1
 40
1
 10
114.610543
 20
281.341204
 30
0.0
 10
114.610543
 20
281.614513
 30
0.0
 10
114.514081
 20
281.837295
 30
0.0
 10
114.321156
 20
282.009552
 30
0.0
  0
SPLINE
  5
182
100
AcDbEntity
  8
150215_pen_stand
 62
1
100
AcDbSpline
 70
8
 71
3
 72
8
 73
4
 74
0
 40
0
 40
0
 40
0
 40
0
 40
1
 40
1
 40
1
 40
1
 10
114.321156
 20
282.009552
 30
0.0
 10
114.130527
 20
282.181806
 30
0.0
 10
113.881332
 20
282.267934
 30
0.0
 10
113.573571
 20
282.267934
 30
0.0
  0
SPLINE
  5
183
100
AcDbEntity
  8
150215_pen_stand
 62
1
100
AcDbSpline
 70
8
 71
3
 72
8
 73
4
 74
0
 40
0
 40
0
 40
0
 40
0
 40
1
 40
1
 40
1
 40
1
 10
113.573571
 20
282.267934
 30
0.0
 10
113.355380
 20
282.267934
 30
0.0
 10
113.124559
 20
282.230037
 30
0.0
 10
112.881107
 20
282.154244
 30
0.0
  0
SPLINE
  5
184
100
AcDbEntity
  8
150215_pen_stand
 62
1
100
AcDbSpline
 70
8
 71
3
 72
8
 73
4
 74
0
 40
0
 40
0
 40
0
 40
0
 40
1
 40
1
 40
1
 40
1
 10
112.881107
 20
282.154244
 30
0.0
 10
112.639950
 20
282.078453
 30
0.0
 10
112.381567
 20
281.963617
 30
0.0
 10
112.105959
 20
281.809735
 30
0.0
  0
LWPOLYLINE
  5
185
100
AcDbEntity
  8
150215_pen_stand
 62
1
100
AcDbPolyline
 90
5
 70
1
 10
112.908666
 20
278.202720
 30
0.0
 10
115.337459
 20
278.202720
 30
0.0
 10
115.337459
 20
277.617053
 30
0.0
 10
112.071506
 20
277.617053
 30
0.0
 10
112.071506
 20
278.202720
 30
0.0
  0
SPLINE
  5
186
100
AcDbEntity
  8
150215_pen_stand
 62
1
100
AcDbSpline
 70
8
 71
3
 72
8
 73
4
 74
0
 40
0
 40
0
 40
0
 40
0
 40
1
 40
1
 40
1
 40
1
 10
112.105959
 20
282.512536
 30
0.0
 10
112.386161
 20
282.625074
 30
0.0
 10
112.647988
 20
282.710052
 30
0.0
 10
112.891439
 20
282.767471
 30
0.0
  0
SPLINE
  5
187
100
AcDbEntity
  8
150215_pen_stand
 62
1
100
AcDbSpline
 70
8
 71
3
 72
8
 73
4
 74
0
 40
0
 40
0
 40
0
 40
0
 40
1
 40
1
 40
1
 40
1
 10
112.891439
 20
282.767471
 30
0.0
 10
113.134894
 20
282.824889
 30
0.0
 10
113.357676
 20
282.853598
 30
0.0
 10
113.559788
 20
282.853598
 30
0.0
  0
SPLINE
  5
188
100
AcDbEntity
  8
150215_pen_stand
 62
1
100
AcDbSpline
 70
8
 71
3
 72
8
 73
4
 74
0
 40
0
 40
0
 40
0
 40
0
 40
1
 40
1
 40
1
 40
1
 10
113.559788
 20
282.853598
 30
0.0
 10
114.092630
 20
282.853598
 30
0.0
 10
114.517526
 20
282.720388
 30
0.0
 10
114.834476
 20
282.453967
 30
0.0
  0
SPLINE
  5
189
100
AcDbEntity
  8
150215_pen_stand
 62
1
100
AcDbSpline
 70
8
 71
3
 72
8
 73
4
 74
0
 40
0
 40
0
 40
0
 40
0
 40
1
 40
1
 40
1
 40
1
 10
114.834476
 20
282.453967
 30
0.0
 10
115.151423
 20
282.187547
 30
0.0
 10
115.309897
 20
281.831555
 30
0.0
 10
115.309897
 20
281.385989
 30
0.0
  0
SPLINE
  5
18a
100
AcDbEntity
  8
150215_pen_stand
 62
1
100
AcDbSpline
 70
8
 71
3
 72
8
 73
4
 74
0
 40
0
 40
0
 40
0
 40
0
 40
1
 40
1
 40
1
 40
1
 10
115.309897
 20
281.385989
 30
0.0
 10
115.309897
 20
281.174689
 30
0.0
 10
115.269704
 20
280.973725
 30
0.0
 10
115.189317
 20
280.783096
 30
0.0
  0
SPLINE
  5
18b
100
AcDbEntity
  8
150215_pen_stand
 62
1
100
AcDbSpline
 70
8
 71
3
 72
8
 73
4
 74
0
 40
0
 40
0
 40
0
 40
0
 40
1
 40
1
 40
1
 40
1
 10
115.189317
 20
280.783096
 30
0.0
 10
115.111229
 20
280.594764
 30
0.0
 10
114.967684
 20
280.371981
 30
0.0
 10
114.758682
 20
280.114747
 30
0.0
  0
SPLINE
  5
18c
100
AcDbEntity
  8
150215_pen_stand
 62
1
100
AcDbSpline
 70
8
 71
3
 72
8
 73
4
 74
0
 40
0
 40
0
 40
0
 40
0
 40
1
 40
1
 40
1
 40
1
 10
114.758682
 20
280.114747
 30
0.0
 10
114.701264
 20
280.048143
 30
0.0
 10
114.518674
 20
279.855218
 30
0.0
 10
114.210913
 20
279.535973
 30
0.0
  0
SPLINE
  5
18d
100
AcDbEntity
  8
150215_pen_stand
 62
1
100
AcDbSpline
 70
8
 71
3
 72
8
 73
4
 74
0
 40
0
 40
0
 40
0
 40
0
 40
1
 40
1
 40
1
 40
1
 10
114.210913
 20
279.535973
 30
0.0
 10
113.903150
 20
279.219023
 30
0.0
 10
113.469067
 20
278.774606
 30
0.0
 10
112.908666
 20
278.202720
 30
0.0
  0
LWPOLYLINE
  5
18e
100
AcDbEntity
  8
150215_pen_stand
 62
1
100
AcDbPolyline
 90
2
 70
1
 10
112.105959
 20
281.809735
 30
0.0
 10
112.105959
 20
282.512536
 30
0.0
  0
LWPOLYLINE
  5
18f
100
AcDbEntity
  8
150215_pen_stand
 62
1
100
AcDbPolyline
 90
2
 70
1
 10
112.908666
 20
278.202720
 30
0.0
 10
112.908666
 20
278.202720
 30
0.0
  0
SPLINE
  5
190
100
AcDbEntity
  8
150215_pen_stand
 62
1
100
AcDbSpline
 70
8
 71
3
 72
8
 73
4
 74
0
 40
0
 40
0
 40
0
 40
0
 40
1
 40
1
 40
1
 40
1
 10
116.822294
 20
278.357748
 30
0.0
 10
116.996846
 20
278.275067
 30
0.0
 10
117.173695
 20
278.211906
 30
0.0
 10
117.352840
 20
278.168268
 30
0.0
  0
SPLINE
  5
191
100
AcDbEntity
  8
150215_pen_stand
 62
1
100
AcDbSpline
 70
8
 71
3
 72
8
 73
4
 74
0
 40
0
 40
0
 40
0
 40
0
 40
1
 40
1
 40
1
 40
1
 10
117.352840
 20
278.168268
 30
0.0
 10
117.531985
 20
278.124632
 30
0.0
 10
117.707685
 20
278.102813
 30
0.0
 10
117.879940
 20
278.102813
 30
0.0
  0
SPLINE
  5
192
100
AcDbEntity
  8
150215_pen_stand
 62
1
100
AcDbSpline
 70
8
 71
3
 72
8
 73
4
 74
0
 40
0
 40
0
 40
0
 40
0
 40
1
 40
1
 40
1
 40
1
 10
117.879940
 20
278.102813
 30
0.0
 10
118.339284
 20
278.102813
 30
0.0
 10
118.689535
 20
278.256694
 30
0.0
 10
118.930692
 20
278.564455
 30
0.0
  0
SPLINE
  5
193
100
AcDbEntity
  8
150215_pen_stand
 62
1
100
AcDbSpline
 70
8
 71
3
 72
8
 73
4
 74
0
 40
0
 40
0
 40
0
 40
0
 40
1
 40
1
 40
1
 40
1
 10
118.930692
 20
278.564455
 30
0.0
 10
119.174146
 20
278.874514
 30
0.0
 10
119.313098
 20
279.344195
 30
0.0
 10
119.347548
 20
279.973499
 30
0.0
  0
SPLINE
  5
194
100
AcDbEntity
  8
150215_pen_stand
 62
1
100
AcDbSpline
 70
8
 71
3
 72
8
 73
4
 74
0
 40
0
 40
0
 40
0
 40
0
 40
1
 40
1
 40
1
 40
1
 10
119.347548
 20
279.973499
 30
0.0
 10
119.214339
 20
279.775981
 30
0.0
 10
119.045530
 20
279.624397
 30
0.0
 10
118.841121
 20
279.518747
 30
0.0
  0
SPLINE
  5
195
100
AcDbEntity
  8
150215_pen_stand
 62
1
100
AcDbSpline
 70
8
 71
3
 72
8
 73
4
 74
0
 40
0
 40
0
 40
0
 40
0
 40
1
 40
1
 40
1
 40
1
 10
118.841121
 20
279.518747
 30
0.0
 10
118.636713
 20
279.413097
 30
0.0
 10
118.410484
 20
279.360272
 30
0.0
 10
118.162437
 20
279.360272
 30
0.0
  0
SPLINE
  5
196
100
AcDbEntity
  8
150215_pen_stand
 62
1
100
AcDbSpline
 70
8
 71
3
 72
8
 73
4
 74
0
 40
0
 40
0
 40
0
 40
0
 40
1
 40
1
 40
1
 40
1
 10
118.162437
 20
279.360272
 30
0.0
 10
117.647969
 20
279.360272
 30
0.0
 10
117.240299
 20
279.515302
 30
0.0
 10
116.939427
 20
279.825360
 30
0.0
  0
SPLINE
  5
197
100
AcDbEntity
  8
150215_pen_stand
 62
1
100
AcDbSpline
 70
8
 71
3
 72
8
 73
4
 74
0
 40
0
 40
0
 40
0
 40
0
 40
1
 40
1
 40
1
 40
1
 10
116.939427
 20
279.825360
 30
0.0
 10
116.640852
 20
280.137717
 30
0.0
 10
116.491565
 20
280.563761
 30
0.0
 10
116.491565
 20
281.103492
 30
0.0
  0
SPLINE
  5
198
100
AcDbEntity
  8
150215_pen_stand
 62
1
100
AcDbSpline
 70
8
 71
3
 72
8
 73
4
 74
0
 40
0
 40
0
 40
0
 40
0
 40
1
 40
1
 40
1
 40
1
 10
116.491565
 20
281.103492
 30
0.0
 10
116.491565
 20
281.631739
 30
0.0
 10
116.647743
 20
282.055485
 30
0.0
 10
116.960100
 20
282.374730
 30
0.0
  0
SPLINE
  5
199
100
AcDbEntity
  8
150215_pen_stand
 62
1
100
AcDbSpline
 70
8
 71
3
 72
8
 73
4
 74
0
 40
0
 40
0
 40
0
 40
0
 40
1
 40
1
 40
1
 40
1
 10
116.960100
 20
282.374730
 30
0.0
 10
117.272454
 20
282.693975
 30
0.0
 10
117.688161
 20
282.853598
 30
0.0
 10
118.207222
 20
282.853598
 30
0.0
  0
SPLINE
  5
19a
100
AcDbEntity
  8
150215_pen_stand
 62
1
100
AcDbSpline
 70
8
 71
3
 72
8
 73
4
 74
0
 40
0
 40
0
 40
0
 40
0
 40
1
 40
1
 40
1
 40
1
 10
118.207222
 20
282.853598
 30
0.0
 10
118.802076
 20
282.853598
 30
0.0
 10
119.255680
 20
282.625074
 30
0.0
 10
119.568034
 20
282.168027
 30
0.0
  0
SPLINE
  5
19b
100
AcDbEntity
  8
150215_pen_stand
 62
1
100
AcDbSpline
 70
8
 71
3
 72
8
 73
4
 74
0
 40
0
 40
0
 40
0
 40
0
 40
1
 40
1
 40
1
 40
1
 10
119.568034
 20
282.168027
 30
0.0
 10
119.882686
 20
281.713273
 30
0.0
 10
120.040012
 20
281.051815
 30
0.0
 10
120.040012
 20
280.183652
 30
0.0
  0
SPLINE
  5
19c
100
AcDbEntity
  8
150215_pen_stand
 62
1
100
AcDbSpline
 70
8
 71
3
 72
8
 73
4
 74
0
 40
0
 40
0
 40
0
 40
0
 40
1
 40
1
 40
1
 40
1
 10
120.040012
 20
280.183652
 30
0.0
 10
120.040012
 20
279.372905
 30
0.0
 10
119.847087
 20
278.725226
 30
0.0
 10
119.461238
 20
278.240615
 30
0.0
  0
SPLINE
  5
19d
100
AcDbEntity
  8
150215_pen_stand
 62
1
100
AcDbSpline
 70
8
 71
3
 72
8
 73
4
 74
0
 40
0
 40
0
 40
0
 40
0
 40
1
 40
1
 40
1
 40
1
 10
119.461238
 20
278.240615
 30
0.0
 10
119.077684
 20
277.758302
 30
0.0
 10
118.560919
 20
277.517146
 30
0.0
 10
117.910945
 20
277.517146
 30
0.0
  0
SPLINE
  5
19e
100
AcDbEntity
  8
150215_pen_stand
 62
1
100
AcDbSpline
 70
8
 71
3
 72
8
 73
4
 74
0
 40
0
 40
0
 40
0
 40
0
 40
1
 40
1
 40
1
 40
1
 10
117.910945
 20
277.517146
 30
0.0
 10
117.736393
 20
277.517146
 30
0.0
 10
117.559544
 20
277.534372
 30
0.0
 10
117.380399
 20
277.568824
 30
0.0
  0
SPLINE
  5
19f
100
AcDbEntity
  8
150215_pen_stand
 62
1
100
AcDbSpline
 70
8
 71
3
 72
8
 73
4
 74
0
 40
0
 40
0
 40
0
 40
0
 40
1
 40
1
 40
1
 40
1
 10
117.380399
 20
277.568824
 30
0.0
 10
117.201254
 20
277.603274
 30
0.0
 10
117.015219
 20
277.654950
 30
0.0
 10
116.822294
 20
277.723852
 30
0.0
  0
LWPOLYLINE
  5
1a0
100
AcDbEntity
  8
150215_pen_stand
 62
1
100
AcDbPolyline
 90
2
 70
1
 10
116.822294
 20
277.723852
 30
0.0
 10
116.822294
 20
278.357748
 30
0.0
  0
SPLINE
  5
1a1
100
AcDbEntity
  8
150215_pen_stand
 62
1
100
AcDbSpline
 70
8
 71
3
 72
8
 73
4
 74
0
 40
0
 40
0
 40
0
 40
0
 40
1
 40
1
 40
1
 40
1
 10
118.207222
 20
279.904598
 30
0.0
 10
118.519579
 20
279.904598
 30
0.0
 10
118.766477
 20
280.011395
 30
0.0
 10
118.947918
 20
280.224990
 30
0.0
  0
SPLINE
  5
1a2
100
AcDbEntity
  8
150215_pen_stand
 62
1
100
AcDbSpline
 70
8
 71
3
 72
8
 73
4
 74
0
 40
0
 40
0
 40
0
 40
0
 40
1
 40
1
 40
1
 40
1
 10
118.947918
 20
280.224990
 30
0.0
 10
119.131656
 20
280.438588
 30
0.0
 10
119.223525
 20
280.731422
 30
0.0
 10
119.223525
 20
281.103492
 30
0.0
  0
SPLINE
  5
1a3
100
AcDbEntity
  8
150215_pen_stand
 62
1
100
AcDbSpline
 70
8
 71
3
 72
8
 73
4
 74
0
 40
0
 40
0
 40
0
 40
0
 40
1
 40
1
 40
1
 40
1
 10
119.223525
 20
281.103492
 30
0.0
 10
119.223525
 20
281.473264
 30
0.0
 10
119.131656
 20
281.764949
 30
0.0
 10
118.947918
 20
281.978547
 30
0.0
  0
SPLINE
  5
1a4
100
AcDbEntity
  8
150215_pen_stand
 62
1
100
AcDbSpline
 70
8
 71
3
 72
8
 73
4
 74
0
 40
0
 40
0
 40
0
 40
0
 40
1
 40
1
 40
1
 40
1
 10
118.947918
 20
281.978547
 30
0.0
 10
118.766477
 20
282.194437
 30
0.0
 10
118.519579
 20
282.302382
 30
0.0
 10
118.207222
 20
282.302382
 30
0.0
  0
SPLINE
  5
1a5
100
AcDbEntity
  8
150215_pen_stand
 62
1
100
AcDbSpline
 70
8
 71
3
 72
8
 73
4
 74
0
 40
0
 40
0
 40
0
 40
0
 40
1
 40
1
 40
1
 40
1
 10
118.207222
 20
282.302382
 30
0.0
 10
117.894868
 20
282.302382
 30
0.0
 10
117.646822
 20
282.194437
 30
0.0
 10
117.463083
 20
281.978547
 30
0.0
  0
SPLINE
  5
1a6
100
AcDbEntity
  8
150215_pen_stand
 62
1
100
AcDbSpline
 70
8
 71
3
 72
8
 73
4
 74
0
 40
0
 40
0
 40
0
 40
0
 40
1
 40
1
 40
1
 40
1
 10
117.463083
 20
281.978547
 30
0.0
 10
117.281640
 20
281.764949
 30
0.0
 10
117.190919
 20
281.473264
 30
0.0
 10
117.190919
 20
281.103492
 30
0.0
  0
SPLINE
  5
1a7
100
AcDbEntity
  8
150215_pen_stand
 62
1
100
AcDbSpline
 70
8
 71
3
 72
8
 73
4
 74
0
 40
0
 40
0
 40
0
 40
0
 40
1
 40
1
 40
1
 40
1
 10
117.190919
 20
281.103492
 30
0.0
 10
117.190919
 20
280.731422
 30
0.0
 10
117.281640
 20
280.438588
 30
0.0
 10
117.463083
 20
280.224990
 30
0.0
  0
SPLINE
  5
1a8
100
AcDbEntity
  8
150215_pen_stand
 62
1
100
AcDbSpline
 70
8
 71
3
 72
8
 73
4
 74
0
 40
0
 40
0
 40
0
 40
0
 40
1
 40
1
 40
1
 40
1
 10
117.463083
 20
280.224990
 30
0.0
 10
117.646822
 20
280.011395
 30
0.0
 10
117.894868
 20
279.904598
 30
0.0
 10
118.207222
 20
279.904598
 30
0.0
  0
LWPOLYLINE
  5
1a9
100
AcDbEntity
  8
150215_pen_stand
 62
1
100
AcDbPolyline
 90
2
 70
1
 10
116.822294
 20
277.723852
 30
0.0
 10
116.822294
 20
277.723852
 30
0.0
  0
SPLINE
  5
1aa
100
AcDbEntity
  8
150215_pen_stand
 62
1
100
AcDbSpline
 70
8
 71
3
 72
8
 73
4
 74
0
 40
0
 40
0
 40
0
 40
0
 40
1
 40
1
 40
1
 40
1
 10
147.544772
 20
280.390355
 30
0.0
 10
147.877799
 20
280.319157
 30
0.0
 10
148.137330
 20
280.171019
 30
0.0
 10
148.323363
 20
279.945940
 30
0.0
  0
SPLINE
  5
1ab
100
AcDbEntity
  8
150215_pen_stand
 62
1
100
AcDbSpline
 70
8
 71
3
 72
8
 73
4
 74
0
 40
0
 40
0
 40
0
 40
0
 40
1
 40
1
 40
1
 40
1
 10
148.323363
 20
279.945940
 30
0.0
 10
148.511695
 20
279.720860
 30
0.0
 10
148.605861
 20
279.442956
 30
0.0
 10
148.605861
 20
279.112227
 30
0.0
  0
SPLINE
  5
1ac
100
AcDbEntity
  8
150215_pen_stand
 62
1
100
AcDbSpline
 70
8
 71
3
 72
8
 73
4
 74
0
 40
0
 40
0
 40
0
 40
0
 40
1
 40
1
 40
1
 40
1
 10
148.605861
 20
279.112227
 30
0.0
 10
148.605861
 20
278.604648
 30
0.0
 10
148.431310
 20
278.211906
 30
0.0
 10
148.082208
 20
277.934002
 30
0.0
  0
SPLINE
  5
1ad
100
AcDbEntity
  8
150215_pen_stand
 62
1
100
AcDbSpline
 70
8
 71
3
 72
8
 73
4
 74
0
 40
0
 40
0
 40
0
 40
0
 40
1
 40
1
 40
1
 40
1
 10
148.082208
 20
277.934002
 30
0.0
 10
147.733104
 20
277.656098
 30
0.0
 10
147.237010
 20
277.517146
 30
0.0
 10
146.593927
 20
277.517146
 30
0.0
  0
SPLINE
  5
1ae
100
AcDbEntity
  8
150215_pen_stand
 62
1
100
AcDbSpline
 70
8
 71
3
 72
8
 73
4
 74
0
 40
0
 40
0
 40
0
 40
0
 40
1
 40
1
 40
1
 40
1
 10
146.593927
 20
277.517146
 30
0.0
 10
146.378034
 20
277.517146
 30
0.0
 10
146.155251
 20
277.538965
 30
0.0
 10
145.925579
 20
277.582604
 30
0.0
  0
SPLINE
  5
1af
100
AcDbEntity
  8
150215_pen_stand
 62
1
100
AcDbSpline
 70
8
 71
3
 72
8
 73
4
 74
0
 40
0
 40
0
 40
0
 40
0
 40
1
 40
1
 40
1
 40
1
 10
145.925579
 20
277.582604
 30
0.0
 10
145.698202
 20
277.623945
 30
0.0
 10
145.462787
 20
277.687105
 30
0.0
 10
145.219335
 20
277.772084
 30
0.0
  0
LWPOLYLINE
  5
1b0
100
AcDbEntity
  8
150215_pen_stand
 62
1
100
AcDbPolyline
 90
2
 70
1
 10
118.207222
 20
279.904598
 30
0.0
 10
118.207222
 20
279.904598
 30
0.0
  0
SPLINE
  5
1b1
100
AcDbEntity
  8
150215_pen_stand
 62
1
100
AcDbSpline
 70
8
 71
3
 72
8
 73
4
 74
0
 40
0
 40
0
 40
0
 40
0
 40
1
 40
1
 40
1
 40
1
 10
145.219335
 20
278.443875
 30
0.0
 10
145.412260
 20
278.331337
 30
0.0
 10
145.623559
 20
278.246359
 30
0.0
 10
145.853231
 20
278.188941
 30
0.0
  0
SPLINE
  5
1b2
100
AcDbEntity
  8
150215_pen_stand
 62
1
100
AcDbSpline
 70
8
 71
3
 72
8
 73
4
 74
0
 40
0
 40
0
 40
0
 40
0
 40
1
 40
1
 40
1
 40
1
 10
145.853231
 20
278.188941
 30
0.0
 10
146.082904
 20
278.131522
 30
0.0
 10
146.322912
 20
278.102813
 30
0.0
 10
146.573258
 20
278.102813
 30
0.0
  0
SPLINE
  5
1b3
100
AcDbEntity
  8
150215_pen_stand
 62
1
100
AcDbSpline
 70
8
 71
3
 72
8
 73
4
 74
0
 40
0
 40
0
 40
0
 40
0
 40
1
 40
1
 40
1
 40
1
 10
146.573258
 20
278.102813
 30
0.0
 10
147.009634
 20
278.102813
 30
0.0
 10
147.341511
 20
278.188941
 30
0.0
 10
147.568888
 20
278.361195
 30
0.0
  0
SPLINE
  5
1b4
100
AcDbEntity
  8
150215_pen_stand
 62
1
100
AcDbSpline
 70
8
 71
3
 72
8
 73
4
 74
0
 40
0
 40
0
 40
0
 40
0
 40
1
 40
1
 40
1
 40
1
 10
147.568888
 20
278.361195
 30
0.0
 10
147.798561
 20
278.533449
 30
0.0
 10
147.913397
 20
278.783793
 30
0.0
 10
147.913397
 20
279.112227
 30
0.0
  0
SPLINE
  5
1b5
100
AcDbEntity
  8
150215_pen_stand
 62
1
100
AcDbSpline
 70
8
 71
3
 72
8
 73
4
 74
0
 40
0
 40
0
 40
0
 40
0
 40
1
 40
1
 40
1
 40
1
 10
147.913397
 20
279.112227
 30
0.0
 10
147.913397
 20
279.415395
 30
0.0
 10
147.806599
 20
279.651957
 30
0.0
 10
147.593004
 20
279.821914
 30
0.0
  0
SPLINE
  5
1b6
100
AcDbEntity
  8
150215_pen_stand
 62
1
100
AcDbSpline
 70
8
 71
3
 72
8
 73
4
 74
0
 40
0
 40
0
 40
0
 40
0
 40
1
 40
1
 40
1
 40
1
 10
147.593004
 20
279.821914
 30
0.0
 10
147.381704
 20
279.994170
 30
0.0
 10
147.086575
 20
280.080299
 30
0.0
 10
146.707617
 20
280.080299
 30
0.0
  0
LWPOLYLINE
  5
1b7
100
AcDbEntity
  8
150215_pen_stand
 62
1
100
AcDbPolyline
 90
2
 70
1
 10
145.219335
 20
277.772084
 30
0.0
 10
145.219335
 20
278.443875
 30
0.0
  0
SPLINE
  5
1b8
100
AcDbEntity
  8
150215_pen_stand
 62
1
100
AcDbSpline
 70
8
 71
3
 72
8
 73
4
 74
0
 40
0
 40
0
 40
0
 40
0
 40
1
 40
1
 40
1
 40
1
 10
146.735176
 20
280.652183
 30
0.0
 10
147.077389
 20
280.652183
 30
0.0
 10
147.339216
 20
280.719937
 30
0.0
 10
147.520656
 20
280.855443
 30
0.0
  0
SPLINE
  5
1b9
100
AcDbEntity
  8
150215_pen_stand
 62
1
100
AcDbSpline
 70
8
 71
3
 72
8
 73
4
 74
0
 40
0
 40
0
 40
0
 40
0
 40
1
 40
1
 40
1
 40
1
 10
147.520656
 20
280.855443
 30
0.0
 10
147.702099
 20
280.993248
 30
0.0
 10
147.792821
 20
281.190767
 30
0.0
 10
147.792821
 20
281.448000
 30
0.0
  0
SPLINE
  5
1ba
100
AcDbEntity
  8
150215_pen_stand
 62
1
100
AcDbSpline
 70
8
 71
3
 72
8
 73
4
 74
0
 40
0
 40
0
 40
0
 40
0
 40
1
 40
1
 40
1
 40
1
 10
147.792821
 20
281.448000
 30
0.0
 10
147.792821
 20
281.712125
 30
0.0
 10
147.698655
 20
281.914237
 30
0.0
 10
147.510324
 20
282.054337
 30
0.0
  0
SPLINE
  5
1bb
100
AcDbEntity
  8
150215_pen_stand
 62
1
100
AcDbSpline
 70
8
 71
3
 72
8
 73
4
 74
0
 40
0
 40
0
 40
0
 40
0
 40
1
 40
1
 40
1
 40
1
 10
147.510324
 20
282.054337
 30
0.0
 10
147.324287
 20
282.196735
 30
0.0
 10
147.056718
 20
282.267934
 30
0.0
 10
146.707617
 20
282.267934
 30
0.0
  0
SPLINE
  5
1bc
100
AcDbEntity
  8
150215_pen_stand
 62
1
100
AcDbSpline
 70
8
 71
3
 72
8
 73
4
 74
0
 40
0
 40
0
 40
0
 40
0
 40
1
 40
1
 40
1
 40
1
 10
146.707617
 20
282.267934
 30
0.0
 10
146.516987
 20
282.267934
 30
0.0
 10
146.312577
 20
282.247263
 30
0.0
 10
146.094386
 20
282.205922
 30
0.0
  0
SPLINE
  5
1bd
100
AcDbEntity
  8
150215_pen_stand
 62
1
100
AcDbSpline
 70
8
 71
3
 72
8
 73
4
 74
0
 40
0
 40
0
 40
0
 40
0
 40
1
 40
1
 40
1
 40
1
 10
146.094386
 20
282.205922
 30
0.0
 10
145.876198
 20
282.164582
 30
0.0
 10
145.636190
 20
282.100272
 30
0.0
 10
145.374364
 20
282.012995
 30
0.0
  0
LWPOLYLINE
  5
1be
100
AcDbEntity
  8
150215_pen_stand
 62
1
100
AcDbPolyline
 90
4
 70
1
 10
146.707617
 20
280.080299
 30
0.0
 10
146.108170
 20
280.080299
 30
0.0
 10
146.108170
 20
280.652183
 30
0.0
 10
146.735176
 20
280.652183
 30
0.0
  0
SPLINE
  5
1bf
100
AcDbEntity
  8
150215_pen_stand
 62
1
100
AcDbSpline
 70
8
 71
3
 72
8
 73
4
 74
0
 40
0
 40
0
 40
0
 40
0
 40
1
 40
1
 40
1
 40
1
 10
145.374364
 20
282.633112
 30
0.0
 10
145.638488
 20
282.706607
 30
0.0
 10
145.885387
 20
282.761728
 30
0.0
 10
146.115059
 20
282.798476
 30
0.0
  0
SPLINE
  5
1c0
100
AcDbEntity
  8
150215_pen_stand
 62
1
100
AcDbSpline
 70
8
 71
3
 72
8
 73
4
 74
0
 40
0
 40
0
 40
0
 40
0
 40
1
 40
1
 40
1
 40
1
 10
146.115059
 20
282.798476
 30
0.0
 10
146.347029
 20
282.835224
 30
0.0
 10
146.565219
 20
282.853598
 30
0.0
 10
146.769628
 20
282.853598
 30
0.0
  0
SPLINE
  5
1c1
100
AcDbEntity
  8
150215_pen_stand
 62
1
100
AcDbSpline
 70
8
 71
3
 72
8
 73
4
 74
0
 40
0
 40
0
 40
0
 40
0
 40
1
 40
1
 40
1
 40
1
 10
146.769628
 20
282.853598
 30
0.0
 10
147.297875
 20
282.853598
 30
0.0
 10
147.715879
 20
282.733019
 30
0.0
 10
148.023640
 20
282.491863
 30
0.0
  0
SPLINE
  5
1c2
100
AcDbEntity
  8
150215_pen_stand
 62
1
100
AcDbSpline
 70
8
 71
3
 72
8
 73
4
 74
0
 40
0
 40
0
 40
0
 40
0
 40
1
 40
1
 40
1
 40
1
 10
148.023640
 20
282.491863
 30
0.0
 10
148.331403
 20
282.253004
 30
0.0
 10
148.485285
 20
281.929166
 30
0.0
 10
148.485285
 20
281.520348
 30
0.0
  0
SPLINE
  5
1c3
100
AcDbEntity
  8
150215_pen_stand
 62
1
100
AcDbSpline
 70
8
 71
3
 72
8
 73
4
 74
0
 40
0
 40
0
 40
0
 40
0
 40
1
 40
1
 40
1
 40
1
 10
148.485285
 20
281.520348
 30
0.0
 10
148.485285
 20
281.235553
 30
0.0
 10
148.403751
 20
280.994396
 30
0.0
 10
148.240683
 20
280.796879
 30
0.0
  0
SPLINE
  5
1c4
100
AcDbEntity
  8
150215_pen_stand
 62
1
100
AcDbSpline
 70
8
 71
3
 72
8
 73
4
 74
0
 40
0
 40
0
 40
0
 40
0
 40
1
 40
1
 40
1
 40
1
 10
148.240683
 20
280.796879
 30
0.0
 10
148.077615
 20
280.601656
 30
0.0
 10
147.845645
 20
280.466148
 30
0.0
 10
147.544772
 20
280.390355
 30
0.0
  0
LWPOLYLINE
  5
1c5
100
AcDbEntity
  8
150215_pen_stand
 62
1
100
AcDbPolyline
 90
2
 70
1
 10
145.374364
 20
282.012995
 30
0.0
 10
145.374364
 20
282.633112
 30
0.0
  0
SPLINE
  5
1c6
100
AcDbEntity
  8
150215_pen_stand
 62
1
100
AcDbSpline
 70
8
 71
3
 72
8
 73
4
 74
0
 40
0
 40
0
 40
0
 40
0
 40
1
 40
1
 40
1
 40
1
 10
151.417059
 20
282.302382
 30
0.0
 10
151.058771
 20
282.302382
 30
0.0
 10
150.788905
 20
282.125535
 30
0.0
 10
150.607462
 20
281.771840
 30
0.0
  0
SPLINE
  5
1c7
100
AcDbEntity
  8
150215_pen_stand
 62
1
100
AcDbSpline
 70
8
 71
3
 72
8
 73
4
 74
0
 40
0
 40
0
 40
0
 40
0
 40
1
 40
1
 40
1
 40
1
 10
150.607462
 20
281.771840
 30
0.0
 10
150.428317
 20
281.420440
 30
0.0
 10
150.338744
 20
280.891044
 30
0.0
 10
150.338744
 20
280.183652
 30
0.0
  0
SPLINE
  5
1c8
100
AcDbEntity
  8
150215_pen_stand
 62
1
100
AcDbSpline
 70
8
 71
3
 72
8
 73
4
 74
0
 40
0
 40
0
 40
0
 40
0
 40
1
 40
1
 40
1
 40
1
 10
150.338744
 20
280.183652
 30
0.0
 10
150.338744
 20
279.478555
 30
0.0
 10
150.428317
 20
278.949158
 30
0.0
 10
150.607462
 20
278.595461
 30
0.0
  0
SPLINE
  5
1c9
100
AcDbEntity
  8
150215_pen_stand
 62
1
100
AcDbSpline
 70
8
 71
3
 72
8
 73
4
 74
0
 40
0
 40
0
 40
0
 40
0
 40
1
 40
1
 40
1
 40
1
 10
150.607462
 20
278.595461
 30
0.0
 10
150.788905
 20
278.244061
 30
0.0
 10
151.058771
 20
278.068361
 30
0.0
 10
151.417059
 20
278.068361
 30
0.0
  0
SPLINE
  5
1ca
100
AcDbEntity
  8
150215_pen_stand
 62
1
100
AcDbSpline
 70
8
 71
3
 72
8
 73
4
 74
0
 40
0
 40
0
 40
0
 40
0
 40
1
 40
1
 40
1
 40
1
 10
151.417059
 20
278.068361
 30
0.0
 10
151.777647
 20
278.068361
 30
0.0
 10
152.047514
 20
278.244061
 30
0.0
 10
152.226659
 20
278.595461
 30
0.0
  0
SPLINE
  5
1cb
100
AcDbEntity
  8
150215_pen_stand
 62
1
100
AcDbSpline
 70
8
 71
3
 72
8
 73
4
 74
0
 40
0
 40
0
 40
0
 40
0
 40
1
 40
1
 40
1
 40
1
 10
152.226659
 20
278.595461
 30
0.0
 10
152.408100
 20
278.949158
 30
0.0
 10
152.498820
 20
279.478555
 30
0.0
 10
152.498820
 20
280.183652
 30
0.0
  0
SPLINE
  5
1cc
100
AcDbEntity
  8
150215_pen_stand
 62
1
100
AcDbSpline
 70
8
 71
3
 72
8
 73
4
 74
0
 40
0
 40
0
 40
0
 40
0
 40
1
 40
1
 40
1
 40
1
 10
152.498820
 20
280.183652
 30
0.0
 10
152.498820
 20
280.891044
 30
0.0
 10
152.408100
 20
281.420440
 30
0.0
 10
152.226659
 20
281.771840
 30
0.0
  0
SPLINE
  5
1cd
100
AcDbEntity
  8
150215_pen_stand
 62
1
100
AcDbSpline
 70
8
 71
3
 72
8
 73
4
 74
0
 40
0
 40
0
 40
0
 40
0
 40
1
 40
1
 40
1
 40
1
 10
152.226659
 20
281.771840
 30
0.0
 10
152.047514
 20
282.125535
 30
0.0
 10
151.777647
 20
282.302382
 30
0.0
 10
151.417059
 20
282.302382
 30
0.0
  0
LWPOLYLINE
  5
1ce
100
AcDbEntity
  8
150215_pen_stand
 62
1
100
AcDbPolyline
 90
2
 70
1
 10
147.544772
 20
280.390355
 30
0.0
 10
147.544772
 20
280.390355
 30
0.0
  0
SPLINE
  5
1cf
100
AcDbEntity
  8
150215_pen_stand
 62
1
100
AcDbSpline
 70
8
 71
3
 72
8
 73
4
 74
0
 40
0
 40
0
 40
0
 40
0
 40
1
 40
1
 40
1
 40
1
 10
151.417059
 20
282.853598
 30
0.0
 10
151.993540
 20
282.853598
 30
0.0
 10
152.433365
 20
282.625074
 30
0.0
 10
152.736532
 20
282.168027
 30
0.0
  0
SPLINE
  5
1d0
100
AcDbEntity
  8
150215_pen_stand
 62
1
100
AcDbSpline
 70
8
 71
3
 72
8
 73
4
 74
0
 40
0
 40
0
 40
0
 40
0
 40
1
 40
1
 40
1
 40
1
 10
152.736532
 20
282.168027
 30
0.0
 10
153.041998
 20
281.713273
 30
0.0
 10
153.194731
 20
281.051815
 30
0.0
 10
153.194731
 20
280.183652
 30
0.0
  0
SPLINE
  5
1d1
100
AcDbEntity
  8
150215_pen_stand
 62
1
100
AcDbSpline
 70
8
 71
3
 72
8
 73
4
 74
0
 40
0
 40
0
 40
0
 40
0
 40
1
 40
1
 40
1
 40
1
 10
153.194731
 20
280.183652
 30
0.0
 10
153.194731
 20
279.317782
 30
0.0
 10
153.041998
 20
278.656324
 30
0.0
 10
152.736532
 20
278.199277
 30
0.0
  0
SPLINE
  5
1d2
100
AcDbEntity
  8
150215_pen_stand
 62
1
100
AcDbSpline
 70
8
 71
3
 72
8
 73
4
 74
0
 40
0
 40
0
 40
0
 40
0
 40
1
 40
1
 40
1
 40
1
 10
152.736532
 20
278.199277
 30
0.0
 10
152.433365
 20
277.744523
 30
0.0
 10
151.993540
 20
277.517146
 30
0.0
 10
151.417059
 20
277.517146
 30
0.0
  0
SPLINE
  5
1d3
100
AcDbEntity
  8
150215_pen_stand
 62
1
100
AcDbSpline
 70
8
 71
3
 72
8
 73
4
 74
0
 40
0
 40
0
 40
0
 40
0
 40
1
 40
1
 40
1
 40
1
 10
151.417059
 20
277.517146
 30
0.0
 10
150.840580
 20
277.517146
 30
0.0
 10
150.399608
 20
277.744523
 30
0.0
 10
150.094142
 20
278.199277
 30
0.0
  0
SPLINE
  5
1d4
100
AcDbEntity
  8
150215_pen_stand
 62
1
100
AcDbSpline
 70
8
 71
3
 72
8
 73
4
 74
0
 40
0
 40
0
 40
0
 40
0
 40
1
 40
1
 40
1
 40
1
 10
150.094142
 20
278.199277
 30
0.0
 10
149.790974
 20
278.656324
 30
0.0
 10
149.639390
 20
279.317782
 30
0.0
 10
149.639390
 20
280.183652
 30
0.0
  0
SPLINE
  5
1d5
100
AcDbEntity
  8
150215_pen_stand
 62
1
100
AcDbSpline
 70
8
 71
3
 72
8
 73
4
 74
0
 40
0
 40
0
 40
0
 40
0
 40
1
 40
1
 40
1
 40
1
 10
149.639390
 20
280.183652
 30
0.0
 10
149.639390
 20
281.051815
 30
0.0
 10
149.790974
 20
281.713273
 30
0.0
 10
150.094142
 20
282.168027
 30
0.0
  0
SPLINE
  5
1d6
100
AcDbEntity
  8
150215_pen_stand
 62
1
100
AcDbSpline
 70
8
 71
3
 72
8
 73
4
 74
0
 40
0
 40
0
 40
0
 40
0
 40
1
 40
1
 40
1
 40
1
 10
150.094142
 20
282.168027
 30
0.0
 10
150.399608
 20
282.625074
 30
0.0
 10
150.840580
 20
282.853598
 30
0.0
 10
151.417059
 20
282.853598
 30
0.0
  0
LWPOLYLINE
  5
1d7
100
AcDbEntity
  8
150215_pen_stand
 62
1
100
AcDbPolyline
 90
2
 70
1
 10
151.417059
 20
282.302382
 30
0.0
 10
151.417059
 20
282.302382
 30
0.0
  0
LWPOLYLINE
  5
1d8
100
AcDbEntity
  8
150215_pen_stand
 62
1
100
AcDbPolyline
 90
2
 70
1
 10
151.417059
 20
282.853598
 30
0.0
 10
151.417059
 20
282.853598
 30
0.0
  0
LWPOLYLINE
  5
1d9
100
AcDbEntity
  8
150215_pen_stand
 62
5
100
AcDbPolyline
 90
22
 70
1
 10
2.092413
 20
261.070942
 30
0.0
 10
2.092413
 20
247.376550
 30
0.0
 10
9.575712
 20
247.376550
 30
0.0
 10
9.575712
 20
244.788043
 30
0.0
 10
2.092413
 20
244.788043
 30
0.0
 10
2.092413
 20
231.093651
 30
0.0
 10
15.786806
 20
231.093651
 30
0.0
 10
15.786806
 20
238.576399
 30
0.0
 10
18.375864
 20
238.576399
 30
0.0
 10
18.375864
 20
231.093651
 30
0.0
 10
32.070257
 20
231.093651
 30
0.0
 10
32.070257
 20
244.788043
 30
0.0
 10
24.586958
 20
244.788043
 30
0.0
 10
24.586958
 20
247.376550
 30
0.0
 10
32.070257
 20
247.376550
 30
0.0
 10
32.070257
 20
261.070942
 30
0.0
 10
18.375864
 20
261.070942
 30
0.0
 10
18.375864
 20
253.587644
 30
0.0
 10
15.786806
 20
253.587644
 30
0.0
 10
15.786806
 20
261.070942
 30
0.0
 10
2.092413
 20
261.070942
 30
0.0
 10
2.092413
 20
261.070942
 30
0.0
  0
LWPOLYLINE
  5
1da
100
AcDbEntity
  8
150215_pen_stand
 62
5
100
AcDbPolyline
 90
22
 70
1
 10
34.265746
 20
261.070942
 30
0.0
 10
34.265746
 20
247.476319
 30
0.0
 10
41.749045
 20
247.476319
 30
0.0
 10
41.749045
 20
244.788043
 30
0.0
 10
34.265746
 20
244.788043
 30
0.0
 10
34.265746
 20
231.093651
 30
0.0
 10
47.960139
 20
231.093651
 30
0.0
 10
47.960139
 20
238.576399
 30
0.0
 10
50.648965
 20
238.576399
 30
0.0
 10
50.648965
 20
231.093651
 30
0.0
 10
64.243592
 20
231.093651
 30
0.0
 10
64.243592
 20
244.788043
 30
0.0
 10
56.760290
 20
244.788043
 30
0.0
 10
56.760290
 20
247.476319
 30
0.0
 10
64.243592
 20
247.476319
 30
0.0
 10
64.243592
 20
261.070942
 30
0.0
 10
50.648965
 20
261.070942
 30
0.0
 10
50.648965
 20
253.587644
 30
0.0
 10
47.960139
 20
253.587644
 30
0.0
 10
47.960139
 20
261.070942
 30
0.0
 10
34.265746
 20
261.070942
 30
0.0
 10
34.265746
 20
261.070942
 30
0.0
  0
LWPOLYLINE
  5
1db
100
AcDbEntity
  8
150215_pen_stand
 62
5
100
AcDbPolyline
 90
22
 70
1
 10
68.132413
 20
261.070942
 30
0.0
 10
68.132413
 20
247.576088
 30
0.0
 10
75.615712
 20
247.576088
 30
0.0
 10
75.615712
 20
244.788043
 30
0.0
 10
68.132413
 20
244.788043
 30
0.0
 10
68.132413
 20
231.093651
 30
0.0
 10
81.827356
 20
231.093651
 30
0.0
 10
81.827356
 20
238.576399
 30
0.0
 10
84.615405
 20
238.576399
 30
0.0
 10
84.615405
 20
231.093651
 30
0.0
 10
98.110259
 20
231.093651
 30
0.0
 10
98.110259
 20
244.788043
 30
0.0
 10
90.626957
 20
244.788043
 30
0.0
 10
90.626957
 20
247.576088
 30
0.0
 10
98.110259
 20
247.576088
 30
0.0
 10
98.110259
 20
261.070942
 30
0.0
 10
84.615405
 20
261.070942
 30
0.0
 10
84.615405
 20
253.587644
 30
0.0
 10
81.827356
 20
253.587644
 30
0.0
 10
81.827356
 20
261.070942
 30
0.0
 10
68.132413
 20
261.070942
 30
0.0
 10
68.132413
 20
261.070942
 30
0.0
  0
LWPOLYLINE
  5
1dc
100
AcDbEntity
  8
150215_pen_stand
 62
5
100
AcDbPolyline
 90
22
 70
1
 10
101.999080
 20
261.070942
 30
0.0
 10
101.999080
 20
247.675861
 30
0.0
 10
109.482378
 20
247.675861
 30
0.0
 10
109.482378
 20
244.788043
 30
0.0
 10
101.999080
 20
244.788043
 30
0.0
 10
101.999080
 20
231.093651
 30
0.0
 10
115.694023
 20
231.093651
 30
0.0
 10
115.694023
 20
238.576399
 30
0.0
 10
118.581840
 20
238.576399
 30
0.0
 10
118.581840
 20
231.093651
 30
0.0
 10
131.976925
 20
231.093651
 30
0.0
 10
131.976925
 20
244.788043
 30
0.0
 10
124.493623
 20
244.788043
 30
0.0
 10
124.493623
 20
247.675861
 30
0.0
 10
131.976925
 20
247.675861
 30
0.0
 10
131.976925
 20
261.070942
 30
0.0
 10
118.581840
 20
261.070942
 30
0.0
 10
118.581840
 20
253.587644
 30
0.0
 10
115.694023
 20
253.587644
 30
0.0
 10
115.694023
 20
261.070942
 30
0.0
 10
101.999080
 20
261.070942
 30
0.0
 10
101.999080
 20
261.070942
 30
0.0
  0
LWPOLYLINE
  5
1dd
100
AcDbEntity
  8
150215_pen_stand
 62
5
100
AcDbPolyline
 90
22
 70
1
 10
135.865747
 20
261.070942
 30
0.0
 10
135.865747
 20
247.776180
 30
0.0
 10
143.349045
 20
247.776180
 30
0.0
 10
143.349045
 20
244.788043
 30
0.0
 10
135.865747
 20
244.788043
 30
0.0
 10
135.865747
 20
231.093651
 30
0.0
 10
149.560689
 20
231.093651
 30
0.0
 10
149.560689
 20
238.576399
 30
0.0
 10
152.548276
 20
238.576399
 30
0.0
 10
152.548276
 20
231.093651
 30
0.0
 10
165.843592
 20
231.093651
 30
0.0
 10
165.843592
 20
244.788043
 30
0.0
 10
158.360290
 20
244.788043
 30
0.0
 10
158.360290
 20
247.776180
 30
0.0
 10
165.843592
 20
247.776180
 30
0.0
 10
165.843592
 20
261.070942
 30
0.0
 10
152.548276
 20
261.070942
 30
0.0
 10
152.548276
 20
253.587644
 30
0.0
 10
149.560689
 20
253.587644
 30
0.0
 10
149.560689
 20
261.070942
 30
0.0
 10
135.865747
 20
261.070942
 30
0.0
 10
135.865747
 20
261.070942
 30
0.0
  0
SPLINE
  5
1de
100
AcDbEntity
  8
150215_pen_stand
 62
1
100
AcDbSpline
 70
8
 71
3
 72
8
 73
4
 74
0
 40
0
 40
0
 40
0
 40
0
 40
1
 40
1
 40
1
 40
1
 10
13.887368
 20
244.336053
 30
0.0
 10
14.151492
 20
244.609364
 30
0.0
 10
14.510931
 20
244.975694
 30
0.0
 10
14.965683
 20
245.435041
 30
0.0
  0
SPLINE
  5
1df
100
AcDbEntity
  8
150215_pen_stand
 62
1
100
AcDbSpline
 70
8
 71
3
 72
8
 73
4
 74
0
 40
0
 40
0
 40
0
 40
0
 40
1
 40
1
 40
1
 40
1
 10
14.965683
 20
245.435041
 30
0.0
 10
15.422732
 20
245.896684
 30
0.0
 10
15.709824
 20
246.194109
 30
0.0
 10
15.826957
 20
246.327318
 30
0.0
  0
SPLINE
  5
1e0
100
AcDbEntity
  8
150215_pen_stand
 62
1
100
AcDbSpline
 70
8
 71
3
 72
8
 73
4
 74
0
 40
0
 40
0
 40
0
 40
0
 40
1
 40
1
 40
1
 40
1
 10
15.826957
 20
246.327318
 30
0.0
 10
16.049740
 20
246.577663
 30
0.0
 10
16.204769
 20
246.788963
 30
0.0
 10
16.292045
 20
246.961218
 30
0.0
  0
SPLINE
  5
1e1
100
AcDbEntity
  8
150215_pen_stand
 62
1
100
AcDbSpline
 70
8
 71
3
 72
8
 73
4
 74
0
 40
0
 40
0
 40
0
 40
0
 40
1
 40
1
 40
1
 40
1
 10
16.292045
 20
246.961218
 30
0.0
 10
16.381617
 20
247.135767
 30
0.0
 10
16.426404
 20
247.306874
 30
0.0
 10
16.426404
 20
247.474537
 30
0.0
  0
SPLINE
  5
1e2
100
AcDbEntity
  8
150215_pen_stand
 62
1
100
AcDbSpline
 70
8
 71
3
 72
8
 73
4
 74
0
 40
0
 40
0
 40
0
 40
0
 40
1
 40
1
 40
1
 40
1
 10
16.426404
 20
247.474537
 30
0.0
 10
16.426404
 20
247.747846
 30
0.0
 10
16.329941
 20
247.970629
 30
0.0
 10
16.137016
 20
248.142885
 30
0.0
  0
SPLINE
  5
1e3
100
AcDbEntity
  8
150215_pen_stand
 62
1
100
AcDbSpline
 70
8
 71
3
 72
8
 73
4
 74
0
 40
0
 40
0
 40
0
 40
0
 40
1
 40
1
 40
1
 40
1
 10
16.137016
 20
248.142885
 30
0.0
 10
15.946387
 20
248.315140
 30
0.0
 10
15.697192
 20
248.401267
 30
0.0
 10
15.389430
 20
248.401267
 30
0.0
  0
SPLINE
  5
1e4
100
AcDbEntity
  8
150215_pen_stand
 62
1
100
AcDbSpline
 70
8
 71
3
 72
8
 73
4
 74
0
 40
0
 40
0
 40
0
 40
0
 40
1
 40
1
 40
1
 40
1
 10
15.389430
 20
248.401267
 30
0.0
 10
15.171241
 20
248.401267
 30
0.0
 10
14.940419
 20
248.363370
 30
0.0
 10
14.696966
 20
248.287577
 30
0.0
  0
SPLINE
  5
1e5
100
AcDbEntity
  8
150215_pen_stand
 62
1
100
AcDbSpline
 70
8
 71
3
 72
8
 73
4
 74
0
 40
0
 40
0
 40
0
 40
0
 40
1
 40
1
 40
1
 40
1
 10
14.696966
 20
248.287577
 30
0.0
 10
14.455809
 20
248.211787
 30
0.0
 10
14.197427
 20
248.096950
 30
0.0
 10
13.921819
 20
247.943069
 30
0.0
  0
LWPOLYLINE
  5
1e6
100
AcDbEntity
  8
150215_pen_stand
 62
1
100
AcDbPolyline
 90
5
 70
1
 10
14.724526
 20
244.336053
 30
0.0
 10
17.153319
 20
244.336053
 30
0.0
 10
17.153319
 20
243.750386
 30
0.0
 10
13.887368
 20
243.750386
 30
0.0
 10
13.887368
 20
244.336053
 30
0.0
  0
SPLINE
  5
1e7
100
AcDbEntity
  8
150215_pen_stand
 62
1
100
AcDbSpline
 70
8
 71
3
 72
8
 73
4
 74
0
 40
0
 40
0
 40
0
 40
0
 40
1
 40
1
 40
1
 40
1
 10
13.921819
 20
248.645869
 30
0.0
 10
14.202020
 20
248.758407
 30
0.0
 10
14.463848
 20
248.843386
 30
0.0
 10
14.707301
 20
248.900804
 30
0.0
  0
SPLINE
  5
1e8
100
AcDbEntity
  8
150215_pen_stand
 62
1
100
AcDbSpline
 70
8
 71
3
 72
8
 73
4
 74
0
 40
0
 40
0
 40
0
 40
0
 40
1
 40
1
 40
1
 40
1
 10
14.707301
 20
248.900804
 30
0.0
 10
14.950754
 20
248.958222
 30
0.0
 10
15.173537
 20
248.986931
 30
0.0
 10
15.375649
 20
248.986931
 30
0.0
  0
SPLINE
  5
1e9
100
AcDbEntity
  8
150215_pen_stand
 62
1
100
AcDbSpline
 70
8
 71
3
 72
8
 73
4
 74
0
 40
0
 40
0
 40
0
 40
0
 40
1
 40
1
 40
1
 40
1
 10
15.375649
 20
248.986931
 30
0.0
 10
15.908491
 20
248.986931
 30
0.0
 10
16.333386
 20
248.853721
 30
0.0
 10
16.650335
 20
248.587301
 30
0.0
  0
SPLINE
  5
1ea
100
AcDbEntity
  8
150215_pen_stand
 62
1
100
AcDbSpline
 70
8
 71
3
 72
8
 73
4
 74
0
 40
0
 40
0
 40
0
 40
0
 40
1
 40
1
 40
1
 40
1
 10
16.650335
 20
248.587301
 30
0.0
 10
16.967284
 20
248.320881
 30
0.0
 10
17.125758
 20
247.964888
 30
0.0
 10
17.125758
 20
247.519323
 30
0.0
  0
SPLINE
  5
1eb
100
AcDbEntity
  8
150215_pen_stand
 62
1
100
AcDbSpline
 70
8
 71
3
 72
8
 73
4
 74
0
 40
0
 40
0
 40
0
 40
0
 40
1
 40
1
 40
1
 40
1
 10
17.125758
 20
247.519323
 30
0.0
 10
17.125758
 20
247.308023
 30
0.0
 10
17.085565
 20
247.107058
 30
0.0
 10
17.005180
 20
246.916429
 30
0.0
  0
SPLINE
  5
1ec
100
AcDbEntity
  8
150215_pen_stand
 62
1
100
AcDbSpline
 70
8
 71
3
 72
8
 73
4
 74
0
 40
0
 40
0
 40
0
 40
0
 40
1
 40
1
 40
1
 40
1
 10
17.005180
 20
246.916429
 30
0.0
 10
16.927091
 20
246.728097
 30
0.0
 10
16.783545
 20
246.505315
 30
0.0
 10
16.574543
 20
246.248081
 30
0.0
  0
SPLINE
  5
1ed
100
AcDbEntity
  8
150215_pen_stand
 62
1
100
AcDbSpline
 70
8
 71
3
 72
8
 73
4
 74
0
 40
0
 40
0
 40
0
 40
0
 40
1
 40
1
 40
1
 40
1
 10
16.574543
 20
246.248081
 30
0.0
 10
16.517124
 20
246.181476
 30
0.0
 10
16.334534
 20
245.988552
 30
0.0
 10
16.026773
 20
245.669306
 30
0.0
  0
SPLINE
  5
1ee
100
AcDbEntity
  8
150215_pen_stand
 62
1
100
AcDbSpline
 70
8
 71
3
 72
8
 73
4
 74
0
 40
0
 40
0
 40
0
 40
0
 40
1
 40
1
 40
1
 40
1
 10
16.026773
 20
245.669306
 30
0.0
 10
15.719011
 20
245.352357
 30
0.0
 10
15.284929
 20
244.907939
 30
0.0
 10
14.724526
 20
244.336053
 30
0.0
  0
LWPOLYLINE
  5
1ef
100
AcDbEntity
  8
150215_pen_stand
 62
1
100
AcDbPolyline
 90
2
 70
1
 10
13.921819
 20
247.943069
 30
0.0
 10
13.921819
 20
248.645869
 30
0.0
  0
SPLINE
  5
1f0
100
AcDbEntity
  8
150215_pen_stand
 62
1
100
AcDbSpline
 70
8
 71
3
 72
8
 73
4
 74
0
 40
0
 40
0
 40
0
 40
0
 40
1
 40
1
 40
1
 40
1
 10
20.191893
 20
246.599483
 30
0.0
 10
19.879538
 20
246.599483
 30
0.0
 10
19.631491
 20
246.492684
 30
0.0
 10
19.447752
 20
246.279086
 30
0.0
  0
SPLINE
  5
1f1
100
AcDbEntity
  8
150215_pen_stand
 62
1
100
AcDbSpline
 70
8
 71
3
 72
8
 73
4
 74
0
 40
0
 40
0
 40
0
 40
0
 40
1
 40
1
 40
1
 40
1
 10
19.447752
 20
246.279086
 30
0.0
 10
19.266311
 20
246.065491
 30
0.0
 10
19.175590
 20
245.772659
 30
0.0
 10
19.175590
 20
245.400589
 30
0.0
  0
SPLINE
  5
1f2
100
AcDbEntity
  8
150215_pen_stand
 62
1
100
AcDbSpline
 70
8
 71
3
 72
8
 73
4
 74
0
 40
0
 40
0
 40
0
 40
0
 40
1
 40
1
 40
1
 40
1
 10
19.175590
 20
245.400589
 30
0.0
 10
19.175590
 20
245.030814
 30
0.0
 10
19.266311
 20
244.737980
 30
0.0
 10
19.447752
 20
244.522087
 30
0.0
  0
SPLINE
  5
1f3
100
AcDbEntity
  8
150215_pen_stand
 62
1
100
AcDbSpline
 70
8
 71
3
 72
8
 73
4
 74
0
 40
0
 40
0
 40
0
 40
0
 40
1
 40
1
 40
1
 40
1
 10
19.447752
 20
244.522087
 30
0.0
 10
19.631491
 20
244.308492
 30
0.0
 10
19.879538
 20
244.201694
 30
0.0
 10
20.191893
 20
244.201694
 30
0.0
  0
SPLINE
  5
1f4
100
AcDbEntity
  8
150215_pen_stand
 62
1
100
AcDbSpline
 70
8
 71
3
 72
8
 73
4
 74
0
 40
0
 40
0
 40
0
 40
0
 40
1
 40
1
 40
1
 40
1
 10
20.191893
 20
244.201694
 30
0.0
 10
20.504248
 20
244.201694
 30
0.0
 10
20.751147
 20
244.308492
 30
0.0
 10
20.932589
 20
244.522087
 30
0.0
  0
SPLINE
  5
1f5
100
AcDbEntity
  8
150215_pen_stand
 62
1
100
AcDbSpline
 70
8
 71
3
 72
8
 73
4
 74
0
 40
0
 40
0
 40
0
 40
0
 40
1
 40
1
 40
1
 40
1
 10
20.932589
 20
244.522087
 30
0.0
 10
21.116327
 20
244.737980
 30
0.0
 10
21.208196
 20
245.030814
 30
0.0
 10
21.208196
 20
245.400589
 30
0.0
  0
SPLINE
  5
1f6
100
AcDbEntity
  8
150215_pen_stand
 62
1
100
AcDbSpline
 70
8
 71
3
 72
8
 73
4
 74
0
 40
0
 40
0
 40
0
 40
0
 40
1
 40
1
 40
1
 40
1
 10
21.208196
 20
245.400589
 30
0.0
 10
21.208196
 20
245.772659
 30
0.0
 10
21.116327
 20
246.065491
 30
0.0
 10
20.932589
 20
246.279086
 30
0.0
  0
SPLINE
  5
1f7
100
AcDbEntity
  8
150215_pen_stand
 62
1
100
AcDbSpline
 70
8
 71
3
 72
8
 73
4
 74
0
 40
0
 40
0
 40
0
 40
0
 40
1
 40
1
 40
1
 40
1
 10
20.932589
 20
246.279086
 30
0.0
 10
20.751147
 20
246.492684
 30
0.0
 10
20.504248
 20
246.599483
 30
0.0
 10
20.191893
 20
246.599483
 30
0.0
  0
LWPOLYLINE
  5
1f8
100
AcDbEntity
  8
150215_pen_stand
 62
1
100
AcDbPolyline
 90
2
 70
1
 10
14.724526
 20
244.336053
 30
0.0
 10
14.724526
 20
244.336053
 30
0.0
  0
LWPOLYLINE
  5
1f9
100
AcDbEntity
  8
150215_pen_stand
 62
1
100
AcDbPolyline
 90
2
 70
1
 10
20.191893
 20
246.599483
 30
0.0
 10
20.191893
 20
246.599483
 30
0.0
  0
SPLINE
  5
1fa
100
AcDbEntity
  8
150215_pen_stand
 62
1
100
AcDbSpline
 70
8
 71
3
 72
8
 73
4
 74
0
 40
0
 40
0
 40
0
 40
0
 40
1
 40
1
 40
1
 40
1
 10
21.573376
 20
248.146329
 30
0.0
 10
21.398825
 20
248.229010
 30
0.0
 10
21.221977
 20
248.292170
 30
0.0
 10
21.042832
 20
248.335809
 30
0.0
  0
SPLINE
  5
1fb
100
AcDbEntity
  8
150215_pen_stand
 62
1
100
AcDbSpline
 70
8
 71
3
 72
8
 73
4
 74
0
 40
0
 40
0
 40
0
 40
0
 40
1
 40
1
 40
1
 40
1
 10
21.042832
 20
248.335809
 30
0.0
 10
20.865983
 20
248.379448
 30
0.0
 10
20.690283
 20
248.401267
 30
0.0
 10
20.515732
 20
248.401267
 30
0.0
  0
SPLINE
  5
1fc
100
AcDbEntity
  8
150215_pen_stand
 62
1
100
AcDbSpline
 70
8
 71
3
 72
8
 73
4
 74
0
 40
0
 40
0
 40
0
 40
0
 40
1
 40
1
 40
1
 40
1
 10
20.515732
 20
248.401267
 30
0.0
 10
20.056386
 20
248.401267
 30
0.0
 10
19.704986
 20
248.246238
 30
0.0
 10
19.461533
 20
247.936179
 30
0.0
  0
SPLINE
  5
1fd
100
AcDbEntity
  8
150215_pen_stand
 62
1
100
AcDbSpline
 70
8
 71
3
 72
8
 73
4
 74
0
 40
0
 40
0
 40
0
 40
0
 40
1
 40
1
 40
1
 40
1
 10
19.461533
 20
247.936179
 30
0.0
 10
19.220376
 20
247.626120
 30
0.0
 10
19.082572
 20
247.157587
 30
0.0
 10
19.048121
 20
246.530578
 30
0.0
  0
SPLINE
  5
1fe
100
AcDbEntity
  8
150215_pen_stand
 62
1
100
AcDbSpline
 70
8
 71
3
 72
8
 73
4
 74
0
 40
0
 40
0
 40
0
 40
0
 40
1
 40
1
 40
1
 40
1
 10
19.048121
 20
246.530578
 30
0.0
 10
19.183629
 20
246.730394
 30
0.0
 10
19.353587
 20
246.883127
 30
0.0
 10
19.557995
 20
246.988777
 30
0.0
  0
SPLINE
  5
1ff
100
AcDbEntity
  8
150215_pen_stand
 62
1
100
AcDbSpline
 70
8
 71
3
 72
8
 73
4
 74
0
 40
0
 40
0
 40
0
 40
0
 40
1
 40
1
 40
1
 40
1
 10
19.557995
 20
246.988777
 30
0.0
 10
19.762405
 20
247.096724
 30
0.0
 10
19.987484
 20
247.150698
 30
0.0
 10
20.233234
 20
247.150698
 30
0.0
  0
SPLINE
  5
200
100
AcDbEntity
  8
150215_pen_stand
 62
1
100
AcDbSpline
 70
8
 71
3
 72
8
 73
4
 74
0
 40
0
 40
0
 40
0
 40
0
 40
1
 40
1
 40
1
 40
1
 10
20.233234
 20
247.150698
 30
0.0
 10
20.749998
 20
247.150698
 30
0.0
 10
21.157668
 20
246.993372
 30
0.0
 10
21.456243
 20
246.678720
 30
0.0
  0
SPLINE
  5
201
100
AcDbEntity
  8
150215_pen_stand
 62
1
100
AcDbSpline
 70
8
 71
3
 72
8
 73
4
 74
0
 40
0
 40
0
 40
0
 40
0
 40
1
 40
1
 40
1
 40
1
 10
21.456243
 20
246.678720
 30
0.0
 10
21.757115
 20
246.366364
 30
0.0
 10
21.907550
 20
245.940320
 30
0.0
 10
21.907550
 20
245.400589
 30
0.0
  0
SPLINE
  5
202
100
AcDbEntity
  8
150215_pen_stand
 62
1
100
AcDbSpline
 70
8
 71
3
 72
8
 73
4
 74
0
 40
0
 40
0
 40
0
 40
0
 40
1
 40
1
 40
1
 40
1
 10
21.907550
 20
245.400589
 30
0.0
 10
21.907550
 20
244.872342
 30
0.0
 10
21.751373
 20
244.448594
 30
0.0
 10
21.439017
 20
244.129347
 30
0.0
  0
SPLINE
  5
203
100
AcDbEntity
  8
150215_pen_stand
 62
1
100
AcDbSpline
 70
8
 71
3
 72
8
 73
4
 74
0
 40
0
 40
0
 40
0
 40
0
 40
1
 40
1
 40
1
 40
1
 10
21.439017
 20
244.129347
 30
0.0
 10
21.126662
 20
243.810102
 30
0.0
 10
20.710954
 20
243.650479
 30
0.0
 10
20.191893
 20
243.650479
 30
0.0
  0
SPLINE
  5
204
100
AcDbEntity
  8
150215_pen_stand
 62
1
100
AcDbSpline
 70
8
 71
3
 72
8
 73
4
 74
0
 40
0
 40
0
 40
0
 40
0
 40
1
 40
1
 40
1
 40
1
 10
20.191893
 20
243.650479
 30
0.0
 10
19.597040
 20
243.650479
 30
0.0
 10
19.142287
 20
243.877856
 30
0.0
 10
18.827635
 20
244.332610
 30
0.0
  0
SPLINE
  5
205
100
AcDbEntity
  8
150215_pen_stand
 62
1
100
AcDbSpline
 70
8
 71
3
 72
8
 73
4
 74
0
 40
0
 40
0
 40
0
 40
0
 40
1
 40
1
 40
1
 40
1
 10
18.827635
 20
244.332610
 30
0.0
 10
18.512983
 20
244.789657
 30
0.0
 10
18.355657
 20
245.451116
 30
0.0
 10
18.355657
 20
246.316985
 30
0.0
  0
SPLINE
  5
206
100
AcDbEntity
  8
150215_pen_stand
 62
1
100
AcDbSpline
 70
8
 71
3
 72
8
 73
4
 74
0
 40
0
 40
0
 40
0
 40
0
 40
1
 40
1
 40
1
 40
1
 10
18.355657
 20
246.316985
 30
0.0
 10
18.355657
 20
247.130028
 30
0.0
 10
18.548582
 20
247.777705
 30
0.0
 10
18.934433
 20
248.260018
 30
0.0
  0
SPLINE
  5
207
100
AcDbEntity
  8
150215_pen_stand
 62
1
100
AcDbSpline
 70
8
 71
3
 72
8
 73
4
 74
0
 40
0
 40
0
 40
0
 40
0
 40
1
 40
1
 40
1
 40
1
 10
18.934433
 20
248.260018
 30
0.0
 10
19.320284
 20
248.744627
 30
0.0
 10
19.838197
 20
248.986931
 30
0.0
 10
20.488171
 20
248.986931
 30
0.0
  0
SPLINE
  5
208
100
AcDbEntity
  8
150215_pen_stand
 62
1
100
AcDbSpline
 70
8
 71
3
 72
8
 73
4
 74
0
 40
0
 40
0
 40
0
 40
0
 40
1
 40
1
 40
1
 40
1
 10
20.488171
 20
248.986931
 30
0.0
 10
20.662723
 20
248.986931
 30
0.0
 10
20.838423
 20
248.969706
 30
0.0
 10
21.015271
 20
248.935256
 30
0.0
  0
SPLINE
  5
209
100
AcDbEntity
  8
150215_pen_stand
 62
1
100
AcDbSpline
 70
8
 71
3
 72
8
 73
4
 74
0
 40
0
 40
0
 40
0
 40
0
 40
1
 40
1
 40
1
 40
1
 10
21.015271
 20
248.935256
 30
0.0
 10
21.194416
 20
248.900806
 30
0.0
 10
21.380451
 20
248.849130
 30
0.0
 10
21.573376
 20
248.780228
 30
0.0
  0
LWPOLYLINE
  5
20a
100
AcDbEntity
  8
150215_pen_stand
 62
1
100
AcDbPolyline
 90
2
 70
1
 10
21.573376
 20
248.780228
 30
0.0
 10
21.573376
 20
248.146329
 30
0.0
  0
LWPOLYLINE
  5
20b
100
AcDbEntity
  8
150215_pen_stand
 62
1
100
AcDbPolyline
 90
2
 70
1
 10
21.573376
 20
248.780228
 30
0.0
 10
21.573376
 20
248.780228
 30
0.0
  0
SPLINE
  5
20c
100
AcDbEntity
  8
150215_pen_stand
 62
1
100
AcDbSpline
 70
8
 71
3
 72
8
 73
4
 74
0
 40
0
 40
0
 40
0
 40
0
 40
1
 40
1
 40
1
 40
1
 10
46.016732
 20
244.286100
 30
0.0
 10
46.280857
 20
244.559411
 30
0.0
 10
46.640295
 20
244.925739
 30
0.0
 10
47.095047
 20
245.385084
 30
0.0
  0
SPLINE
  5
20d
100
AcDbEntity
  8
150215_pen_stand
 62
1
100
AcDbSpline
 70
8
 71
3
 72
8
 73
4
 74
0
 40
0
 40
0
 40
0
 40
0
 40
1
 40
1
 40
1
 40
1
 10
47.095047
 20
245.385084
 30
0.0
 10
47.552096
 20
245.846727
 30
0.0
 10
47.839188
 20
246.144154
 30
0.0
 10
47.956322
 20
246.277365
 30
0.0
  0
SPLINE
  5
20e
100
AcDbEntity
  8
150215_pen_stand
 62
1
100
AcDbSpline
 70
8
 71
3
 72
8
 73
4
 74
0
 40
0
 40
0
 40
0
 40
0
 40
1
 40
1
 40
1
 40
1
 10
47.956322
 20
246.277365
 30
0.0
 10
48.179103
 20
246.527708
 30
0.0
 10
48.334133
 20
246.739008
 30
0.0
 10
48.421410
 20
246.911264
 30
0.0
  0
SPLINE
  5
20f
100
AcDbEntity
  8
150215_pen_stand
 62
1
100
AcDbSpline
 70
8
 71
3
 72
8
 73
4
 74
0
 40
0
 40
0
 40
0
 40
0
 40
1
 40
1
 40
1
 40
1
 10
48.421410
 20
246.911264
 30
0.0
 10
48.510983
 20
247.085814
 30
0.0
 10
48.555769
 20
247.256919
 30
0.0
 10
48.555769
 20
247.424581
 30
0.0
  0
SPLINE
  5
210
100
AcDbEntity
  8
150215_pen_stand
 62
1
100
AcDbSpline
 70
8
 71
3
 72
8
 73
4
 74
0
 40
0
 40
0
 40
0
 40
0
 40
1
 40
1
 40
1
 40
1
 10
48.555769
 20
247.424581
 30
0.0
 10
48.555769
 20
247.697892
 30
0.0
 10
48.459305
 20
247.920675
 30
0.0
 10
48.266378
 20
248.092932
 30
0.0
  0
SPLINE
  5
211
100
AcDbEntity
  8
150215_pen_stand
 62
1
100
AcDbSpline
 70
8
 71
3
 72
8
 73
4
 74
0
 40
0
 40
0
 40
0
 40
0
 40
1
 40
1
 40
1
 40
1
 10
48.266378
 20
248.092932
 30
0.0
 10
48.075751
 20
248.265186
 30
0.0
 10
47.826556
 20
248.351314
 30
0.0
 10
47.518793
 20
248.351314
 30
0.0
  0
SPLINE
  5
212
100
AcDbEntity
  8
150215_pen_stand
 62
1
100
AcDbSpline
 70
8
 71
3
 72
8
 73
4
 74
0
 40
0
 40
0
 40
0
 40
0
 40
1
 40
1
 40
1
 40
1
 10
47.518793
 20
248.351314
 30
0.0
 10
47.300604
 20
248.351314
 30
0.0
 10
47.069783
 20
248.313417
 30
0.0
 10
46.826329
 20
248.237624
 30
0.0
  0
SPLINE
  5
213
100
AcDbEntity
  8
150215_pen_stand
 62
1
100
AcDbSpline
 70
8
 71
3
 72
8
 73
4
 74
0
 40
0
 40
0
 40
0
 40
0
 40
1
 40
1
 40
1
 40
1
 10
46.826329
 20
248.237624
 30
0.0
 10
46.585172
 20
248.161833
 30
0.0
 10
46.326791
 20
248.046997
 30
0.0
 10
46.051184
 20
247.893115
 30
0.0
  0
LWPOLYLINE
  5
214
100
AcDbEntity
  8
150215_pen_stand
 62
1
100
AcDbPolyline
 90
5
 70
1
 10
46.853891
 20
244.286100
 30
0.0
 10
49.282682
 20
244.286100
 30
0.0
 10
49.282682
 20
243.700433
 30
0.0
 10
46.016732
 20
243.700433
 30
0.0
 10
46.016732
 20
244.286100
 30
0.0
  0
SPLINE
  5
215
100
AcDbEntity
  8
150215_pen_stand
 62
1
100
AcDbSpline
 70
8
 71
3
 72
8
 73
4
 74
0
 40
0
 40
0
 40
0
 40
0
 40
1
 40
1
 40
1
 40
1
 10
46.051184
 20
248.595916
 30
0.0
 10
46.331384
 20
248.708454
 30
0.0
 10
46.593211
 20
248.793432
 30
0.0
 10
46.836665
 20
248.850851
 30
0.0
  0
SPLINE
  5
216
100
AcDbEntity
  8
150215_pen_stand
 62
1
100
AcDbSpline
 70
8
 71
3
 72
8
 73
4
 74
0
 40
0
 40
0
 40
0
 40
0
 40
1
 40
1
 40
1
 40
1
 10
46.836665
 20
248.850851
 30
0.0
 10
47.080119
 20
248.908269
 30
0.0
 10
47.302902
 20
248.936978
 30
0.0
 10
47.505013
 20
248.936978
 30
0.0
  0
SPLINE
  5
217
100
AcDbEntity
  8
150215_pen_stand
 62
1
100
AcDbSpline
 70
8
 71
3
 72
8
 73
4
 74
0
 40
0
 40
0
 40
0
 40
0
 40
1
 40
1
 40
1
 40
1
 10
47.505013
 20
248.936978
 30
0.0
 10
48.037856
 20
248.936978
 30
0.0
 10
48.462751
 20
248.803768
 30
0.0
 10
48.779698
 20
248.537347
 30
0.0
  0
SPLINE
  5
218
100
AcDbEntity
  8
150215_pen_stand
 62
1
100
AcDbSpline
 70
8
 71
3
 72
8
 73
4
 74
0
 40
0
 40
0
 40
0
 40
0
 40
1
 40
1
 40
1
 40
1
 10
48.779698
 20
248.537347
 30
0.0
 10
49.096648
 20
248.270927
 30
0.0
 10
49.255123
 20
247.914935
 30
0.0
 10
49.255123
 20
247.469369
 30
0.0
  0
SPLINE
  5
219
100
AcDbEntity
  8
150215_pen_stand
 62
1
100
AcDbSpline
 70
8
 71
3
 72
8
 73
4
 74
0
 40
0
 40
0
 40
0
 40
0
 40
1
 40
1
 40
1
 40
1
 10
49.255123
 20
247.469369
 30
0.0
 10
49.255123
 20
247.258069
 30
0.0
 10
49.214929
 20
247.057105
 30
0.0
 10
49.134543
 20
246.866476
 30
0.0
  0
SPLINE
  5
21a
100
AcDbEntity
  8
150215_pen_stand
 62
1
100
AcDbSpline
 70
8
 71
3
 72
8
 73
4
 74
0
 40
0
 40
0
 40
0
 40
0
 40
1
 40
1
 40
1
 40
1
 10
49.134543
 20
246.866476
 30
0.0
 10
49.056455
 20
246.678144
 30
0.0
 10
48.912909
 20
246.455361
 30
0.0
 10
48.703907
 20
246.198127
 30
0.0
  0
SPLINE
  5
21b
100
AcDbEntity
  8
150215_pen_stand
 62
1
100
AcDbSpline
 70
8
 71
3
 72
8
 73
4
 74
0
 40
0
 40
0
 40
0
 40
0
 40
1
 40
1
 40
1
 40
1
 10
48.703907
 20
246.198127
 30
0.0
 10
48.646489
 20
246.131523
 30
0.0
 10
48.463898
 20
245.938598
 30
0.0
 10
48.156135
 20
245.619353
 30
0.0
  0
SPLINE
  5
21c
100
AcDbEntity
  8
150215_pen_stand
 62
1
100
AcDbSpline
 70
8
 71
3
 72
8
 73
4
 74
0
 40
0
 40
0
 40
0
 40
0
 40
1
 40
1
 40
1
 40
1
 10
48.156135
 20
245.619353
 30
0.0
 10
47.848374
 20
245.302403
 30
0.0
 10
47.414293
 20
244.857986
 30
0.0
 10
46.853891
 20
244.286100
 30
0.0
  0
LWPOLYLINE
  5
21d
100
AcDbEntity
  8
150215_pen_stand
 62
1
100
AcDbPolyline
 90
2
 70
1
 10
46.051184
 20
247.893115
 30
0.0
 10
46.051184
 20
248.595916
 30
0.0
  0
LWPOLYLINE
  5
21e
100
AcDbEntity
  8
150215_pen_stand
 62
1
100
AcDbPolyline
 90
2
 70
1
 10
46.853891
 20
244.286100
 30
0.0
 10
46.853891
 20
244.286100
 30
0.0
  0
LWPOLYLINE
  5
21f
100
AcDbEntity
  8
150215_pen_stand
 62
1
100
AcDbPolyline
 90
9
 70
1
 10
50.571150
 20
248.843961
 30
0.0
 10
53.878441
 20
248.843961
 30
0.0
 10
53.878441
 20
248.547684
 30
0.0
 10
52.011199
 20
243.700433
 30
0.0
 10
51.284283
 20
243.700433
 30
0.0
 10
53.041282
 20
248.258297
 30
0.0
 10
50.571150
 20
248.258297
 30
0.0
 10
50.571150
 20
248.843961
 30
0.0
 10
50.571150
 20
248.843961
 30
0.0
  0
SPLINE
  5
220
100
AcDbEntity
  8
150215_pen_stand
 62
1
100
AcDbSpline
 70
8
 71
3
 72
8
 73
4
 74
0
 40
0
 40
0
 40
0
 40
0
 40
1
 40
1
 40
1
 40
1
 10
81.139506
 20
244.336053
 30
0.0
 10
81.403631
 20
244.609364
 30
0.0
 10
81.763070
 20
244.975694
 30
0.0
 10
82.217824
 20
245.435041
 30
0.0
  0
SPLINE
  5
221
100
AcDbEntity
  8
150215_pen_stand
 62
1
100
AcDbSpline
 70
8
 71
3
 72
8
 73
4
 74
0
 40
0
 40
0
 40
0
 40
0
 40
1
 40
1
 40
1
 40
1
 10
82.217824
 20
245.435041
 30
0.0
 10
82.674872
 20
245.896684
 30
0.0
 10
82.961962
 20
246.194109
 30
0.0
 10
83.079096
 20
246.327318
 30
0.0
  0
SPLINE
  5
222
100
AcDbEntity
  8
150215_pen_stand
 62
1
100
AcDbSpline
 70
8
 71
3
 72
8
 73
4
 74
0
 40
0
 40
0
 40
0
 40
0
 40
1
 40
1
 40
1
 40
1
 10
83.079096
 20
246.327318
 30
0.0
 10
83.301880
 20
246.577663
 30
0.0
 10
83.456909
 20
246.788963
 30
0.0
 10
83.544184
 20
246.961218
 30
0.0
  0
SPLINE
  5
223
100
AcDbEntity
  8
150215_pen_stand
 62
1
100
AcDbSpline
 70
8
 71
3
 72
8
 73
4
 74
0
 40
0
 40
0
 40
0
 40
0
 40
1
 40
1
 40
1
 40
1
 10
83.544184
 20
246.961218
 30
0.0
 10
83.633757
 20
247.135767
 30
0.0
 10
83.678543
 20
247.306874
 30
0.0
 10
83.678543
 20
247.474537
 30
0.0
  0
SPLINE
  5
224
100
AcDbEntity
  8
150215_pen_stand
 62
1
100
AcDbSpline
 70
8
 71
3
 72
8
 73
4
 74
0
 40
0
 40
0
 40
0
 40
0
 40
1
 40
1
 40
1
 40
1
 10
83.678543
 20
247.474537
 30
0.0
 10
83.678543
 20
247.747846
 30
0.0
 10
83.582081
 20
247.970629
 30
0.0
 10
83.389156
 20
248.142885
 30
0.0
  0
SPLINE
  5
225
100
AcDbEntity
  8
150215_pen_stand
 62
1
100
AcDbSpline
 70
8
 71
3
 72
8
 73
4
 74
0
 40
0
 40
0
 40
0
 40
0
 40
1
 40
1
 40
1
 40
1
 10
83.389156
 20
248.142885
 30
0.0
 10
83.198527
 20
248.315140
 30
0.0
 10
82.949332
 20
248.401267
 30
0.0
 10
82.641571
 20
248.401267
 30
0.0
  0
SPLINE
  5
226
100
AcDbEntity
  8
150215_pen_stand
 62
1
100
AcDbSpline
 70
8
 71
3
 72
8
 73
4
 74
0
 40
0
 40
0
 40
0
 40
0
 40
1
 40
1
 40
1
 40
1
 10
82.641571
 20
248.401267
 30
0.0
 10
82.423380
 20
248.401267
 30
0.0
 10
82.192558
 20
248.363370
 30
0.0
 10
81.949107
 20
248.287577
 30
0.0
  0
SPLINE
  5
227
100
AcDbEntity
  8
150215_pen_stand
 62
1
100
AcDbSpline
 70
8
 71
3
 72
8
 73
4
 74
0
 40
0
 40
0
 40
0
 40
0
 40
1
 40
1
 40
1
 40
1
 10
81.949107
 20
248.287577
 30
0.0
 10
81.707950
 20
248.211787
 30
0.0
 10
81.449567
 20
248.096950
 30
0.0
 10
81.173959
 20
247.943069
 30
0.0
  0
LWPOLYLINE
  5
228
100
AcDbEntity
  8
150215_pen_stand
 62
1
100
AcDbPolyline
 90
5
 70
1
 10
81.976666
 20
244.336053
 30
0.0
 10
84.405459
 20
244.336053
 30
0.0
 10
84.405459
 20
243.750386
 30
0.0
 10
81.139506
 20
243.750386
 30
0.0
 10
81.139506
 20
244.336053
 30
0.0
  0
SPLINE
  5
229
100
AcDbEntity
  8
150215_pen_stand
 62
1
100
AcDbSpline
 70
8
 71
3
 72
8
 73
4
 74
0
 40
0
 40
0
 40
0
 40
0
 40
1
 40
1
 40
1
 40
1
 10
81.173959
 20
248.645869
 30
0.0
 10
81.454161
 20
248.758407
 30
0.0
 10
81.715987
 20
248.843386
 30
0.0
 10
81.959439
 20
248.900804
 30
0.0
  0
SPLINE
  5
22a
100
AcDbEntity
  8
150215_pen_stand
 62
1
100
AcDbSpline
 70
8
 71
3
 72
8
 73
4
 74
0
 40
0
 40
0
 40
0
 40
0
 40
1
 40
1
 40
1
 40
1
 10
81.959439
 20
248.900804
 30
0.0
 10
82.202894
 20
248.958222
 30
0.0
 10
82.425676
 20
248.986931
 30
0.0
 10
82.627787
 20
248.986931
 30
0.0
  0
SPLINE
  5
22b
100
AcDbEntity
  8
150215_pen_stand
 62
1
100
AcDbSpline
 70
8
 71
3
 72
8
 73
4
 74
0
 40
0
 40
0
 40
0
 40
0
 40
1
 40
1
 40
1
 40
1
 10
82.627787
 20
248.986931
 30
0.0
 10
83.160630
 20
248.986931
 30
0.0
 10
83.585526
 20
248.853721
 30
0.0
 10
83.902476
 20
248.587301
 30
0.0
  0
SPLINE
  5
22c
100
AcDbEntity
  8
150215_pen_stand
 62
1
100
AcDbSpline
 70
8
 71
3
 72
8
 73
4
 74
0
 40
0
 40
0
 40
0
 40
0
 40
1
 40
1
 40
1
 40
1
 10
83.902476
 20
248.587301
 30
0.0
 10
84.219423
 20
248.320881
 30
0.0
 10
84.377897
 20
247.964888
 30
0.0
 10
84.377897
 20
247.519323
 30
0.0
  0
SPLINE
  5
22d
100
AcDbEntity
  8
150215_pen_stand
 62
1
100
AcDbSpline
 70
8
 71
3
 72
8
 73
4
 74
0
 40
0
 40
0
 40
0
 40
0
 40
1
 40
1
 40
1
 40
1
 10
84.377897
 20
247.519323
 30
0.0
 10
84.377897
 20
247.308023
 30
0.0
 10
84.337705
 20
247.107058
 30
0.0
 10
84.257321
 20
246.916429
 30
0.0
  0
SPLINE
  5
22e
100
AcDbEntity
  8
150215_pen_stand
 62
1
100
AcDbSpline
 70
8
 71
3
 72
8
 73
4
 74
0
 40
0
 40
0
 40
0
 40
0
 40
1
 40
1
 40
1
 40
1
 10
84.257321
 20
246.916429
 30
0.0
 10
84.179230
 20
246.728097
 30
0.0
 10
84.035684
 20
246.505315
 30
0.0
 10
83.826682
 20
246.248081
 30
0.0
  0
SPLINE
  5
22f
100
AcDbEntity
  8
150215_pen_stand
 62
1
100
AcDbSpline
 70
8
 71
3
 72
8
 73
4
 74
0
 40
0
 40
0
 40
0
 40
0
 40
1
 40
1
 40
1
 40
1
 10
83.826682
 20
246.248081
 30
0.0
 10
83.769263
 20
246.181476
 30
0.0
 10
83.586674
 20
245.988552
 30
0.0
 10
83.278913
 20
245.669306
 30
0.0
  0
SPLINE
  5
230
100
AcDbEntity
  8
150215_pen_stand
 62
1
100
AcDbSpline
 70
8
 71
3
 72
8
 73
4
 74
0
 40
0
 40
0
 40
0
 40
0
 40
1
 40
1
 40
1
 40
1
 10
83.278913
 20
245.669306
 30
0.0
 10
82.971150
 20
245.352357
 30
0.0
 10
82.537067
 20
244.907939
 30
0.0
 10
81.976666
 20
244.336053
 30
0.0
  0
LWPOLYLINE
  5
231
100
AcDbEntity
  8
150215_pen_stand
 62
1
100
AcDbPolyline
 90
2
 70
1
 10
81.173959
 20
247.943069
 30
0.0
 10
81.173959
 20
248.645869
 30
0.0
  0
SPLINE
  5
232
100
AcDbEntity
  8
150215_pen_stand
 62
1
100
AcDbSpline
 70
8
 71
3
 72
8
 73
4
 74
0
 40
0
 40
0
 40
0
 40
0
 40
1
 40
1
 40
1
 40
1
 10
87.357906
 20
246.192959
 30
0.0
 10
87.027177
 20
246.192959
 30
0.0
 10
86.766498
 20
246.104535
 30
0.0
 10
86.575868
 20
245.927688
 30
0.0
  0
SPLINE
  5
233
100
AcDbEntity
  8
150215_pen_stand
 62
1
100
AcDbSpline
 70
8
 71
3
 72
8
 73
4
 74
0
 40
0
 40
0
 40
0
 40
0
 40
1
 40
1
 40
1
 40
1
 10
86.575868
 20
245.927688
 30
0.0
 10
86.387537
 20
245.750840
 30
0.0
 10
86.293371
 20
245.507387
 30
0.0
 10
86.293371
 20
245.197329
 30
0.0
  0
SPLINE
  5
234
100
AcDbEntity
  8
150215_pen_stand
 62
1
100
AcDbSpline
 70
8
 71
3
 72
8
 73
4
 74
0
 40
0
 40
0
 40
0
 40
0
 40
1
 40
1
 40
1
 40
1
 10
86.293371
 20
245.197329
 30
0.0
 10
86.293371
 20
244.887270
 30
0.0
 10
86.387537
 20
244.643816
 30
0.0
 10
86.575868
 20
244.466966
 30
0.0
  0
SPLINE
  5
235
100
AcDbEntity
  8
150215_pen_stand
 62
1
100
AcDbSpline
 70
8
 71
3
 72
8
 73
4
 74
0
 40
0
 40
0
 40
0
 40
0
 40
1
 40
1
 40
1
 40
1
 10
86.575868
 20
244.466966
 30
0.0
 10
86.766498
 20
244.290118
 30
0.0
 10
87.027177
 20
244.201694
 30
0.0
 10
87.357906
 20
244.201694
 30
0.0
  0
SPLINE
  5
236
100
AcDbEntity
  8
150215_pen_stand
 62
1
100
AcDbSpline
 70
8
 71
3
 72
8
 73
4
 74
0
 40
0
 40
0
 40
0
 40
0
 40
1
 40
1
 40
1
 40
1
 10
87.357906
 20
244.201694
 30
0.0
 10
87.688635
 20
244.201694
 30
0.0
 10
87.949313
 20
244.290118
 30
0.0
 10
88.139940
 20
244.466966
 30
0.0
  0
SPLINE
  5
237
100
AcDbEntity
  8
150215_pen_stand
 62
1
100
AcDbSpline
 70
8
 71
3
 72
8
 73
4
 74
0
 40
0
 40
0
 40
0
 40
0
 40
1
 40
1
 40
1
 40
1
 10
88.139940
 20
244.466966
 30
0.0
 10
88.330570
 20
244.646111
 30
0.0
 10
88.425884
 20
244.889565
 30
0.0
 10
88.425884
 20
245.197329
 30
0.0
  0
SPLINE
  5
238
100
AcDbEntity
  8
150215_pen_stand
 62
1
100
AcDbSpline
 70
8
 71
3
 72
8
 73
4
 74
0
 40
0
 40
0
 40
0
 40
0
 40
1
 40
1
 40
1
 40
1
 10
88.425884
 20
245.197329
 30
0.0
 10
88.425884
 20
245.507387
 30
0.0
 10
88.330570
 20
245.750840
 30
0.0
 10
88.139940
 20
245.927688
 30
0.0
  0
SPLINE
  5
239
100
AcDbEntity
  8
150215_pen_stand
 62
1
100
AcDbSpline
 70
8
 71
3
 72
8
 73
4
 74
0
 40
0
 40
0
 40
0
 40
0
 40
1
 40
1
 40
1
 40
1
 10
88.139940
 20
245.927688
 30
0.0
 10
87.951609
 20
246.104535
 30
0.0
 10
87.690931
 20
246.192959
 30
0.0
 10
87.357906
 20
246.192959
 30
0.0
  0
LWPOLYLINE
  5
23a
100
AcDbEntity
  8
150215_pen_stand
 62
1
100
AcDbPolyline
 90
2
 70
1
 10
81.976666
 20
244.336053
 30
0.0
 10
81.976666
 20
244.336053
 30
0.0
  0
SPLINE
  5
23b
100
AcDbEntity
  8
150215_pen_stand
 62
1
100
AcDbSpline
 70
8
 71
3
 72
8
 73
4
 74
0
 40
0
 40
0
 40
0
 40
0
 40
1
 40
1
 40
1
 40
1
 10
86.661995
 20
246.489240
 30
0.0
 10
86.363421
 20
246.562735
 30
0.0
 10
86.130303
 20
246.701687
 30
0.0
 10
85.962642
 20
246.906096
 30
0.0
  0
SPLINE
  5
23c
100
AcDbEntity
  8
150215_pen_stand
 62
1
100
AcDbSpline
 70
8
 71
3
 72
8
 73
4
 74
0
 40
0
 40
0
 40
0
 40
0
 40
1
 40
1
 40
1
 40
1
 10
85.962642
 20
246.906096
 30
0.0
 10
85.797276
 20
247.110505
 30
0.0
 10
85.714593
 20
247.359700
 30
0.0
 10
85.714593
 20
247.653681
 30
0.0
  0
SPLINE
  5
23d
100
AcDbEntity
  8
150215_pen_stand
 62
1
100
AcDbSpline
 70
8
 71
3
 72
8
 73
4
 74
0
 40
0
 40
0
 40
0
 40
0
 40
1
 40
1
 40
1
 40
1
 10
85.714593
 20
247.653681
 30
0.0
 10
85.714593
 20
248.064795
 30
0.0
 10
85.860436
 20
248.389782
 30
0.0
 10
86.152122
 20
248.628643
 30
0.0
  0
SPLINE
  5
23e
100
AcDbEntity
  8
150215_pen_stand
 62
1
100
AcDbSpline
 70
8
 71
3
 72
8
 73
4
 74
0
 40
0
 40
0
 40
0
 40
0
 40
1
 40
1
 40
1
 40
1
 10
86.152122
 20
248.628643
 30
0.0
 10
86.446104
 20
248.867502
 30
0.0
 10
86.848032
 20
248.986931
 30
0.0
 10
87.357906
 20
248.986931
 30
0.0
  0
SPLINE
  5
23f
100
AcDbEntity
  8
150215_pen_stand
 62
1
100
AcDbSpline
 70
8
 71
3
 72
8
 73
4
 74
0
 40
0
 40
0
 40
0
 40
0
 40
1
 40
1
 40
1
 40
1
 10
87.357906
 20
248.986931
 30
0.0
 10
87.870076
 20
248.986931
 30
0.0
 10
88.272004
 20
248.867502
 30
0.0
 10
88.563690
 20
248.628643
 30
0.0
  0
SPLINE
  5
240
100
AcDbEntity
  8
150215_pen_stand
 62
1
100
AcDbSpline
 70
8
 71
3
 72
8
 73
4
 74
0
 40
0
 40
0
 40
0
 40
0
 40
1
 40
1
 40
1
 40
1
 10
88.563690
 20
248.628643
 30
0.0
 10
88.855374
 20
248.389782
 30
0.0
 10
89.001215
 20
248.064795
 30
0.0
 10
89.001215
 20
247.653681
 30
0.0
  0
SPLINE
  5
241
100
AcDbEntity
  8
150215_pen_stand
 62
1
100
AcDbSpline
 70
8
 71
3
 72
8
 73
4
 74
0
 40
0
 40
0
 40
0
 40
0
 40
1
 40
1
 40
1
 40
1
 10
89.001215
 20
247.653681
 30
0.0
 10
89.001215
 20
247.359700
 30
0.0
 10
88.917385
 20
247.110505
 30
0.0
 10
88.749724
 20
246.906096
 30
0.0
  0
SPLINE
  5
242
100
AcDbEntity
  8
150215_pen_stand
 62
1
100
AcDbSpline
 70
8
 71
3
 72
8
 73
4
 74
0
 40
0
 40
0
 40
0
 40
0
 40
1
 40
1
 40
1
 40
1
 10
88.749724
 20
246.906096
 30
0.0
 10
88.584360
 20
246.701687
 30
0.0
 10
88.353539
 20
246.562735
 30
0.0
 10
88.057260
 20
246.489240
 30
0.0
  0
SPLINE
  5
243
100
AcDbEntity
  8
150215_pen_stand
 62
1
100
AcDbSpline
 70
8
 71
3
 72
8
 73
4
 74
0
 40
0
 40
0
 40
0
 40
0
 40
1
 40
1
 40
1
 40
1
 10
88.057260
 20
246.489240
 30
0.0
 10
88.392582
 20
246.411151
 30
0.0
 10
88.653261
 20
246.258418
 30
0.0
 10
88.839298
 20
246.031041
 30
0.0
  0
SPLINE
  5
244
100
AcDbEntity
  8
150215_pen_stand
 62
1
100
AcDbSpline
 70
8
 71
3
 72
8
 73
4
 74
0
 40
0
 40
0
 40
0
 40
0
 40
1
 40
1
 40
1
 40
1
 10
88.839298
 20
246.031041
 30
0.0
 10
89.027629
 20
245.803664
 30
0.0
 10
89.121795
 20
245.525760
 30
0.0
 10
89.121795
 20
245.197329
 30
0.0
  0
SPLINE
  5
245
100
AcDbEntity
  8
150215_pen_stand
 62
1
100
AcDbSpline
 70
8
 71
3
 72
8
 73
4
 74
0
 40
0
 40
0
 40
0
 40
0
 40
1
 40
1
 40
1
 40
1
 10
89.121795
 20
245.197329
 30
0.0
 10
89.121795
 20
244.698938
 30
0.0
 10
88.969062
 20
244.316532
 30
0.0
 10
88.663597
 20
244.050109
 30
0.0
  0
SPLINE
  5
246
100
AcDbEntity
  8
150215_pen_stand
 62
1
100
AcDbSpline
 70
8
 71
3
 72
8
 73
4
 74
0
 40
0
 40
0
 40
0
 40
0
 40
1
 40
1
 40
1
 40
1
 10
88.663597
 20
244.050109
 30
0.0
 10
88.360429
 20
243.783689
 30
0.0
 10
87.925199
 20
243.650479
 30
0.0
 10
87.357906
 20
243.650479
 30
0.0
  0
SPLINE
  5
247
100
AcDbEntity
  8
150215_pen_stand
 62
1
100
AcDbSpline
 70
8
 71
3
 72
8
 73
4
 74
0
 40
0
 40
0
 40
0
 40
0
 40
1
 40
1
 40
1
 40
1
 10
87.357906
 20
243.650479
 30
0.0
 10
86.790613
 20
243.650479
 30
0.0
 10
86.354234
 20
243.783689
 30
0.0
 10
86.048769
 20
244.050109
 30
0.0
  0
SPLINE
  5
248
100
AcDbEntity
  8
150215_pen_stand
 62
1
100
AcDbSpline
 70
8
 71
3
 72
8
 73
4
 74
0
 40
0
 40
0
 40
0
 40
0
 40
1
 40
1
 40
1
 40
1
 10
86.048769
 20
244.050109
 30
0.0
 10
85.745601
 20
244.316532
 30
0.0
 10
85.594017
 20
244.698938
 30
0.0
 10
85.594017
 20
245.197329
 30
0.0
  0
SPLINE
  5
249
100
AcDbEntity
  8
150215_pen_stand
 62
1
100
AcDbSpline
 70
8
 71
3
 72
8
 73
4
 74
0
 40
0
 40
0
 40
0
 40
0
 40
1
 40
1
 40
1
 40
1
 10
85.594017
 20
245.197329
 30
0.0
 10
85.594017
 20
245.525760
 30
0.0
 10
85.688183
 20
245.803664
 30
0.0
 10
85.876515
 20
246.031041
 30
0.0
  0
SPLINE
  5
24a
100
AcDbEntity
  8
150215_pen_stand
 62
1
100
AcDbSpline
 70
8
 71
3
 72
8
 73
4
 74
0
 40
0
 40
0
 40
0
 40
0
 40
1
 40
1
 40
1
 40
1
 10
85.876515
 20
246.031041
 30
0.0
 10
86.064846
 20
246.258418
 30
0.0
 10
86.326673
 20
246.411151
 30
0.0
 10
86.661995
 20
246.489240
 30
0.0
  0
LWPOLYLINE
  5
24b
100
AcDbEntity
  8
150215_pen_stand
 62
1
100
AcDbPolyline
 90
2
 70
1
 10
87.357906
 20
246.192959
 30
0.0
 10
87.357906
 20
246.192959
 30
0.0
  0
SPLINE
  5
24c
100
AcDbEntity
  8
150215_pen_stand
 62
1
100
AcDbSpline
 70
8
 71
3
 72
8
 73
4
 74
0
 40
0
 40
0
 40
0
 40
0
 40
1
 40
1
 40
1
 40
1
 10
86.407061
 20
247.588224
 30
0.0
 10
86.407061
 20
247.321803
 30
0.0
 10
86.489742
 20
247.113949
 30
0.0
 10
86.655106
 20
246.964661
 30
0.0
  0
SPLINE
  5
24d
100
AcDbEntity
  8
150215_pen_stand
 62
1
100
AcDbSpline
 70
8
 71
3
 72
8
 73
4
 74
0
 40
0
 40
0
 40
0
 40
0
 40
1
 40
1
 40
1
 40
1
 10
86.655106
 20
246.964661
 30
0.0
 10
86.822767
 20
246.815374
 30
0.0
 10
87.057034
 20
246.740731
 30
0.0
 10
87.357906
 20
246.740731
 30
0.0
  0
SPLINE
  5
24e
100
AcDbEntity
  8
150215_pen_stand
 62
1
100
AcDbSpline
 70
8
 71
3
 72
8
 73
4
 74
0
 40
0
 40
0
 40
0
 40
0
 40
1
 40
1
 40
1
 40
1
 10
87.357906
 20
246.740731
 30
0.0
 10
87.656481
 20
246.740731
 30
0.0
 10
87.889599
 20
246.815374
 30
0.0
 10
88.057260
 20
246.964661
 30
0.0
  0
SPLINE
  5
24f
100
AcDbEntity
  8
150215_pen_stand
 62
1
100
AcDbSpline
 70
8
 71
3
 72
8
 73
4
 74
0
 40
0
 40
0
 40
0
 40
0
 40
1
 40
1
 40
1
 40
1
 10
88.057260
 20
246.964661
 30
0.0
 10
88.227219
 20
247.113949
 30
0.0
 10
88.312198
 20
247.321803
 30
0.0
 10
88.312198
 20
247.588224
 30
0.0
  0
SPLINE
  5
250
100
AcDbEntity
  8
150215_pen_stand
 62
1
100
AcDbSpline
 70
8
 71
3
 72
8
 73
4
 74
0
 40
0
 40
0
 40
0
 40
0
 40
1
 40
1
 40
1
 40
1
 10
88.312198
 20
247.588224
 30
0.0
 10
88.312198
 20
247.854644
 30
0.0
 10
88.227219
 20
248.062498
 30
0.0
 10
88.057260
 20
248.211787
 30
0.0
  0
SPLINE
  5
251
100
AcDbEntity
  8
150215_pen_stand
 62
1
100
AcDbSpline
 70
8
 71
3
 72
8
 73
4
 74
0
 40
0
 40
0
 40
0
 40
0
 40
1
 40
1
 40
1
 40
1
 10
88.057260
 20
248.211787
 30
0.0
 10
87.889599
 20
248.361073
 30
0.0
 10
87.656481
 20
248.435716
 30
0.0
 10
87.357906
 20
248.435716
 30
0.0
  0
SPLINE
  5
252
100
AcDbEntity
  8
150215_pen_stand
 62
1
100
AcDbSpline
 70
8
 71
3
 72
8
 73
4
 74
0
 40
0
 40
0
 40
0
 40
0
 40
1
 40
1
 40
1
 40
1
 10
87.357906
 20
248.435716
 30
0.0
 10
87.057034
 20
248.435716
 30
0.0
 10
86.822767
 20
248.361073
 30
0.0
 10
86.655106
 20
248.211787
 30
0.0
  0
SPLINE
  5
253
100
AcDbEntity
  8
150215_pen_stand
 62
1
100
AcDbSpline
 70
8
 71
3
 72
8
 73
4
 74
0
 40
0
 40
0
 40
0
 40
0
 40
1
 40
1
 40
1
 40
1
 10
86.655106
 20
248.211787
 30
0.0
 10
86.489742
 20
248.062498
 30
0.0
 10
86.407061
 20
247.854644
 30
0.0
 10
86.407061
 20
247.588224
 30
0.0
  0
LWPOLYLINE
  5
254
100
AcDbEntity
  8
150215_pen_stand
 62
1
100
AcDbPolyline
 90
2
 70
1
 10
86.661995
 20
246.489240
 30
0.0
 10
86.661995
 20
246.489240
 30
0.0
  0
LWPOLYLINE
  5
255
100
AcDbEntity
  8
150215_pen_stand
 62
1
100
AcDbPolyline
 90
2
 70
1
 10
86.407061
 20
247.588224
 30
0.0
 10
86.407061
 20
247.588224
 30
0.0
  0
SPLINE
  5
256
100
AcDbEntity
  8
150215_pen_stand
 62
1
100
AcDbSpline
 70
8
 71
3
 72
8
 73
4
 74
0
 40
0
 40
0
 40
0
 40
0
 40
1
 40
1
 40
1
 40
1
 10
112.071506
 20
244.336053
 30
0.0
 10
112.335631
 20
244.609364
 30
0.0
 10
112.695069
 20
244.975694
 30
0.0
 10
113.149821
 20
245.435041
 30
0.0
  0
SPLINE
  5
257
100
AcDbEntity
  8
150215_pen_stand
 62
1
100
AcDbSpline
 70
8
 71
3
 72
8
 73
4
 74
0
 40
0
 40
0
 40
0
 40
0
 40
1
 40
1
 40
1
 40
1
 10
113.149821
 20
245.435041
 30
0.0
 10
113.606870
 20
245.896684
 30
0.0
 10
113.893962
 20
246.194109
 30
0.0
 10
114.011096
 20
246.327318
 30
0.0
  0
SPLINE
  5
258
100
AcDbEntity
  8
150215_pen_stand
 62
1
100
AcDbSpline
 70
8
 71
3
 72
8
 73
4
 74
0
 40
0
 40
0
 40
0
 40
0
 40
1
 40
1
 40
1
 40
1
 10
114.011096
 20
246.327318
 30
0.0
 10
114.233880
 20
246.577663
 30
0.0
 10
114.388909
 20
246.788963
 30
0.0
 10
114.476184
 20
246.961218
 30
0.0
  0
SPLINE
  5
259
100
AcDbEntity
  8
150215_pen_stand
 62
1
100
AcDbSpline
 70
8
 71
3
 72
8
 73
4
 74
0
 40
0
 40
0
 40
0
 40
0
 40
1
 40
1
 40
1
 40
1
 10
114.476184
 20
246.961218
 30
0.0
 10
114.565757
 20
247.135767
 30
0.0
 10
114.610543
 20
247.306874
 30
0.0
 10
114.610543
 20
247.474537
 30
0.0
  0
SPLINE
  5
25a
100
AcDbEntity
  8
150215_pen_stand
 62
1
100
AcDbSpline
 70
8
 71
3
 72
8
 73
4
 74
0
 40
0
 40
0
 40
0
 40
0
 40
1
 40
1
 40
1
 40
1
 10
114.610543
 20
247.474537
 30
0.0
 10
114.610543
 20
247.747846
 30
0.0
 10
114.514081
 20
247.970629
 30
0.0
 10
114.321156
 20
248.142885
 30
0.0
  0
SPLINE
  5
25b
100
AcDbEntity
  8
150215_pen_stand
 62
1
100
AcDbSpline
 70
8
 71
3
 72
8
 73
4
 74
0
 40
0
 40
0
 40
0
 40
0
 40
1
 40
1
 40
1
 40
1
 10
114.321156
 20
248.142885
 30
0.0
 10
114.130527
 20
248.315140
 30
0.0
 10
113.881332
 20
248.401267
 30
0.0
 10
113.573571
 20
248.401267
 30
0.0
  0
SPLINE
  5
25c
100
AcDbEntity
  8
150215_pen_stand
 62
1
100
AcDbSpline
 70
8
 71
3
 72
8
 73
4
 74
0
 40
0
 40
0
 40
0
 40
0
 40
1
 40
1
 40
1
 40
1
 10
113.573571
 20
248.401267
 30
0.0
 10
113.355380
 20
248.401267
 30
0.0
 10
113.124559
 20
248.363370
 30
0.0
 10
112.881107
 20
248.287577
 30
0.0
  0
SPLINE
  5
25d
100
AcDbEntity
  8
150215_pen_stand
 62
1
100
AcDbSpline
 70
8
 71
3
 72
8
 73
4
 74
0
 40
0
 40
0
 40
0
 40
0
 40
1
 40
1
 40
1
 40
1
 10
112.881107
 20
248.287577
 30
0.0
 10
112.639950
 20
248.211787
 30
0.0
 10
112.381567
 20
248.096950
 30
0.0
 10
112.105959
 20
247.943069
 30
0.0
  0
LWPOLYLINE
  5
25e
100
AcDbEntity
  8
150215_pen_stand
 62
1
100
AcDbPolyline
 90
5
 70
1
 10
112.908666
 20
244.336053
 30
0.0
 10
115.337459
 20
244.336053
 30
0.0
 10
115.337459
 20
243.750386
 30
0.0
 10
112.071506
 20
243.750386
 30
0.0
 10
112.071506
 20
244.336053
 30
0.0
  0
SPLINE
  5
25f
100
AcDbEntity
  8
150215_pen_stand
 62
1
100
AcDbSpline
 70
8
 71
3
 72
8
 73
4
 74
0
 40
0
 40
0
 40
0
 40
0
 40
1
 40
1
 40
1
 40
1
 10
112.105959
 20
248.645869
 30
0.0
 10
112.386161
 20
248.758407
 30
0.0
 10
112.647988
 20
248.843386
 30
0.0
 10
112.891439
 20
248.900804
 30
0.0
  0
SPLINE
  5
260
100
AcDbEntity
  8
150215_pen_stand
 62
1
100
AcDbSpline
 70
8
 71
3
 72
8
 73
4
 74
0
 40
0
 40
0
 40
0
 40
0
 40
1
 40
1
 40
1
 40
1
 10
112.891439
 20
248.900804
 30
0.0
 10
113.134894
 20
248.958222
 30
0.0
 10
113.357676
 20
248.986931
 30
0.0
 10
113.559788
 20
248.986931
 30
0.0
  0
SPLINE
  5
261
100
AcDbEntity
  8
150215_pen_stand
 62
1
100
AcDbSpline
 70
8
 71
3
 72
8
 73
4
 74
0
 40
0
 40
0
 40
0
 40
0
 40
1
 40
1
 40
1
 40
1
 10
113.559788
 20
248.986931
 30
0.0
 10
114.092630
 20
248.986931
 30
0.0
 10
114.517526
 20
248.853721
 30
0.0
 10
114.834476
 20
248.587301
 30
0.0
  0
SPLINE
  5
262
100
AcDbEntity
  8
150215_pen_stand
 62
1
100
AcDbSpline
 70
8
 71
3
 72
8
 73
4
 74
0
 40
0
 40
0
 40
0
 40
0
 40
1
 40
1
 40
1
 40
1
 10
114.834476
 20
248.587301
 30
0.0
 10
115.151423
 20
248.320881
 30
0.0
 10
115.309897
 20
247.964888
 30
0.0
 10
115.309897
 20
247.519323
 30
0.0
  0
SPLINE
  5
263
100
AcDbEntity
  8
150215_pen_stand
 62
1
100
AcDbSpline
 70
8
 71
3
 72
8
 73
4
 74
0
 40
0
 40
0
 40
0
 40
0
 40
1
 40
1
 40
1
 40
1
 10
115.309897
 20
247.519323
 30
0.0
 10
115.309897
 20
247.308023
 30
0.0
 10
115.269704
 20
247.107058
 30
0.0
 10
115.189317
 20
246.916429
 30
0.0
  0
SPLINE
  5
264
100
AcDbEntity
  8
150215_pen_stand
 62
1
100
AcDbSpline
 70
8
 71
3
 72
8
 73
4
 74
0
 40
0
 40
0
 40
0
 40
0
 40
1
 40
1
 40
1
 40
1
 10
115.189317
 20
246.916429
 30
0.0
 10
115.111229
 20
246.728097
 30
0.0
 10
114.967684
 20
246.505315
 30
0.0
 10
114.758682
 20
246.248081
 30
0.0
  0
SPLINE
  5
265
100
AcDbEntity
  8
150215_pen_stand
 62
1
100
AcDbSpline
 70
8
 71
3
 72
8
 73
4
 74
0
 40
0
 40
0
 40
0
 40
0
 40
1
 40
1
 40
1
 40
1
 10
114.758682
 20
246.248081
 30
0.0
 10
114.701264
 20
246.181476
 30
0.0
 10
114.518674
 20
245.988552
 30
0.0
 10
114.210913
 20
245.669306
 30
0.0
  0
SPLINE
  5
266
100
AcDbEntity
  8
150215_pen_stand
 62
1
100
AcDbSpline
 70
8
 71
3
 72
8
 73
4
 74
0
 40
0
 40
0
 40
0
 40
0
 40
1
 40
1
 40
1
 40
1
 10
114.210913
 20
245.669306
 30
0.0
 10
113.903150
 20
245.352357
 30
0.0
 10
113.469067
 20
244.907939
 30
0.0
 10
112.908666
 20
244.336053
 30
0.0
  0
LWPOLYLINE
  5
267
100
AcDbEntity
  8
150215_pen_stand
 62
1
100
AcDbPolyline
 90
2
 70
1
 10
112.105959
 20
247.943069
 30
0.0
 10
112.105959
 20
248.645869
 30
0.0
  0
LWPOLYLINE
  5
268
100
AcDbEntity
  8
150215_pen_stand
 62
1
100
AcDbPolyline
 90
2
 70
1
 10
112.908666
 20
244.336053
 30
0.0
 10
112.908666
 20
244.336053
 30
0.0
  0
SPLINE
  5
269
100
AcDbEntity
  8
150215_pen_stand
 62
1
100
AcDbSpline
 70
8
 71
3
 72
8
 73
4
 74
0
 40
0
 40
0
 40
0
 40
0
 40
1
 40
1
 40
1
 40
1
 10
116.822294
 20
244.491082
 30
0.0
 10
116.996846
 20
244.408400
 30
0.0
 10
117.173695
 20
244.345240
 30
0.0
 10
117.352840
 20
244.301601
 30
0.0
  0
SPLINE
  5
26a
100
AcDbEntity
  8
150215_pen_stand
 62
1
100
AcDbSpline
 70
8
 71
3
 72
8
 73
4
 74
0
 40
0
 40
0
 40
0
 40
0
 40
1
 40
1
 40
1
 40
1
 10
117.352840
 20
244.301601
 30
0.0
 10
117.531985
 20
244.257965
 30
0.0
 10
117.707685
 20
244.236147
 30
0.0
 10
117.879940
 20
244.236147
 30
0.0
  0
SPLINE
  5
26b
100
AcDbEntity
  8
150215_pen_stand
 62
1
100
AcDbSpline
 70
8
 71
3
 72
8
 73
4
 74
0
 40
0
 40
0
 40
0
 40
0
 40
1
 40
1
 40
1
 40
1
 10
117.879940
 20
244.236147
 30
0.0
 10
118.339284
 20
244.236147
 30
0.0
 10
118.689535
 20
244.390027
 30
0.0
 10
118.930692
 20
244.697788
 30
0.0
  0
SPLINE
  5
26c
100
AcDbEntity
  8
150215_pen_stand
 62
1
100
AcDbSpline
 70
8
 71
3
 72
8
 73
4
 74
0
 40
0
 40
0
 40
0
 40
0
 40
1
 40
1
 40
1
 40
1
 10
118.930692
 20
244.697788
 30
0.0
 10
119.174146
 20
245.007847
 30
0.0
 10
119.313098
 20
245.477528
 30
0.0
 10
119.347548
 20
246.106832
 30
0.0
  0
SPLINE
  5
26d
100
AcDbEntity
  8
150215_pen_stand
 62
1
100
AcDbSpline
 70
8
 71
3
 72
8
 73
4
 74
0
 40
0
 40
0
 40
0
 40
0
 40
1
 40
1
 40
1
 40
1
 10
119.347548
 20
246.106832
 30
0.0
 10
119.214339
 20
245.909314
 30
0.0
 10
119.045530
 20
245.757730
 30
0.0
 10
118.841121
 20
245.652080
 30
0.0
  0
SPLINE
  5
26e
100
AcDbEntity
  8
150215_pen_stand
 62
1
100
AcDbSpline
 70
8
 71
3
 72
8
 73
4
 74
0
 40
0
 40
0
 40
0
 40
0
 40
1
 40
1
 40
1
 40
1
 10
118.841121
 20
245.652080
 30
0.0
 10
118.636713
 20
245.546430
 30
0.0
 10
118.410484
 20
245.493606
 30
0.0
 10
118.162437
 20
245.493606
 30
0.0
  0
SPLINE
  5
26f
100
AcDbEntity
  8
150215_pen_stand
 62
1
100
AcDbSpline
 70
8
 71
3
 72
8
 73
4
 74
0
 40
0
 40
0
 40
0
 40
0
 40
1
 40
1
 40
1
 40
1
 10
118.162437
 20
245.493606
 30
0.0
 10
117.647969
 20
245.493606
 30
0.0
 10
117.240299
 20
245.648635
 30
0.0
 10
116.939427
 20
245.958694
 30
0.0
  0
SPLINE
  5
270
100
AcDbEntity
  8
150215_pen_stand
 62
1
100
AcDbSpline
 70
8
 71
3
 72
8
 73
4
 74
0
 40
0
 40
0
 40
0
 40
0
 40
1
 40
1
 40
1
 40
1
 10
116.939427
 20
245.958694
 30
0.0
 10
116.640852
 20
246.271050
 30
0.0
 10
116.491565
 20
246.697094
 30
0.0
 10
116.491565
 20
247.236825
 30
0.0
  0
SPLINE
  5
271
100
AcDbEntity
  8
150215_pen_stand
 62
1
100
AcDbSpline
 70
8
 71
3
 72
8
 73
4
 74
0
 40
0
 40
0
 40
0
 40
0
 40
1
 40
1
 40
1
 40
1
 10
116.491565
 20
247.236825
 30
0.0
 10
116.491565
 20
247.765072
 30
0.0
 10
116.647743
 20
248.188818
 30
0.0
 10
116.960100
 20
248.508063
 30
0.0
  0
SPLINE
  5
272
100
AcDbEntity
  8
150215_pen_stand
 62
1
100
AcDbSpline
 70
8
 71
3
 72
8
 73
4
 74
0
 40
0
 40
0
 40
0
 40
0
 40
1
 40
1
 40
1
 40
1
 10
116.960100
 20
248.508063
 30
0.0
 10
117.272454
 20
248.827308
 30
0.0
 10
117.688161
 20
248.986931
 30
0.0
 10
118.207222
 20
248.986931
 30
0.0
  0
SPLINE
  5
273
100
AcDbEntity
  8
150215_pen_stand
 62
1
100
AcDbSpline
 70
8
 71
3
 72
8
 73
4
 74
0
 40
0
 40
0
 40
0
 40
0
 40
1
 40
1
 40
1
 40
1
 10
118.207222
 20
248.986931
 30
0.0
 10
118.802076
 20
248.986931
 30
0.0
 10
119.255680
 20
248.758407
 30
0.0
 10
119.568034
 20
248.301360
 30
0.0
  0
SPLINE
  5
274
100
AcDbEntity
  8
150215_pen_stand
 62
1
100
AcDbSpline
 70
8
 71
3
 72
8
 73
4
 74
0
 40
0
 40
0
 40
0
 40
0
 40
1
 40
1
 40
1
 40
1
 10
119.568034
 20
248.301360
 30
0.0
 10
119.882686
 20
247.846606
 30
0.0
 10
120.040012
 20
247.185148
 30
0.0
 10
120.040012
 20
246.316985
 30
0.0
  0
SPLINE
  5
275
100
AcDbEntity
  8
150215_pen_stand
 62
1
100
AcDbSpline
 70
8
 71
3
 72
8
 73
4
 74
0
 40
0
 40
0
 40
0
 40
0
 40
1
 40
1
 40
1
 40
1
 10
120.040012
 20
246.316985
 30
0.0
 10
120.040012
 20
245.506238
 30
0.0
 10
119.847087
 20
244.858560
 30
0.0
 10
119.461238
 20
244.373949
 30
0.0
  0
SPLINE
  5
276
100
AcDbEntity
  8
150215_pen_stand
 62
1
100
AcDbSpline
 70
8
 71
3
 72
8
 73
4
 74
0
 40
0
 40
0
 40
0
 40
0
 40
1
 40
1
 40
1
 40
1
 10
119.461238
 20
244.373949
 30
0.0
 10
119.077684
 20
243.891636
 30
0.0
 10
118.560919
 20
243.650479
 30
0.0
 10
117.910945
 20
243.650479
 30
0.0
  0
SPLINE
  5
277
100
AcDbEntity
  8
150215_pen_stand
 62
1
100
AcDbSpline
 70
8
 71
3
 72
8
 73
4
 74
0
 40
0
 40
0
 40
0
 40
0
 40
1
 40
1
 40
1
 40
1
 10
117.910945
 20
243.650479
 30
0.0
 10
117.736393
 20
243.650479
 30
0.0
 10
117.559544
 20
243.667705
 30
0.0
 10
117.380399
 20
243.702158
 30
0.0
  0
SPLINE
  5
278
100
AcDbEntity
  8
150215_pen_stand
 62
1
100
AcDbSpline
 70
8
 71
3
 72
8
 73
4
 74
0
 40
0
 40
0
 40
0
 40
0
 40
1
 40
1
 40
1
 40
1
 10
117.380399
 20
243.702158
 30
0.0
 10
117.201254
 20
243.736608
 30
0.0
 10
117.015219
 20
243.788284
 30
0.0
 10
116.822294
 20
243.857186
 30
0.0
  0
LWPOLYLINE
  5
279
100
AcDbEntity
  8
150215_pen_stand
 62
1
100
AcDbPolyline
 90
2
 70
1
 10
116.822294
 20
243.857186
 30
0.0
 10
116.822294
 20
244.491082
 30
0.0
  0
SPLINE
  5
27a
100
AcDbEntity
  8
150215_pen_stand
 62
1
100
AcDbSpline
 70
8
 71
3
 72
8
 73
4
 74
0
 40
0
 40
0
 40
0
 40
0
 40
1
 40
1
 40
1
 40
1
 10
118.207222
 20
246.037931
 30
0.0
 10
118.519579
 20
246.037931
 30
0.0
 10
118.766477
 20
246.144729
 30
0.0
 10
118.947918
 20
246.358324
 30
0.0
  0
SPLINE
  5
27b
100
AcDbEntity
  8
150215_pen_stand
 62
1
100
AcDbSpline
 70
8
 71
3
 72
8
 73
4
 74
0
 40
0
 40
0
 40
0
 40
0
 40
1
 40
1
 40
1
 40
1
 10
118.947918
 20
246.358324
 30
0.0
 10
119.131656
 20
246.571921
 30
0.0
 10
119.223525
 20
246.864755
 30
0.0
 10
119.223525
 20
247.236825
 30
0.0
  0
SPLINE
  5
27c
100
AcDbEntity
  8
150215_pen_stand
 62
1
100
AcDbSpline
 70
8
 71
3
 72
8
 73
4
 74
0
 40
0
 40
0
 40
0
 40
0
 40
1
 40
1
 40
1
 40
1
 10
119.223525
 20
247.236825
 30
0.0
 10
119.223525
 20
247.606597
 30
0.0
 10
119.131656
 20
247.898282
 30
0.0
 10
118.947918
 20
248.111880
 30
0.0
  0
SPLINE
  5
27d
100
AcDbEntity
  8
150215_pen_stand
 62
1
100
AcDbSpline
 70
8
 71
3
 72
8
 73
4
 74
0
 40
0
 40
0
 40
0
 40
0
 40
1
 40
1
 40
1
 40
1
 10
118.947918
 20
248.111880
 30
0.0
 10
118.766477
 20
248.327770
 30
0.0
 10
118.519579
 20
248.435716
 30
0.0
 10
118.207222
 20
248.435716
 30
0.0
  0
SPLINE
  5
27e
100
AcDbEntity
  8
150215_pen_stand
 62
1
100
AcDbSpline
 70
8
 71
3
 72
8
 73
4
 74
0
 40
0
 40
0
 40
0
 40
0
 40
1
 40
1
 40
1
 40
1
 10
118.207222
 20
248.435716
 30
0.0
 10
117.894868
 20
248.435716
 30
0.0
 10
117.646822
 20
248.327770
 30
0.0
 10
117.463083
 20
248.111880
 30
0.0
  0
SPLINE
  5
27f
100
AcDbEntity
  8
150215_pen_stand
 62
1
100
AcDbSpline
 70
8
 71
3
 72
8
 73
4
 74
0
 40
0
 40
0
 40
0
 40
0
 40
1
 40
1
 40
1
 40
1
 10
117.463083
 20
248.111880
 30
0.0
 10
117.281640
 20
247.898282
 30
0.0
 10
117.190919
 20
247.606597
 30
0.0
 10
117.190919
 20
247.236825
 30
0.0
  0
SPLINE
  5
280
100
AcDbEntity
  8
150215_pen_stand
 62
1
100
AcDbSpline
 70
8
 71
3
 72
8
 73
4
 74
0
 40
0
 40
0
 40
0
 40
0
 40
1
 40
1
 40
1
 40
1
 10
117.190919
 20
247.236825
 30
0.0
 10
117.190919
 20
246.864755
 30
0.0
 10
117.281640
 20
246.571921
 30
0.0
 10
117.463083
 20
246.358324
 30
0.0
  0
SPLINE
  5
281
100
AcDbEntity
  8
150215_pen_stand
 62
1
100
AcDbSpline
 70
8
 71
3
 72
8
 73
4
 74
0
 40
0
 40
0
 40
0
 40
0
 40
1
 40
1
 40
1
 40
1
 10
117.463083
 20
246.358324
 30
0.0
 10
117.646822
 20
246.144729
 30
0.0
 10
117.894868
 20
246.037931
 30
0.0
 10
118.207222
 20
246.037931
 30
0.0
  0
LWPOLYLINE
  5
282
100
AcDbEntity
  8
150215_pen_stand
 62
1
100
AcDbPolyline
 90
2
 70
1
 10
116.822294
 20
243.857186
 30
0.0
 10
116.822294
 20
243.857186
 30
0.0
  0
SPLINE
  5
283
100
AcDbEntity
  8
150215_pen_stand
 62
1
100
AcDbSpline
 70
8
 71
3
 72
8
 73
4
 74
0
 40
0
 40
0
 40
0
 40
0
 40
1
 40
1
 40
1
 40
1
 10
147.544772
 20
246.523688
 30
0.0
 10
147.877799
 20
246.452491
 30
0.0
 10
148.137330
 20
246.304352
 30
0.0
 10
148.323363
 20
246.079273
 30
0.0
  0
SPLINE
  5
284
100
AcDbEntity
  8
150215_pen_stand
 62
1
100
AcDbSpline
 70
8
 71
3
 72
8
 73
4
 74
0
 40
0
 40
0
 40
0
 40
0
 40
1
 40
1
 40
1
 40
1
 10
148.323363
 20
246.079273
 30
0.0
 10
148.511695
 20
245.854194
 30
0.0
 10
148.605861
 20
245.576290
 30
0.0
 10
148.605861
 20
245.245560
 30
0.0
  0
SPLINE
  5
285
100
AcDbEntity
  8
150215_pen_stand
 62
1
100
AcDbSpline
 70
8
 71
3
 72
8
 73
4
 74
0
 40
0
 40
0
 40
0
 40
0
 40
1
 40
1
 40
1
 40
1
 10
148.605861
 20
245.245560
 30
0.0
 10
148.605861
 20
244.737981
 30
0.0
 10
148.431310
 20
244.345240
 30
0.0
 10
148.082208
 20
244.067336
 30
0.0
  0
SPLINE
  5
286
100
AcDbEntity
  8
150215_pen_stand
 62
1
100
AcDbSpline
 70
8
 71
3
 72
8
 73
4
 74
0
 40
0
 40
0
 40
0
 40
0
 40
1
 40
1
 40
1
 40
1
 10
148.082208
 20
244.067336
 30
0.0
 10
147.733104
 20
243.789431
 30
0.0
 10
147.237010
 20
243.650479
 30
0.0
 10
146.593927
 20
243.650479
 30
0.0
  0
SPLINE
  5
287
100
AcDbEntity
  8
150215_pen_stand
 62
1
100
AcDbSpline
 70
8
 71
3
 72
8
 73
4
 74
0
 40
0
 40
0
 40
0
 40
0
 40
1
 40
1
 40
1
 40
1
 10
146.593927
 20
243.650479
 30
0.0
 10
146.378034
 20
243.650479
 30
0.0
 10
146.155251
 20
243.672299
 30
0.0
 10
145.925579
 20
243.715937
 30
0.0
  0
SPLINE
  5
288
100
AcDbEntity
  8
150215_pen_stand
 62
1
100
AcDbSpline
 70
8
 71
3
 72
8
 73
4
 74
0
 40
0
 40
0
 40
0
 40
0
 40
1
 40
1
 40
1
 40
1
 10
145.925579
 20
243.715937
 30
0.0
 10
145.698202
 20
243.757278
 30
0.0
 10
145.462787
 20
243.820438
 30
0.0
 10
145.219335
 20
243.905418
 30
0.0
  0
LWPOLYLINE
  5
289
100
AcDbEntity
  8
150215_pen_stand
 62
1
100
AcDbPolyline
 90
2
 70
1
 10
118.207222
 20
246.037931
 30
0.0
 10
118.207222
 20
246.037931
 30
0.0
  0
SPLINE
  5
28a
100
AcDbEntity
  8
150215_pen_stand
 62
1
100
AcDbSpline
 70
8
 71
3
 72
8
 73
4
 74
0
 40
0
 40
0
 40
0
 40
0
 40
1
 40
1
 40
1
 40
1
 10
145.219335
 20
244.577209
 30
0.0
 10
145.412260
 20
244.464670
 30
0.0
 10
145.623559
 20
244.379692
 30
0.0
 10
145.853231
 20
244.322274
 30
0.0
  0
SPLINE
  5
28b
100
AcDbEntity
  8
150215_pen_stand
 62
1
100
AcDbSpline
 70
8
 71
3
 72
8
 73
4
 74
0
 40
0
 40
0
 40
0
 40
0
 40
1
 40
1
 40
1
 40
1
 10
145.853231
 20
244.322274
 30
0.0
 10
146.082904
 20
244.264856
 30
0.0
 10
146.322912
 20
244.236147
 30
0.0
 10
146.573258
 20
244.236147
 30
0.0
  0
SPLINE
  5
28c
100
AcDbEntity
  8
150215_pen_stand
 62
1
100
AcDbSpline
 70
8
 71
3
 72
8
 73
4
 74
0
 40
0
 40
0
 40
0
 40
0
 40
1
 40
1
 40
1
 40
1
 10
146.573258
 20
244.236147
 30
0.0
 10
147.009634
 20
244.236147
 30
0.0
 10
147.341511
 20
244.322274
 30
0.0
 10
147.568888
 20
244.494528
 30
0.0
  0
SPLINE
  5
28d
100
AcDbEntity
  8
150215_pen_stand
 62
1
100
AcDbSpline
 70
8
 71
3
 72
8
 73
4
 74
0
 40
0
 40
0
 40
0
 40
0
 40
1
 40
1
 40
1
 40
1
 10
147.568888
 20
244.494528
 30
0.0
 10
147.798561
 20
244.666783
 30
0.0
 10
147.913397
 20
244.917127
 30
0.0
 10
147.913397
 20
245.245560
 30
0.0
  0
SPLINE
  5
28e
100
AcDbEntity
  8
150215_pen_stand
 62
1
100
AcDbSpline
 70
8
 71
3
 72
8
 73
4
 74
0
 40
0
 40
0
 40
0
 40
0
 40
1
 40
1
 40
1
 40
1
 10
147.913397
 20
245.245560
 30
0.0
 10
147.913397
 20
245.548728
 30
0.0
 10
147.806599
 20
245.785290
 30
0.0
 10
147.593004
 20
245.955247
 30
0.0
  0
SPLINE
  5
28f
100
AcDbEntity
  8
150215_pen_stand
 62
1
100
AcDbSpline
 70
8
 71
3
 72
8
 73
4
 74
0
 40
0
 40
0
 40
0
 40
0
 40
1
 40
1
 40
1
 40
1
 10
147.593004
 20
245.955247
 30
0.0
 10
147.381704
 20
246.127504
 30
0.0
 10
147.086575
 20
246.213632
 30
0.0
 10
146.707617
 20
246.213632
 30
0.0
  0
LWPOLYLINE
  5
290
100
AcDbEntity
  8
150215_pen_stand
 62
1
100
AcDbPolyline
 90
2
 70
1
 10
145.219335
 20
243.905418
 30
0.0
 10
145.219335
 20
244.577209
 30
0.0
  0
SPLINE
  5
291
100
AcDbEntity
  8
150215_pen_stand
 62
1
100
AcDbSpline
 70
8
 71
3
 72
8
 73
4
 74
0
 40
0
 40
0
 40
0
 40
0
 40
1
 40
1
 40
1
 40
1
 10
146.735176
 20
246.785517
 30
0.0
 10
147.077389
 20
246.785517
 30
0.0
 10
147.339216
 20
246.853270
 30
0.0
 10
147.520656
 20
246.988777
 30
0.0
  0
SPLINE
  5
292
100
AcDbEntity
  8
150215_pen_stand
 62
1
100
AcDbSpline
 70
8
 71
3
 72
8
 73
4
 74
0
 40
0
 40
0
 40
0
 40
0
 40
1
 40
1
 40
1
 40
1
 10
147.520656
 20
246.988777
 30
0.0
 10
147.702099
 20
247.126581
 30
0.0
 10
147.792821
 20
247.324100
 30
0.0
 10
147.792821
 20
247.581334
 30
0.0
  0
SPLINE
  5
293
100
AcDbEntity
  8
150215_pen_stand
 62
1
100
AcDbSpline
 70
8
 71
3
 72
8
 73
4
 74
0
 40
0
 40
0
 40
0
 40
0
 40
1
 40
1
 40
1
 40
1
 10
147.792821
 20
247.581334
 30
0.0
 10
147.792821
 20
247.845459
 30
0.0
 10
147.698655
 20
248.047571
 30
0.0
 10
147.510324
 20
248.187671
 30
0.0
  0
SPLINE
  5
294
100
AcDbEntity
  8
150215_pen_stand
 62
1
100
AcDbSpline
 70
8
 71
3
 72
8
 73
4
 74
0
 40
0
 40
0
 40
0
 40
0
 40
1
 40
1
 40
1
 40
1
 10
147.510324
 20
248.187671
 30
0.0
 10
147.324287
 20
248.330068
 30
0.0
 10
147.056718
 20
248.401267
 30
0.0
 10
146.707617
 20
248.401267
 30
0.0
  0
SPLINE
  5
295
100
AcDbEntity
  8
150215_pen_stand
 62
1
100
AcDbSpline
 70
8
 71
3
 72
8
 73
4
 74
0
 40
0
 40
0
 40
0
 40
0
 40
1
 40
1
 40
1
 40
1
 10
146.707617
 20
248.401267
 30
0.0
 10
146.516987
 20
248.401267
 30
0.0
 10
146.312577
 20
248.380597
 30
0.0
 10
146.094386
 20
248.339256
 30
0.0
  0
SPLINE
  5
296
100
AcDbEntity
  8
150215_pen_stand
 62
1
100
AcDbSpline
 70
8
 71
3
 72
8
 73
4
 74
0
 40
0
 40
0
 40
0
 40
0
 40
1
 40
1
 40
1
 40
1
 10
146.094386
 20
248.339256
 30
0.0
 10
145.876198
 20
248.297915
 30
0.0
 10
145.636190
 20
248.233606
 30
0.0
 10
145.374364
 20
248.146329
 30
0.0
  0
LWPOLYLINE
  5
297
100
AcDbEntity
  8
150215_pen_stand
 62
1
100
AcDbPolyline
 90
4
 70
1
 10
146.707617
 20
246.213632
 30
0.0
 10
146.108170
 20
246.213632
 30
0.0
 10
146.108170
 20
246.785517
 30
0.0
 10
146.735176
 20
246.785517
 30
0.0
  0
SPLINE
  5
298
100
AcDbEntity
  8
150215_pen_stand
 62
1
100
AcDbSpline
 70
8
 71
3
 72
8
 73
4
 74
0
 40
0
 40
0
 40
0
 40
0
 40
1
 40
1
 40
1
 40
1
 10
145.374364
 20
248.766445
 30
0.0
 10
145.638488
 20
248.839940
 30
0.0
 10
145.885387
 20
248.895062
 30
0.0
 10
146.115059
 20
248.931809
 30
0.0
  0
SPLINE
  5
299
100
AcDbEntity
  8
150215_pen_stand
 62
1
100
AcDbSpline
 70
8
 71
3
 72
8
 73
4
 74
0
 40
0
 40
0
 40
0
 40
0
 40
1
 40
1
 40
1
 40
1
 10
146.115059
 20
248.931809
 30
0.0
 10
146.347029
 20
248.968557
 30
0.0
 10
146.565219
 20
248.986931
 30
0.0
 10
146.769628
 20
248.986931
 30
0.0
  0
SPLINE
  5
29a
100
AcDbEntity
  8
150215_pen_stand
 62
1
100
AcDbSpline
 70
8
 71
3
 72
8
 73
4
 74
0
 40
0
 40
0
 40
0
 40
0
 40
1
 40
1
 40
1
 40
1
 10
146.769628
 20
248.986931
 30
0.0
 10
147.297875
 20
248.986931
 30
0.0
 10
147.715879
 20
248.866353
 30
0.0
 10
148.023640
 20
248.625196
 30
0.0
  0
SPLINE
  5
29b
100
AcDbEntity
  8
150215_pen_stand
 62
1
100
AcDbSpline
 70
8
 71
3
 72
8
 73
4
 74
0
 40
0
 40
0
 40
0
 40
0
 40
1
 40
1
 40
1
 40
1
 10
148.023640
 20
248.625196
 30
0.0
 10
148.331403
 20
248.386337
 30
0.0
 10
148.485285
 20
248.062499
 30
0.0
 10
148.485285
 20
247.653681
 30
0.0
  0
SPLINE
  5
29c
100
AcDbEntity
  8
150215_pen_stand
 62
1
100
AcDbSpline
 70
8
 71
3
 72
8
 73
4
 74
0
 40
0
 40
0
 40
0
 40
0
 40
1
 40
1
 40
1
 40
1
 10
148.485285
 20
247.653681
 30
0.0
 10
148.485285
 20
247.368886
 30
0.0
 10
148.403751
 20
247.127730
 30
0.0
 10
148.240683
 20
246.930212
 30
0.0
  0
SPLINE
  5
29d
100
AcDbEntity
  8
150215_pen_stand
 62
1
100
AcDbSpline
 70
8
 71
3
 72
8
 73
4
 74
0
 40
0
 40
0
 40
0
 40
0
 40
1
 40
1
 40
1
 40
1
 10
148.240683
 20
246.930212
 30
0.0
 10
148.077615
 20
246.734989
 30
0.0
 10
147.845645
 20
246.599482
 30
0.0
 10
147.544772
 20
246.523688
 30
0.0
  0
LWPOLYLINE
  5
29e
100
AcDbEntity
  8
150215_pen_stand
 62
1
100
AcDbPolyline
 90
2
 70
1
 10
145.374364
 20
248.146329
 30
0.0
 10
145.374364
 20
248.766445
 30
0.0
  0
SPLINE
  5
29f
100
AcDbEntity
  8
150215_pen_stand
 62
1
100
AcDbSpline
 70
8
 71
3
 72
8
 73
4
 74
0
 40
0
 40
0
 40
0
 40
0
 40
1
 40
1
 40
1
 40
1
 10
151.417059
 20
248.435716
 30
0.0
 10
151.058771
 20
248.435716
 30
0.0
 10
150.788905
 20
248.258868
 30
0.0
 10
150.607462
 20
247.905173
 30
0.0
  0
SPLINE
  5
2a0
100
AcDbEntity
  8
150215_pen_stand
 62
1
100
AcDbSpline
 70
8
 71
3
 72
8
 73
4
 74
0
 40
0
 40
0
 40
0
 40
0
 40
1
 40
1
 40
1
 40
1
 10
150.607462
 20
247.905173
 30
0.0
 10
150.428317
 20
247.553774
 30
0.0
 10
150.338744
 20
247.024378
 30
0.0
 10
150.338744
 20
246.316985
 30
0.0
  0
SPLINE
  5
2a1
100
AcDbEntity
  8
150215_pen_stand
 62
1
100
AcDbSpline
 70
8
 71
3
 72
8
 73
4
 74
0
 40
0
 40
0
 40
0
 40
0
 40
1
 40
1
 40
1
 40
1
 10
150.338744
 20
246.316985
 30
0.0
 10
150.338744
 20
245.611888
 30
0.0
 10
150.428317
 20
245.082491
 30
0.0
 10
150.607462
 20
244.728794
 30
0.0
  0
SPLINE
  5
2a2
100
AcDbEntity
  8
150215_pen_stand
 62
1
100
AcDbSpline
 70
8
 71
3
 72
8
 73
4
 74
0
 40
0
 40
0
 40
0
 40
0
 40
1
 40
1
 40
1
 40
1
 10
150.607462
 20
244.728794
 30
0.0
 10
150.788905
 20
244.377394
 30
0.0
 10
151.058771
 20
244.201694
 30
0.0
 10
151.417059
 20
244.201694
 30
0.0
  0
SPLINE
  5
2a3
100
AcDbEntity
  8
150215_pen_stand
 62
1
100
AcDbSpline
 70
8
 71
3
 72
8
 73
4
 74
0
 40
0
 40
0
 40
0
 40
0
 40
1
 40
1
 40
1
 40
1
 10
151.417059
 20
244.201694
 30
0.0
 10
151.777647
 20
244.201694
 30
0.0
 10
152.047514
 20
244.377394
 30
0.0
 10
152.226659
 20
244.728794
 30
0.0
  0
SPLINE
  5
2a4
100
AcDbEntity
  8
150215_pen_stand
 62
1
100
AcDbSpline
 70
8
 71
3
 72
8
 73
4
 74
0
 40
0
 40
0
 40
0
 40
0
 40
1
 40
1
 40
1
 40
1
 10
152.226659
 20
244.728794
 30
0.0
 10
152.408100
 20
245.082491
 30
0.0
 10
152.498820
 20
245.611888
 30
0.0
 10
152.498820
 20
246.316985
 30
0.0
  0
SPLINE
  5
2a5
100
AcDbEntity
  8
150215_pen_stand
 62
1
100
AcDbSpline
 70
8
 71
3
 72
8
 73
4
 74
0
 40
0
 40
0
 40
0
 40
0
 40
1
 40
1
 40
1
 40
1
 10
152.498820
 20
246.316985
 30
0.0
 10
152.498820
 20
247.024378
 30
0.0
 10
152.408100
 20
247.553774
 30
0.0
 10
152.226659
 20
247.905173
 30
0.0
  0
SPLINE
  5
2a6
100
AcDbEntity
  8
150215_pen_stand
 62
1
100
AcDbSpline
 70
8
 71
3
 72
8
 73
4
 74
0
 40
0
 40
0
 40
0
 40
0
 40
1
 40
1
 40
1
 40
1
 10
152.226659
 20
247.905173
 30
0.0
 10
152.047514
 20
248.258868
 30
0.0
 10
151.777647
 20
248.435716
 30
0.0
 10
151.417059
 20
248.435716
 30
0.0
  0
LWPOLYLINE
  5
2a7
100
AcDbEntity
  8
150215_pen_stand
 62
1
100
AcDbPolyline
 90
2
 70
1
 10
147.544772
 20
246.523688
 30
0.0
 10
147.544772
 20
246.523688
 30
0.0
  0
SPLINE
  5
2a8
100
AcDbEntity
  8
150215_pen_stand
 62
1
100
AcDbSpline
 70
8
 71
3
 72
8
 73
4
 74
0
 40
0
 40
0
 40
0
 40
0
 40
1
 40
1
 40
1
 40
1
 10
151.417059
 20
248.986931
 30
0.0
 10
151.993540
 20
248.986931
 30
0.0
 10
152.433365
 20
248.758407
 30
0.0
 10
152.736532
 20
248.301360
 30
0.0
  0
SPLINE
  5
2a9
100
AcDbEntity
  8
150215_pen_stand
 62
1
100
AcDbSpline
 70
8
 71
3
 72
8
 73
4
 74
0
 40
0
 40
0
 40
0
 40
0
 40
1
 40
1
 40
1
 40
1
 10
152.736532
 20
248.301360
 30
0.0
 10
153.041998
 20
247.846606
 30
0.0
 10
153.194731
 20
247.185148
 30
0.0
 10
153.194731
 20
246.316985
 30
0.0
  0
SPLINE
  5
2aa
100
AcDbEntity
  8
150215_pen_stand
 62
1
100
AcDbSpline
 70
8
 71
3
 72
8
 73
4
 74
0
 40
0
 40
0
 40
0
 40
0
 40
1
 40
1
 40
1
 40
1
 10
153.194731
 20
246.316985
 30
0.0
 10
153.194731
 20
245.451116
 30
0.0
 10
153.041998
 20
244.789657
 30
0.0
 10
152.736532
 20
244.332610
 30
0.0
  0
SPLINE
  5
2ab
100
AcDbEntity
  8
150215_pen_stand
 62
1
100
AcDbSpline
 70
8
 71
3
 72
8
 73
4
 74
0
 40
0
 40
0
 40
0
 40
0
 40
1
 40
1
 40
1
 40
1
 10
152.736532
 20
244.332610
 30
0.0
 10
152.433365
 20
243.877856
 30
0.0
 10
151.993540
 20
243.650479
 30
0.0
 10
151.417059
 20
243.650479
 30
0.0
  0
SPLINE
  5
2ac
100
AcDbEntity
  8
150215_pen_stand
 62
1
100
AcDbSpline
 70
8
 71
3
 72
8
 73
4
 74
0
 40
0
 40
0
 40
0
 40
0
 40
1
 40
1
 40
1
 40
1
 10
151.417059
 20
243.650479
 30
0.0
 10
150.840580
 20
243.650479
 30
0.0
 10
150.399608
 20
243.877856
 30
0.0
 10
150.094142
 20
244.332610
 30
0.0
  0
SPLINE
  5
2ad
100
AcDbEntity
  8
150215_pen_stand
 62
1
100
AcDbSpline
 70
8
 71
3
 72
8
 73
4
 74
0
 40
0
 40
0
 40
0
 40
0
 40
1
 40
1
 40
1
 40
1
 10
150.094142
 20
244.332610
 30
0.0
 10
149.790974
 20
244.789657
 30
0.0
 10
149.639390
 20
245.451116
 30
0.0
 10
149.639390
 20
246.316985
 30
0.0
  0
SPLINE
  5
2ae
100
AcDbEntity
  8
150215_pen_stand
 62
1
100
AcDbSpline
 70
8
 71
3
 72
8
 73
4
 74
0
 40
0
 40
0
 40
0
 40
0
 40
1
 40
1
 40
1
 40
1
 10
149.639390
 20
246.316985
 30
0.0
 10
149.639390
 20
247.185148
 30
0.0
 10
149.790974
 20
247.846606
 30
0.0
 10
150.094142
 20
248.301360
 30
0.0
  0
SPLINE
  5
2af
100
AcDbEntity
  8
150215_pen_stand
 62
1
100
AcDbSpline
 70
8
 71
3
 72
8
 73
4
 74
0
 40
0
 40
0
 40
0
 40
0
 40
1
 40
1
 40
1
 40
1
 10
150.094142
 20
248.301360
 30
0.0
 10
150.399608
 20
248.758407
 30
0.0
 10
150.840580
 20
248.986931
 30
0.0
 10
151.417059
 20
248.986931
 30
0.0
  0
LWPOLYLINE
  5
2b0
100
AcDbEntity
  8
150215_pen_stand
 62
1
100
AcDbPolyline
 90
2
 70
1
 10
151.417059
 20
248.435716
 30
0.0
 10
151.417059
 20
248.435716
 30
0.0
  0
LWPOLYLINE
  5
2b1
100
AcDbEntity
  8
150215_pen_stand
 62
1
100
AcDbPolyline
 90
2
 70
1
 10
151.417059
 20
248.986931
 30
0.0
 10
151.417059
 20
248.986931
 30
0.0
  0
ENDSEC
  0
SECTION
  2
OBJECTS
  0
DICTIONARY
  5
C
330
0
100
AcDbDictionary
  3
ACAD_GROUP
350
D
  3
ACAD_MLINESTYLE
350
17
  0
DICTIONARY
  5
D
330
C
100
AcDbDictionary
  0
DICTIONARY
  5
1A
330
C
100
AcDbDictionary
  0
DICTIONARY
  5
17
330
C
100
AcDbDictionary
  3
STANDARD
350
18
  0
DICTIONARY
  5
19
330
C
100
AcDbDictionary
  0
ENDSEC
  0
EOF
