  0
SECTION
  2
HEADER
  9
$ACADVER
  1
AC1014
  9
$HANDSEED
  5
FFFF
  9
$MEASUREMENT
 70
     1
  0
ENDSEC
  0
SECTION
  2
TABLES
  0
TABLE
  2
VPORT
  5
8
330
0
100
AcDbSymbolTable
 70
     4
  0
VPORT
  5
2E
330
8
100
AcDbSymbolTableRecord
100
AcDbViewportTableRecord
  2
*ACTIVE
 70
     0
 10
0.0
 20
0.0
 11
1.0
 21
1.0
 12
210.0
 22
148.5
 13
0.0
 23
0.0
 14
10.0
 24
10.0
 15
10.0
 25
10.0
 16
0.0
 26
0.0
 36
1.0
 17
0.0
 27
0.0
 37
0.0
 40
341.0
 41
1.24
 42
50.0
 43
0.0
 44
0.0
 50
0.0
 51
0.0
 71
     0
 72
   100
 73
     1
 74
     3
 75
     0
 76
     0
 77
     0
 78
     0
  0
ENDTAB
  0
TABLE
  2
LTYPE
  5
5
330
0
100
AcDbSymbolTable
 70
     1
  0
LTYPE
  5
14
330
5
100
AcDbSymbolTableRecord
100
AcDbLinetypeTableRecord
  2
BYBLOCK
 70
     0
  3

 72
    65
 73
     0
 40
0.0
  0
LTYPE
  5
15
330
5
100
AcDbSymbolTableRecord
100
AcDbLinetypeTableRecord
  2
BYLAYER
 70
     0
  3

 72
    65
 73
     0
 40
0.0
  0
LTYPE
  5
16
330
5
100
AcDbSymbolTableRecord
100
AcDbLinetypeTableRecord
  2
CONTINUOUS
 70
     0
  3
Solid line
 72
    65
 73
     0
 40
0.0
  0
ENDTAB
  0
TABLE
  2
LAYER
  5
2
100
AcDbSymbolTable
 70
2
  0
LAYER
  5
50
100
AcDbSymbolTableRecord
100
AcDbLayerTableRecord
  2
0
 70
0
  6
CONTINUOUS
  0
LAYER
  5
51
100
AcDbSymbolTableRecord
100
AcDbLayerTableRecord
  2
Layer_1
 70
0
  6
CONTINUOUS
  0
ENDTAB
  0
TABLE
  2
STYLE
  5
3
330
0
100
AcDbSymbolTable
 70
     1
  0
STYLE
  5
11
330
3
100
AcDbSymbolTableRecord
100
AcDbTextStyleTableRecord
  2
STANDARD
 70
     0
 40
0.0
 41
1.0
 50
0.0
 71
     0
 42
2.5
  3
txt
  4

  0
ENDTAB
  0
TABLE
  2
VIEW
  5
6
330
0
100
AcDbSymbolTable
 70
     0
  0
ENDTAB
  0
TABLE
  2
UCS
  5
7
330
0
100
AcDbSymbolTable
 70
     0
  0
ENDTAB
  0
TABLE
  2
APPID
  5
9
330
0
100
AcDbSymbolTable
 70
     2
  0
APPID
  5
12
330
9
100
AcDbSymbolTableRecord
100
AcDbRegAppTableRecord
  2
ACAD
 70
     0
  0
ENDTAB
  0
TABLE
  2
DIMSTYLE
  5
A
330
0
100
AcDbSymbolTable
 70
     1
  0
DIMSTYLE
105
27
330
A
100
AcDbSymbolTableRecord
100
AcDbDimStyleTableRecord
  2
ISO-25
 70
     0
  3

  4

  5

  6

  7

 40
1.0
 41
2.5
 42
0.625
 43
3.75
 44
1.25
 45
0.0
 46
0.0
 47
0.0
 48
0.0
140
2.5
141
2.5
142
0.0
143
0.03937007874016
144
1.0
145
0.0
146
1.0
147
0.625
 71
     0
 72
     0
 73
     0
 74
     0
 75
     0
 76
     0
 77
     1
 78
     8
170
     0
171
     3
172
     1
173
     0
174
     0
175
     0
176
     0
177
     0
178
     0
270
     2
271
     2
272
     2
273
     2
274
     3
340
11
275
     0
280
     0
281
     0
282
     0
283
     0
284
     8
285
     0
286
     0
287
     3
288
     0
  0
ENDTAB
  0
TABLE
  2
BLOCK_RECORD
  5
1
330
0
100
AcDbSymbolTable
 70
     1
  0
BLOCK_RECORD
  5
1F
330
1
100
AcDbSymbolTableRecord
100
AcDbBlockTableRecord
  2
*MODEL_SPACE
  0
BLOCK_RECORD
  5
1B
330
1
100
AcDbSymbolTableRecord
100
AcDbBlockTableRecord
  2
*PAPER_SPACE
  0
ENDTAB
  0
ENDSEC
  0
SECTION
  2
BLOCKS
  0
BLOCK
  5
20
330
1F
100
AcDbEntity
  8
0
100
AcDbBlockBegin
  2
*MODEL_SPACE
 70
     0
 10
0.0
 20
0.0
 30
0.0
  3
*MODEL_SPACE
  1

  0
ENDBLK
  5
21
330
1F
100
AcDbEntity
  8
0
100
AcDbBlockEnd
  0
BLOCK
  5
1C
330
1B
100
AcDbEntity
 67
     1
  8
0
100
AcDbBlockBegin
  2
*PAPER_SPACE
  1

  0
ENDBLK
  5
1D
330
1B
100
AcDbEntity
 67
     1
  8
0
100
AcDbBlockEnd
  0
ENDSEC
  0
SECTION
  2
ENTITIES
  0
SPLINE
  5
100
100
AcDbEntity
  8
Layer_1
 62
7
100
AcDbSpline
 70
8
 71
3
 72
8
 73
4
 74
0
 40
0
 40
0
 40
0
 40
0
 40
1
 40
1
 40
1
 40
1
 10
154.107597
 20
-1.679842
 30
0.0
 10
154.016727
 20
-1.591111
 30
0.0
 10
152.924569
 20
-1.474695
 30
0.0
 10
151.680652
 20
-1.421157
 30
0.0
  0
SPLINE
  5
101
100
AcDbEntity
  8
Layer_1
 62
7
100
AcDbSpline
 70
8
 71
3
 72
8
 73
4
 74
0
 40
0
 40
0
 40
0
 40
0
 40
1
 40
1
 40
1
 40
1
 10
151.680652
 20
-1.421157
 30
0.0
 10
150.436696
 20
-1.367535
 30
0.0
 10
148.557753
 20
-1.246123
 30
0.0
 10
147.505191
 20
-1.151296
 30
0.0
  0
SPLINE
  5
102
100
AcDbEntity
  8
Layer_1
 62
7
100
AcDbSpline
 70
8
 71
3
 72
8
 73
4
 74
0
 40
0
 40
0
 40
0
 40
0
 40
1
 40
1
 40
1
 40
1
 10
147.505191
 20
-1.151296
 30
0.0
 10
146.452627
 20
-1.056498
 30
0.0
 10
145.082551
 20
-0.934804
 30
0.0
 10
144.460592
 20
-0.880843
 30
0.0
  0
SPLINE
  5
103
100
AcDbEntity
  8
Layer_1
 62
7
100
AcDbSpline
 70
8
 71
3
 72
8
 73
4
 74
0
 40
0
 40
0
 40
0
 40
0
 40
1
 40
1
 40
1
 40
1
 10
144.460592
 20
-0.880843
 30
0.0
 10
143.838634
 20
-0.826882
 30
0.0
 10
143.173162
 20
-0.711848
 30
0.0
 10
142.981807
 20
-0.625093
 30
0.0
  0
SPLINE
  5
104
100
AcDbEntity
  8
Layer_1
 62
7
100
AcDbSpline
 70
8
 71
3
 72
8
 73
4
 74
0
 40
0
 40
0
 40
0
 40
0
 40
1
 40
1
 40
1
 40
1
 10
142.981807
 20
-0.625093
 30
0.0
 10
142.508899
 20
-0.410830
 30
0.0
 10
141.318107
 20
-0.276774
 30
0.0
 10
138.623463
 20
-0.134365
 30
0.0
  0
SPLINE
  5
105
100
AcDbEntity
  8
Layer_1
 62
7
100
AcDbSpline
 70
8
 71
3
 72
8
 73
4
 74
0
 40
0
 40
0
 40
0
 40
0
 40
1
 40
1
 40
1
 40
1
 10
138.623463
 20
-0.134365
 30
0.0
 10
136.904431
 20
-0.043518
 30
0.0
 10
136.240243
 20
0.059578
 30
0.0
 10
135.889438
 20
0.290097
 30
0.0
  0
SPLINE
  5
106
100
AcDbEntity
  8
Layer_1
 62
7
100
AcDbSpline
 70
8
 71
3
 72
8
 73
4
 74
0
 40
0
 40
0
 40
0
 40
0
 40
1
 40
1
 40
1
 40
1
 10
135.889438
 20
0.290097
 30
0.0
 10
135.634589
 20
0.457512
 30
0.0
 10
135.204098
 20
0.594587
 30
0.0
 10
134.932801
 20
0.594587
 30
0.0
  0
SPLINE
  5
107
100
AcDbEntity
  8
Layer_1
 62
7
100
AcDbSpline
 70
8
 71
3
 72
8
 73
4
 74
0
 40
0
 40
0
 40
0
 40
0
 40
1
 40
1
 40
1
 40
1
 10
134.932801
 20
0.594587
 30
0.0
 10
134.661509
 20
0.594587
 30
0.0
 10
134.365179
 20
0.668557
 30
0.0
 10
134.274269
 20
0.759010
 30
0.0
  0
SPLINE
  5
108
100
AcDbEntity
  8
Layer_1
 62
7
100
AcDbSpline
 70
8
 71
3
 72
8
 73
4
 74
0
 40
0
 40
0
 40
0
 40
0
 40
1
 40
1
 40
1
 40
1
 10
134.274269
 20
0.759010
 30
0.0
 10
134.183366
 20
0.849434
 30
0.0
 10
133.052078
 20
0.963254
 30
0.0
 10
131.760301
 20
1.011881
 30
0.0
  0
SPLINE
  5
109
100
AcDbEntity
  8
Layer_1
 62
7
100
AcDbSpline
 70
8
 71
3
 72
8
 73
4
 74
0
 40
0
 40
0
 40
0
 40
0
 40
1
 40
1
 40
1
 40
1
 10
131.760301
 20
1.011881
 30
0.0
 10
130.468522
 20
1.060479
 30
0.0
 10
128.550413
 20
1.183246
 30
0.0
 10
127.497882
 20
1.284536
 30
0.0
  0
SPLINE
  5
10a
100
AcDbEntity
  8
Layer_1
 62
7
100
AcDbSpline
 70
8
 71
3
 72
8
 73
4
 74
0
 40
0
 40
0
 40
0
 40
0
 40
1
 40
1
 40
1
 40
1
 10
127.497882
 20
1.284536
 30
0.0
 10
126.445323
 20
1.385825
 30
0.0
 10
124.762074
 20
1.541386
 30
0.0
 10
123.757374
 20
1.630117
 30
0.0
  0
SPLINE
  5
10b
100
AcDbEntity
  8
Layer_1
 62
7
100
AcDbSpline
 70
8
 71
3
 72
8
 73
4
 74
0
 40
0
 40
0
 40
0
 40
0
 40
1
 40
1
 40
1
 40
1
 10
123.757374
 20
1.630117
 30
0.0
 10
121.345523
 20
1.843251
 30
0.0
 10
120.437989
 20
1.972876
 30
0.0
 10
120.016857
 20
2.164392
 30
0.0
  0
SPLINE
  5
10c
100
AcDbEntity
  8
Layer_1
 62
7
100
AcDbSpline
 70
8
 71
3
 72
8
 73
4
 74
0
 40
0
 40
0
 40
0
 40
0
 40
1
 40
1
 40
1
 40
1
 10
120.016857
 20
2.164392
 30
0.0
 10
119.825502
 20
2.251457
 30
0.0
 10
118.690297
 20
2.362991
 30
0.0
 10
117.494197
 20
2.412380
 30
0.0
  0
SPLINE
  5
10d
100
AcDbEntity
  8
Layer_1
 62
7
100
AcDbSpline
 70
8
 71
3
 72
8
 73
4
 74
0
 40
0
 40
0
 40
0
 40
0
 40
1
 40
1
 40
1
 40
1
 10
117.494197
 20
2.412380
 30
0.0
 10
113.801432
 20
2.564696
 30
0.0
 10
110.436440
 20
2.941688
 30
0.0
 10
110.262817
 20
3.222612
 30
0.0
  0
SPLINE
  5
10e
100
AcDbEntity
  8
Layer_1
 62
7
100
AcDbSpline
 70
8
 71
3
 72
8
 73
4
 74
0
 40
0
 40
0
 40
0
 40
0
 40
1
 40
1
 40
1
 40
1
 10
110.262817
 20
3.222612
 30
0.0
 10
110.209903
 20
3.308154
 30
0.0
 10
109.756332
 20
3.378201
 30
0.0
 10
109.254832
 20
3.378201
 30
0.0
  0
SPLINE
  5
10f
100
AcDbEntity
  8
Layer_1
 62
7
100
AcDbSpline
 70
8
 71
3
 72
8
 73
4
 74
0
 40
0
 40
0
 40
0
 40
0
 40
1
 40
1
 40
1
 40
1
 10
109.254832
 20
3.378201
 30
0.0
 10
108.753334
 20
3.378201
 30
0.0
 10
108.268640
 20
3.449886
 30
0.0
 10
108.177773
 20
3.537487
 30
0.0
  0
SPLINE
  5
110
100
AcDbEntity
  8
Layer_1
 62
7
100
AcDbSpline
 70
8
 71
3
 72
8
 73
4
 74
0
 40
0
 40
0
 40
0
 40
0
 40
1
 40
1
 40
1
 40
1
 10
108.177773
 20
3.537487
 30
0.0
 10
108.086866
 20
3.625089
 30
0.0
 10
107.229577
 20
3.737809
 30
0.0
 10
106.272691
 20
3.787847
 30
0.0
  0
SPLINE
  5
111
100
AcDbEntity
  8
Layer_1
 62
7
100
AcDbSpline
 70
8
 71
3
 72
8
 73
4
 74
0
 40
0
 40
0
 40
0
 40
0
 40
1
 40
1
 40
1
 40
1
 10
106.272691
 20
3.787847
 30
0.0
 10
105.315845
 20
3.837913
 30
0.0
 10
104.063202
 20
3.966860
 30
0.0
 10
103.489097
 20
4.074330
 30
0.0
  0
SPLINE
  5
112
100
AcDbEntity
  8
Layer_1
 62
7
100
AcDbSpline
 70
8
 71
3
 72
8
 73
4
 74
0
 40
0
 40
0
 40
0
 40
0
 40
1
 40
1
 40
1
 40
1
 10
103.489097
 20
4.074330
 30
0.0
 10
102.914961
 20
4.181801
 30
0.0
 10
101.779753
 20
4.338293
 30
0.0
 10
100.966403
 20
4.422028
 30
0.0
  0
SPLINE
  5
113
100
AcDbEntity
  8
Layer_1
 62
7
100
AcDbSpline
 70
8
 71
3
 72
8
 73
4
 74
0
 40
0
 40
0
 40
0
 40
0
 40
1
 40
1
 40
1
 40
1
 10
100.966403
 20
4.422028
 30
0.0
 10
100.153086
 20
4.505792
 30
0.0
 10
98.978743
 20
4.626865
 30
0.0
 10
98.356773
 20
4.691099
 30
0.0
  0
SPLINE
  5
114
100
AcDbEntity
  8
Layer_1
 62
7
100
AcDbSpline
 70
8
 71
3
 72
8
 73
4
 74
0
 40
0
 40
0
 40
0
 40
0
 40
1
 40
1
 40
1
 40
1
 10
98.356773
 20
4.691099
 30
0.0
 10
97.734806
 20
4.755304
 30
0.0
 10
97.151551
 20
4.877648
 30
0.0
 10
97.060642
 20
4.962851
 30
0.0
  0
SPLINE
  5
115
100
AcDbEntity
  8
Layer_1
 62
7
100
AcDbSpline
 70
8
 71
3
 72
8
 73
4
 74
0
 40
0
 40
0
 40
0
 40
0
 40
1
 40
1
 40
1
 40
1
 10
97.060642
 20
4.962851
 30
0.0
 10
96.969741
 20
5.048166
 30
0.0
 10
96.093610
 20
5.117932
 30
0.0
 10
95.113670
 20
5.117932
 30
0.0
  0
SPLINE
  5
116
100
AcDbEntity
  8
Layer_1
 62
7
100
AcDbSpline
 70
8
 71
3
 72
8
 73
4
 74
0
 40
0
 40
0
 40
0
 40
0
 40
1
 40
1
 40
1
 40
1
 10
95.113670
 20
5.117932
 30
0.0
 10
94.113550
 20
5.117932
 30
0.0
 10
93.284810
 20
5.194301
 30
0.0
 10
93.224454
 20
5.291950
 30
0.0
  0
SPLINE
  5
117
100
AcDbEntity
  8
Layer_1
 62
7
100
AcDbSpline
 70
8
 71
3
 72
8
 73
4
 74
0
 40
0
 40
0
 40
0
 40
0
 40
1
 40
1
 40
1
 40
1
 10
93.224454
 20
5.291950
 30
0.0
 10
93.165287
 20
5.387623
 30
0.0
 10
92.863196
 20
5.465912
 30
0.0
 10
92.553076
 20
5.465912
 30
0.0
  0
SPLINE
  5
118
100
AcDbEntity
  8
Layer_1
 62
7
100
AcDbSpline
 70
8
 71
3
 72
8
 73
4
 74
0
 40
0
 40
0
 40
0
 40
0
 40
1
 40
1
 40
1
 40
1
 10
92.553076
 20
5.465912
 30
0.0
 10
92.242953
 20
5.465912
 30
0.0
 10
91.914850
 20
5.539431
 30
0.0
 10
91.823946
 20
5.629206
 30
0.0
  0
SPLINE
  5
119
100
AcDbEntity
  8
Layer_1
 62
7
100
AcDbSpline
 70
8
 71
3
 72
8
 73
4
 74
0
 40
0
 40
0
 40
0
 40
0
 40
1
 40
1
 40
1
 40
1
 10
91.823946
 20
5.629206
 30
0.0
 10
91.733037
 20
5.719065
 30
0.0
 10
90.797484
 20
5.827721
 30
0.0
 10
89.744920
 20
5.870788
 30
0.0
  0
SPLINE
  5
11a
100
AcDbEntity
  8
Layer_1
 62
7
100
AcDbSpline
 70
8
 71
3
 72
8
 73
4
 74
0
 40
0
 40
0
 40
0
 40
0
 40
1
 40
1
 40
1
 40
1
 10
89.744920
 20
5.870788
 30
0.0
 10
86.975961
 20
5.983931
 30
0.0
 10
85.251428
 20
6.376699
 30
0.0
 10
83.133808
 20
7.376302
 30
0.0
  0
SPLINE
  5
11b
100
AcDbEntity
  8
Layer_1
 62
7
100
AcDbSpline
 70
8
 71
3
 72
8
 73
4
 74
0
 40
0
 40
0
 40
0
 40
0
 40
1
 40
1
 40
1
 40
1
 10
83.133808
 20
7.376302
 30
0.0
 10
82.559677
 20
7.647348
 30
0.0
 10
81.698502
 20
7.965469
 30
0.0
 10
81.220062
 20
8.083410
 30
0.0
  0
SPLINE
  5
11c
100
AcDbEntity
  8
Layer_1
 62
7
100
AcDbSpline
 70
8
 71
3
 72
8
 73
4
 74
0
 40
0
 40
0
 40
0
 40
0
 40
1
 40
1
 40
1
 40
1
 10
81.220062
 20
8.083410
 30
0.0
 10
80.741624
 20
8.201266
 30
0.0
 10
79.880443
 20
8.512303
 30
0.0
 10
79.306316
 20
8.774629
 30
0.0
  0
SPLINE
  5
11d
100
AcDbEntity
  8
Layer_1
 62
7
100
AcDbSpline
 70
8
 71
3
 72
8
 73
4
 74
0
 40
0
 40
0
 40
0
 40
0
 40
1
 40
1
 40
1
 40
1
 10
79.306316
 20
8.774629
 30
0.0
 10
78.732197
 20
9.036926
 30
0.0
 10
78.066733
 20
9.294680
 30
0.0
 10
77.827519
 20
9.347455
 30
0.0
  0
SPLINE
  5
11e
100
AcDbEntity
  8
Layer_1
 62
7
100
AcDbSpline
 70
8
 71
3
 72
8
 73
4
 74
0
 40
0
 40
0
 40
0
 40
0
 40
1
 40
1
 40
1
 40
1
 10
77.827519
 20
9.347455
 30
0.0
 10
76.460768
 20
9.648925
 30
0.0
 10
75.831076
 20
9.862370
 30
0.0
 10
75.253850
 20
10.219945
 30
0.0
  0
SPLINE
  5
11f
100
AcDbEntity
  8
Layer_1
 62
7
100
AcDbSpline
 70
8
 71
3
 72
8
 73
4
 74
0
 40
0
 40
0
 40
0
 40
0
 40
1
 40
1
 40
1
 40
1
 10
75.253850
 20
10.219945
 30
0.0
 10
74.215303
 20
10.863186
 30
0.0
 10
72.994229
 20
11.381120
 30
0.0
 10
72.516196
 20
11.381120
 30
0.0
  0
SPLINE
  5
120
100
AcDbEntity
  8
Layer_1
 62
7
100
AcDbSpline
 70
8
 71
3
 72
8
 73
4
 74
0
 40
0
 40
0
 40
0
 40
0
 40
1
 40
1
 40
1
 40
1
 10
72.516196
 20
11.381120
 30
0.0
 10
72.272133
 20
11.381120
 30
0.0
 10
71.765507
 20
11.537697
 30
0.0
 10
71.390377
 20
11.729072
 30
0.0
  0
SPLINE
  5
121
100
AcDbEntity
  8
Layer_1
 62
7
100
AcDbSpline
 70
8
 71
3
 72
8
 73
4
 74
0
 40
0
 40
0
 40
0
 40
0
 40
1
 40
1
 40
1
 40
1
 10
71.390377
 20
11.729072
 30
0.0
 10
71.015248
 20
11.920475
 30
0.0
 10
70.586710
 20
12.077052
 30
0.0
 10
70.438078
 20
12.077052
 30
0.0
  0
SPLINE
  5
122
100
AcDbEntity
  8
Layer_1
 62
7
100
AcDbSpline
 70
8
 71
3
 72
8
 73
4
 74
0
 40
0
 40
0
 40
0
 40
0
 40
1
 40
1
 40
1
 40
1
 10
70.438078
 20
12.077052
 30
0.0
 10
70.289431
 20
12.077052
 30
0.0
 10
70.031878
 20
12.145096
 30
0.0
 10
69.865711
 20
12.228380
 30
0.0
  0
SPLINE
  5
123
100
AcDbEntity
  8
Layer_1
 62
7
100
AcDbSpline
 70
8
 71
3
 72
8
 73
4
 74
0
 40
0
 40
0
 40
0
 40
0
 40
1
 40
1
 40
1
 40
1
 10
69.865711
 20
12.228380
 30
0.0
 10
68.930941
 20
12.696756
 30
0.0
 10
67.866220
 20
13.120907
 30
0.0
 10
67.625417
 20
13.120907
 30
0.0
  0
SPLINE
  5
124
100
AcDbEntity
  8
Layer_1
 62
7
100
AcDbSpline
 70
8
 71
3
 72
8
 73
4
 74
0
 40
0
 40
0
 40
0
 40
0
 40
1
 40
1
 40
1
 40
1
 10
67.625417
 20
13.120907
 30
0.0
 10
67.473551
 20
13.120907
 30
0.0
 10
67.064619
 20
13.270400
 30
0.0
 10
66.716701
 20
13.453168
 30
0.0
  0
SPLINE
  5
125
100
AcDbEntity
  8
Layer_1
 62
7
100
AcDbSpline
 70
8
 71
3
 72
8
 73
4
 74
0
 40
0
 40
0
 40
0
 40
0
 40
1
 40
1
 40
1
 40
1
 10
66.716701
 20
13.453168
 30
0.0
 10
66.368763
 20
13.635878
 30
0.0
 10
65.710198
 20
13.881496
 30
0.0
 10
65.253204
 20
13.998957
 30
0.0
  0
SPLINE
  5
126
100
AcDbEntity
  8
Layer_1
 62
7
100
AcDbSpline
 70
8
 71
3
 72
8
 73
4
 74
0
 40
0
 40
0
 40
0
 40
0
 40
1
 40
1
 40
1
 40
1
 10
65.253204
 20
13.998957
 30
0.0
 10
64.796238
 20
14.116390
 30
0.0
 10
64.380590
 20
14.280022
 30
0.0
 10
64.329564
 20
14.362572
 30
0.0
  0
SPLINE
  5
127
100
AcDbEntity
  8
Layer_1
 62
7
100
AcDbSpline
 70
8
 71
3
 72
8
 73
4
 74
0
 40
0
 40
0
 40
0
 40
0
 40
1
 40
1
 40
1
 40
1
 10
64.329564
 20
14.362572
 30
0.0
 10
64.278569
 20
14.445122
 30
0.0
 10
64.050314
 20
14.512743
 30
0.0
 10
63.822388
 20
14.512743
 30
0.0
  0
SPLINE
  5
128
100
AcDbEntity
  8
Layer_1
 62
7
100
AcDbSpline
 70
8
 71
3
 72
8
 73
4
 74
0
 40
0
 40
0
 40
0
 40
0
 40
1
 40
1
 40
1
 40
1
 10
63.822388
 20
14.512743
 30
0.0
 10
63.594457
 20
14.512743
 30
0.0
 10
63.359589
 20
14.591003
 30
0.0
 10
63.300455
 20
14.686704
 30
0.0
  0
SPLINE
  5
129
100
AcDbEntity
  8
Layer_1
 62
7
100
AcDbSpline
 70
8
 71
3
 72
8
 73
4
 74
0
 40
0
 40
0
 40
0
 40
0
 40
1
 40
1
 40
1
 40
1
 10
63.300455
 20
14.686704
 30
0.0
 10
63.241355
 20
14.782386
 30
0.0
 10
63.060546
 20
14.862413
 30
0.0
 10
62.898751
 20
14.864535
 30
0.0
  0
SPLINE
  5
12a
100
AcDbEntity
  8
Layer_1
 62
7
100
AcDbSpline
 70
8
 71
3
 72
8
 73
4
 74
0
 40
0
 40
0
 40
0
 40
0
 40
1
 40
1
 40
1
 40
1
 10
62.898751
 20
14.864535
 30
0.0
 10
62.736936
 20
14.869051
 30
0.0
 10
62.134821
 20
15.099833
 30
0.0
 10
61.560693
 20
15.382568
 30
0.0
  0
SPLINE
  5
12b
100
AcDbEntity
  8
Layer_1
 62
7
100
AcDbSpline
 70
8
 71
3
 72
8
 73
4
 74
0
 40
0
 40
0
 40
0
 40
0
 40
1
 40
1
 40
1
 40
1
 10
61.560693
 20
15.382568
 30
0.0
 10
60.986571
 20
15.665392
 30
0.0
 10
60.413906
 20
15.898476
 30
0.0
 10
60.288125
 20
15.900644
 30
0.0
  0
SPLINE
  5
12c
100
AcDbEntity
  8
Layer_1
 62
7
100
AcDbSpline
 70
8
 71
3
 72
8
 73
4
 74
0
 40
0
 40
0
 40
0
 40
0
 40
1
 40
1
 40
1
 40
1
 10
60.288125
 20
15.900644
 30
0.0
 10
60.051428
 20
15.905159
 30
0.0
 10
58.806690
 20
16.380534
 30
0.0
 10
57.511069
 20
16.962254
 30
0.0
  0
SPLINE
  5
12d
100
AcDbEntity
  8
Layer_1
 62
7
100
AcDbSpline
 70
8
 71
3
 72
8
 73
4
 74
0
 40
0
 40
0
 40
0
 40
0
 40
1
 40
1
 40
1
 40
1
 10
57.511069
 20
16.962254
 30
0.0
 10
57.101839
 20
17.146051
 30
0.0
 10
56.632102
 20
17.296851
 30
0.0
 10
56.467217
 20
17.297438
 30
0.0
  0
SPLINE
  5
12e
100
AcDbEntity
  8
Layer_1
 62
7
100
AcDbSpline
 70
8
 71
3
 72
8
 73
4
 74
0
 40
0
 40
0
 40
0
 40
0
 40
1
 40
1
 40
1
 40
1
 10
56.467217
 20
17.297438
 30
0.0
 10
56.302331
 20
17.297438
 30
0.0
 10
55.959683
 20
17.406895
 30
0.0
 10
55.705796
 20
17.539370
 30
0.0
  0
SPLINE
  5
12f
100
AcDbEntity
  8
Layer_1
 62
7
100
AcDbSpline
 70
8
 71
3
 72
8
 73
4
 74
0
 40
0
 40
0
 40
0
 40
0
 40
1
 40
1
 40
1
 40
1
 10
55.705796
 20
17.539370
 30
0.0
 10
55.451906
 20
17.671845
 30
0.0
 10
54.947126
 20
17.878254
 30
0.0
 10
54.584058
 20
17.998091
 30
0.0
  0
SPLINE
  5
130
100
AcDbEntity
  8
Layer_1
 62
7
100
AcDbSpline
 70
8
 71
3
 72
8
 73
4
 74
0
 40
0
 40
0
 40
0
 40
0
 40
1
 40
1
 40
1
 40
1
 10
54.584058
 20
17.998091
 30
0.0
 10
54.220993
 20
18.117883
 30
0.0
 10
53.724917
 20
18.400484
 30
0.0
 10
53.481661
 20
18.626030
 30
0.0
  0
SPLINE
  5
131
100
AcDbEntity
  8
Layer_1
 62
7
100
AcDbSpline
 70
8
 71
3
 72
8
 73
4
 74
0
 40
0
 40
0
 40
0
 40
0
 40
1
 40
1
 40
1
 40
1
 10
53.481661
 20
18.626030
 30
0.0
 10
53.208482
 20
18.879336
 30
0.0
 10
52.826452
 20
19.036141
 30
0.0
 10
52.482459
 20
19.036141
 30
0.0
  0
SPLINE
  5
132
100
AcDbEntity
  8
Layer_1
 62
7
100
AcDbSpline
 70
8
 71
3
 72
8
 73
4
 74
0
 40
0
 40
0
 40
0
 40
0
 40
1
 40
1
 40
1
 40
1
 10
52.482459
 20
19.036141
 30
0.0
 10
52.176138
 20
19.036141
 30
0.0
 10
51.877138
 20
19.114452
 30
0.0
 10
51.817998
 20
19.210097
 30
0.0
  0
SPLINE
  5
133
100
AcDbEntity
  8
Layer_1
 62
7
100
AcDbSpline
 70
8
 71
3
 72
8
 73
4
 74
0
 40
0
 40
0
 40
0
 40
0
 40
1
 40
1
 40
1
 40
1
 10
51.817998
 20
19.210097
 30
0.0
 10
51.758825
 20
19.305785
 30
0.0
 10
51.523990
 20
19.384099
 30
0.0
 10
51.296065
 20
19.384099
 30
0.0
  0
SPLINE
  5
134
100
AcDbEntity
  8
Layer_1
 62
7
100
AcDbSpline
 70
8
 71
3
 72
8
 73
4
 74
0
 40
0
 40
0
 40
0
 40
0
 40
1
 40
1
 40
1
 40
1
 10
51.296065
 20
19.384099
 30
0.0
 10
51.068137
 20
19.384099
 30
0.0
 10
50.833274
 20
19.462364
 30
0.0
 10
50.774137
 20
19.558055
 30
0.0
  0
SPLINE
  5
135
100
AcDbEntity
  8
Layer_1
 62
7
100
AcDbSpline
 70
8
 71
3
 72
8
 73
4
 74
0
 40
0
 40
0
 40
0
 40
0
 40
1
 40
1
 40
1
 40
1
 10
50.774137
 20
19.558055
 30
0.0
 10
50.714972
 20
19.653742
 30
0.0
 10
50.552951
 20
19.732056
 30
0.0
 10
50.414019
 20
19.732056
 30
0.0
  0
SPLINE
  5
136
100
AcDbEntity
  8
Layer_1
 62
7
100
AcDbSpline
 70
8
 71
3
 72
8
 73
4
 74
0
 40
0
 40
0
 40
0
 40
0
 40
1
 40
1
 40
1
 40
1
 10
50.414019
 20
19.732056
 30
0.0
 10
50.275098
 20
19.732056
 30
0.0
 10
49.829551
 20
19.881140
 30
0.0
 10
49.423924
 20
20.063492
 30
0.0
  0
SPLINE
  5
137
100
AcDbEntity
  8
Layer_1
 62
7
100
AcDbSpline
 70
8
 71
3
 72
8
 73
4
 74
0
 40
0
 40
0
 40
0
 40
0
 40
1
 40
1
 40
1
 40
1
 10
49.423924
 20
20.063492
 30
0.0
 10
49.018294
 20
20.245754
 30
0.0
 10
48.464614
 20
20.444625
 30
0.0
 10
48.193525
 20
20.505379
 30
0.0
  0
SPLINE
  5
138
100
AcDbEntity
  8
Layer_1
 62
7
100
AcDbSpline
 70
8
 71
3
 72
8
 73
4
 74
0
 40
0
 40
0
 40
0
 40
0
 40
1
 40
1
 40
1
 40
1
 10
48.193525
 20
20.505379
 30
0.0
 10
47.922437
 20
20.566088
 30
0.0
 10
47.395539
 20
20.808381
 30
0.0
 10
47.022639
 20
21.043766
 30
0.0
  0
SPLINE
  5
139
100
AcDbEntity
  8
Layer_1
 62
7
100
AcDbSpline
 70
8
 71
3
 72
8
 73
4
 74
0
 40
0
 40
0
 40
0
 40
0
 40
1
 40
1
 40
1
 40
1
 10
47.022639
 20
21.043766
 30
0.0
 10
46.649742
 20
21.279198
 30
0.0
 10
46.265132
 20
21.471795
 30
0.0
 10
46.167943
 20
21.471795
 30
0.0
  0
SPLINE
  5
13a
100
AcDbEntity
  8
Layer_1
 62
7
100
AcDbSpline
 70
8
 71
3
 72
8
 73
4
 74
0
 40
0
 40
0
 40
0
 40
0
 40
1
 40
1
 40
1
 40
1
 10
46.167943
 20
21.471795
 30
0.0
 10
46.070760
 20
21.471795
 30
0.0
 10
45.415550
 20
21.737694
 30
0.0
 10
44.711922
 20
22.062723
 30
0.0
  0
SPLINE
  5
13b
100
AcDbEntity
  8
Layer_1
 62
7
100
AcDbSpline
 70
8
 71
3
 72
8
 73
4
 74
0
 40
0
 40
0
 40
0
 40
0
 40
1
 40
1
 40
1
 40
1
 10
44.711922
 20
22.062723
 30
0.0
 10
43.419813
 20
22.659561
 30
0.0
 10
42.597634
 20
23.344960
 30
0.0
 10
41.443478
 20
24.787522
 30
0.0
  0
SPLINE
  5
13c
100
AcDbEntity
  8
Layer_1
 62
7
100
AcDbSpline
 70
8
 71
3
 72
8
 73
4
 74
0
 40
0
 40
0
 40
0
 40
0
 40
1
 40
1
 40
1
 40
1
 10
41.443478
 20
24.787522
 30
0.0
 10
41.095981
 20
25.221885
 30
0.0
 10
40.156508
 20
26.021062
 30
0.0
 10
39.355762
 20
26.563544
 30
0.0
  0
SPLINE
  5
13d
100
AcDbEntity
  8
Layer_1
 62
7
100
AcDbSpline
 70
8
 71
3
 72
8
 73
4
 74
0
 40
0
 40
0
 40
0
 40
0
 40
1
 40
1
 40
1
 40
1
 10
39.355762
 20
26.563544
 30
0.0
 10
37.965651
 20
27.505263
 30
0.0
 10
36.945945
 20
28.290944
 30
0.0
 10
34.121877
 20
30.596254
 30
0.0
  0
SPLINE
  5
13e
100
AcDbEntity
  8
Layer_1
 62
7
100
AcDbSpline
 70
8
 71
3
 72
8
 73
4
 74
0
 40
0
 40
0
 40
0
 40
0
 40
1
 40
1
 40
1
 40
1
 10
34.121877
 20
30.596254
 30
0.0
 10
33.424836
 20
31.165268
 30
0.0
 10
31.915058
 20
32.374751
 30
0.0
 10
30.766811
 20
33.284065
 30
0.0
  0
SPLINE
  5
13f
100
AcDbEntity
  8
Layer_1
 62
7
100
AcDbSpline
 70
8
 71
3
 72
8
 73
4
 74
0
 40
0
 40
0
 40
0
 40
0
 40
1
 40
1
 40
1
 40
1
 10
30.766811
 20
33.284065
 30
0.0
 10
29.618570
 20
34.193340
 30
0.0
 10
28.357240
 20
35.215315
 30
0.0
 10
27.963859
 20
35.555085
 30
0.0
  0
SPLINE
  5
140
100
AcDbEntity
  8
Layer_1
 62
7
100
AcDbSpline
 70
8
 71
3
 72
8
 73
4
 74
0
 40
0
 40
0
 40
0
 40
0
 40
1
 40
1
 40
1
 40
1
 10
27.963859
 20
35.555085
 30
0.0
 10
27.570482
 20
35.894813
 30
0.0
 10
26.599023
 20
36.720843
 30
0.0
 10
25.805066
 20
37.390661
 30
0.0
  0
SPLINE
  5
141
100
AcDbEntity
  8
Layer_1
 62
7
100
AcDbSpline
 70
8
 71
3
 72
8
 73
4
 74
0
 40
0
 40
0
 40
0
 40
0
 40
1
 40
1
 40
1
 40
1
 10
25.805066
 20
37.390661
 30
0.0
 10
25.011111
 20
38.060476
 30
0.0
 10
23.760011
 20
39.156511
 30
0.0
 10
23.024848
 20
39.826332
 30
0.0
  0
SPLINE
  5
142
100
AcDbEntity
  8
Layer_1
 62
7
100
AcDbSpline
 70
8
 71
3
 72
8
 73
4
 74
0
 40
0
 40
0
 40
0
 40
0
 40
1
 40
1
 40
1
 40
1
 10
23.024848
 20
39.826332
 30
0.0
 10
22.289682
 20
40.496144
 30
0.0
 10
21.037958
 20
41.592222
 30
0.0
 10
20.243245
 20
42.262003
 30
0.0
  0
SPLINE
  5
143
100
AcDbEntity
  8
Layer_1
 62
7
100
AcDbSpline
 70
8
 71
3
 72
8
 73
4
 74
0
 40
0
 40
0
 40
0
 40
0
 40
1
 40
1
 40
1
 40
1
 10
20.243245
 20
42.262003
 30
0.0
 10
19.448528
 20
42.931818
 30
0.0
 10
18.272204
 20
43.949593
 30
0.0
 10
17.629183
 20
44.523732
 30
0.0
  0
SPLINE
  5
144
100
AcDbEntity
  8
Layer_1
 62
7
100
AcDbSpline
 70
8
 71
3
 72
8
 73
4
 74
0
 40
0
 40
0
 40
0
 40
0
 40
1
 40
1
 40
1
 40
1
 10
17.629183
 20
44.523732
 30
0.0
 10
16.986159
 20
45.097834
 30
0.0
 10
15.776321
 20
46.154739
 30
0.0
 10
14.940650
 20
46.872410
 30
0.0
  0
SPLINE
  5
145
100
AcDbEntity
  8
Layer_1
 62
7
100
AcDbSpline
 70
8
 71
3
 72
8
 73
4
 74
0
 40
0
 40
0
 40
0
 40
0
 40
1
 40
1
 40
1
 40
1
 10
14.940650
 20
46.872410
 30
0.0
 10
12.009876
 20
49.389265
 30
0.0
 10
10.422465
 20
50.799899
 30
0.0
 10
8.858099
 20
52.277544
 30
0.0
  0
SPLINE
  5
146
100
AcDbEntity
  8
Layer_1
 62
7
100
AcDbSpline
 70
8
 71
3
 72
8
 73
4
 74
0
 40
0
 40
0
 40
0
 40
0
 40
1
 40
1
 40
1
 40
1
 10
8.858099
 20
52.277544
 30
0.0
 10
7.990119
 20
53.097414
 30
0.0
 10
6.945035
 20
54.025632
 30
0.0
 10
6.535689
 20
54.340225
 30
0.0
  0
SPLINE
  5
147
100
AcDbEntity
  8
Layer_1
 62
7
100
AcDbSpline
 70
8
 71
3
 72
8
 73
4
 74
0
 40
0
 40
0
 40
0
 40
0
 40
1
 40
1
 40
1
 40
1
 10
6.535689
 20
54.340225
 30
0.0
 10
5.872739
 20
54.849771
 30
0.0
 10
5.106191
 20
56.015962
 30
0.0
 10
5.104688
 20
56.517279
 30
0.0
  0
SPLINE
  5
148
100
AcDbEntity
  8
Layer_1
 62
7
100
AcDbSpline
 70
8
 71
3
 72
8
 73
4
 74
0
 40
0
 40
0
 40
0
 40
0
 40
1
 40
1
 40
1
 40
1
 10
5.104688
 20
56.517279
 30
0.0
 10
5.104349
 20
56.618904
 30
0.0
 10
4.791480
 20
57.171822
 30
0.0
 10
4.409335
 20
57.745958
 30
0.0
  0
SPLINE
  5
149
100
AcDbEntity
  8
Layer_1
 62
7
100
AcDbSpline
 70
8
 71
3
 72
8
 73
4
 74
0
 40
0
 40
0
 40
0
 40
0
 40
1
 40
1
 40
1
 40
1
 10
4.409335
 20
57.745958
 30
0.0
 10
4.027197
 20
58.320063
 30
0.0
 10
3.714291
 20
58.934439
 30
0.0
 10
3.713988
 20
59.111192
 30
0.0
  0
SPLINE
  5
14a
100
AcDbEntity
  8
Layer_1
 62
7
100
AcDbSpline
 70
8
 71
3
 72
8
 73
4
 74
0
 40
0
 40
0
 40
0
 40
0
 40
1
 40
1
 40
1
 40
1
 10
3.713988
 20
59.111192
 30
0.0
 10
3.713649
 20
59.287981
 30
0.0
 10
3.255194
 20
59.875153
 30
0.0
 10
2.695128
 20
60.416035
 30
0.0
  0
SPLINE
  5
14b
100
AcDbEntity
  8
Layer_1
 62
7
100
AcDbSpline
 70
8
 71
3
 72
8
 73
4
 74
0
 40
0
 40
0
 40
0
 40
0
 40
1
 40
1
 40
1
 40
1
 10
2.695128
 20
60.416035
 30
0.0
 10
2.135059
 20
60.956914
 30
0.0
 10
1.618032
 20
61.595185
 30
0.0
 10
1.546172
 20
61.834393
 30
0.0
  0
SPLINE
  5
14c
100
AcDbEntity
  8
Layer_1
 62
7
100
AcDbSpline
 70
8
 71
3
 72
8
 73
4
 74
0
 40
0
 40
0
 40
0
 40
0
 40
1
 40
1
 40
1
 40
1
 10
1.546172
 20
61.834393
 30
0.0
 10
1.403425
 20
62.309619
 30
0.0
 10
1.197602
 20
64.326929
 30
0.0
 10
0.933792
 20
67.836602
 30
0.0
  0
SPLINE
  5
14d
100
AcDbEntity
  8
Layer_1
 62
7
100
AcDbSpline
 70
8
 71
3
 72
8
 73
4
 74
0
 40
0
 40
0
 40
0
 40
0
 40
1
 40
1
 40
1
 40
1
 10
0.933792
 20
67.836602
 30
0.0
 10
0.840283
 20
69.080519
 30
0.0
 10
0.680977
 20
70.568028
 30
0.0
 10
0.579777
 20
71.142164
 30
0.0
  0
SPLINE
  5
14e
100
AcDbEntity
  8
Layer_1
 62
7
100
AcDbSpline
 70
8
 71
3
 72
8
 73
4
 74
0
 40
0
 40
0
 40
0
 40
0
 40
1
 40
1
 40
1
 40
1
 10
0.579777
 20
71.142164
 30
0.0
 10
0.377768
 20
72.288091
 30
0.0
 10
0.113954
 20
74.832403
 30
0.0
 10
-0.044938
 20
77.166985
 30
0.0
  0
SPLINE
  5
14f
100
AcDbEntity
  8
Layer_1
 62
7
100
AcDbSpline
 70
8
 71
3
 72
8
 73
4
 74
0
 40
0
 40
0
 40
0
 40
0
 40
1
 40
1
 40
1
 40
1
 10
1.130741
 20
80.098207
 30
0.0
 10
1.833569
 20
80.884565
 30
0.0
 10
3.152356
 20
82.327565
 30
0.0
 10
4.061380
 20
83.304821
 30
0.0
  0
SPLINE
  5
150
100
AcDbEntity
  8
Layer_1
 62
7
100
AcDbSpline
 70
8
 71
3
 72
8
 73
4
 74
0
 40
0
 40
0
 40
0
 40
0
 40
1
 40
1
 40
1
 40
1
 10
4.061380
 20
83.304821
 30
0.0
 10
4.970415
 20
84.282143
 30
0.0
 10
6.181891
 20
85.664072
 30
0.0
 10
6.753565
 20
86.375834
 30
0.0
  0
SPLINE
  5
151
100
AcDbEntity
  8
Layer_1
 62
7
100
AcDbSpline
 70
8
 71
3
 72
8
 73
4
 74
0
 40
0
 40
0
 40
0
 40
0
 40
1
 40
1
 40
1
 40
1
 10
6.753565
 20
86.375834
 30
0.0
 10
7.325232
 20
87.087595
 30
0.0
 10
8.245138
 20
88.162128
 30
0.0
 10
8.797790
 20
88.763651
 30
0.0
  0
SPLINE
  5
152
100
AcDbEntity
  8
Layer_1
 62
7
100
AcDbSpline
 70
8
 71
3
 72
8
 73
4
 74
0
 40
0
 40
0
 40
0
 40
0
 40
1
 40
1
 40
1
 40
1
 10
8.797790
 20
88.763651
 30
0.0
 10
9.350443
 20
89.365208
 30
0.0
 10
9.802614
 20
89.923604
 30
0.0
 10
9.802614
 20
90.004579
 30
0.0
  0
SPLINE
  5
153
100
AcDbEntity
  8
Layer_1
 62
7
100
AcDbSpline
 70
8
 71
3
 72
8
 73
4
 74
0
 40
0
 40
0
 40
0
 40
0
 40
1
 40
1
 40
1
 40
1
 10
9.802614
 20
90.004579
 30
0.0
 10
9.802614
 20
90.152704
 30
0.0
 10
11.528581
 20
91.059949
 30
0.0
 10
11.820685
 20
91.065393
 30
0.0
  0
SPLINE
  5
154
100
AcDbEntity
  8
Layer_1
 62
7
100
AcDbSpline
 70
8
 71
3
 72
8
 73
4
 74
0
 40
0
 40
0
 40
0
 40
0
 40
1
 40
1
 40
1
 40
1
 10
11.820685
 20
91.065393
 30
0.0
 10
11.906838
 20
91.069006
 30
0.0
 10
12.603641
 20
91.378855
 30
0.0
 10
13.369141
 20
91.758393
 30
0.0
  0
SPLINE
  5
155
100
AcDbEntity
  8
Layer_1
 62
7
100
AcDbSpline
 70
8
 71
3
 72
8
 73
4
 74
0
 40
0
 40
0
 40
0
 40
0
 40
1
 40
1
 40
1
 40
1
 10
13.369141
 20
91.758393
 30
0.0
 10
14.134635
 20
92.137931
 30
0.0
 10
14.896447
 20
92.449789
 30
0.0
 10
15.062044
 20
92.451387
 30
0.0
  0
SPLINE
  5
156
100
AcDbEntity
  8
Layer_1
 62
7
100
AcDbSpline
 70
8
 71
3
 72
8
 73
4
 74
0
 40
0
 40
0
 40
0
 40
0
 40
1
 40
1
 40
1
 40
1
 10
15.062044
 20
92.451387
 30
0.0
 10
15.227644
 20
92.454999
 30
0.0
 10
16.022277
 20
92.767447
 30
0.0
 10
16.827894
 20
93.150189
 30
0.0
  0
SPLINE
  5
157
100
AcDbEntity
  8
Layer_1
 62
7
100
AcDbSpline
 70
8
 71
3
 72
8
 73
4
 74
0
 40
0
 40
0
 40
0
 40
0
 40
1
 40
1
 40
1
 40
1
 10
16.827894
 20
93.150189
 30
0.0
 10
17.633513
 20
93.532933
 30
0.0
 10
18.412459
 20
93.846104
 30
0.0
 10
18.558892
 20
93.846104
 30
0.0
  0
SPLINE
  5
158
100
AcDbEntity
  8
Layer_1
 62
7
100
AcDbSpline
 70
8
 71
3
 72
8
 73
4
 74
0
 40
0
 40
0
 40
0
 40
0
 40
1
 40
1
 40
1
 40
1
 10
18.558892
 20
93.846104
 30
0.0
 10
18.868818
 20
93.846104
 30
0.0
 10
20.763387
 20
94.664940
 30
0.0
 10
22.186145
 20
95.413766
 30
0.0
  0
SPLINE
  5
159
100
AcDbEntity
  8
Layer_1
 62
7
100
AcDbSpline
 70
8
 71
3
 72
8
 73
4
 74
0
 40
0
 40
0
 40
0
 40
0
 40
1
 40
1
 40
1
 40
1
 10
22.186145
 20
95.413766
 30
0.0
 10
22.729572
 20
95.699807
 30
0.0
 10
23.302111
 20
95.933820
 30
0.0
 10
23.458439
 20
95.933820
 30
0.0
  0
SPLINE
  5
15a
100
AcDbEntity
  8
Layer_1
 62
7
100
AcDbSpline
 70
8
 71
3
 72
8
 73
4
 74
0
 40
0
 40
0
 40
0
 40
0
 40
1
 40
1
 40
1
 40
1
 10
23.458439
 20
95.933820
 30
0.0
 10
23.959158
 20
95.933820
 30
0.0
 10
25.975840
 20
97.001371
 30
0.0
 10
26.333103
 20
97.455587
 30
0.0
  0
SPLINE
  5
15b
100
AcDbEntity
  8
Layer_1
 62
7
100
AcDbSpline
 70
8
 71
3
 72
8
 73
4
 74
0
 40
0
 40
0
 40
0
 40
0
 40
1
 40
1
 40
1
 40
1
 10
26.333103
 20
97.455587
 30
0.0
 10
26.732043
 20
97.962746
 30
0.0
 10
26.808393
 20
99.358750
 30
0.0
 10
26.460889
 20
99.791902
 30
0.0
  0
SPLINE
  5
15c
100
AcDbEntity
  8
Layer_1
 62
7
100
AcDbSpline
 70
8
 71
3
 72
8
 73
4
 74
0
 40
0
 40
0
 40
0
 40
0
 40
1
 40
1
 40
1
 40
1
 10
26.460889
 20
99.791902
 30
0.0
 10
26.341282
 20
99.941003
 30
0.0
 10
25.969402
 20
100.209515
 30
0.0
 10
25.634502
 20
100.388624
 30
0.0
  0
SPLINE
  5
15d
100
AcDbEntity
  8
Layer_1
 62
7
100
AcDbSpline
 70
8
 71
3
 72
8
 73
4
 74
0
 40
0
 40
0
 40
0
 40
0
 40
1
 40
1
 40
1
 40
1
 10
25.634502
 20
100.388624
 30
0.0
 10
24.522232
 20
100.983453
 30
0.0
 10
23.562207
 20
101.854275
 30
0.0
 10
22.623432
 20
103.119883
 30
0.0
  0
SPLINE
  5
15e
100
AcDbEntity
  8
Layer_1
 62
7
100
AcDbSpline
 70
8
 71
3
 72
8
 73
4
 74
0
 40
0
 40
0
 40
0
 40
0
 40
1
 40
1
 40
1
 40
1
 10
22.623432
 20
103.119883
 30
0.0
 10
20.862847
 20
105.493440
 30
0.0
 10
19.968981
 20
108.094756
 30
0.0
 10
20.130786
 20
110.373900
 30
0.0
  0
SPLINE
  5
15f
100
AcDbEntity
  8
Layer_1
 62
7
100
AcDbSpline
 70
8
 71
3
 72
8
 73
4
 74
0
 40
0
 40
0
 40
0
 40
0
 40
1
 40
1
 40
1
 40
1
 10
20.130786
 20
110.373900
 30
0.0
 10
20.335259
 20
113.253995
 30
0.0
 10
20.518286
 20
113.951293
 30
0.0
 10
21.672473
 20
116.247529
 30
0.0
  0
SPLINE
  5
160
100
AcDbEntity
  8
Layer_1
 62
7
100
AcDbSpline
 70
8
 71
3
 72
8
 73
4
 74
0
 40
0
 40
0
 40
0
 40
0
 40
1
 40
1
 40
1
 40
1
 10
21.672473
 20
116.247529
 30
0.0
 10
22.399706
 20
117.694347
 30
0.0
 10
23.400370
 20
118.793958
 30
0.0
 10
25.948330
 20
120.946134
 30
0.0
  0
SPLINE
  5
161
100
AcDbEntity
  8
Layer_1
 62
7
100
AcDbSpline
 70
8
 71
3
 72
8
 73
4
 74
0
 40
0
 40
0
 40
0
 40
0
 40
1
 40
1
 40
1
 40
1
 10
25.948330
 20
120.946134
 30
0.0
 10
26.511875
 20
121.422147
 30
0.0
 10
26.902491
 20
121.921742
 30
0.0
 10
27.036529
 20
122.337950
 30
0.0
  0
SPLINE
  5
162
100
AcDbEntity
  8
Layer_1
 62
7
100
AcDbSpline
 70
8
 71
3
 72
8
 73
4
 74
0
 40
0
 40
0
 40
0
 40
0
 40
1
 40
1
 40
1
 40
1
 10
27.036529
 20
122.337950
 30
0.0
 10
27.151537
 20
122.695051
 30
0.0
 10
27.333293
 20
123.096856
 30
0.0
 10
27.440430
 20
123.230867
 30
0.0
  0
SPLINE
  5
163
100
AcDbEntity
  8
Layer_1
 62
7
100
AcDbSpline
 70
8
 71
3
 72
8
 73
4
 74
0
 40
0
 40
0
 40
0
 40
0
 40
1
 40
1
 40
1
 40
1
 10
27.440430
 20
123.230867
 30
0.0
 10
27.560420
 20
123.380941
 30
0.0
 10
27.683252
 20
124.884252
 30
0.0
 10
27.760275
 20
127.145343
 30
0.0
  0
SPLINE
  5
164
100
AcDbEntity
  8
Layer_1
 62
7
100
AcDbSpline
 70
8
 71
3
 72
8
 73
4
 74
0
 40
0
 40
0
 40
0
 40
0
 40
1
 40
1
 40
1
 40
1
 10
27.760275
 20
127.145343
 30
0.0
 10
27.829051
 20
129.164290
 30
0.0
 10
27.934144
 20
131.310898
 30
0.0
 10
27.993809
 20
131.915578
 30
0.0
  0
SPLINE
  5
165
100
AcDbEntity
  8
Layer_1
 62
7
100
AcDbSpline
 70
8
 71
3
 72
8
 73
4
 74
0
 40
0
 40
0
 40
0
 40
0
 40
1
 40
1
 40
1
 40
1
 10
27.993809
 20
131.915578
 30
0.0
 10
28.083095
 20
132.820394
 30
0.0
 10
28.048495
 20
133.074417
 30
0.0
 10
27.798301
 20
133.350879
 30
0.0
  0
SPLINE
  5
166
100
AcDbEntity
  8
Layer_1
 62
7
100
AcDbSpline
 70
8
 71
3
 72
8
 73
4
 74
0
 40
0
 40
0
 40
0
 40
0
 40
1
 40
1
 40
1
 40
1
 10
27.798301
 20
133.350879
 30
0.0
 10
27.631104
 20
133.535633
 30
0.0
 10
27.419077
 20
133.686780
 30
0.0
 10
27.327117
 20
133.686780
 30
0.0
  0
SPLINE
  5
167
100
AcDbEntity
  8
Layer_1
 62
7
100
AcDbSpline
 70
8
 71
3
 72
8
 73
4
 74
0
 40
0
 40
0
 40
0
 40
0
 40
1
 40
1
 40
1
 40
1
 10
27.327117
 20
133.686780
 30
0.0
 10
27.235159
 20
133.686780
 30
0.0
 10
26.761501
 20
133.979232
 30
0.0
 10
26.274553
 20
134.336704
 30
0.0
  0
SPLINE
  5
168
100
AcDbEntity
  8
Layer_1
 62
7
100
AcDbSpline
 70
8
 71
3
 72
8
 73
4
 74
0
 40
0
 40
0
 40
0
 40
0
 40
1
 40
1
 40
1
 40
1
 10
26.274553
 20
134.336704
 30
0.0
 10
25.787607
 20
134.694163
 30
0.0
 10
25.150800
 20
135.112880
 30
0.0
 10
24.859433
 20
135.267221
 30
0.0
  0
SPLINE
  5
169
100
AcDbEntity
  8
Layer_1
 62
7
100
AcDbSpline
 70
8
 71
3
 72
8
 73
4
 74
0
 40
0
 40
0
 40
0
 40
0
 40
1
 40
1
 40
1
 40
1
 10
24.859433
 20
135.267221
 30
0.0
 10
24.297160
 20
135.565059
 30
0.0
 10
23.197456
 20
136.893657
 30
0.0
 10
22.767961
 20
137.794039
 30
0.0
  0
SPLINE
  5
16a
100
AcDbEntity
  8
Layer_1
 62
7
100
AcDbSpline
 70
8
 71
3
 72
8
 73
4
 74
0
 40
0
 40
0
 40
0
 40
0
 40
1
 40
1
 40
1
 40
1
 10
22.767961
 20
137.794039
 30
0.0
 10
22.626093
 20
138.091456
 30
0.0
 10
22.217523
 20
138.756916
 30
0.0
 10
21.860025
 20
139.272844
 30
0.0
  0
SPLINE
  5
16b
100
AcDbEntity
  8
Layer_1
 62
7
100
AcDbSpline
 70
8
 71
3
 72
8
 73
4
 74
0
 40
0
 40
0
 40
0
 40
0
 40
1
 40
1
 40
1
 40
1
 10
21.860025
 20
139.272844
 30
0.0
 10
21.334257
 20
140.031638
 30
0.0
 10
21.181842
 20
140.443640
 30
0.0
 10
21.062496
 20
141.428745
 30
0.0
  0
SPLINE
  5
16c
100
AcDbEntity
  8
Layer_1
 62
7
100
AcDbSpline
 70
8
 71
3
 72
8
 73
4
 74
0
 40
0
 40
0
 40
0
 40
0
 40
1
 40
1
 40
1
 40
1
 10
21.062496
 20
141.428745
 30
0.0
 10
20.882125
 20
142.917603
 30
0.0
 10
20.882086
 20
142.948173
 30
0.0
 10
21.057224
 20
144.995272
 30
0.0
  0
SPLINE
  5
16d
100
AcDbEntity
  8
Layer_1
 62
7
100
AcDbSpline
 70
8
 71
3
 72
8
 73
4
 74
0
 40
0
 40
0
 40
0
 40
0
 40
1
 40
1
 40
1
 40
1
 10
21.057224
 20
144.995272
 30
0.0
 10
21.151958
 20
146.101134
 30
0.0
 10
21.299399
 20
146.790394
 30
0.0
 10
21.502793
 20
147.078207
 30
0.0
  0
SPLINE
  5
16e
100
AcDbEntity
  8
Layer_1
 62
7
100
AcDbSpline
 70
8
 71
3
 72
8
 73
4
 74
0
 40
0
 40
0
 40
0
 40
0
 40
1
 40
1
 40
1
 40
1
 10
21.502793
 20
147.078207
 30
0.0
 10
21.669985
 20
147.314794
 30
0.0
 10
21.806780
 20
147.655896
 30
0.0
 10
21.806780
 20
147.836222
 30
0.0
  0
SPLINE
  5
16f
100
AcDbEntity
  8
Layer_1
 62
7
100
AcDbSpline
 70
8
 71
3
 72
8
 73
4
 74
0
 40
0
 40
0
 40
0
 40
0
 40
1
 40
1
 40
1
 40
1
 10
21.806780
 20
147.836222
 30
0.0
 10
21.806780
 20
148.350795
 30
0.0
 10
22.761133
 20
150.204253
 30
0.0
 10
23.582270
 20
151.284442
 30
0.0
  0
SPLINE
  5
170
100
AcDbEntity
  8
Layer_1
 62
7
100
AcDbSpline
 70
8
 71
3
 72
8
 73
4
 74
0
 40
0
 40
0
 40
0
 40
0
 40
1
 40
1
 40
1
 40
1
 10
23.582270
 20
151.284442
 30
0.0
 10
24.339709
 20
152.280844
 30
0.0
 10
27.061059
 20
154.472974
 30
0.0
 10
27.906385
 20
154.767665
 30
0.0
  0
SPLINE
  5
171
100
AcDbEntity
  8
Layer_1
 62
7
100
AcDbSpline
 70
8
 71
3
 72
8
 73
4
 74
0
 40
0
 40
0
 40
0
 40
0
 40
1
 40
1
 40
1
 40
1
 10
27.906385
 20
154.767665
 30
0.0
 10
28.808784
 20
155.082252
 30
0.0
 10
28.883153
 20
155.566232
 30
0.0
 10
29.091399
 20
162.479929
 30
0.0
  0
SPLINE
  5
172
100
AcDbEntity
  8
Layer_1
 62
7
100
AcDbSpline
 70
8
 71
3
 72
8
 73
4
 74
0
 40
0
 40
0
 40
0
 40
0
 40
1
 40
1
 40
1
 40
1
 10
29.091399
 20
162.479929
 30
0.0
 10
29.166332
 20
164.967800
 30
0.0
 10
29.289412
 20
167.179333
 30
0.0
 10
29.364909
 20
167.394459
 30
0.0
  0
SPLINE
  5
173
100
AcDbEntity
  8
Layer_1
 62
7
100
AcDbSpline
 70
8
 71
3
 72
8
 73
4
 74
0
 40
0
 40
0
 40
0
 40
0
 40
1
 40
1
 40
1
 40
1
 10
29.364909
 20
167.394459
 30
0.0
 10
29.553016
 20
167.930487
 30
0.0
 10
29.129465
 20
168.530652
 30
0.0
 10
28.300440
 20
168.902838
 30
0.0
  0
SPLINE
  5
174
100
AcDbEntity
  8
Layer_1
 62
7
100
AcDbSpline
 70
8
 71
3
 72
8
 73
4
 74
0
 40
0
 40
0
 40
0
 40
0
 40
1
 40
1
 40
1
 40
1
 10
28.300440
 20
168.902838
 30
0.0
 10
27.934448
 20
169.067140
 30
0.0
 10
27.439276
 20
169.291086
 30
0.0
 10
27.200059
 20
169.400517
 30
0.0
  0
SPLINE
  5
175
100
AcDbEntity
  8
Layer_1
 62
7
100
AcDbSpline
 70
8
 71
3
 72
8
 73
4
 74
0
 40
0
 40
0
 40
0
 40
0
 40
1
 40
1
 40
1
 40
1
 10
27.200059
 20
169.400517
 30
0.0
 10
26.524575
 20
169.709477
 30
0.0
 10
24.399235
 20
171.332563
 30
0.0
 10
23.697290
 20
172.075490
 30
0.0
  0
SPLINE
  5
176
100
AcDbEntity
  8
Layer_1
 62
7
100
AcDbSpline
 70
8
 71
3
 72
8
 73
4
 74
0
 40
0
 40
0
 40
0
 40
0
 40
1
 40
1
 40
1
 40
1
 10
23.697290
 20
172.075490
 30
0.0
 10
22.843618
 20
172.979002
 30
0.0
 10
22.232515
 20
174.003872
 30
0.0
 10
22.089636
 20
174.771647
 30
0.0
  0
SPLINE
  5
177
100
AcDbEntity
  8
Layer_1
 62
7
100
AcDbSpline
 70
8
 71
3
 72
8
 73
4
 74
0
 40
0
 40
0
 40
0
 40
0
 40
1
 40
1
 40
1
 40
1
 10
22.089636
 20
174.771647
 30
0.0
 10
22.024602
 20
175.121063
 30
0.0
 10
21.777788
 20
175.771091
 30
0.0
 10
21.541139
 20
176.216173
 30
0.0
  0
SPLINE
  5
178
100
AcDbEntity
  8
Layer_1
 62
7
100
AcDbSpline
 70
8
 71
3
 72
8
 73
4
 74
0
 40
0
 40
0
 40
0
 40
0
 40
1
 40
1
 40
1
 40
1
 10
21.541139
 20
176.216173
 30
0.0
 10
21.133859
 20
176.982161
 30
0.0
 10
21.110870
 20
177.177712
 30
0.0
 10
21.110870
 20
179.876228
 30
0.0
  0
LWPOLYLINE
  5
179
100
AcDbEntity
  8
Layer_1
 62
7
100
AcDbPolyline
 90
3
 70
1
 10
-0.044938
 20
77.166985
 30
0.0
 10
-0.147125
 20
78.668486
 30
0.0
 10
1.130741
 20
80.098207
 30
0.0
  0
SPLINE
  5
17a
100
AcDbEntity
  8
Layer_1
 62
7
100
AcDbSpline
 70
8
 71
3
 72
8
 73
4
 74
0
 40
0
 40
0
 40
0
 40
0
 40
1
 40
1
 40
1
 40
1
 10
21.806780
 20
183.531113
 30
0.0
 10
22.262087
 20
184.057184
 30
0.0
 10
22.502681
 20
184.503851
 30
0.0
 10
22.502681
 20
184.823064
 30
0.0
  0
SPLINE
  5
17b
100
AcDbEntity
  8
Layer_1
 62
7
100
AcDbSpline
 70
8
 71
3
 72
8
 73
4
 74
0
 40
0
 40
0
 40
0
 40
0
 40
1
 40
1
 40
1
 40
1
 10
22.502681
 20
184.823064
 30
0.0
 10
22.502681
 20
185.091387
 30
0.0
 10
22.678836
 20
185.535433
 30
0.0
 10
22.894127
 20
185.809795
 30
0.0
  0
SPLINE
  5
17c
100
AcDbEntity
  8
Layer_1
 62
7
100
AcDbSpline
 70
8
 71
3
 72
8
 73
4
 74
0
 40
0
 40
0
 40
0
 40
0
 40
1
 40
1
 40
1
 40
1
 10
22.894127
 20
185.809795
 30
0.0
 10
24.236112
 20
187.519997
 30
0.0
 10
26.511734
 20
189.529975
 30
0.0
 10
27.519720
 20
189.895411
 30
0.0
  0
SPLINE
  5
17d
100
AcDbEntity
  8
Layer_1
 62
7
100
AcDbSpline
 70
8
 71
3
 72
8
 73
4
 74
0
 40
0
 40
0
 40
0
 40
0
 40
1
 40
1
 40
1
 40
1
 10
27.519720
 20
189.895411
 30
0.0
 10
28.545719
 20
190.267374
 30
0.0
 10
29.518751
 20
190.850388
 30
0.0
 10
29.780631
 20
191.250063
 30
0.0
  0
SPLINE
  5
17e
100
AcDbEntity
  8
Layer_1
 62
7
100
AcDbSpline
 70
8
 71
3
 72
8
 73
4
 74
0
 40
0
 40
0
 40
0
 40
0
 40
1
 40
1
 40
1
 40
1
 10
29.780631
 20
191.250063
 30
0.0
 10
29.941252
 20
191.495201
 30
0.0
 10
30.120881
 20
192.337646
 30
0.0
 10
30.208364
 20
193.256132
 30
0.0
  0
SPLINE
  5
17f
100
AcDbEntity
  8
Layer_1
 62
7
100
AcDbSpline
 70
8
 71
3
 72
8
 73
4
 74
0
 40
0
 40
0
 40
0
 40
0
 40
1
 40
1
 40
1
 40
1
 10
30.208364
 20
193.256132
 30
0.0
 10
30.394077
 20
195.205980
 30
0.0
 10
30.559875
 20
203.211589
 30
0.0
 10
30.425619
 20
203.746493
 30
0.0
  0
SPLINE
  5
180
100
AcDbEntity
  8
Layer_1
 62
7
100
AcDbSpline
 70
8
 71
3
 72
8
 73
4
 74
0
 40
0
 40
0
 40
0
 40
0
 40
1
 40
1
 40
1
 40
1
 10
30.425619
 20
203.746493
 30
0.0
 10
30.356138
 20
204.023334
 30
0.0
 10
29.938111
 20
204.322670
 30
0.0
 10
28.981414
 20
204.780649
 30
0.0
  0
SPLINE
  5
181
100
AcDbEntity
  8
Layer_1
 62
7
100
AcDbSpline
 70
8
 71
3
 72
8
 73
4
 74
0
 40
0
 40
0
 40
0
 40
0
 40
1
 40
1
 40
1
 40
1
 10
28.981414
 20
204.780649
 30
0.0
 10
27.421262
 20
205.527516
 30
0.0
 10
26.075679
 20
206.564762
 30
0.0
 10
25.130499
 20
207.749147
 30
0.0
  0
SPLINE
  5
182
100
AcDbEntity
  8
Layer_1
 62
7
100
AcDbSpline
 70
8
 71
3
 72
8
 73
4
 74
0
 40
0
 40
0
 40
0
 40
0
 40
1
 40
1
 40
1
 40
1
 10
25.130499
 20
207.749147
 30
0.0
 10
24.299472
 20
208.790487
 30
0.0
 10
23.705092
 20
209.400065
 30
0.0
 10
23.289984
 20
209.636739
 30
0.0
  0
SPLINE
  5
183
100
AcDbEntity
  8
Layer_1
 62
7
100
AcDbSpline
 70
8
 71
3
 72
8
 73
4
 74
0
 40
0
 40
0
 40
0
 40
0
 40
1
 40
1
 40
1
 40
1
 10
23.289984
 20
209.636739
 30
0.0
 10
23.064994
 20
209.765012
 30
0.0
 10
22.927869
 20
210.129598
 30
0.0
 10
22.831942
 20
210.854573
 30
0.0
  0
SPLINE
  5
184
100
AcDbEntity
  8
Layer_1
 62
7
100
AcDbSpline
 70
8
 71
3
 72
8
 73
4
 74
0
 40
0
 40
0
 40
0
 40
0
 40
1
 40
1
 40
1
 40
1
 10
22.831942
 20
210.854573
 30
0.0
 10
22.756632
 20
211.423697
 30
0.0
 10
22.573452
 20
212.437312
 30
0.0
 10
22.424872
 20
213.107088
 30
0.0
  0
SPLINE
  5
185
100
AcDbEntity
  8
Layer_1
 62
7
100
AcDbSpline
 70
8
 71
3
 72
8
 73
4
 74
0
 40
0
 40
0
 40
0
 40
0
 40
1
 40
1
 40
1
 40
1
 10
22.424872
 20
213.107088
 30
0.0
 10
22.276292
 20
213.776866
 30
0.0
 10
22.154727
 20
215.109006
 30
0.0
 10
22.154727
 20
216.067410
 30
0.0
  0
SPLINE
  5
186
100
AcDbEntity
  8
Layer_1
 62
7
100
AcDbSpline
 70
8
 71
3
 72
8
 73
4
 74
0
 40
0
 40
0
 40
0
 40
0
 40
1
 40
1
 40
1
 40
1
 10
22.154727
 20
216.067410
 30
0.0
 10
22.154727
 20
217.499148
 30
0.0
 10
22.217389
 20
217.918085
 30
0.0
 10
22.505936
 20
218.416159
 30
0.0
  0
SPLINE
  5
187
100
AcDbEntity
  8
Layer_1
 62
7
100
AcDbSpline
 70
8
 71
3
 72
8
 73
4
 74
0
 40
0
 40
0
 40
0
 40
0
 40
1
 40
1
 40
1
 40
1
 10
22.505936
 20
218.416159
 30
0.0
 10
22.699097
 20
218.749571
 30
0.0
 10
22.976812
 20
219.296379
 30
0.0
 10
23.123088
 20
219.631289
 30
0.0
  0
SPLINE
  5
188
100
AcDbEntity
  8
Layer_1
 62
7
100
AcDbSpline
 70
8
 71
3
 72
8
 73
4
 74
0
 40
0
 40
0
 40
0
 40
0
 40
1
 40
1
 40
1
 40
1
 10
23.123088
 20
219.631289
 30
0.0
 10
23.846087
 20
221.286698
 30
0.0
 10
24.268558
 20
221.889403
 30
0.0
 10
25.640838
 20
223.223259
 30
0.0
  0
SPLINE
  5
189
100
AcDbEntity
  8
Layer_1
 62
7
100
AcDbSpline
 70
8
 71
3
 72
8
 73
4
 74
0
 40
0
 40
0
 40
0
 40
0
 40
1
 40
1
 40
1
 40
1
 10
25.640838
 20
223.223259
 30
0.0
 10
27.597324
 20
225.124951
 30
0.0
 10
28.583244
 20
225.805098
 30
0.0
 10
30.012925
 20
226.239342
 30
0.0
  0
SPLINE
  5
18a
100
AcDbEntity
  8
Layer_1
 62
7
100
AcDbSpline
 70
8
 71
3
 72
8
 73
4
 74
0
 40
0
 40
0
 40
0
 40
0
 40
1
 40
1
 40
1
 40
1
 10
30.012925
 20
226.239342
 30
0.0
 10
30.670799
 20
226.439167
 30
0.0
 10
31.262997
 20
226.730979
 30
0.0
 10
31.350752
 20
226.898574
 30
0.0
  0
SPLINE
  5
18b
100
AcDbEntity
  8
Layer_1
 62
7
100
AcDbSpline
 70
8
 71
3
 72
8
 73
4
 74
0
 40
0
 40
0
 40
0
 40
0
 40
1
 40
1
 40
1
 40
1
 10
31.350752
 20
226.898574
 30
0.0
 10
31.644565
 20
227.459730
 30
0.0
 10
31.773080
 20
230.486846
 30
0.0
 10
31.791783
 20
237.286931
 30
0.0
  0
LWPOLYLINE
  5
18c
100
AcDbEntity
  8
Layer_1
 62
7
100
AcDbPolyline
 90
3
 70
1
 10
21.110870
 20
179.876228
 30
0.0
 10
21.110870
 20
182.727062
 30
0.0
 10
21.806780
 20
183.531113
 30
0.0
  0
SPLINE
  5
18d
100
AcDbEntity
  8
Layer_1
 62
7
100
AcDbSpline
 70
8
 71
3
 72
8
 73
4
 74
0
 40
0
 40
0
 40
0
 40
0
 40
1
 40
1
 40
1
 40
1
 10
31.139903
 20
244.178069
 30
0.0
 10
30.771109
 20
244.238025
 30
0.0
 10
30.400430
 20
244.395948
 30
0.0
 10
30.316178
 20
244.529016
 30
0.0
  0
SPLINE
  5
18e
100
AcDbEntity
  8
Layer_1
 62
7
100
AcDbSpline
 70
8
 71
3
 72
8
 73
4
 74
0
 40
0
 40
0
 40
0
 40
0
 40
1
 40
1
 40
1
 40
1
 10
30.316178
 20
244.529016
 30
0.0
 10
29.977862
 20
245.063254
 30
0.0
 10
30.150599
 20
247.054854
 30
0.0
 10
30.678580
 20
248.707567
 30
0.0
  0
SPLINE
  5
18f
100
AcDbEntity
  8
Layer_1
 62
7
100
AcDbSpline
 70
8
 71
3
 72
8
 73
4
 74
0
 40
0
 40
0
 40
0
 40
0
 40
1
 40
1
 40
1
 40
1
 10
30.678580
 20
248.707567
 30
0.0
 10
30.965095
 20
249.604396
 30
0.0
 10
31.199963
 20
250.712578
 30
0.0
 10
31.200513
 20
251.170153
 30
0.0
  0
SPLINE
  5
190
100
AcDbEntity
  8
Layer_1
 62
7
100
AcDbSpline
 70
8
 71
3
 72
8
 73
4
 74
0
 40
0
 40
0
 40
0
 40
0
 40
1
 40
1
 40
1
 40
1
 10
31.200513
 20
251.170153
 30
0.0
 10
31.200779
 20
251.627748
 30
0.0
 10
31.329040
 20
252.293209
 30
0.0
 10
31.484906
 20
252.648955
 30
0.0
  0
SPLINE
  5
191
100
AcDbEntity
  8
Layer_1
 62
7
100
AcDbSpline
 70
8
 71
3
 72
8
 73
4
 74
0
 40
0
 40
0
 40
0
 40
0
 40
1
 40
1
 40
1
 40
1
 10
31.484906
 20
252.648955
 30
0.0
 10
31.640769
 20
253.004713
 30
0.0
 10
31.822619
 20
253.978902
 30
0.0
 10
31.889017
 20
254.813814
 30
0.0
  0
SPLINE
  5
192
100
AcDbEntity
  8
Layer_1
 62
7
100
AcDbSpline
 70
8
 71
3
 72
8
 73
4
 74
0
 40
0
 40
0
 40
0
 40
0
 40
1
 40
1
 40
1
 40
1
 10
31.889017
 20
254.813814
 30
0.0
 10
31.971906
 20
255.856024
 30
0.0
 10
32.101206
 20
256.432898
 30
0.0
 10
32.301541
 20
256.654264
 30
0.0
  0
SPLINE
  5
193
100
AcDbEntity
  8
Layer_1
 62
7
100
AcDbSpline
 70
8
 71
3
 72
8
 73
4
 74
0
 40
0
 40
0
 40
0
 40
0
 40
1
 40
1
 40
1
 40
1
 10
32.301541
 20
256.654264
 30
0.0
 10
32.501044
 20
256.874711
 30
0.0
 10
32.593334
 20
257.282965
 30
0.0
 10
32.593334
 20
257.945033
 30
0.0
  0
SPLINE
  5
194
100
AcDbEntity
  8
Layer_1
 62
7
100
AcDbSpline
 70
8
 71
3
 72
8
 73
4
 74
0
 40
0
 40
0
 40
0
 40
0
 40
1
 40
1
 40
1
 40
1
 10
32.593334
 20
257.945033
 30
0.0
 10
32.593334
 20
258.477626
 30
0.0
 10
32.741610
 20
259.410921
 30
0.0
 10
32.922839
 20
260.019059
 30
0.0
  0
SPLINE
  5
195
100
AcDbEntity
  8
Layer_1
 62
7
100
AcDbSpline
 70
8
 71
3
 72
8
 73
4
 74
0
 40
0
 40
0
 40
0
 40
0
 40
1
 40
1
 40
1
 40
1
 10
32.922839
 20
260.019059
 30
0.0
 10
33.104066
 20
260.627177
 30
0.0
 10
33.297430
 20
261.490292
 30
0.0
 10
33.352526
 20
261.937103
 30
0.0
  0
SPLINE
  5
196
100
AcDbEntity
  8
Layer_1
 62
7
100
AcDbSpline
 70
8
 71
3
 72
8
 73
4
 74
0
 40
0
 40
0
 40
0
 40
0
 40
1
 40
1
 40
1
 40
1
 10
33.352526
 20
261.937103
 30
0.0
 10
33.474214
 20
262.923777
 30
0.0
 10
34.143532
 20
264.178656
 30
0.0
 10
34.704175
 20
264.471233
 30
0.0
  0
SPLINE
  5
197
100
AcDbEntity
  8
Layer_1
 62
7
100
AcDbSpline
 70
8
 71
3
 72
8
 73
4
 74
0
 40
0
 40
0
 40
0
 40
0
 40
1
 40
1
 40
1
 40
1
 10
34.704175
 20
264.471233
 30
0.0
 10
34.930681
 20
264.589428
 30
0.0
 10
35.392160
 20
264.687297
 30
0.0
 10
35.729697
 20
264.688705
 30
0.0
  0
SPLINE
  5
198
100
AcDbEntity
  8
Layer_1
 62
7
100
AcDbSpline
 70
8
 71
3
 72
8
 73
4
 74
0
 40
0
 40
0
 40
0
 40
0
 40
1
 40
1
 40
1
 40
1
 10
35.729697
 20
264.688705
 30
0.0
 10
36.067235
 20
264.690963
 30
0.0
 10
36.536963
 20
264.826839
 30
0.0
 10
36.773547
 20
264.992548
 30
0.0
  0
SPLINE
  5
199
100
AcDbEntity
  8
Layer_1
 62
7
100
AcDbSpline
 70
8
 71
3
 72
8
 73
4
 74
0
 40
0
 40
0
 40
0
 40
0
 40
1
 40
1
 40
1
 40
1
 10
36.773547
 20
264.992548
 30
0.0
 10
37.010131
 20
265.158249
 30
0.0
 10
37.556003
 20
265.334395
 30
0.0
 10
37.986597
 20
265.383999
 30
0.0
  0
SPLINE
  5
19a
100
AcDbEntity
  8
Layer_1
 62
7
100
AcDbSpline
 70
8
 71
3
 72
8
 73
4
 74
0
 40
0
 40
0
 40
0
 40
0
 40
1
 40
1
 40
1
 40
1
 10
37.986597
 20
265.383999
 30
0.0
 10
38.746348
 20
265.471493
 30
0.0
 10
38.769507
 20
265.491971
 30
0.0
 10
38.769507
 20
266.076411
 30
0.0
  0
SPLINE
  5
19b
100
AcDbEntity
  8
Layer_1
 62
7
100
AcDbSpline
 70
8
 71
3
 72
8
 73
4
 74
0
 40
0
 40
0
 40
0
 40
0
 40
1
 40
1
 40
1
 40
1
 10
38.769507
 20
266.076411
 30
0.0
 10
38.769507
 20
266.760244
 30
0.0
 10
38.558371
 20
266.907581
 30
0.0
 10
36.900426
 20
267.380744
 30
0.0
  0
SPLINE
  5
19c
100
AcDbEntity
  8
Layer_1
 62
7
100
AcDbSpline
 70
8
 71
3
 72
8
 73
4
 74
0
 40
0
 40
0
 40
0
 40
0
 40
1
 40
1
 40
1
 40
1
 10
36.900426
 20
267.380744
 30
0.0
 10
35.793722
 20
267.696581
 30
0.0
 10
35.573758
 20
268.041406
 30
0.0
 10
35.809696
 20
269.090573
 30
0.0
  0
SPLINE
  5
19d
100
AcDbEntity
  8
Layer_1
 62
7
100
AcDbSpline
 70
8
 71
3
 72
8
 73
4
 74
0
 40
0
 40
0
 40
0
 40
0
 40
1
 40
1
 40
1
 40
1
 10
35.809696
 20
269.090573
 30
0.0
 10
36.029415
 20
270.067629
 30
0.0
 10
36.442244
 20
273.997094
 30
0.0
 10
36.764039
 20
278.174458
 30
0.0
  0
SPLINE
  5
19e
100
AcDbEntity
  8
Layer_1
 62
7
100
AcDbSpline
 70
8
 71
3
 72
8
 73
4
 74
0
 40
0
 40
0
 40
0
 40
0
 40
1
 40
1
 40
1
 40
1
 10
36.764039
 20
278.174458
 30
0.0
 10
36.859865
 20
279.418393
 30
0.0
 10
37.018575
 20
280.945040
 30
0.0
 10
37.116724
 20
281.567003
 30
0.0
  0
SPLINE
  5
19f
100
AcDbEntity
  8
Layer_1
 62
7
100
AcDbSpline
 70
8
 71
3
 72
8
 73
4
 74
0
 40
0
 40
0
 40
0
 40
0
 40
1
 40
1
 40
1
 40
1
 10
37.116724
 20
281.567003
 30
0.0
 10
37.214878
 20
282.188965
 30
0.0
 10
37.369908
 20
283.715617
 30
0.0
 10
37.461241
 20
284.959547
 30
0.0
  0
SPLINE
  5
1a0
100
AcDbEntity
  8
Layer_1
 62
7
100
AcDbSpline
 70
8
 71
3
 72
8
 73
4
 74
0
 40
0
 40
0
 40
0
 40
0
 40
1
 40
1
 40
1
 40
1
 10
37.461241
 20
284.959547
 30
0.0
 10
37.552562
 20
286.203482
 30
0.0
 10
37.710262
 20
288.043281
 30
0.0
 10
37.811673
 20
289.048001
 30
0.0
  0
SPLINE
  5
1a1
100
AcDbEntity
  8
Layer_1
 62
7
100
AcDbSpline
 70
8
 71
3
 72
8
 73
4
 74
0
 40
0
 40
0
 40
0
 40
0
 40
1
 40
1
 40
1
 40
1
 10
37.811673
 20
289.048001
 30
0.0
 10
38.189795
 20
292.794050
 30
0.0
 10
38.339423
 20
294.411024
 30
0.0
 10
38.503970
 20
296.529000
 30
0.0
  0
SPLINE
  5
1a2
100
AcDbEntity
  8
Layer_1
 62
7
100
AcDbSpline
 70
8
 71
3
 72
8
 73
4
 74
0
 40
0
 40
0
 40
0
 40
0
 40
1
 40
1
 40
1
 40
1
 10
38.503970
 20
296.529000
 30
0.0
 10
38.596900
 20
297.725090
 30
0.0
 10
38.754995
 20
299.604041
 30
0.0
 10
38.855294
 20
300.704441
 30
0.0
  0
SPLINE
  5
1a3
100
AcDbEntity
  8
Layer_1
 62
7
100
AcDbSpline
 70
8
 71
3
 72
8
 73
4
 74
0
 40
0
 40
0
 40
0
 40
0
 40
1
 40
1
 40
1
 40
1
 10
38.855294
 20
300.704441
 30
0.0
 10
39.143985
 20
303.871876
 30
0.0
 10
39.373765
 20
306.692320
 30
0.0
 10
39.549801
 20
309.229302
 30
0.0
  0
SPLINE
  5
1a4
100
AcDbEntity
  8
Layer_1
 62
7
100
AcDbSpline
 70
8
 71
3
 72
8
 73
4
 74
0
 40
0
 40
0
 40
0
 40
0
 40
1
 40
1
 40
1
 40
1
 10
39.549801
 20
309.229302
 30
0.0
 10
39.733576
 20
311.877695
 30
0.0
 10
39.992441
 20
314.603862
 30
0.0
 10
40.243664
 20
316.536323
 30
0.0
  0
SPLINE
  5
1a5
100
AcDbEntity
  8
Layer_1
 62
7
100
AcDbSpline
 70
8
 71
3
 72
8
 73
4
 74
0
 40
0
 40
0
 40
0
 40
0
 40
1
 40
1
 40
1
 40
1
 10
40.243664
 20
316.536323
 30
0.0
 10
40.336958
 20
317.253984
 30
0.0
 10
40.477384
 20
318.663190
 30
0.0
 10
40.555717
 20
319.667910
 30
0.0
  0
SPLINE
  5
1a6
100
AcDbEntity
  8
Layer_1
 62
7
100
AcDbSpline
 70
8
 71
3
 72
8
 73
4
 74
0
 40
0
 40
0
 40
0
 40
0
 40
1
 40
1
 40
1
 40
1
 10
40.555717
 20
319.667910
 30
0.0
 10
40.650665
 20
320.885778
 30
0.0
 10
40.811636
 20
321.726622
 30
0.0
 10
41.038647
 20
322.190571
 30
0.0
  0
LWPOLYLINE
  5
1a7
100
AcDbEntity
  8
Layer_1
 62
7
100
AcDbPolyline
 90
3
 70
1
 10
31.791783
 20
237.286931
 30
0.0
 10
31.810438
 20
244.069039
 30
0.0
 10
31.139903
 20
244.178069
 30
0.0
  0
SPLINE
  5
1a8
100
AcDbEntity
  8
Layer_1
 62
7
100
AcDbSpline
 70
8
 71
3
 72
8
 73
4
 74
0
 40
0
 40
0
 40
0
 40
0
 40
1
 40
1
 40
1
 40
1
 10
44.423748
 20
323.452068
 30
0.0
 10
44.423748
 20
324.242877
 30
0.0
 10
44.216100
 20
324.472441
 30
0.0
 10
42.907704
 20
325.128053
 30
0.0
  0
SPLINE
  5
1a9
100
AcDbEntity
  8
Layer_1
 62
7
100
AcDbSpline
 70
8
 71
3
 72
8
 73
4
 74
0
 40
0
 40
0
 40
0
 40
0
 40
1
 40
1
 40
1
 40
1
 10
42.907704
 20
325.128053
 30
0.0
 10
42.408780
 20
325.378042
 30
0.0
 10
41.919466
 20
325.734119
 30
0.0
 10
41.820349
 20
325.919333
 30
0.0
  0
SPLINE
  5
1aa
100
AcDbEntity
  8
Layer_1
 62
7
100
AcDbSpline
 70
8
 71
3
 72
8
 73
4
 74
0
 40
0
 40
0
 40
0
 40
0
 40
1
 40
1
 40
1
 40
1
 10
41.820349
 20
325.919333
 30
0.0
 10
41.536163
 20
326.450332
 30
0.0
 10
41.609583
 20
327.612145
 30
0.0
 10
41.964173
 20
328.195236
 30
0.0
  0
SPLINE
  5
1ab
100
AcDbEntity
  8
Layer_1
 62
7
100
AcDbSpline
 70
8
 71
3
 72
8
 73
4
 74
0
 40
0
 40
0
 40
0
 40
0
 40
1
 40
1
 40
1
 40
1
 10
41.964173
 20
328.195236
 30
0.0
 10
42.251701
 20
328.668014
 30
0.0
 10
43.798340
 20
330.425615
 30
0.0
 10
45.489625
 20
332.201510
 30
0.0
  0
SPLINE
  5
1ac
100
AcDbEntity
  8
Layer_1
 62
7
100
AcDbSpline
 70
8
 71
3
 72
8
 73
4
 74
0
 40
0
 40
0
 40
0
 40
0
 40
1
 40
1
 40
1
 40
1
 10
45.489625
 20
332.201510
 30
0.0
 10
46.126197
 20
332.869950
 30
0.0
 10
47.701922
 20
333.822462
 30
0.0
 10
48.468605
 20
334.002294
 30
0.0
  0
SPLINE
  5
1ad
100
AcDbEntity
  8
Layer_1
 62
7
100
AcDbSpline
 70
8
 71
3
 72
8
 73
4
 74
0
 40
0
 40
0
 40
0
 40
0
 40
1
 40
1
 40
1
 40
1
 10
48.468605
 20
334.002294
 30
0.0
 10
48.760594
 20
334.070789
 30
0.0
 10
49.106771
 20
334.367701
 30
0.0
 10
49.357252
 20
334.764469
 30
0.0
  0
SPLINE
  5
1ae
100
AcDbEntity
  8
Layer_1
 62
7
100
AcDbSpline
 70
8
 71
3
 72
8
 73
4
 74
0
 40
0
 40
0
 40
0
 40
0
 40
1
 40
1
 40
1
 40
1
 10
49.357252
 20
334.764469
 30
0.0
 10
49.582922
 20
335.121982
 30
0.0
 10
49.977099
 20
335.526590
 30
0.0
 10
50.233191
 20
335.663651
 30
0.0
  0
SPLINE
  5
1af
100
AcDbEntity
  8
Layer_1
 62
7
100
AcDbSpline
 70
8
 71
3
 72
8
 73
4
 74
0
 40
0
 40
0
 40
0
 40
0
 40
1
 40
1
 40
1
 40
1
 10
50.233191
 20
335.663651
 30
0.0
 10
50.489271
 20
335.800707
 30
0.0
 10
50.859097
 20
336.172204
 30
0.0
 10
51.055002
 20
336.489193
 30
0.0
  0
SPLINE
  5
1b0
100
AcDbEntity
  8
Layer_1
 62
7
100
AcDbSpline
 70
8
 71
3
 72
8
 73
4
 74
0
 40
0
 40
0
 40
0
 40
0
 40
1
 40
1
 40
1
 40
1
 10
51.055002
 20
336.489193
 30
0.0
 10
51.250909
 20
336.806177
 30
0.0
 10
51.463530
 20
337.065889
 30
0.0
 10
51.527481
 20
337.066321
 30
0.0
  0
SPLINE
  5
1b1
100
AcDbEntity
  8
Layer_1
 62
7
100
AcDbSpline
 70
8
 71
3
 72
8
 73
4
 74
0
 40
0
 40
0
 40
0
 40
0
 40
1
 40
1
 40
1
 40
1
 10
51.527481
 20
337.066321
 30
0.0
 10
51.591470
 20
337.066321
 30
0.0
 10
51.887278
 20
337.295381
 30
0.0
 10
52.184895
 20
337.574349
 30
0.0
  0
SPLINE
  5
1b2
100
AcDbEntity
  8
Layer_1
 62
7
100
AcDbSpline
 70
8
 71
3
 72
8
 73
4
 74
0
 40
0
 40
0
 40
0
 40
0
 40
1
 40
1
 40
1
 40
1
 10
52.184895
 20
337.574349
 30
0.0
 10
52.482513
 20
337.853326
 30
0.0
 10
52.952246
 20
338.107399
 30
0.0
 10
53.228759
 20
338.138980
 30
0.0
  0
LWPOLYLINE
  5
1b3
100
AcDbEntity
  8
Layer_1
 62
7
100
AcDbPolyline
 90
5
 70
1
 10
41.038647
 20
322.190571
 30
0.0
 10
41.379157
 20
322.886476
 30
0.0
 10
42.901449
 20
322.826648
 30
0.0
 10
44.423748
 20
322.766819
 30
0.0
 10
44.423748
 20
323.452068
 30
0.0
  0
SPLINE
  5
1b4
100
AcDbEntity
  8
Layer_1
 62
7
100
AcDbSpline
 70
8
 71
3
 72
8
 73
4
 74
0
 40
0
 40
0
 40
0
 40
0
 40
1
 40
1
 40
1
 40
1
 10
53.781977
 20
339.630025
 30
0.0
 10
53.811091
 20
340.457472
 30
0.0
 10
53.749976
 20
341.217720
 30
0.0
 10
53.637488
 20
341.428001
 30
0.0
  0
SPLINE
  5
1b5
100
AcDbEntity
  8
Layer_1
 62
7
100
AcDbSpline
 70
8
 71
3
 72
8
 73
4
 74
0
 40
0
 40
0
 40
0
 40
0
 40
1
 40
1
 40
1
 40
1
 10
53.637488
 20
341.428001
 30
0.0
 10
53.386014
 20
341.897881
 30
0.0
 10
52.451787
 20
342.284816
 30
0.0
 10
51.568790
 20
342.284816
 30
0.0
  0
SPLINE
  5
1b6
100
AcDbEntity
  8
Layer_1
 62
7
100
AcDbSpline
 70
8
 71
3
 72
8
 73
4
 74
0
 40
0
 40
0
 40
0
 40
0
 40
1
 40
1
 40
1
 40
1
 10
51.568790
 20
342.284816
 30
0.0
 10
51.186512
 20
342.284816
 30
0.0
 10
50.498968
 20
342.428193
 30
0.0
 10
50.040904
 20
342.603405
 30
0.0
  0
SPLINE
  5
1b7
100
AcDbEntity
  8
Layer_1
 62
7
100
AcDbSpline
 70
8
 71
3
 72
8
 73
4
 74
0
 40
0
 40
0
 40
0
 40
0
 40
1
 40
1
 40
1
 40
1
 10
50.040904
 20
342.603405
 30
0.0
 10
49.582855
 20
342.778637
 30
0.0
 10
48.738341
 20
343.020764
 30
0.0
 10
48.164219
 20
343.141459
 30
0.0
  0
SPLINE
  5
1b8
100
AcDbEntity
  8
Layer_1
 62
7
100
AcDbSpline
 70
8
 71
3
 72
8
 73
4
 74
0
 40
0
 40
0
 40
0
 40
0
 40
1
 40
1
 40
1
 40
1
 10
48.164219
 20
343.141459
 30
0.0
 10
47.590095
 20
343.262166
 30
0.0
 10
46.768046
 20
343.507803
 30
0.0
 10
46.337460
 20
343.687333
 30
0.0
  0
SPLINE
  5
1b9
100
AcDbEntity
  8
Layer_1
 62
7
100
AcDbSpline
 70
8
 71
3
 72
8
 73
4
 74
0
 40
0
 40
0
 40
0
 40
0
 40
1
 40
1
 40
1
 40
1
 10
46.337460
 20
343.687333
 30
0.0
 10
45.906865
 20
343.866863
 30
0.0
 10
45.231564
 20
344.094871
 30
0.0
 10
44.836780
 20
344.194041
 30
0.0
  0
SPLINE
  5
1ba
100
AcDbEntity
  8
Layer_1
 62
7
100
AcDbSpline
 70
8
 71
3
 72
8
 73
4
 74
0
 40
0
 40
0
 40
0
 40
0
 40
1
 40
1
 40
1
 40
1
 10
44.836780
 20
344.194041
 30
0.0
 10
44.095647
 20
344.380180
 30
0.0
 10
42.460085
 20
345.555357
 30
0.0
 10
42.158886
 20
346.118164
 30
0.0
  0
SPLINE
  5
1bb
100
AcDbEntity
  8
Layer_1
 62
7
100
AcDbSpline
 70
8
 71
3
 72
8
 73
4
 74
0
 40
0
 40
0
 40
0
 40
0
 40
1
 40
1
 40
1
 40
1
 10
42.158886
 20
346.118164
 30
0.0
 10
41.882588
 20
346.634430
 30
0.0
 10
41.961926
 20
347.551455
 30
0.0
 10
42.339243
 20
348.202745
 30
0.0
  0
SPLINE
  5
1bc
100
AcDbEntity
  8
Layer_1
 62
7
100
AcDbSpline
 70
8
 71
3
 72
8
 73
4
 74
0
 40
0
 40
0
 40
0
 40
0
 40
1
 40
1
 40
1
 40
1
 10
42.339243
 20
348.202745
 30
0.0
 10
42.532404
 20
348.536148
 30
0.0
 10
42.801314
 20
349.048633
 30
0.0
 10
42.936809
 20
349.341591
 30
0.0
  0
SPLINE
  5
1bd
100
AcDbEntity
  8
Layer_1
 62
7
100
AcDbSpline
 70
8
 71
3
 72
8
 73
4
 74
0
 40
0
 40
0
 40
0
 40
0
 40
1
 40
1
 40
1
 40
1
 10
42.936809
 20
349.341591
 30
0.0
 10
43.483251
 20
350.523083
 30
0.0
 10
47.400275
 20
354.463187
 30
0.0
 10
48.028380
 20
354.463187
 30
0.0
  0
SPLINE
  5
1be
100
AcDbEntity
  8
Layer_1
 62
7
100
AcDbSpline
 70
8
 71
3
 72
8
 73
4
 74
0
 40
0
 40
0
 40
0
 40
0
 40
1
 40
1
 40
1
 40
1
 10
48.028380
 20
354.463187
 30
0.0
 10
48.321685
 20
354.463187
 30
0.0
 10
49.365874
 20
355.335677
 30
0.0
 10
49.695357
 20
355.856078
 30
0.0
  0
SPLINE
  5
1bf
100
AcDbEntity
  8
Layer_1
 62
7
100
AcDbSpline
 70
8
 71
3
 72
8
 73
4
 74
0
 40
0
 40
0
 40
0
 40
0
 40
1
 40
1
 40
1
 40
1
 10
49.695357
 20
355.856078
 30
0.0
 10
49.876741
 20
356.142554
 30
0.0
 10
50.122754
 20
356.376936
 30
0.0
 10
50.242058
 20
356.376936
 30
0.0
  0
SPLINE
  5
1c0
100
AcDbEntity
  8
Layer_1
 62
7
100
AcDbSpline
 70
8
 71
3
 72
8
 73
4
 74
0
 40
0
 40
0
 40
0
 40
0
 40
1
 40
1
 40
1
 40
1
 10
50.242058
 20
356.376936
 30
0.0
 10
50.556341
 20
356.376936
 30
0.0
 10
50.988886
 20
356.910398
 30
0.0
 10
51.128648
 20
357.470358
 30
0.0
  0
SPLINE
  5
1c1
100
AcDbEntity
  8
Layer_1
 62
7
100
AcDbSpline
 70
8
 71
3
 72
8
 73
4
 74
0
 40
0
 40
0
 40
0
 40
0
 40
1
 40
1
 40
1
 40
1
 10
51.128648
 20
357.470358
 30
0.0
 10
51.195343
 20
357.737552
 30
0.0
 10
51.455026
 20
358.061763
 30
0.0
 10
51.707627
 20
358.193183
 30
0.0
  0
SPLINE
  5
1c2
100
AcDbEntity
  8
Layer_1
 62
7
100
AcDbSpline
 70
8
 71
3
 72
8
 73
4
 74
0
 40
0
 40
0
 40
0
 40
0
 40
1
 40
1
 40
1
 40
1
 10
51.707627
 20
358.193183
 30
0.0
 10
51.959555
 20
358.324258
 30
0.0
 10
52.341306
 20
358.634680
 30
0.0
 10
52.555975
 20
358.883013
 30
0.0
  0
SPLINE
  5
1c3
100
AcDbEntity
  8
Layer_1
 62
7
100
AcDbSpline
 70
8
 71
3
 72
8
 73
4
 74
0
 40
0
 40
0
 40
0
 40
0
 40
1
 40
1
 40
1
 40
1
 10
52.555975
 20
358.883013
 30
0.0
 10
52.782583
 20
359.145161
 30
0.0
 10
53.129169
 20
359.334540
 30
0.0
 10
53.382367
 20
359.334540
 30
0.0
  0
SPLINE
  5
1c4
100
AcDbEntity
  8
Layer_1
 62
7
100
AcDbSpline
 70
8
 71
3
 72
8
 73
4
 74
0
 40
0
 40
0
 40
0
 40
0
 40
1
 40
1
 40
1
 40
1
 10
53.382367
 20
359.334540
 30
0.0
 10
53.775161
 20
359.334540
 30
0.0
 10
53.818463
 20
359.403640
 30
0.0
 10
53.818463
 20
360.030441
 30
0.0
  0
SPLINE
  5
1c5
100
AcDbEntity
  8
Layer_1
 62
7
100
AcDbSpline
 70
8
 71
3
 72
8
 73
4
 74
0
 40
0
 40
0
 40
0
 40
0
 40
1
 40
1
 40
1
 40
1
 10
53.818463
 20
360.030441
 30
0.0
 10
53.818463
 20
360.655685
 30
0.0
 10
53.774588
 20
360.726350
 30
0.0
 10
53.386014
 20
360.726350
 30
0.0
  0
SPLINE
  5
1c6
100
AcDbEntity
  8
Layer_1
 62
7
100
AcDbSpline
 70
8
 71
3
 72
8
 73
4
 74
0
 40
0
 40
0
 40
0
 40
0
 40
1
 40
1
 40
1
 40
1
 10
53.386014
 20
360.726350
 30
0.0
 10
52.974915
 20
360.726350
 30
0.0
 10
52.336271
 20
360.846044
 30
0.0
 10
50.773869
 20
361.215941
 30
0.0
  0
SPLINE
  5
1c7
100
AcDbEntity
  8
Layer_1
 62
7
100
AcDbSpline
 70
8
 71
3
 72
8
 73
4
 74
0
 40
0
 40
0
 40
0
 40
0
 40
1
 40
1
 40
1
 40
1
 10
50.773869
 20
361.215941
 30
0.0
 10
49.586501
 20
361.497051
 30
0.0
 10
47.297744
 20
362.357925
 30
0.0
 10
45.504780
 20
363.197813
 30
0.0
  0
SPLINE
  5
1c8
100
AcDbEntity
  8
Layer_1
 62
7
100
AcDbSpline
 70
8
 71
3
 72
8
 73
4
 74
0
 40
0
 40
0
 40
0
 40
0
 40
1
 40
1
 40
1
 40
1
 10
45.504780
 20
363.197813
 30
0.0
 10
44.618873
 20
363.612798
 30
0.0
 10
42.944054
 20
365.100467
 30
0.0
 10
42.588313
 20
365.788398
 30
0.0
  0
SPLINE
  5
1c9
100
AcDbEntity
  8
Layer_1
 62
7
100
AcDbSpline
 70
8
 71
3
 72
8
 73
4
 74
0
 40
0
 40
0
 40
0
 40
0
 40
1
 40
1
 40
1
 40
1
 10
42.588313
 20
365.788398
 30
0.0
 10
42.449544
 20
366.056752
 30
0.0
 10
42.335998
 20
366.738310
 30
0.0
 10
42.335998
 20
367.302964
 30
0.0
  0
SPLINE
  5
1ca
100
AcDbEntity
  8
Layer_1
 62
7
100
AcDbSpline
 70
8
 71
3
 72
8
 73
4
 74
0
 40
0
 40
0
 40
0
 40
0
 40
1
 40
1
 40
1
 40
1
 10
42.335998
 20
367.302964
 30
0.0
 10
42.335998
 20
368.155334
 30
0.0
 10
42.417210
 20
368.435761
 30
0.0
 10
42.814432
 20
368.955016
 30
0.0
  0
SPLINE
  5
1cb
100
AcDbEntity
  8
Layer_1
 62
7
100
AcDbSpline
 70
8
 71
3
 72
8
 73
4
 74
0
 40
0
 40
0
 40
0
 40
0
 40
1
 40
1
 40
1
 40
1
 10
42.814432
 20
368.955016
 30
0.0
 10
43.567313
 20
369.939187
 30
0.0
 10
44.612326
 20
371.165282
 30
0.0
 10
45.509284
 20
372.116887
 30
0.0
  0
SPLINE
  5
1cc
100
AcDbEntity
  8
Layer_1
 62
7
100
AcDbSpline
 70
8
 71
3
 72
8
 73
4
 74
0
 40
0
 40
0
 40
0
 40
0
 40
1
 40
1
 40
1
 40
1
 10
45.509284
 20
372.116887
 30
0.0
 10
46.200670
 20
372.850372
 30
0.0
 10
46.335699
 20
373.104134
 30
0.0
 10
46.345119
 20
373.687618
 30
0.0
  0
SPLINE
  5
1cd
100
AcDbEntity
  8
Layer_1
 62
7
100
AcDbSpline
 70
8
 71
3
 72
8
 73
4
 74
0
 40
0
 40
0
 40
0
 40
0
 40
1
 40
1
 40
1
 40
1
 10
46.345119
 20
373.687618
 30
0.0
 10
46.355421
 20
374.321988
 30
0.0
 10
46.428598
 20
374.429681
 30
0.0
 10
47.173298
 20
374.905455
 30
0.0
  0
SPLINE
  5
1ce
100
AcDbEntity
  8
Layer_1
 62
7
100
AcDbSpline
 70
8
 71
3
 72
8
 73
4
 74
0
 40
0
 40
0
 40
0
 40
0
 40
1
 40
1
 40
1
 40
1
 10
47.173298
 20
374.905455
 30
0.0
 10
47.748828
 20
375.273156
 30
0.0
 10
48.048060
 20
375.607327
 30
0.0
 10
48.185888
 20
376.036305
 30
0.0
  0
SPLINE
  5
1cf
100
AcDbEntity
  8
Layer_1
 62
7
100
AcDbSpline
 70
8
 71
3
 72
8
 73
4
 74
0
 40
0
 40
0
 40
0
 40
0
 40
1
 40
1
 40
1
 40
1
 10
48.185888
 20
376.036305
 30
0.0
 10
48.331845
 20
376.490553
 30
0.0
 10
48.492520
 20
376.658723
 30
0.0
 10
48.818481
 20
376.698353
 30
0.0
  0
SPLINE
  5
1d0
100
AcDbEntity
  8
Layer_1
 62
7
100
AcDbSpline
 70
8
 71
3
 72
8
 73
4
 74
0
 40
0
 40
0
 40
0
 40
0
 40
1
 40
1
 40
1
 40
1
 10
48.818481
 20
376.698353
 30
0.0
 10
49.151407
 20
376.738886
 30
0.0
 10
49.281345
 20
376.881103
 30
0.0
 10
49.364302
 20
377.295860
 30
0.0
  0
SPLINE
  5
1d1
100
AcDbEntity
  8
Layer_1
 62
7
100
AcDbSpline
 70
8
 71
3
 72
8
 73
4
 74
0
 40
0
 40
0
 40
0
 40
0
 40
1
 40
1
 40
1
 40
1
 10
49.364302
 20
377.295860
 30
0.0
 10
49.515835
 20
378.053514
 30
0.0
 10
49.948948
 20
378.471775
 30
0.0
 10
50.583363
 20
378.473133
 30
0.0
  0
SPLINE
  5
1d2
100
AcDbEntity
  8
Layer_1
 62
7
100
AcDbSpline
 70
8
 71
3
 72
8
 73
4
 74
0
 40
0
 40
0
 40
0
 40
0
 40
1
 40
1
 40
1
 40
1
 10
50.583363
 20
378.473133
 30
0.0
 10
50.879516
 20
378.473133
 30
0.0
 10
51.356692
 20
378.629806
 30
0.0
 10
51.643748
 20
378.819930
 30
0.0
  0
SPLINE
  5
1d3
100
AcDbEntity
  8
Layer_1
 62
7
100
AcDbSpline
 70
8
 71
3
 72
8
 73
4
 74
0
 40
0
 40
0
 40
0
 40
0
 40
1
 40
1
 40
1
 40
1
 10
51.643748
 20
378.819930
 30
0.0
 10
51.930814
 20
379.010055
 30
0.0
 10
52.459263
 20
379.166110
 30
0.0
 10
52.818092
 20
379.166742
 30
0.0
  0
LWPOLYLINE
  5
1d4
100
AcDbEntity
  8
Layer_1
 62
7
100
AcDbPolyline
 90
3
 70
1
 10
53.228759
 20
338.138980
 30
0.0
 10
53.731507
 20
338.196373
 30
0.0
 10
53.781977
 20
339.630025
 30
0.0
  0
SPLINE
  5
1d5
100
AcDbEntity
  8
Layer_1
 62
7
100
AcDbSpline
 70
8
 71
3
 72
8
 73
4
 74
0
 40
0
 40
0
 40
0
 40
0
 40
1
 40
1
 40
1
 40
1
 10
53.470508
 20
380.017348
 30
0.0
 10
53.470508
 20
380.805863
 30
0.0
 10
53.417862
 20
380.909049
 30
0.0
 10
52.731106
 20
381.467135
 30
0.0
  0
SPLINE
  5
1d6
100
AcDbEntity
  8
Layer_1
 62
7
100
AcDbSpline
 70
8
 71
3
 72
8
 73
4
 74
0
 40
0
 40
0
 40
0
 40
0
 40
1
 40
1
 40
1
 40
1
 10
52.731106
 20
381.467135
 30
0.0
 10
52.324435
 20
381.797598
 30
0.0
 10
51.561108
 20
382.265406
 30
0.0
 10
51.034837
 20
382.506692
 30
0.0
  0
SPLINE
  5
1d7
100
AcDbEntity
  8
Layer_1
 62
7
100
AcDbSpline
 70
8
 71
3
 72
8
 73
4
 74
0
 40
0
 40
0
 40
0
 40
0
 40
1
 40
1
 40
1
 40
1
 10
51.034837
 20
382.506692
 30
0.0
 10
49.715036
 20
383.111782
 30
0.0
 10
47.371468
 20
384.927214
 30
0.0
 10
46.541775
 20
385.987204
 30
0.0
  0
SPLINE
  5
1d8
100
AcDbEntity
  8
Layer_1
 62
7
100
AcDbSpline
 70
8
 71
3
 72
8
 73
4
 74
0
 40
0
 40
0
 40
0
 40
0
 40
1
 40
1
 40
1
 40
1
 10
46.541775
 20
385.987204
 30
0.0
 10
46.414927
 20
386.149267
 30
0.0
 10
46.206503
 20
386.678518
 30
0.0
 10
46.078614
 20
387.163325
 30
0.0
  0
SPLINE
  5
1d9
100
AcDbEntity
  8
Layer_1
 62
7
100
AcDbSpline
 70
8
 71
3
 72
8
 73
4
 74
0
 40
0
 40
0
 40
0
 40
0
 40
1
 40
1
 40
1
 40
1
 10
46.078614
 20
387.163325
 30
0.0
 10
45.859539
 20
387.993815
 30
0.0
 10
45.876379
 20
388.147874
 30
0.0
 10
46.369780
 20
389.826292
 30
0.0
  0
SPLINE
  5
1da
100
AcDbEntity
  8
Layer_1
 62
7
100
AcDbSpline
 70
8
 71
3
 72
8
 73
4
 74
0
 40
0
 40
0
 40
0
 40
0
 40
1
 40
1
 40
1
 40
1
 10
46.369780
 20
389.826292
 30
0.0
 10
46.657808
 20
390.806097
 30
0.0
 10
47.001515
 20
391.999209
 30
0.0
 10
47.133586
 20
392.477646
 30
0.0
  0
SPLINE
  5
1db
100
AcDbEntity
  8
Layer_1
 62
7
100
AcDbSpline
 70
8
 71
3
 72
8
 73
4
 74
0
 40
0
 40
0
 40
0
 40
0
 40
1
 40
1
 40
1
 40
1
 10
47.133586
 20
392.477646
 30
0.0
 10
47.265649
 20
392.956089
 30
0.0
 10
47.605482
 20
393.946799
 30
0.0
 10
47.888773
 20
394.679225
 30
0.0
  0
SPLINE
  5
1dc
100
AcDbEntity
  8
Layer_1
 62
7
100
AcDbSpline
 70
8
 71
3
 72
8
 73
4
 74
0
 40
0
 40
0
 40
0
 40
0
 40
1
 40
1
 40
1
 40
1
 10
47.888773
 20
394.679225
 30
0.0
 10
48.172060
 20
395.411645
 30
0.0
 10
48.493793
 20
396.507703
 30
0.0
 10
48.603744
 20
397.114893
 30
0.0
  0
SPLINE
  5
1dd
100
AcDbEntity
  8
Layer_1
 62
7
100
AcDbSpline
 70
8
 71
3
 72
8
 73
4
 74
0
 40
0
 40
0
 40
0
 40
0
 40
1
 40
1
 40
1
 40
1
 10
48.603744
 20
397.114893
 30
0.0
 10
48.713698
 20
397.722085
 30
0.0
 10
48.875747
 20
398.306012
 30
0.0
 10
48.963871
 20
398.412486
 30
0.0
  0
SPLINE
  5
1de
100
AcDbEntity
  8
Layer_1
 62
7
100
AcDbSpline
 70
8
 71
3
 72
8
 73
4
 74
0
 40
0
 40
0
 40
0
 40
0
 40
1
 40
1
 40
1
 40
1
 10
48.963871
 20
398.412486
 30
0.0
 10
49.051980
 20
398.518971
 30
0.0
 10
49.208924
 20
399.067001
 30
0.0
 10
49.312630
 20
399.630323
 30
0.0
  0
SPLINE
  5
1df
100
AcDbEntity
  8
Layer_1
 62
7
100
AcDbSpline
 70
8
 71
3
 72
8
 73
4
 74
0
 40
0
 40
0
 40
0
 40
0
 40
1
 40
1
 40
1
 40
1
 10
49.312630
 20
399.630323
 30
0.0
 10
49.416346
 20
400.193658
 30
0.0
 10
49.563432
 20
400.732849
 30
0.0
 10
49.639508
 20
400.828534
 30
0.0
  0
SPLINE
  5
1e0
100
AcDbEntity
  8
Layer_1
 62
7
100
AcDbSpline
 70
8
 71
3
 72
8
 73
4
 74
0
 40
0
 40
0
 40
0
 40
0
 40
1
 40
1
 40
1
 40
1
 10
49.639508
 20
400.828534
 30
0.0
 10
49.715581
 20
400.924221
 30
0.0
 10
49.987668
 20
401.824552
 30
0.0
 10
50.244127
 20
402.829263
 30
0.0
  0
SPLINE
  5
1e1
100
AcDbEntity
  8
Layer_1
 62
7
100
AcDbSpline
 70
8
 71
3
 72
8
 73
4
 74
0
 40
0
 40
0
 40
0
 40
0
 40
1
 40
1
 40
1
 40
1
 10
50.244127
 20
402.829263
 30
0.0
 10
50.888192
 20
405.352446
 30
0.0
 10
51.840528
 20
408.095039
 30
0.0
 10
52.537377
 20
409.433520
 30
0.0
  0
SPLINE
  5
1e2
100
AcDbEntity
  8
Layer_1
 62
7
100
AcDbSpline
 70
8
 71
3
 72
8
 73
4
 74
0
 40
0
 40
0
 40
0
 40
0
 40
1
 40
1
 40
1
 40
1
 10
52.537377
 20
409.433520
 30
0.0
 10
52.859220
 20
410.051714
 30
0.0
 10
53.122553
 20
410.692838
 30
0.0
 10
53.122553
 20
410.858246
 30
0.0
  0
SPLINE
  5
1e3
100
AcDbEntity
  8
Layer_1
 62
7
100
AcDbSpline
 70
8
 71
3
 72
8
 73
4
 74
0
 40
0
 40
0
 40
0
 40
0
 40
1
 40
1
 40
1
 40
1
 10
53.122553
 20
410.858246
 30
0.0
 10
53.122553
 20
411.023656
 30
0.0
 10
53.435713
 20
411.520816
 30
0.0
 10
53.818463
 20
411.963041
 30
0.0
  0
SPLINE
  5
1e4
100
AcDbEntity
  8
Layer_1
 62
7
100
AcDbSpline
 70
8
 71
3
 72
8
 73
4
 74
0
 40
0
 40
0
 40
0
 40
0
 40
1
 40
1
 40
1
 40
1
 10
53.818463
 20
411.963041
 30
0.0
 10
54.201210
 20
412.405275
 30
0.0
 10
54.515086
 20
412.821059
 30
0.0
 10
54.515969
 20
412.887000
 30
0.0
  0
SPLINE
  5
1e5
100
AcDbEntity
  8
Layer_1
 62
7
100
AcDbSpline
 70
8
 71
3
 72
8
 73
4
 74
0
 40
0
 40
0
 40
0
 40
0
 40
1
 40
1
 40
1
 40
1
 10
54.515969
 20
412.887000
 30
0.0
 10
54.516816
 20
412.952947
 30
0.0
 10
54.873068
 20
413.398350
 30
0.0
 10
55.307555
 20
413.876785
 30
0.0
  0
SPLINE
  5
1e6
100
AcDbEntity
  8
Layer_1
 62
7
100
AcDbSpline
 70
8
 71
3
 72
8
 73
4
 74
0
 40
0
 40
0
 40
0
 40
0
 40
1
 40
1
 40
1
 40
1
 10
55.307555
 20
413.876785
 30
0.0
 10
55.742038
 20
414.355222
 30
0.0
 10
56.306593
 20
415.059823
 30
0.0
 10
56.562114
 20
415.442579
 30
0.0
  0
SPLINE
  5
1e7
100
AcDbEntity
  8
Layer_1
 62
7
100
AcDbSpline
 70
8
 71
3
 72
8
 73
4
 74
0
 40
0
 40
0
 40
0
 40
0
 40
1
 40
1
 40
1
 40
1
 10
56.562114
 20
415.442579
 30
0.0
 10
57.600503
 20
416.997996
 30
0.0
 10
58.581784
 20
418.163528
 30
0.0
 10
60.713332
 20
420.373230
 30
0.0
  0
SPLINE
  5
1e8
100
AcDbEntity
  8
Layer_1
 62
7
100
AcDbSpline
 70
8
 71
3
 72
8
 73
4
 74
0
 40
0
 40
0
 40
0
 40
0
 40
1
 40
1
 40
1
 40
1
 10
60.713332
 20
420.373230
 30
0.0
 10
61.944724
 20
421.649780
 30
0.0
 10
63.019793
 20
422.836685
 30
0.0
 10
63.102360
 20
423.010797
 30
0.0
  0
SPLINE
  5
1e9
100
AcDbEntity
  8
Layer_1
 62
7
100
AcDbSpline
 70
8
 71
3
 72
8
 73
4
 74
0
 40
0
 40
0
 40
0
 40
0
 40
1
 40
1
 40
1
 40
1
 10
63.102360
 20
423.010797
 30
0.0
 10
63.254263
 20
423.331122
 30
0.0
 10
62.873687
 20
423.989769
 30
0.0
 10
61.393524
 20
425.968164
 30
0.0
  0
SPLINE
  5
1ea
100
AcDbEntity
  8
Layer_1
 62
7
100
AcDbSpline
 70
8
 71
3
 72
8
 73
4
 74
0
 40
0
 40
0
 40
0
 40
0
 40
1
 40
1
 40
1
 40
1
 10
61.393524
 20
425.968164
 30
0.0
 10
61.071376
 20
426.398756
 30
0.0
 10
60.354433
 20
427.416520
 30
0.0
 10
59.800301
 20
428.229862
 30
0.0
  0
SPLINE
  5
1eb
100
AcDbEntity
  8
Layer_1
 62
7
100
AcDbSpline
 70
8
 71
3
 72
8
 73
4
 74
0
 40
0
 40
0
 40
0
 40
0
 40
1
 40
1
 40
1
 40
1
 10
59.800301
 20
428.229862
 30
0.0
 10
59.246183
 20
429.043204
 30
0.0
 10
58.582882
 20
429.943532
 30
0.0
 10
58.326297
 20
430.230592
 30
0.0
  0
SPLINE
  5
1ec
100
AcDbEntity
  8
Layer_1
 62
7
100
AcDbSpline
 70
8
 71
3
 72
8
 73
4
 74
0
 40
0
 40
0
 40
0
 40
0
 40
1
 40
1
 40
1
 40
1
 10
58.326297
 20
430.230592
 30
0.0
 10
57.349557
 20
431.323370
 30
0.0
 10
56.427757
 20
433.117691
 30
0.0
 10
56.146991
 20
434.472699
 30
0.0
  0
SPLINE
  5
1ed
100
AcDbEntity
  8
Layer_1
 62
7
100
AcDbSpline
 70
8
 71
3
 72
8
 73
4
 74
0
 40
0
 40
0
 40
0
 40
0
 40
1
 40
1
 40
1
 40
1
 10
56.146991
 20
434.472699
 30
0.0
 10
55.530468
 20
437.448097
 30
0.0
 10
56.358635
 20
438.974536
 30
0.0
 10
59.456989
 20
440.573534
 30
0.0
  0
SPLINE
  5
1ee
100
AcDbEntity
  8
Layer_1
 62
7
100
AcDbSpline
 70
8
 71
3
 72
8
 73
4
 74
0
 40
0
 40
0
 40
0
 40
0
 40
1
 40
1
 40
1
 40
1
 10
59.456989
 20
440.573534
 30
0.0
 10
60.841898
 20
441.288256
 30
0.0
 10
61.090723
 20
441.270445
 30
0.0
 10
61.158467
 20
440.451729
 30
0.0
  0
SPLINE
  5
1ef
100
AcDbEntity
  8
Layer_1
 62
7
100
AcDbSpline
 70
8
 71
3
 72
8
 73
4
 74
0
 40
0
 40
0
 40
0
 40
0
 40
1
 40
1
 40
1
 40
1
 10
61.158467
 20
440.451729
 30
0.0
 10
61.210582
 20
439.821976
 30
0.0
 10
61.233629
 20
439.800936
 30
0.0
 10
61.821387
 20
439.845973
 30
0.0
  0
SPLINE
  5
1f0
100
AcDbEntity
  8
Layer_1
 62
7
100
AcDbSpline
 70
8
 71
3
 72
8
 73
4
 74
0
 40
0
 40
0
 40
0
 40
0
 40
1
 40
1
 40
1
 40
1
 10
61.821387
 20
439.845973
 30
0.0
 10
63.366478
 20
439.964363
 30
0.0
 10
64.920662
 20
439.961650
 30
0.0
 10
65.493691
 20
439.839369
 30
0.0
  0
SPLINE
  5
1f1
100
AcDbEntity
  8
Layer_1
 62
7
100
AcDbSpline
 70
8
 71
3
 72
8
 73
4
 74
0
 40
0
 40
0
 40
0
 40
0
 40
1
 40
1
 40
1
 40
1
 10
65.493691
 20
439.839369
 30
0.0
 10
66.034116
 20
439.724223
 30
0.0
 10
66.318322
 20
439.442172
 30
0.0
 10
67.537914
 20
437.810587
 30
0.0
  0
SPLINE
  5
1f2
100
AcDbEntity
  8
Layer_1
 62
7
100
AcDbSpline
 70
8
 71
3
 72
8
 73
4
 74
0
 40
0
 40
0
 40
0
 40
0
 40
1
 40
1
 40
1
 40
1
 10
67.537914
 20
437.810587
 30
0.0
 10
68.317003
 20
436.768306
 30
0.0
 10
68.956109
 20
435.849870
 30
0.0
 10
68.958158
 20
435.769606
 30
0.0
  0
SPLINE
  5
1f3
100
AcDbEntity
  8
Layer_1
 62
7
100
AcDbSpline
 70
8
 71
3
 72
8
 73
4
 74
0
 40
0
 40
0
 40
0
 40
0
 40
1
 40
1
 40
1
 40
1
 10
68.958158
 20
435.769606
 30
0.0
 10
68.959851
 20
435.689345
 30
0.0
 10
69.428371
 20
435.036509
 30
0.0
 10
69.998508
 20
434.318849
 30
0.0
  0
SPLINE
  5
1f4
100
AcDbEntity
  8
Layer_1
 62
7
100
AcDbSpline
 70
8
 71
3
 72
8
 73
4
 74
0
 40
0
 40
0
 40
0
 40
0
 40
1
 40
1
 40
1
 40
1
 10
69.998508
 20
434.318849
 30
0.0
 10
70.568628
 20
433.601197
 30
0.0
 10
71.345851
 20
432.574038
 30
0.0
 10
71.725655
 20
432.036269
 30
0.0
  0
SPLINE
  5
1f5
100
AcDbEntity
  8
Layer_1
 62
7
100
AcDbSpline
 70
8
 71
3
 72
8
 73
4
 74
0
 40
0
 40
0
 40
0
 40
0
 40
1
 40
1
 40
1
 40
1
 10
71.725655
 20
432.036269
 30
0.0
 10
72.366883
 20
431.128377
 30
0.0
 10
73.012949
 20
430.683352
 30
0.0
 10
73.215057
 20
431.010349
 30
0.0
  0
SPLINE
  5
1f6
100
AcDbEntity
  8
Layer_1
 62
7
100
AcDbSpline
 70
8
 71
3
 72
8
 73
4
 74
0
 40
0
 40
0
 40
0
 40
0
 40
1
 40
1
 40
1
 40
1
 10
73.215057
 20
431.010349
 30
0.0
 10
73.262103
 20
431.086459
 30
0.0
 10
73.516603
 20
431.202695
 30
0.0
 10
73.780658
 20
431.268661
 30
0.0
  0
SPLINE
  5
1f7
100
AcDbEntity
  8
Layer_1
 62
7
100
AcDbSpline
 70
8
 71
3
 72
8
 73
4
 74
0
 40
0
 40
0
 40
0
 40
0
 40
1
 40
1
 40
1
 40
1
 10
73.780658
 20
431.268661
 30
0.0
 10
74.044677
 20
431.334631
 30
0.0
 10
74.769607
 20
431.720860
 30
0.0
 10
75.391574
 20
432.126956
 30
0.0
  0
SPLINE
  5
1f8
100
AcDbEntity
  8
Layer_1
 62
7
100
AcDbSpline
 70
8
 71
3
 72
8
 73
4
 74
0
 40
0
 40
0
 40
0
 40
0
 40
1
 40
1
 40
1
 40
1
 10
75.391574
 20
432.126956
 30
0.0
 10
76.013536
 20
432.533042
 30
0.0
 10
77.227026
 20
433.202660
 30
0.0
 10
78.088213
 20
433.614998
 30
0.0
  0
SPLINE
  5
1f9
100
AcDbEntity
  8
Layer_1
 62
7
100
AcDbSpline
 70
8
 71
3
 72
8
 73
4
 74
0
 40
0
 40
0
 40
0
 40
0
 40
1
 40
1
 40
1
 40
1
 10
78.088213
 20
433.614998
 30
0.0
 10
78.949400
 20
434.027321
 30
0.0
 10
79.849729
 20
434.496948
 30
0.0
 10
80.088946
 20
434.658599
 30
0.0
  0
SPLINE
  5
1fa
100
AcDbEntity
  8
Layer_1
 62
7
100
AcDbSpline
 70
8
 71
3
 72
8
 73
4
 74
0
 40
0
 40
0
 40
0
 40
0
 40
1
 40
1
 40
1
 40
1
 10
80.088946
 20
434.658599
 30
0.0
 10
80.578692
 20
434.989541
 30
0.0
 10
81.978717
 20
435.536685
 30
0.0
 10
82.335765
 20
435.536685
 30
0.0
  0
SPLINE
  5
1fb
100
AcDbEntity
  8
Layer_1
 62
7
100
AcDbSpline
 70
8
 71
3
 72
8
 73
4
 74
0
 40
0
 40
0
 40
0
 40
0
 40
1
 40
1
 40
1
 40
1
 10
82.335765
 20
435.536685
 30
0.0
 10
82.464738
 20
435.536685
 30
0.0
 10
83.284145
 20
435.842826
 30
0.0
 10
84.156711
 20
436.216991
 30
0.0
  0
SPLINE
  5
1fc
100
AcDbEntity
  8
Layer_1
 62
7
100
AcDbSpline
 70
8
 71
3
 72
8
 73
4
 74
0
 40
0
 40
0
 40
0
 40
0
 40
1
 40
1
 40
1
 40
1
 10
84.156711
 20
436.216991
 30
0.0
 10
85.841908
 20
436.939623
 30
0.0
 10
87.940430
 20
437.624410
 30
0.0
 10
88.469749
 20
437.624410
 30
0.0
  0
SPLINE
  5
1fd
100
AcDbEntity
  8
Layer_1
 62
7
100
AcDbSpline
 70
8
 71
3
 72
8
 73
4
 74
0
 40
0
 40
0
 40
0
 40
0
 40
1
 40
1
 40
1
 40
1
 10
88.469749
 20
437.624410
 30
0.0
 10
88.645368
 20
437.624410
 30
0.0
 10
89.081195
 20
437.780990
 30
0.0
 10
89.438249
 20
437.972365
 30
0.0
  0
SPLINE
  5
1fe
100
AcDbEntity
  8
Layer_1
 62
7
100
AcDbSpline
 70
8
 71
3
 72
8
 73
4
 74
0
 40
0
 40
0
 40
0
 40
0
 40
1
 40
1
 40
1
 40
1
 10
89.438249
 20
437.972365
 30
0.0
 10
89.795313
 20
438.163740
 30
0.0
 10
90.339497
 20
438.320317
 30
0.0
 10
90.647537
 20
438.320317
 30
0.0
  0
SPLINE
  5
1ff
100
AcDbEntity
  8
Layer_1
 62
7
100
AcDbSpline
 70
8
 71
3
 72
8
 73
4
 74
0
 40
0
 40
0
 40
0
 40
0
 40
1
 40
1
 40
1
 40
1
 10
90.647537
 20
438.320317
 30
0.0
 10
90.955582
 20
438.320317
 30
0.0
 10
91.739644
 20
438.519382
 30
0.0
 10
92.389887
 20
438.762691
 30
0.0
  0
SPLINE
  5
200
100
AcDbEntity
  8
Layer_1
 62
7
100
AcDbSpline
 70
8
 71
3
 72
8
 73
4
 74
0
 40
0
 40
0
 40
0
 40
0
 40
1
 40
1
 40
1
 40
1
 10
92.389887
 20
438.762691
 30
0.0
 10
94.205109
 20
439.441907
 30
0.0
 10
96.095989
 20
439.709098
 30
0.0
 10
101.575077
 20
440.060603
 30
0.0
  0
SPLINE
  5
201
100
AcDbEntity
  8
Layer_1
 62
7
100
AcDbSpline
 70
8
 71
3
 72
8
 73
4
 74
0
 40
0
 40
0
 40
0
 40
0
 40
1
 40
1
 40
1
 40
1
 10
101.575077
 20
440.060603
 30
0.0
 10
103.010389
 20
440.152684
 30
0.0
 10
104.908881
 20
440.276317
 30
0.0
 10
105.794014
 20
440.335341
 30
0.0
  0
LWPOLYLINE
  5
202
100
AcDbEntity
  8
Layer_1
 62
7
100
AcDbPolyline
 90
3
 70
1
 10
52.818092
 20
379.166742
 30
0.0
 10
53.470508
 20
379.168435
 30
0.0
 10
53.470508
 20
380.017348
 30
0.0
  0
SPLINE
  5
203
100
AcDbEntity
  8
Layer_1
 62
7
100
AcDbSpline
 70
8
 71
3
 72
8
 73
4
 74
0
 40
0
 40
0
 40
0
 40
0
 40
1
 40
1
 40
1
 40
1
 10
107.403302
 20
441.643184
 30
0.0
 10
107.403302
 20
443.457438
 30
0.0
 10
107.531205
 20
443.539619
 30
0.0
 10
110.355535
 20
443.539619
 30
0.0
  0
SPLINE
  5
204
100
AcDbEntity
  8
Layer_1
 62
7
100
AcDbSpline
 70
8
 71
3
 72
8
 73
4
 74
0
 40
0
 40
0
 40
0
 40
0
 40
1
 40
1
 40
1
 40
1
 10
110.355535
 20
443.539619
 30
0.0
 10
112.336563
 20
443.539619
 30
0.0
 10
112.702755
 20
443.586199
 30
0.0
 10
113.356621
 20
443.921516
 30
0.0
  0
SPLINE
  5
205
100
AcDbEntity
  8
Layer_1
 62
7
100
AcDbSpline
 70
8
 71
3
 72
8
 73
4
 74
0
 40
0
 40
0
 40
0
 40
0
 40
1
 40
1
 40
1
 40
1
 10
113.356621
 20
443.921516
 30
0.0
 10
114.408043
 20
444.460656
 30
0.0
 10
116.701316
 20
446.078052
 30
0.0
 10
117.272712
 20
446.683453
 30
0.0
  0
SPLINE
  5
206
100
AcDbEntity
  8
Layer_1
 62
7
100
AcDbSpline
 70
8
 71
3
 72
8
 73
4
 74
0
 40
0
 40
0
 40
0
 40
0
 40
1
 40
1
 40
1
 40
1
 10
117.272712
 20
446.683453
 30
0.0
 10
117.537281
 20
446.963773
 30
0.0
 10
117.845324
 20
447.193129
 30
0.0
 10
117.957199
 20
447.193129
 30
0.0
  0
SPLINE
  5
207
100
AcDbEntity
  8
Layer_1
 62
7
100
AcDbSpline
 70
8
 71
3
 72
8
 73
4
 74
0
 40
0
 40
0
 40
0
 40
0
 40
1
 40
1
 40
1
 40
1
 10
117.957199
 20
447.193129
 30
0.0
 10
118.069083
 20
447.193129
 30
0.0
 10
118.415401
 20
447.514812
 30
0.0
 10
118.726788
 20
447.907967
 30
0.0
  0
SPLINE
  5
208
100
AcDbEntity
  8
Layer_1
 62
7
100
AcDbSpline
 70
8
 71
3
 72
8
 73
4
 74
0
 40
0
 40
0
 40
0
 40
0
 40
1
 40
1
 40
1
 40
1
 10
118.726788
 20
447.907967
 30
0.0
 10
119.246839
 20
448.564602
 30
0.0
 10
119.346116
 20
448.615676
 30
0.0
 10
119.945853
 20
448.535237
 30
0.0
  0
SPLINE
  5
209
100
AcDbEntity
  8
Layer_1
 62
7
100
AcDbSpline
 70
8
 71
3
 72
8
 73
4
 74
0
 40
0
 40
0
 40
0
 40
0
 40
1
 40
1
 40
1
 40
1
 10
119.945853
 20
448.535237
 30
0.0
 10
120.750195
 20
448.427352
 30
0.0
 10
121.682296
 20
448.993927
 30
0.0
 10
122.012699
 20
449.791549
 30
0.0
  0
SPLINE
  5
20a
100
AcDbEntity
  8
Layer_1
 62
7
100
AcDbSpline
 70
8
 71
3
 72
8
 73
4
 74
0
 40
0
 40
0
 40
0
 40
0
 40
1
 40
1
 40
1
 40
1
 10
122.012699
 20
449.791549
 30
0.0
 10
122.134162
 20
450.084789
 30
0.0
 10
122.282746
 20
450.325003
 30
0.0
 10
122.342890
 20
450.325356
 30
0.0
  0
SPLINE
  5
20b
100
AcDbEntity
  8
Layer_1
 62
7
100
AcDbSpline
 70
8
 71
3
 72
8
 73
4
 74
0
 40
0
 40
0
 40
0
 40
0
 40
1
 40
1
 40
1
 40
1
 10
122.342890
 20
450.325356
 30
0.0
 10
122.403066
 20
450.325621
 30
0.0
 10
122.726275
 20
450.498547
 30
0.0
 10
123.061202
 20
450.709423
 30
0.0
  0
SPLINE
  5
20c
100
AcDbEntity
  8
Layer_1
 62
7
100
AcDbSpline
 70
8
 71
3
 72
8
 73
4
 74
0
 40
0
 40
0
 40
0
 40
0
 40
1
 40
1
 40
1
 40
1
 10
123.061202
 20
450.709423
 30
0.0
 10
123.850589
 20
451.206465
 30
0.0
 10
124.766025
 20
451.536639
 30
0.0
 10
125.363879
 20
451.539924
 30
0.0
  0
SPLINE
  5
20d
100
AcDbEntity
  8
Layer_1
 62
7
100
AcDbSpline
 70
8
 71
3
 72
8
 73
4
 74
0
 40
0
 40
0
 40
0
 40
0
 40
1
 40
1
 40
1
 40
1
 10
125.363879
 20
451.539924
 30
0.0
 10
125.625665
 20
451.541335
 30
0.0
 10
126.184208
 20
451.634655
 30
0.0
 10
126.605165
 20
451.747239
 30
0.0
  0
SPLINE
  5
20e
100
AcDbEntity
  8
Layer_1
 62
7
100
AcDbSpline
 70
8
 71
3
 72
8
 73
4
 74
0
 40
0
 40
0
 40
0
 40
0
 40
1
 40
1
 40
1
 40
1
 10
126.605165
 20
451.747239
 30
0.0
 10
127.242288
 20
451.917648
 30
0.0
 10
127.590606
 20
451.900091
 30
0.0
 10
128.684932
 20
451.642374
 30
0.0
  0
SPLINE
  5
20f
100
AcDbEntity
  8
Layer_1
 62
7
100
AcDbSpline
 70
8
 71
3
 72
8
 73
4
 74
0
 40
0
 40
0
 40
0
 40
0
 40
1
 40
1
 40
1
 40
1
 10
128.684932
 20
451.642374
 30
0.0
 10
130.371421
 20
451.245214
 30
0.0
 10
131.412087
 20
450.440011
 30
0.0
 10
131.412087
 20
449.532266
 30
0.0
  0
SPLINE
  5
210
100
AcDbEntity
  8
Layer_1
 62
7
100
AcDbSpline
 70
8
 71
3
 72
8
 73
4
 74
0
 40
0
 40
0
 40
0
 40
0
 40
1
 40
1
 40
1
 40
1
 10
131.412087
 20
449.532266
 30
0.0
 10
131.412087
 20
448.905112
 30
0.0
 10
131.048071
 20
448.551538
 30
0.0
 10
130.194239
 20
448.349380
 30
0.0
  0
SPLINE
  5
211
100
AcDbEntity
  8
Layer_1
 62
7
100
AcDbSpline
 70
8
 71
3
 72
8
 73
4
 74
0
 40
0
 40
0
 40
0
 40
0
 40
1
 40
1
 40
1
 40
1
 10
130.194239
 20
448.349380
 30
0.0
 10
129.955028
 20
448.292715
 30
0.0
 10
129.343779
 20
447.845610
 30
0.0
 10
128.835915
 20
447.355754
 30
0.0
  0
SPLINE
  5
212
100
AcDbEntity
  8
Layer_1
 62
7
100
AcDbSpline
 70
8
 71
3
 72
8
 73
4
 74
0
 40
0
 40
0
 40
0
 40
0
 40
1
 40
1
 40
1
 40
1
 10
128.835915
 20
447.355754
 30
0.0
 10
127.648685
 20
446.210632
 30
0.0
 10
127.654702
 20
445.784186
 30
0.0
 10
128.869406
 20
444.972331
 30
0.0
  0
SPLINE
  5
213
100
AcDbEntity
  8
Layer_1
 62
7
100
AcDbSpline
 70
8
 71
3
 72
8
 73
4
 74
0
 40
0
 40
0
 40
0
 40
0
 40
1
 40
1
 40
1
 40
1
 10
128.869406
 20
444.972331
 30
0.0
 10
130.087223
 20
444.158447
 30
0.0
 10
130.430942
 20
444.111144
 30
0.0
 10
131.208969
 20
444.650330
 30
0.0
  0
SPLINE
  5
214
100
AcDbEntity
  8
Layer_1
 62
7
100
AcDbSpline
 70
8
 71
3
 72
8
 73
4
 74
0
 40
0
 40
0
 40
0
 40
0
 40
1
 40
1
 40
1
 40
1
 10
131.208969
 20
444.650330
 30
0.0
 10
131.570180
 20
444.900624
 30
0.0
 10
132.010644
 20
445.105407
 30
0.0
 10
132.187863
 20
445.105407
 30
0.0
  0
SPLINE
  5
215
100
AcDbEntity
  8
Layer_1
 62
7
100
AcDbSpline
 70
8
 71
3
 72
8
 73
4
 74
0
 40
0
 40
0
 40
0
 40
0
 40
1
 40
1
 40
1
 40
1
 10
132.187863
 20
445.105407
 30
0.0
 10
132.562242
 20
445.105407
 30
0.0
 10
133.579588
 20
445.842157
 30
0.0
 10
134.170496
 20
446.541202
 30
0.0
  0
SPLINE
  5
216
100
AcDbEntity
  8
Layer_1
 62
7
100
AcDbSpline
 70
8
 71
3
 72
8
 73
4
 74
0
 40
0
 40
0
 40
0
 40
0
 40
1
 40
1
 40
1
 40
1
 10
134.170496
 20
446.541202
 30
0.0
 10
134.395893
 20
446.807825
 30
0.0
 10
134.917685
 20
447.223708
 30
0.0
 10
135.330057
 20
447.465383
 30
0.0
  0
SPLINE
  5
217
100
AcDbEntity
  8
Layer_1
 62
7
100
AcDbSpline
 70
8
 71
3
 72
8
 73
4
 74
0
 40
0
 40
0
 40
0
 40
0
 40
1
 40
1
 40
1
 40
1
 10
135.330057
 20
447.465383
 30
0.0
 10
135.742468
 20
447.707059
 30
0.0
 10
136.172750
 20
448.016738
 30
0.0
 10
136.286305
 20
448.153551
 30
0.0
  0
SPLINE
  5
218
100
AcDbEntity
  8
Layer_1
 62
7
100
AcDbSpline
 70
8
 71
3
 72
8
 73
4
 74
0
 40
0
 40
0
 40
0
 40
0
 40
1
 40
1
 40
1
 40
1
 10
136.286305
 20
448.153551
 30
0.0
 10
136.399854
 20
448.290361
 30
0.0
 10
137.030790
 20
448.575598
 30
0.0
 10
137.688424
 20
448.787397
 30
0.0
  0
SPLINE
  5
219
100
AcDbEntity
  8
Layer_1
 62
7
100
AcDbSpline
 70
8
 71
3
 72
8
 73
4
 74
0
 40
0
 40
0
 40
0
 40
0
 40
1
 40
1
 40
1
 40
1
 10
137.688424
 20
448.787397
 30
0.0
 10
138.791727
 20
449.142737
 30
0.0
 10
138.975146
 20
449.155468
 30
0.0
 10
140.062890
 20
448.952201
 30
0.0
  0
SPLINE
  5
21a
100
AcDbEntity
  8
Layer_1
 62
7
100
AcDbSpline
 70
8
 71
3
 72
8
 73
4
 74
0
 40
0
 40
0
 40
0
 40
0
 40
1
 40
1
 40
1
 40
1
 10
140.062890
 20
448.952201
 30
0.0
 10
141.362247
 20
448.709385
 30
0.0
 10
143.657695
 20
447.956430
 30
0.0
 10
144.194513
 20
447.596919
 30
0.0
  0
SPLINE
  5
21b
100
AcDbEntity
  8
Layer_1
 62
7
100
AcDbSpline
 70
8
 71
3
 72
8
 73
4
 74
0
 40
0
 40
0
 40
0
 40
0
 40
1
 40
1
 40
1
 40
1
 10
144.194513
 20
447.596919
 30
0.0
 10
144.775205
 20
447.208036
 30
0.0
 10
144.895243
 20
447.326973
 30
0.0
 10
145.120527
 20
448.514590
 30
0.0
  0
SPLINE
  5
21c
100
AcDbEntity
  8
Layer_1
 62
7
100
AcDbSpline
 70
8
 71
3
 72
8
 73
4
 74
0
 40
0
 40
0
 40
0
 40
0
 40
1
 40
1
 40
1
 40
1
 10
145.120527
 20
448.514590
 30
0.0
 10
145.362089
 20
449.788050
 30
0.0
 10
146.255277
 20
451.776204
 30
0.0
 10
147.070479
 20
452.855012
 30
0.0
  0
SPLINE
  5
21d
100
AcDbEntity
  8
Layer_1
 62
7
100
AcDbSpline
 70
8
 71
3
 72
8
 73
4
 74
0
 40
0
 40
0
 40
0
 40
0
 40
1
 40
1
 40
1
 40
1
 10
147.070479
 20
452.855012
 30
0.0
 10
147.362850
 20
453.241967
 30
0.0
 10
147.646393
 20
453.868286
 30
0.0
 10
147.700484
 20
454.246831
 30
0.0
  0
SPLINE
  5
21e
100
AcDbEntity
  8
Layer_1
 62
7
100
AcDbSpline
 70
8
 71
3
 72
8
 73
4
 74
0
 40
0
 40
0
 40
0
 40
0
 40
1
 40
1
 40
1
 40
1
 10
147.700484
 20
454.246831
 30
0.0
 10
148.064570
 20
456.792754
 30
0.0
 10
150.399756
 20
459.931201
 30
0.0
 10
152.849958
 20
461.167518
 30
0.0
  0
SPLINE
  5
21f
100
AcDbEntity
  8
Layer_1
 62
7
100
AcDbSpline
 70
8
 71
3
 72
8
 73
4
 74
0
 40
0
 40
0
 40
0
 40
0
 40
1
 40
1
 40
1
 40
1
 10
152.849958
 20
461.167518
 30
0.0
 10
153.768882
 20
461.631172
 30
0.0
 10
153.914515
 20
461.653321
 30
0.0
 10
155.448497
 20
461.562649
 30
0.0
  0
SPLINE
  5
220
100
AcDbEntity
  8
Layer_1
 62
7
100
AcDbSpline
 70
8
 71
3
 72
8
 73
4
 74
0
 40
0
 40
0
 40
0
 40
0
 40
1
 40
1
 40
1
 40
1
 10
155.448497
 20
461.562649
 30
0.0
 10
156.342320
 20
461.509805
 30
0.0
 10
158.200364
 20
461.418213
 30
0.0
 10
159.577524
 20
461.359085
 30
0.0
  0
SPLINE
  5
221
100
AcDbEntity
  8
Layer_1
 62
7
100
AcDbSpline
 70
8
 71
3
 72
8
 73
4
 74
0
 40
0
 40
0
 40
0
 40
0
 40
1
 40
1
 40
1
 40
1
 10
159.577524
 20
461.359085
 30
0.0
 10
161.985099
 20
461.255695
 30
0.0
 10
162.108233
 20
461.232135
 30
0.0
 10
162.778691
 20
460.746473
 30
0.0
  0
SPLINE
  5
222
100
AcDbEntity
  8
Layer_1
 62
7
100
AcDbSpline
 70
8
 71
3
 72
8
 73
4
 74
0
 40
0
 40
0
 40
0
 40
0
 40
1
 40
1
 40
1
 40
1
 10
162.778691
 20
460.746473
 30
0.0
 10
163.162183
 20
460.468673
 30
0.0
 10
163.529047
 20
460.241380
 30
0.0
 10
163.593927
 20
460.241380
 30
0.0
  0
SPLINE
  5
223
100
AcDbEntity
  8
Layer_1
 62
7
100
AcDbSpline
 70
8
 71
3
 72
8
 73
4
 74
0
 40
0
 40
0
 40
0
 40
0
 40
1
 40
1
 40
1
 40
1
 10
163.593927
 20
460.241380
 30
0.0
 10
163.754514
 20
460.241380
 30
0.0
 10
164.119636
 20
461.871213
 30
0.0
 10
164.119636
 20
462.587866
 30
0.0
  0
SPLINE
  5
224
100
AcDbEntity
  8
Layer_1
 62
7
100
AcDbSpline
 70
8
 71
3
 72
8
 73
4
 74
0
 40
0
 40
0
 40
0
 40
0
 40
1
 40
1
 40
1
 40
1
 10
164.119636
 20
462.587866
 30
0.0
 10
164.119636
 20
462.906952
 30
0.0
 10
164.267408
 20
463.586013
 30
0.0
 10
164.448044
 20
464.096886
 30
0.0
  0
SPLINE
  5
225
100
AcDbEntity
  8
Layer_1
 62
7
100
AcDbSpline
 70
8
 71
3
 72
8
 73
4
 74
0
 40
0
 40
0
 40
0
 40
0
 40
1
 40
1
 40
1
 40
1
 10
164.448044
 20
464.096886
 30
0.0
 10
164.628686
 20
464.607756
 30
0.0
 10
164.911659
 20
465.491673
 30
0.0
 10
165.076878
 20
466.061149
 30
0.0
  0
SPLINE
  5
226
100
AcDbEntity
  8
Layer_1
 62
7
100
AcDbSpline
 70
8
 71
3
 72
8
 73
4
 74
0
 40
0
 40
0
 40
0
 40
0
 40
1
 40
1
 40
1
 40
1
 10
165.076878
 20
466.061149
 30
0.0
 10
165.242136
 20
466.630615
 30
0.0
 10
165.552670
 20
467.374363
 30
0.0
 10
165.766956
 20
467.713925
 30
0.0
  0
SPLINE
  5
227
100
AcDbEntity
  8
Layer_1
 62
7
100
AcDbSpline
 70
8
 71
3
 72
8
 73
4
 74
0
 40
0
 40
0
 40
0
 40
0
 40
1
 40
1
 40
1
 40
1
 10
165.766956
 20
467.713925
 30
0.0
 10
165.981205
 20
468.053486
 30
0.0
 10
166.206246
 20
468.487885
 30
0.0
 10
166.266992
 20
468.679254
 30
0.0
  0
SPLINE
  5
228
100
AcDbEntity
  8
Layer_1
 62
7
100
AcDbSpline
 70
8
 71
3
 72
8
 73
4
 74
0
 40
0
 40
0
 40
0
 40
0
 40
1
 40
1
 40
1
 40
1
 10
166.266992
 20
468.679254
 30
0.0
 10
166.436452
 20
469.212942
 30
0.0
 10
170.027913
 20
472.669284
 30
0.0
 10
170.846425
 20
473.086352
 30
0.0
  0
SPLINE
  5
229
100
AcDbEntity
  8
Layer_1
 62
7
100
AcDbSpline
 70
8
 71
3
 72
8
 73
4
 74
0
 40
0
 40
0
 40
0
 40
0
 40
1
 40
1
 40
1
 40
1
 10
170.846425
 20
473.086352
 30
0.0
 10
171.380573
 20
473.358527
 30
0.0
 10
171.624665
 20
473.618163
 30
0.0
 10
171.775176
 20
474.074251
 30
0.0
  0
SPLINE
  5
22a
100
AcDbEntity
  8
Layer_1
 62
7
100
AcDbSpline
 70
8
 71
3
 72
8
 73
4
 74
0
 40
0
 40
0
 40
0
 40
0
 40
1
 40
1
 40
1
 40
1
 10
171.775176
 20
474.074251
 30
0.0
 10
171.919855
 20
474.512593
 30
0.0
 10
172.240431
 20
474.868746
 30
0.0
 10
172.875027
 20
475.296110
 30
0.0
  0
SPLINE
  5
22b
100
AcDbEntity
  8
Layer_1
 62
7
100
AcDbSpline
 70
8
 71
3
 72
8
 73
4
 74
0
 40
0
 40
0
 40
0
 40
0
 40
1
 40
1
 40
1
 40
1
 10
172.875027
 20
475.296110
 30
0.0
 10
173.367660
 20
475.627856
 30
0.0
 10
173.844303
 20
475.899286
 30
0.0
 10
173.934287
 20
475.899286
 30
0.0
  0
SPLINE
  5
22c
100
AcDbEntity
  8
Layer_1
 62
7
100
AcDbSpline
 70
8
 71
3
 72
8
 73
4
 74
0
 40
0
 40
0
 40
0
 40
0
 40
1
 40
1
 40
1
 40
1
 10
173.934287
 20
475.899286
 30
0.0
 10
174.024231
 20
475.899286
 30
0.0
 10
174.523558
 20
476.192874
 30
0.0
 10
175.043925
 20
476.551702
 30
0.0
  0
SPLINE
  5
22d
100
AcDbEntity
  8
Layer_1
 62
7
100
AcDbSpline
 70
8
 71
3
 72
8
 73
4
 74
0
 40
0
 40
0
 40
0
 40
0
 40
1
 40
1
 40
1
 40
1
 10
175.043925
 20
476.551702
 30
0.0
 10
175.972718
 20
477.192189
 30
0.0
 10
176.028587
 20
477.206320
 30
0.0
 10
178.101238
 20
477.324551
 30
0.0
  0
SPLINE
  5
22e
100
AcDbEntity
  8
Layer_1
 62
7
100
AcDbSpline
 70
8
 71
3
 72
8
 73
4
 74
0
 40
0
 40
0
 40
0
 40
0
 40
1
 40
1
 40
1
 40
1
 10
178.101238
 20
477.324551
 30
0.0
 10
179.262436
 20
477.390788
 30
0.0
 10
180.810442
 20
477.496754
 30
0.0
 10
181.541256
 20
477.560040
 30
0.0
  0
SPLINE
  5
22f
100
AcDbEntity
  8
Layer_1
 62
7
100
AcDbSpline
 70
8
 71
3
 72
8
 73
4
 74
0
 40
0
 40
0
 40
0
 40
0
 40
1
 40
1
 40
1
 40
1
 10
181.541256
 20
477.560040
 30
0.0
 10
182.529155
 20
477.645593
 30
0.0
 10
183.117323
 20
477.603200
 30
0.0
 10
183.834001
 20
477.394878
 30
0.0
  0
SPLINE
  5
230
100
AcDbEntity
  8
Layer_1
 62
7
100
AcDbSpline
 70
8
 71
3
 72
8
 73
4
 74
0
 40
0
 40
0
 40
0
 40
0
 40
1
 40
1
 40
1
 40
1
 10
183.834001
 20
477.394878
 30
0.0
 10
184.866517
 20
477.094720
 30
0.0
 10
187.077536
 20
475.984021
 30
0.0
 10
188.215417
 20
475.193892
 30
0.0
  0
SPLINE
  5
231
100
AcDbEntity
  8
Layer_1
 62
7
100
AcDbSpline
 70
8
 71
3
 72
8
 73
4
 74
0
 40
0
 40
0
 40
0
 40
0
 40
1
 40
1
 40
1
 40
1
 10
188.215417
 20
475.193892
 30
0.0
 10
188.978131
 20
474.664288
 30
0.0
 10
190.707131
 20
472.906212
 30
0.0
 10
191.542597
 20
471.810837
 30
0.0
  0
SPLINE
  5
232
100
AcDbEntity
  8
Layer_1
 62
7
100
AcDbSpline
 70
8
 71
3
 72
8
 73
4
 74
0
 40
0
 40
0
 40
0
 40
0
 40
1
 40
1
 40
1
 40
1
 10
191.542597
 20
471.810837
 30
0.0
 10
191.995558
 20
471.216915
 30
0.0
 10
193.347727
 20
468.498810
 30
0.0
 10
193.347727
 20
468.182160
 30
0.0
  0
SPLINE
  5
233
100
AcDbEntity
  8
Layer_1
 62
7
100
AcDbSpline
 70
8
 71
3
 72
8
 73
4
 74
0
 40
0
 40
0
 40
0
 40
0
 40
1
 40
1
 40
1
 40
1
 10
193.347727
 20
468.182160
 30
0.0
 10
193.347727
 20
468.124242
 30
0.0
 10
193.669762
 20
467.408549
 30
0.0
 10
194.063369
 20
466.591787
 30
0.0
  0
SPLINE
  5
234
100
AcDbEntity
  8
Layer_1
 62
7
100
AcDbSpline
 70
8
 71
3
 72
8
 73
4
 74
0
 40
0
 40
0
 40
0
 40
0
 40
1
 40
1
 40
1
 40
1
 10
194.063369
 20
466.591787
 30
0.0
 10
194.619807
 20
465.437043
 30
0.0
 10
194.750309
 20
465.001018
 30
0.0
 10
194.650112
 20
464.631310
 30
0.0
  0
SPLINE
  5
235
100
AcDbEntity
  8
Layer_1
 62
7
100
AcDbSpline
 70
8
 71
3
 72
8
 73
4
 74
0
 40
0
 40
0
 40
0
 40
0
 40
1
 40
1
 40
1
 40
1
 10
194.650112
 20
464.631310
 30
0.0
 10
194.579215
 20
464.369811
 30
0.0
 10
194.472501
 20
462.977725
 30
0.0
 10
194.412929
 20
461.537785
 30
0.0
  0
SPLINE
  5
236
100
AcDbEntity
  8
Layer_1
 62
7
100
AcDbSpline
 70
8
 71
3
 72
8
 73
4
 74
0
 40
0
 40
0
 40
0
 40
0
 40
1
 40
1
 40
1
 40
1
 10
194.412929
 20
461.537785
 30
0.0
 10
194.327292
 20
459.467908
 30
0.0
 10
194.240872
 20
458.822570
 30
0.0
 10
194.000128
 20
458.455817
 30
0.0
  0
SPLINE
  5
237
100
AcDbEntity
  8
Layer_1
 62
7
100
AcDbSpline
 70
8
 71
3
 72
8
 73
4
 74
0
 40
0
 40
0
 40
0
 40
0
 40
1
 40
1
 40
1
 40
1
 10
194.000128
 20
458.455817
 30
0.0
 10
193.832700
 20
458.200674
 30
0.0
 10
193.695684
 20
457.867445
 30
0.0
 10
193.695684
 20
457.715294
 30
0.0
  0
SPLINE
  5
238
100
AcDbEntity
  8
Layer_1
 62
7
100
AcDbSpline
 70
8
 71
3
 72
8
 73
4
 74
0
 40
0
 40
0
 40
0
 40
0
 40
1
 40
1
 40
1
 40
1
 10
193.695684
 20
457.715294
 30
0.0
 10
193.695684
 20
457.283259
 30
0.0
 10
193.082553
 20
456.043957
 30
0.0
 10
192.516252
 20
455.331357
 30
0.0
  0
SPLINE
  5
239
100
AcDbEntity
  8
Layer_1
 62
7
100
AcDbSpline
 70
8
 71
3
 72
8
 73
4
 74
0
 40
0
 40
0
 40
0
 40
0
 40
1
 40
1
 40
1
 40
1
 10
192.516252
 20
455.331357
 30
0.0
 10
192.233417
 20
454.975472
 30
0.0
 10
191.951799
 20
454.370181
 30
0.0
 10
191.890407
 20
453.986269
 30
0.0
  0
SPLINE
  5
23a
100
AcDbEntity
  8
Layer_1
 62
7
100
AcDbSpline
 70
8
 71
3
 72
8
 73
4
 74
0
 40
0
 40
0
 40
0
 40
0
 40
1
 40
1
 40
1
 40
1
 10
191.890407
 20
453.986269
 30
0.0
 10
191.814137
 20
453.509299
 30
0.0
 10
191.600207
 20
453.126137
 30
0.0
 10
191.214931
 20
452.776303
 30
0.0
  0
SPLINE
  5
23b
100
AcDbEntity
  8
Layer_1
 62
7
100
AcDbSpline
 70
8
 71
3
 72
8
 73
4
 74
0
 40
0
 40
0
 40
0
 40
0
 40
1
 40
1
 40
1
 40
1
 10
191.214931
 20
452.776303
 30
0.0
 10
188.775097
 20
450.561008
 30
0.0
 10
187.796384
 20
449.733781
 30
0.0
 10
187.345520
 20
449.505808
 30
0.0
  0
SPLINE
  5
23c
100
AcDbEntity
  8
Layer_1
 62
7
100
AcDbSpline
 70
8
 71
3
 72
8
 73
4
 74
0
 40
0
 40
0
 40
0
 40
0
 40
1
 40
1
 40
1
 40
1
 10
187.345520
 20
449.505808
 30
0.0
 10
187.058483
 20
449.360661
 30
0.0
 10
186.588753
 20
449.023004
 30
0.0
 10
186.301679
 20
448.755469
 30
0.0
  0
SPLINE
  5
23d
100
AcDbEntity
  8
Layer_1
 62
7
100
AcDbSpline
 70
8
 71
3
 72
8
 73
4
 74
0
 40
0
 40
0
 40
0
 40
0
 40
1
 40
1
 40
1
 40
1
 10
186.301679
 20
448.755469
 30
0.0
 10
185.355873
 20
447.874013
 30
0.0
 10
184.469134
 20
447.494946
 30
0.0
 10
182.996115
 20
447.342402
 30
0.0
  0
SPLINE
  5
23e
100
AcDbEntity
  8
Layer_1
 62
7
100
AcDbSpline
 70
8
 71
3
 72
8
 73
4
 74
0
 40
0
 40
0
 40
0
 40
0
 40
1
 40
1
 40
1
 40
1
 10
182.996115
 20
447.342402
 30
0.0
 10
180.710213
 20
447.105669
 30
0.0
 10
179.555061
 20
446.896178
 30
0.0
 10
178.838637
 20
446.588440
 30
0.0
  0
SPLINE
  5
23f
100
AcDbEntity
  8
Layer_1
 62
7
100
AcDbSpline
 70
8
 71
3
 72
8
 73
4
 74
0
 40
0
 40
0
 40
0
 40
0
 40
1
 40
1
 40
1
 40
1
 10
178.838637
 20
446.588440
 30
0.0
 10
178.292196
 20
446.353721
 30
0.0
 10
177.718452
 20
446.308196
 30
0.0
 10
175.881027
 20
446.353738
 30
0.0
  0
LWPOLYLINE
  5
240
100
AcDbEntity
  8
Layer_1
 62
7
100
AcDbPolyline
 90
3
 70
1
 10
105.794014
 20
440.335341
 30
0.0
 10
107.403302
 20
440.442653
 30
0.0
 10
107.403302
 20
441.643184
 30
0.0
  0
SPLINE
  5
241
100
AcDbEntity
  8
Layer_1
 62
7
100
AcDbSpline
 70
8
 71
3
 72
8
 73
4
 74
0
 40
0
 40
0
 40
0
 40
0
 40
1
 40
1
 40
1
 40
1
 10
171.907604
 20
447.235996
 30
0.0
 10
170.976036
 20
447.690515
 30
0.0
 10
170.173546
 20
448.062388
 30
0.0
 10
170.124337
 20
448.062388
 30
0.0
  0
SPLINE
  5
242
100
AcDbEntity
  8
Layer_1
 62
7
100
AcDbSpline
 70
8
 71
3
 72
8
 73
4
 74
0
 40
0
 40
0
 40
0
 40
0
 40
1
 40
1
 40
1
 40
1
 10
170.124337
 20
448.062388
 30
0.0
 10
170.075126
 20
448.062388
 30
0.0
 10
170.034856
 20
447.504640
 30
0.0
 10
170.034856
 20
446.822952
 30
0.0
  0
SPLINE
  5
243
100
AcDbEntity
  8
Layer_1
 62
7
100
AcDbSpline
 70
8
 71
3
 72
8
 73
4
 74
0
 40
0
 40
0
 40
0
 40
0
 40
1
 40
1
 40
1
 40
1
 10
170.034856
 20
446.822952
 30
0.0
 10
170.034856
 20
445.783483
 30
0.0
 10
169.938248
 20
445.369468
 30
0.0
 10
169.436147
 20
444.256793
 30
0.0
  0
SPLINE
  5
244
100
AcDbEntity
  8
Layer_1
 62
7
100
AcDbSpline
 70
8
 71
3
 72
8
 73
4
 74
0
 40
0
 40
0
 40
0
 40
0
 40
1
 40
1
 40
1
 40
1
 10
169.436147
 20
444.256793
 30
0.0
 10
169.106847
 20
443.527099
 30
0.0
 10
168.752337
 20
442.549862
 30
0.0
 10
168.648366
 20
442.085167
 30
0.0
  0
SPLINE
  5
245
100
AcDbEntity
  8
Layer_1
 62
7
100
AcDbSpline
 70
8
 71
3
 72
8
 73
4
 74
0
 40
0
 40
0
 40
0
 40
0
 40
1
 40
1
 40
1
 40
1
 10
168.648366
 20
442.085167
 30
0.0
 10
168.394264
 20
440.949730
 30
0.0
 10
167.988020
 20
440.147169
 30
0.0
 10
166.973594
 20
438.776580
 30
0.0
  0
SPLINE
  5
246
100
AcDbEntity
  8
Layer_1
 62
7
100
AcDbSpline
 70
8
 71
3
 72
8
 73
4
 74
0
 40
0
 40
0
 40
0
 40
0
 40
1
 40
1
 40
1
 40
1
 10
166.973594
 20
438.776580
 30
0.0
 10
165.551067
 20
436.854629
 30
0.0
 10
163.689959
 20
436.122054
 30
0.0
 10
159.683247
 20
435.906938
 30
0.0
  0
SPLINE
  5
247
100
AcDbEntity
  8
Layer_1
 62
7
100
AcDbSpline
 70
8
 71
3
 72
8
 73
4
 74
0
 40
0
 40
0
 40
0
 40
0
 40
1
 40
1
 40
1
 40
1
 10
159.683247
 20
435.906938
 30
0.0
 10
158.020546
 20
435.817671
 30
0.0
 10
157.447367
 20
435.717189
 30
0.0
 10
156.867891
 20
435.413408
 30
0.0
  0
LWPOLYLINE
  5
248
100
AcDbEntity
  8
Layer_1
 62
7
100
AcDbPolyline
 90
3
 70
1
 10
175.881027
 20
446.353738
 30
0.0
 10
173.601391
 20
446.409607
 30
0.0
 10
171.907604
 20
447.235996
 30
0.0
  0
SPLINE
  5
249
100
AcDbEntity
  8
Layer_1
 62
7
100
AcDbSpline
 70
8
 71
3
 72
8
 73
4
 74
0
 40
0
 40
0
 40
0
 40
0
 40
1
 40
1
 40
1
 40
1
 10
154.963374
 20
435.368518
 30
0.0
 10
154.316100
 20
435.553619
 30
0.0
 10
153.357577
 20
435.784364
 30
0.0
 10
152.833293
 20
435.881279
 30
0.0
  0
SPLINE
  5
24a
100
AcDbEntity
  8
Layer_1
 62
7
100
AcDbSpline
 70
8
 71
3
 72
8
 73
4
 74
0
 40
0
 40
0
 40
0
 40
0
 40
1
 40
1
 40
1
 40
1
 10
152.833293
 20
435.881279
 30
0.0
 10
152.255985
 20
435.988001
 30
0.0
 10
151.442239
 20
436.332027
 30
0.0
 10
150.769791
 20
436.753645
 30
0.0
  0
SPLINE
  5
24b
100
AcDbEntity
  8
Layer_1
 62
7
100
AcDbSpline
 70
8
 71
3
 72
8
 73
4
 74
0
 40
0
 40
0
 40
0
 40
0
 40
1
 40
1
 40
1
 40
1
 10
150.769791
 20
436.753645
 30
0.0
 10
150.159119
 20
437.136533
 30
0.0
 10
149.566147
 20
437.448066
 30
0.0
 10
149.452056
 20
437.445936
 30
0.0
  0
SPLINE
  5
24c
100
AcDbEntity
  8
Layer_1
 62
7
100
AcDbSpline
 70
8
 71
3
 72
8
 73
4
 74
0
 40
0
 40
0
 40
0
 40
0
 40
1
 40
1
 40
1
 40
1
 10
149.452056
 20
437.445936
 30
0.0
 10
149.337974
 20
437.443960
 30
0.0
 10
149.048910
 20
437.288978
 30
0.0
 10
148.809696
 20
437.101856
 30
0.0
  0
SPLINE
  5
24d
100
AcDbEntity
  8
Layer_1
 62
7
100
AcDbSpline
 70
8
 71
3
 72
8
 73
4
 74
0
 40
0
 40
0
 40
0
 40
0
 40
1
 40
1
 40
1
 40
1
 10
148.809696
 20
437.101856
 30
0.0
 10
148.570484
 20
436.914737
 30
0.0
 10
148.304493
 20
436.759896
 30
0.0
 10
148.218683
 20
436.757773
 30
0.0
  0
SPLINE
  5
24e
100
AcDbEntity
  8
Layer_1
 62
7
100
AcDbSpline
 70
8
 71
3
 72
8
 73
4
 74
0
 40
0
 40
0
 40
0
 40
0
 40
1
 40
1
 40
1
 40
1
 10
148.218683
 20
436.757773
 30
0.0
 10
148.132865
 20
436.755798
 30
0.0
 10
147.721805
 20
436.474642
 30
0.0
 10
147.305310
 20
436.133329
 30
0.0
  0
SPLINE
  5
24f
100
AcDbEntity
  8
Layer_1
 62
7
100
AcDbSpline
 70
8
 71
3
 72
8
 73
4
 74
0
 40
0
 40
0
 40
0
 40
0
 40
1
 40
1
 40
1
 40
1
 10
147.305310
 20
436.133329
 30
0.0
 10
146.563492
 20
435.525464
 30
0.0
 10
146.376839
 20
435.080896
 30
0.0
 10
146.719561
 20
434.738160
 30
0.0
  0
SPLINE
  5
250
100
AcDbEntity
  8
Layer_1
 62
7
100
AcDbSpline
 70
8
 71
3
 72
8
 73
4
 74
0
 40
0
 40
0
 40
0
 40
0
 40
1
 40
1
 40
1
 40
1
 10
146.719561
 20
434.738160
 30
0.0
 10
147.089416
 20
434.368342
 30
0.0
 10
148.113781
 20
429.915050
 30
0.0
 10
148.113781
 20
428.677122
 30
0.0
  0
SPLINE
  5
251
100
AcDbEntity
  8
Layer_1
 62
7
100
AcDbSpline
 70
8
 71
3
 72
8
 73
4
 74
0
 40
0
 40
0
 40
0
 40
0
 40
1
 40
1
 40
1
 40
1
 10
148.113781
 20
428.677122
 30
0.0
 10
148.113781
 20
427.327120
 30
0.0
 10
148.874218
 20
425.391262
 30
0.0
 10
149.923469
 20
424.070245
 30
0.0
  0
SPLINE
  5
252
100
AcDbEntity
  8
Layer_1
 62
7
100
AcDbSpline
 70
8
 71
3
 72
8
 73
4
 74
0
 40
0
 40
0
 40
0
 40
0
 40
1
 40
1
 40
1
 40
1
 10
149.923469
 20
424.070245
 30
0.0
 10
150.424755
 20
423.439123
 30
0.0
 10
151.263708
 20
422.257292
 30
0.0
 10
151.787852
 20
421.443944
 30
0.0
  0
SPLINE
  5
253
100
AcDbEntity
  8
Layer_1
 62
7
100
AcDbSpline
 70
8
 71
3
 72
8
 73
4
 74
0
 40
0
 40
0
 40
0
 40
0
 40
1
 40
1
 40
1
 40
1
 10
151.787852
 20
421.443944
 30
0.0
 10
153.580874
 20
418.661589
 30
0.0
 10
154.562291
 20
417.372206
 30
0.0
 10
156.421193
 20
415.356744
 30
0.0
  0
SPLINE
  5
254
100
AcDbEntity
  8
Layer_1
 62
7
100
AcDbSpline
 70
8
 71
3
 72
8
 73
4
 74
0
 40
0
 40
0
 40
0
 40
0
 40
1
 40
1
 40
1
 40
1
 10
156.421193
 20
415.356744
 30
0.0
 10
156.923542
 20
414.812072
 30
0.0
 10
157.334565
 20
414.309564
 30
0.0
 10
157.334565
 20
414.240067
 30
0.0
  0
SPLINE
  5
255
100
AcDbEntity
  8
Layer_1
 62
7
100
AcDbSpline
 70
8
 71
3
 72
8
 73
4
 74
0
 40
0
 40
0
 40
0
 40
0
 40
1
 40
1
 40
1
 40
1
 10
157.334565
 20
414.240067
 30
0.0
 10
157.334565
 20
414.170575
 30
0.0
 10
157.524103
 20
413.864491
 30
0.0
 10
157.755765
 20
413.559891
 30
0.0
  0
SPLINE
  5
256
100
AcDbEntity
  8
Layer_1
 62
7
100
AcDbSpline
 70
8
 71
3
 72
8
 73
4
 74
0
 40
0
 40
0
 40
0
 40
0
 40
1
 40
1
 40
1
 40
1
 10
157.755765
 20
413.559891
 30
0.0
 10
157.987424
 20
413.255297
 30
0.0
 10
158.342866
 20
412.575486
 30
0.0
 10
158.545617
 20
412.049201
 30
0.0
  0
SPLINE
  5
257
100
AcDbEntity
  8
Layer_1
 62
7
100
AcDbSpline
 70
8
 71
3
 72
8
 73
4
 74
0
 40
0
 40
0
 40
0
 40
0
 40
1
 40
1
 40
1
 40
1
 10
158.545617
 20
412.049201
 30
0.0
 10
158.748366
 20
411.522921
 30
0.0
 10
159.263427
 20
410.376608
 30
0.0
 10
159.690184
 20
409.501841
 30
0.0
  0
SPLINE
  5
258
100
AcDbEntity
  8
Layer_1
 62
7
100
AcDbSpline
 70
8
 71
3
 72
8
 73
4
 74
0
 40
0
 40
0
 40
0
 40
0
 40
1
 40
1
 40
1
 40
1
 10
159.690184
 20
409.501841
 30
0.0
 10
160.116946
 20
408.627067
 30
0.0
 10
160.466111
 20
407.826925
 30
0.0
 10
160.466111
 20
407.723733
 30
0.0
  0
SPLINE
  5
259
100
AcDbEntity
  8
Layer_1
 62
7
100
AcDbSpline
 70
8
 71
3
 72
8
 73
4
 74
0
 40
0
 40
0
 40
0
 40
0
 40
1
 40
1
 40
1
 40
1
 10
160.466111
 20
407.723733
 30
0.0
 10
160.466111
 20
407.620547
 30
0.0
 10
160.652124
 20
407.122772
 30
0.0
 10
160.879446
 20
406.617583
 30
0.0
  0
SPLINE
  5
25a
100
AcDbEntity
  8
Layer_1
 62
7
100
AcDbSpline
 70
8
 71
3
 72
8
 73
4
 74
0
 40
0
 40
0
 40
0
 40
0
 40
1
 40
1
 40
1
 40
1
 10
160.879446
 20
406.617583
 30
0.0
 10
161.106804
 20
406.112388
 30
0.0
 10
161.389492
 20
405.385898
 30
0.0
 10
161.507672
 20
405.003145
 30
0.0
  0
SPLINE
  5
25b
100
AcDbEntity
  8
Layer_1
 62
7
100
AcDbSpline
 70
8
 71
3
 72
8
 73
4
 74
0
 40
0
 40
0
 40
0
 40
0
 40
1
 40
1
 40
1
 40
1
 10
161.507672
 20
405.003145
 30
0.0
 10
161.625853
 20
404.620392
 30
0.0
 10
162.096303
 20
403.524343
 30
0.0
 10
162.553080
 20
402.567471
 30
0.0
  0
SPLINE
  5
25c
100
AcDbEntity
  8
Layer_1
 62
7
100
AcDbSpline
 70
8
 71
3
 72
8
 73
4
 74
0
 40
0
 40
0
 40
0
 40
0
 40
1
 40
1
 40
1
 40
1
 10
162.553080
 20
402.567471
 30
0.0
 10
164.525779
 20
398.435173
 30
0.0
 10
164.790524
 20
397.838327
 30
0.0
 10
164.906889
 20
397.261183
 30
0.0
  0
SPLINE
  5
25d
100
AcDbEntity
  8
Layer_1
 62
7
100
AcDbSpline
 70
8
 71
3
 72
8
 73
4
 74
0
 40
0
 40
0
 40
0
 40
0
 40
1
 40
1
 40
1
 40
1
 10
164.906889
 20
397.261183
 30
0.0
 10
164.974437
 20
396.926272
 30
0.0
 10
165.090622
 20
396.573974
 30
0.0
 10
165.165044
 20
396.478290
 30
0.0
  0
SPLINE
  5
25e
100
AcDbEntity
  8
Layer_1
 62
7
100
AcDbSpline
 70
8
 71
3
 72
8
 73
4
 74
0
 40
0
 40
0
 40
0
 40
0
 40
1
 40
1
 40
1
 40
1
 10
165.165044
 20
396.478290
 30
0.0
 10
165.842798
 20
395.607101
 30
0.0
 10
166.096682
 20
394.826655
 30
0.0
 10
166.171316
 20
393.384714
 30
0.0
  0
SPLINE
  5
25f
100
AcDbEntity
  8
Layer_1
 62
7
100
AcDbSpline
 70
8
 71
3
 72
8
 73
4
 74
0
 40
0
 40
0
 40
0
 40
0
 40
1
 40
1
 40
1
 40
1
 10
166.171316
 20
393.384714
 30
0.0
 10
166.264432
 20
391.587142
 30
0.0
 10
166.015495
 20
390.757781
 30
0.0
 10
164.958660
 20
389.344629
 30
0.0
  0
SPLINE
  5
260
100
AcDbEntity
  8
Layer_1
 62
7
100
AcDbSpline
 70
8
 71
3
 72
8
 73
4
 74
0
 40
0
 40
0
 40
0
 40
0
 40
1
 40
1
 40
1
 40
1
 10
164.958660
 20
389.344629
 30
0.0
 10
164.176467
 20
388.298685
 30
0.0
 10
162.704769
 20
387.222081
 30
0.0
 10
161.944933
 20
387.139946
 30
0.0
  0
SPLINE
  5
261
100
AcDbEntity
  8
Layer_1
 62
7
100
AcDbSpline
 70
8
 71
3
 72
8
 73
4
 74
0
 40
0
 40
0
 40
0
 40
0
 40
1
 40
1
 40
1
 40
1
 10
161.944933
 20
387.139946
 30
0.0
 10
161.482495
 20
387.090004
 30
0.0
 10
161.416944
 20
387.011185
 30
0.0
 10
161.370083
 20
386.449142
 30
0.0
  0
SPLINE
  5
262
100
AcDbEntity
  8
Layer_1
 62
7
100
AcDbSpline
 70
8
 71
3
 72
8
 73
4
 74
0
 40
0
 40
0
 40
0
 40
0
 40
1
 40
1
 40
1
 40
1
 10
161.370083
 20
386.449142
 30
0.0
 10
161.307560
 20
385.699628
 30
0.0
 10
161.802329
 20
383.660518
 30
0.0
 10
162.091319
 20
383.476622
 30
0.0
  0
SPLINE
  5
263
100
AcDbEntity
  8
Layer_1
 62
7
100
AcDbSpline
 70
8
 71
3
 72
8
 73
4
 74
0
 40
0
 40
0
 40
0
 40
0
 40
1
 40
1
 40
1
 40
1
 10
162.091319
 20
383.476622
 30
0.0
 10
162.202201
 20
383.406075
 30
0.0
 10
162.553472
 20
383.347167
 30
0.0
 10
162.871946
 20
383.345705
 30
0.0
  0
SPLINE
  5
264
100
AcDbEntity
  8
Layer_1
 62
7
100
AcDbSpline
 70
8
 71
3
 72
8
 73
4
 74
0
 40
0
 40
0
 40
0
 40
0
 40
1
 40
1
 40
1
 40
1
 10
162.871946
 20
383.345705
 30
0.0
 10
163.305789
 20
383.344012
 30
0.0
 10
163.616431
 20
383.179431
 30
0.0
 10
164.110628
 20
382.690634
 30
0.0
  0
SPLINE
  5
265
100
AcDbEntity
  8
Layer_1
 62
7
100
AcDbSpline
 70
8
 71
3
 72
8
 73
4
 74
0
 40
0
 40
0
 40
0
 40
0
 40
1
 40
1
 40
1
 40
1
 10
164.110628
 20
382.690634
 30
0.0
 10
165.584429
 20
381.232916
 30
0.0
 10
166.562682
 20
380.385437
 30
0.0
 10
166.771518
 20
380.385437
 30
0.0
  0
SPLINE
  5
266
100
AcDbEntity
  8
Layer_1
 62
7
100
AcDbSpline
 70
8
 71
3
 72
8
 73
4
 74
0
 40
0
 40
0
 40
0
 40
0
 40
1
 40
1
 40
1
 40
1
 10
166.771518
 20
380.385437
 30
0.0
 10
166.892941
 20
380.385437
 30
0.0
 10
167.093341
 20
380.157195
 30
0.0
 10
167.216794
 20
379.878261
 30
0.0
  0
SPLINE
  5
267
100
AcDbEntity
  8
Layer_1
 62
7
100
AcDbSpline
 70
8
 71
3
 72
8
 73
4
 74
0
 40
0
 40
0
 40
0
 40
0
 40
1
 40
1
 40
1
 40
1
 10
167.216794
 20
379.878261
 30
0.0
 10
167.340283
 20
379.599310
 30
0.0
 10
168.525729
 20
378.338660
 30
0.0
 10
169.851118
 20
377.076802
 30
0.0
  0
SPLINE
  5
268
100
AcDbEntity
  8
Layer_1
 62
7
100
AcDbSpline
 70
8
 71
3
 72
8
 73
4
 74
0
 40
0
 40
0
 40
0
 40
0
 40
1
 40
1
 40
1
 40
1
 10
169.851118
 20
377.076802
 30
0.0
 10
172.541633
 20
374.515305
 30
0.0
 10
172.927656
 20
373.975840
 30
0.0
 10
172.749439
 20
373.026032
 30
0.0
  0
SPLINE
  5
269
100
AcDbEntity
  8
Layer_1
 62
7
100
AcDbSpline
 70
8
 71
3
 72
8
 73
4
 74
0
 40
0
 40
0
 40
0
 40
0
 40
1
 40
1
 40
1
 40
1
 10
172.749439
 20
373.026032
 30
0.0
 10
172.606191
 20
372.262376
 30
0.0
 10
171.146422
 20
370.595320
 30
0.0
 10
170.227704
 20
370.146217
 30
0.0
  0
SPLINE
  5
26a
100
AcDbEntity
  8
Layer_1
 62
7
100
AcDbSpline
 70
8
 71
3
 72
8
 73
4
 74
0
 40
0
 40
0
 40
0
 40
0
 40
1
 40
1
 40
1
 40
1
 10
170.227704
 20
370.146217
 30
0.0
 10
169.882416
 20
369.977420
 30
0.0
 10
169.139500
 20
369.581445
 30
0.0
 10
168.576828
 20
369.266293
 30
0.0
  0
SPLINE
  5
26b
100
AcDbEntity
  8
Layer_1
 62
7
100
AcDbSpline
 70
8
 71
3
 72
8
 73
4
 74
0
 40
0
 40
0
 40
0
 40
0
 40
1
 40
1
 40
1
 40
1
 10
168.576828
 20
369.266293
 30
0.0
 10
167.459637
 20
368.640547
 30
0.0
 10
164.956634
 20
367.685140
 30
0.0
 10
164.434517
 20
367.685140
 30
0.0
  0
SPLINE
  5
26c
100
AcDbEntity
  8
Layer_1
 62
7
100
AcDbSpline
 70
8
 71
3
 72
8
 73
4
 74
0
 40
0
 40
0
 40
0
 40
0
 40
1
 40
1
 40
1
 40
1
 10
164.434517
 20
367.685140
 30
0.0
 10
164.132847
 20
367.685140
 30
0.0
 10
164.110952
 20
367.551435
 30
0.0
 10
164.156847
 20
365.988866
 30
0.0
  0
LWPOLYLINE
  5
26d
100
AcDbEntity
  8
Layer_1
 62
7
100
AcDbPolyline
 90
3
 70
1
 10
156.867891
 20
435.413408
 30
0.0
 10
156.140215
 20
435.031965
 30
0.0
 10
154.963374
 20
435.368518
 30
0.0
  0
SPLINE
  5
26e
100
AcDbEntity
  8
Layer_1
 62
7
100
AcDbSpline
 70
8
 71
3
 72
8
 73
4
 74
0
 40
0
 40
0
 40
0
 40
0
 40
1
 40
1
 40
1
 40
1
 10
165.337490
 20
364.205603
 30
0.0
 10
166.299430
 20
364.131607
 30
0.0
 10
166.476226
 20
364.066651
 30
0.0
 10
166.521020
 20
363.770665
 30
0.0
  0
SPLINE
  5
26f
100
AcDbEntity
  8
Layer_1
 62
7
100
AcDbSpline
 70
8
 71
3
 72
8
 73
4
 74
0
 40
0
 40
0
 40
0
 40
0
 40
1
 40
1
 40
1
 40
1
 10
166.521020
 20
363.770665
 30
0.0
 10
166.549863
 20
363.579284
 30
0.0
 10
167.002830
 20
363.109551
 30
0.0
 10
167.527365
 20
362.726801
 30
0.0
  0
SPLINE
  5
270
100
AcDbEntity
  8
Layer_1
 62
7
100
AcDbSpline
 70
8
 71
3
 72
8
 73
4
 74
0
 40
0
 40
0
 40
0
 40
0
 40
1
 40
1
 40
1
 40
1
 10
167.527365
 20
362.726801
 30
0.0
 10
168.051824
 20
362.344057
 30
0.0
 10
168.784276
 20
361.788629
 30
0.0
 10
169.154991
 20
361.492544
 30
0.0
  0
SPLINE
  5
271
100
AcDbEntity
  8
Layer_1
 62
7
100
AcDbSpline
 70
8
 71
3
 72
8
 73
4
 74
0
 40
0
 40
0
 40
0
 40
0
 40
1
 40
1
 40
1
 40
1
 10
169.154991
 20
361.492544
 30
0.0
 10
169.525702
 20
361.196448
 30
0.0
 10
170.194266
 20
360.851922
 30
0.0
 10
170.640722
 20
360.726926
 30
0.0
  0
SPLINE
  5
272
100
AcDbEntity
  8
Layer_1
 62
7
100
AcDbSpline
 70
8
 71
3
 72
8
 73
4
 74
0
 40
0
 40
0
 40
0
 40
0
 40
1
 40
1
 40
1
 40
1
 10
170.640722
 20
360.726926
 30
0.0
 10
171.244268
 20
360.557943
 30
0.0
 10
171.861850
 20
360.132284
 30
0.0
 10
173.048831
 20
359.067166
 30
0.0
  0
SPLINE
  5
273
100
AcDbEntity
  8
Layer_1
 62
7
100
AcDbSpline
 70
8
 71
3
 72
8
 73
4
 74
0
 40
0
 40
0
 40
0
 40
0
 40
1
 40
1
 40
1
 40
1
 10
173.048831
 20
359.067166
 30
0.0
 10
175.850547
 20
356.553136
 30
0.0
 10
176.993945
 20
355.153557
 30
0.0
 10
176.993945
 20
354.238121
 30
0.0
  0
SPLINE
  5
274
100
AcDbEntity
  8
Layer_1
 62
7
100
AcDbSpline
 70
8
 71
3
 72
8
 73
4
 74
0
 40
0
 40
0
 40
0
 40
0
 40
1
 40
1
 40
1
 40
1
 10
176.993945
 20
354.238121
 30
0.0
 10
176.993945
 20
353.446535
 30
0.0
 10
175.507681
 20
352.014128
 30
0.0
 10
173.895298
 20
351.251733
 30
0.0
  0
SPLINE
  5
275
100
AcDbEntity
  8
Layer_1
 62
7
100
AcDbSpline
 70
8
 71
3
 72
8
 73
4
 74
0
 40
0
 40
0
 40
0
 40
0
 40
1
 40
1
 40
1
 40
1
 10
173.895298
 20
351.251733
 30
0.0
 10
173.159533
 20
350.903829
 30
0.0
 10
172.267987
 20
350.466263
 30
0.0
 10
171.914154
 20
350.279361
 30
0.0
  0
SPLINE
  5
276
100
AcDbEntity
  8
Layer_1
 62
7
100
AcDbSpline
 70
8
 71
3
 72
8
 73
4
 74
0
 40
0
 40
0
 40
0
 40
0
 40
1
 40
1
 40
1
 40
1
 10
171.914154
 20
350.279361
 30
0.0
 10
171.560287
 20
350.092437
 30
0.0
 10
171.069437
 20
349.939507
 30
0.0
 10
170.823354
 20
349.939507
 30
0.0
  0
SPLINE
  5
277
100
AcDbEntity
  8
Layer_1
 62
7
100
AcDbSpline
 70
8
 71
3
 72
8
 73
4
 74
0
 40
0
 40
0
 40
0
 40
0
 40
1
 40
1
 40
1
 40
1
 10
170.823354
 20
349.939507
 30
0.0
 10
170.577233
 20
349.939507
 30
0.0
 10
170.083886
 20
349.755811
 30
0.0
 10
169.726957
 20
349.531275
 30
0.0
  0
SPLINE
  5
278
100
AcDbEntity
  8
Layer_1
 62
7
100
AcDbSpline
 70
8
 71
3
 72
8
 73
4
 74
0
 40
0
 40
0
 40
0
 40
0
 40
1
 40
1
 40
1
 40
1
 10
169.726957
 20
349.531275
 30
0.0
 10
169.370022
 20
349.306756
 30
0.0
 10
168.764836
 20
349.022533
 30
0.0
 10
168.382092
 20
348.899690
 30
0.0
  0
SPLINE
  5
279
100
AcDbEntity
  8
Layer_1
 62
7
100
AcDbSpline
 70
8
 71
3
 72
8
 73
4
 74
0
 40
0
 40
0
 40
0
 40
0
 40
1
 40
1
 40
1
 40
1
 10
168.382092
 20
348.899690
 30
0.0
 10
167.999339
 20
348.776841
 30
0.0
 10
167.588322
 20
348.598655
 30
0.0
 10
167.468719
 20
348.503715
 30
0.0
  0
SPLINE
  5
27a
100
AcDbEntity
  8
Layer_1
 62
7
100
AcDbSpline
 70
8
 71
3
 72
8
 73
4
 74
0
 40
0
 40
0
 40
0
 40
0
 40
1
 40
1
 40
1
 40
1
 10
167.468719
 20
348.503715
 30
0.0
 10
167.152343
 20
348.252611
 30
0.0
 10
167.204260
 20
347.231440
 30
0.0
 10
167.599182
 20
345.938050
 30
0.0
  0
SPLINE
  5
27b
100
AcDbEntity
  8
Layer_1
 62
7
100
AcDbSpline
 70
8
 71
3
 72
8
 73
4
 74
0
 40
0
 40
0
 40
0
 40
0
 40
1
 40
1
 40
1
 40
1
 10
167.599182
 20
345.938050
 30
0.0
 10
167.789112
 20
345.316077
 30
0.0
 10
167.945113
 20
344.543621
 30
0.0
 10
167.945824
 20
344.221490
 30
0.0
  0
SPLINE
  5
27c
100
AcDbEntity
  8
Layer_1
 62
7
100
AcDbSpline
 70
8
 71
3
 72
8
 73
4
 74
0
 40
0
 40
0
 40
0
 40
0
 40
1
 40
1
 40
1
 40
1
 10
167.945824
 20
344.221490
 30
0.0
 10
167.949437
 20
343.672438
 30
0.0
 10
167.977151
 20
343.642584
 30
0.0
 10
168.425599
 20
343.744241
 30
0.0
  0
SPLINE
  5
27d
100
AcDbEntity
  8
Layer_1
 62
7
100
AcDbSpline
 70
8
 71
3
 72
8
 73
4
 74
0
 40
0
 40
0
 40
0
 40
0
 40
1
 40
1
 40
1
 40
1
 10
168.425599
 20
343.744241
 30
0.0
 10
170.023567
 20
344.106436
 30
0.0
 10
169.938285
 20
344.126897
 30
0.0
 10
170.962896
 20
343.135645
 30
0.0
  0
SPLINE
  5
27e
100
AcDbEntity
  8
Layer_1
 62
7
100
AcDbSpline
 70
8
 71
3
 72
8
 73
4
 74
0
 40
0
 40
0
 40
0
 40
0
 40
1
 40
1
 40
1
 40
1
 10
170.962896
 20
343.135645
 30
0.0
 10
171.607536
 20
342.511991
 30
0.0
 10
172.198911
 20
342.119417
 30
0.0
 10
172.762260
 20
341.941160
 30
0.0
  0
SPLINE
  5
27f
100
AcDbEntity
  8
Layer_1
 62
7
100
AcDbSpline
 70
8
 71
3
 72
8
 73
4
 74
0
 40
0
 40
0
 40
0
 40
0
 40
1
 40
1
 40
1
 40
1
 10
172.762260
 20
341.941160
 30
0.0
 10
173.459563
 20
341.720504
 30
0.0
 10
173.628916
 20
341.582297
 30
0.0
 10
173.764118
 20
341.123502
 30
0.0
  0
SPLINE
  5
280
100
AcDbEntity
  8
Layer_1
 62
7
100
AcDbSpline
 70
8
 71
3
 72
8
 73
4
 74
0
 40
0
 40
0
 40
0
 40
0
 40
1
 40
1
 40
1
 40
1
 10
173.764118
 20
341.123502
 30
0.0
 10
173.894942
 20
340.679590
 30
0.0
 10
174.044280
 20
340.549358
 30
0.0
 10
174.526194
 20
340.458965
 30
0.0
  0
SPLINE
  5
281
100
AcDbEntity
  8
Layer_1
 62
7
100
AcDbSpline
 70
8
 71
3
 72
8
 73
4
 74
0
 40
0
 40
0
 40
0
 40
0
 40
1
 40
1
 40
1
 40
1
 10
174.526194
 20
340.458965
 30
0.0
 10
175.270002
 20
340.319418
 30
0.0
 10
176.132312
 20
339.781550
 30
0.0
 10
177.647273
 20
338.512202
 30
0.0
  0
SPLINE
  5
282
100
AcDbEntity
  8
Layer_1
 62
7
100
AcDbSpline
 70
8
 71
3
 72
8
 73
4
 74
0
 40
0
 40
0
 40
0
 40
0
 40
1
 40
1
 40
1
 40
1
 10
177.647273
 20
338.512202
 30
0.0
 10
179.425555
 20
337.022176
 30
0.0
 10
179.906258
 20
336.440118
 30
0.0
 10
180.203726
 20
335.416873
 30
0.0
  0
SPLINE
  5
283
100
AcDbEntity
  8
Layer_1
 62
7
100
AcDbSpline
 70
8
 71
3
 72
8
 73
4
 74
0
 40
0
 40
0
 40
0
 40
0
 40
1
 40
1
 40
1
 40
1
 10
180.203726
 20
335.416873
 30
0.0
 10
180.561798
 20
334.185219
 30
0.0
 10
180.566528
 20
334.211612
 30
0.0
 10
179.845442
 20
333.413499
 30
0.0
  0
SPLINE
  5
284
100
AcDbEntity
  8
Layer_1
 62
7
100
AcDbSpline
 70
8
 71
3
 72
8
 73
4
 74
0
 40
0
 40
0
 40
0
 40
0
 40
1
 40
1
 40
1
 40
1
 10
179.845442
 20
333.413499
 30
0.0
 10
179.488222
 20
333.018077
 30
0.0
 10
179.258874
 20
332.610326
 30
0.0
 10
179.313566
 20
332.467826
 30
0.0
  0
SPLINE
  5
285
100
AcDbEntity
  8
Layer_1
 62
7
100
AcDbSpline
 70
8
 71
3
 72
8
 73
4
 74
0
 40
0
 40
0
 40
0
 40
0
 40
1
 40
1
 40
1
 40
1
 10
179.313566
 20
332.467826
 30
0.0
 10
179.366412
 20
332.330034
 30
0.0
 10
179.825215
 20
331.950995
 30
0.0
 10
180.333057
 20
331.625480
 30
0.0
  0
SPLINE
  5
286
100
AcDbEntity
  8
Layer_1
 62
7
100
AcDbSpline
 70
8
 71
3
 72
8
 73
4
 74
0
 40
0
 40
0
 40
0
 40
0
 40
1
 40
1
 40
1
 40
1
 10
180.333057
 20
331.625480
 30
0.0
 10
181.496355
 20
330.879821
 30
0.0
 10
181.532143
 20
330.829258
 30
0.0
 10
182.086019
 20
329.149293
 30
0.0
  0
SPLINE
  5
287
100
AcDbEntity
  8
Layer_1
 62
7
100
AcDbSpline
 70
8
 71
3
 72
8
 73
4
 74
0
 40
0
 40
0
 40
0
 40
0
 40
1
 40
1
 40
1
 40
1
 10
182.086019
 20
329.149293
 30
0.0
 10
182.599663
 20
327.591410
 30
0.0
 10
182.723183
 20
327.146035
 30
0.0
 10
184.040560
 20
322.103233
 30
0.0
  0
SPLINE
  5
288
100
AcDbEntity
  8
Layer_1
 62
7
100
AcDbSpline
 70
8
 71
3
 72
8
 73
4
 74
0
 40
0
 40
0
 40
0
 40
0
 40
1
 40
1
 40
1
 40
1
 10
184.040560
 20
322.103233
 30
0.0
 10
184.552988
 20
320.141647
 30
0.0
 10
185.258058
 20
317.479803
 30
0.0
 10
185.607331
 20
316.188019
 30
0.0
  0
SPLINE
  5
289
100
AcDbEntity
  8
Layer_1
 62
7
100
AcDbSpline
 70
8
 71
3
 72
8
 73
4
 74
0
 40
0
 40
0
 40
0
 40
0
 40
1
 40
1
 40
1
 40
1
 10
185.607331
 20
316.188019
 30
0.0
 10
185.956643
 20
314.896240
 30
0.0
 10
186.346761
 20
313.369598
 30
0.0
 10
186.474340
 20
312.795480
 30
0.0
  0
SPLINE
  5
28a
100
AcDbEntity
  8
Layer_1
 62
7
100
AcDbSpline
 70
8
 71
3
 72
8
 73
4
 74
0
 40
0
 40
0
 40
0
 40
0
 40
1
 40
1
 40
1
 40
1
 10
186.474340
 20
312.795480
 30
0.0
 10
186.601887
 20
312.221357
 30
0.0
 10
186.955043
 20
310.929578
 30
0.0
 10
187.259098
 20
309.924862
 30
0.0
  0
SPLINE
  5
28b
100
AcDbEntity
  8
Layer_1
 62
7
100
AcDbSpline
 70
8
 71
3
 72
8
 73
4
 74
0
 40
0
 40
0
 40
0
 40
0
 40
1
 40
1
 40
1
 40
1
 10
187.259098
 20
309.924862
 30
0.0
 10
187.563190
 20
308.920142
 30
0.0
 10
187.892772
 20
307.784946
 30
0.0
 10
187.991550
 20
307.402197
 30
0.0
  0
SPLINE
  5
28c
100
AcDbEntity
  8
Layer_1
 62
7
100
AcDbSpline
 70
8
 71
3
 72
8
 73
4
 74
0
 40
0
 40
0
 40
0
 40
0
 40
1
 40
1
 40
1
 40
1
 10
187.991550
 20
307.402197
 30
0.0
 10
188.090291
 20
307.019453
 30
0.0
 10
188.396375
 20
305.972733
 30
0.0
 10
188.671694
 20
305.076160
 30
0.0
  0
SPLINE
  5
28d
100
AcDbEntity
  8
Layer_1
 62
7
100
AcDbSpline
 70
8
 71
3
 72
8
 73
4
 74
0
 40
0
 40
0
 40
0
 40
0
 40
1
 40
1
 40
1
 40
1
 10
188.671694
 20
305.076160
 30
0.0
 10
189.260536
 20
303.158767
 30
0.0
 10
189.273462
 20
302.970575
 30
0.0
 10
188.853967
 20
302.423841
 30
0.0
  0
SPLINE
  5
28e
100
AcDbEntity
  8
Layer_1
 62
7
100
AcDbSpline
 70
8
 71
3
 72
8
 73
4
 74
0
 40
0
 40
0
 40
0
 40
0
 40
1
 40
1
 40
1
 40
1
 10
188.853967
 20
302.423841
 30
0.0
 10
188.305398
 20
301.708861
 30
0.0
 10
188.269499
 20
301.414891
 30
0.0
 10
188.717019
 20
301.302574
 30
0.0
  0
SPLINE
  5
28f
100
AcDbEntity
  8
Layer_1
 62
7
100
AcDbSpline
 70
8
 71
3
 72
8
 73
4
 74
0
 40
0
 40
0
 40
0
 40
0
 40
1
 40
1
 40
1
 40
1
 10
188.717019
 20
301.302574
 30
0.0
 10
189.534142
 20
301.097492
 30
0.0
 10
202.630967
 20
301.566690
 30
0.0
 10
203.394922
 20
301.828396
 30
0.0
  0
SPLINE
  5
290
100
AcDbEntity
  8
Layer_1
 62
7
100
AcDbSpline
 70
8
 71
3
 72
8
 73
4
 74
0
 40
0
 40
0
 40
0
 40
0
 40
1
 40
1
 40
1
 40
1
 10
203.394922
 20
301.828396
 30
0.0
 10
203.735370
 20
301.945055
 30
0.0
 10
203.786359
 20
301.903146
 30
0.0
 10
203.786359
 20
301.506649
 30
0.0
  0
SPLINE
  5
291
100
AcDbEntity
  8
Layer_1
 62
7
100
AcDbSpline
 70
8
 71
3
 72
8
 73
4
 74
0
 40
0
 40
0
 40
0
 40
0
 40
1
 40
1
 40
1
 40
1
 10
203.786359
 20
301.506649
 30
0.0
 10
203.786359
 20
301.255934
 30
0.0
 10
203.942925
 20
300.758638
 30
0.0
 10
204.134316
 20
300.401582
 30
0.0
  0
SPLINE
  5
292
100
AcDbEntity
  8
Layer_1
 62
7
100
AcDbSpline
 70
8
 71
3
 72
8
 73
4
 74
0
 40
0
 40
0
 40
0
 40
0
 40
1
 40
1
 40
1
 40
1
 10
204.134316
 20
300.401582
 30
0.0
 10
204.325674
 20
300.044516
 30
0.0
 10
204.482740
 20
299.477209
 30
0.0
 10
204.483343
 20
299.140879
 30
0.0
  0
SPLINE
  5
293
100
AcDbEntity
  8
Layer_1
 62
7
100
AcDbSpline
 70
8
 71
3
 72
8
 73
4
 74
0
 40
0
 40
0
 40
0
 40
0
 40
1
 40
1
 40
1
 40
1
 10
204.483343
 20
299.140879
 30
0.0
 10
204.483343
 20
298.804567
 30
0.0
 10
204.609714
 20
298.294520
 30
0.0
 10
204.762831
 20
298.007452
 30
0.0
  0
SPLINE
  5
294
100
AcDbEntity
  8
Layer_1
 62
7
100
AcDbSpline
 70
8
 71
3
 72
8
 73
4
 74
0
 40
0
 40
0
 40
0
 40
0
 40
1
 40
1
 40
1
 40
1
 10
204.762831
 20
298.007452
 30
0.0
 10
204.915942
 20
297.720397
 30
0.0
 10
205.093765
 20
296.839008
 30
0.0
 10
205.157931
 20
296.048826
 30
0.0
  0
SPLINE
  5
295
100
AcDbEntity
  8
Layer_1
 62
7
100
AcDbSpline
 70
8
 71
3
 72
8
 73
4
 74
0
 40
0
 40
0
 40
0
 40
0
 40
1
 40
1
 40
1
 40
1
 10
205.157931
 20
296.048826
 30
0.0
 10
205.264117
 20
294.741619
 30
0.0
 10
205.324292
 20
294.562490
 30
0.0
 10
205.825612
 20
294.061142
 30
0.0
  0
SPLINE
  5
296
100
AcDbEntity
  8
Layer_1
 62
7
100
AcDbSpline
 70
8
 71
3
 72
8
 73
4
 74
0
 40
0
 40
0
 40
0
 40
0
 40
1
 40
1
 40
1
 40
1
 10
205.825612
 20
294.061142
 30
0.0
 10
206.365780
 20
293.520980
 30
0.0
 10
206.391310
 20
293.514525
 30
0.0
 10
207.125686
 20
293.732412
 30
0.0
  0
SPLINE
  5
297
100
AcDbEntity
  8
Layer_1
 62
7
100
AcDbSpline
 70
8
 71
3
 72
8
 73
4
 74
0
 40
0
 40
0
 40
0
 40
0
 40
1
 40
1
 40
1
 40
1
 10
207.125686
 20
293.732412
 30
0.0
 10
207.537699
 20
293.854665
 30
0.0
 10
208.553513
 20
294.218853
 30
0.0
 10
209.382995
 20
294.541719
 30
0.0
  0
SPLINE
  5
298
100
AcDbEntity
  8
Layer_1
 62
7
100
AcDbSpline
 70
8
 71
3
 72
8
 73
4
 74
0
 40
0
 40
0
 40
0
 40
0
 40
1
 40
1
 40
1
 40
1
 10
209.382995
 20
294.541719
 30
0.0
 10
210.212548
 20
294.864580
 30
0.0
 10
211.191150
 20
295.204358
 30
0.0
 10
211.557735
 20
295.296775
 30
0.0
  0
SPLINE
  5
299
100
AcDbEntity
  8
Layer_1
 62
7
100
AcDbSpline
 70
8
 71
3
 72
8
 73
4
 74
0
 40
0
 40
0
 40
0
 40
0
 40
1
 40
1
 40
1
 40
1
 10
211.557735
 20
295.296775
 30
0.0
 10
212.337862
 20
295.493422
 30
0.0
 10
214.938717
 20
296.427801
 30
0.0
 10
215.730063
 20
296.795709
 30
0.0
  0
SPLINE
  5
29a
100
AcDbEntity
  8
Layer_1
 62
7
100
AcDbSpline
 70
8
 71
3
 72
8
 73
4
 74
0
 40
0
 40
0
 40
0
 40
0
 40
1
 40
1
 40
1
 40
1
 10
215.730063
 20
296.795709
 30
0.0
 10
216.031583
 20
296.935875
 30
0.0
 10
216.394679
 20
297.050581
 30
0.0
 10
216.536967
 20
297.050581
 30
0.0
  0
SPLINE
  5
29b
100
AcDbEntity
  8
Layer_1
 62
7
100
AcDbSpline
 70
8
 71
3
 72
8
 73
4
 74
0
 40
0
 40
0
 40
0
 40
0
 40
1
 40
1
 40
1
 40
1
 10
216.536967
 20
297.050581
 30
0.0
 10
216.855266
 20
297.050581
 30
0.0
 10
219.860190
 20
298.115667
 30
0.0
 10
220.575624
 20
298.482080
 30
0.0
  0
SPLINE
  5
29c
100
AcDbEntity
  8
Layer_1
 62
7
100
AcDbSpline
 70
8
 71
3
 72
8
 73
4
 74
0
 40
0
 40
0
 40
0
 40
0
 40
1
 40
1
 40
1
 40
1
 10
220.575624
 20
298.482080
 30
0.0
 10
220.862406
 20
298.628954
 30
0.0
 10
222.349667
 20
299.154171
 30
0.0
 10
223.880657
 20
299.649242
 30
0.0
  0
SPLINE
  5
29d
100
AcDbEntity
  8
Layer_1
 62
7
100
AcDbSpline
 70
8
 71
3
 72
8
 73
4
 74
0
 40
0
 40
0
 40
0
 40
0
 40
1
 40
1
 40
1
 40
1
 10
223.880657
 20
299.649242
 30
0.0
 10
225.411676
 20
300.144304
 30
0.0
 10
227.055756
 20
300.707887
 30
0.0
 10
227.534176
 20
300.901649
 30
0.0
  0
SPLINE
  5
29e
100
AcDbEntity
  8
Layer_1
 62
7
100
AcDbSpline
 70
8
 71
3
 72
8
 73
4
 74
0
 40
0
 40
0
 40
0
 40
0
 40
1
 40
1
 40
1
 40
1
 10
227.534176
 20
300.901649
 30
0.0
 10
228.012605
 20
301.095388
 30
0.0
 10
229.891582
 20
301.757649
 30
0.0
 10
231.709603
 20
302.373315
 30
0.0
  0
SPLINE
  5
29f
100
AcDbEntity
  8
Layer_1
 62
7
100
AcDbSpline
 70
8
 71
3
 72
8
 73
4
 74
0
 40
0
 40
0
 40
0
 40
0
 40
1
 40
1
 40
1
 40
1
 10
231.709603
 20
302.373315
 30
0.0
 10
233.527696
 20
302.988981
 30
0.0
 10
235.171776
 20
303.565139
 30
0.0
 10
235.363131
 20
303.653661
 30
0.0
  0
SPLINE
  5
2a0
100
AcDbEntity
  8
Layer_1
 62
7
100
AcDbSpline
 70
8
 71
3
 72
8
 73
4
 74
0
 40
0
 40
0
 40
0
 40
0
 40
1
 40
1
 40
1
 40
1
 10
235.363131
 20
303.653661
 30
0.0
 10
235.554520
 20
303.742183
 30
0.0
 10
236.219952
 20
303.989143
 30
0.0
 10
236.841953
 20
304.202471
 30
0.0
  0
SPLINE
  5
2a1
100
AcDbEntity
  8
Layer_1
 62
7
100
AcDbSpline
 70
8
 71
3
 72
8
 73
4
 74
0
 40
0
 40
0
 40
0
 40
0
 40
1
 40
1
 40
1
 40
1
 10
236.841953
 20
304.202471
 30
0.0
 10
237.463911
 20
304.415800
 30
0.0
 10
238.051080
 20
304.644114
 30
0.0
 10
238.146757
 20
304.709837
 30
0.0
  0
SPLINE
  5
2a2
100
AcDbEntity
  8
Layer_1
 62
7
100
AcDbSpline
 70
8
 71
3
 72
8
 73
4
 74
0
 40
0
 40
0
 40
0
 40
0
 40
1
 40
1
 40
1
 40
1
 10
238.146757
 20
304.709837
 30
0.0
 10
238.242433
 20
304.775529
 30
0.0
 10
238.711139
 20
304.924700
 30
0.0
 10
239.188317
 20
305.041283
 30
0.0
  0
SPLINE
  5
2a3
100
AcDbEntity
  8
Layer_1
 62
7
100
AcDbSpline
 70
8
 71
3
 72
8
 73
4
 74
0
 40
0
 40
0
 40
0
 40
0
 40
1
 40
1
 40
1
 40
1
 10
239.188317
 20
305.041283
 30
0.0
 10
239.665459
 20
305.157862
 30
0.0
 10
240.135196
 20
305.314093
 30
0.0
 10
240.232153
 20
305.388469
 30
0.0
  0
SPLINE
  5
2a4
100
AcDbEntity
  8
Layer_1
 62
7
100
AcDbSpline
 70
8
 71
3
 72
8
 73
4
 74
0
 40
0
 40
0
 40
0
 40
0
 40
1
 40
1
 40
1
 40
1
 10
240.232153
 20
305.388469
 30
0.0
 10
240.329116
 20
305.462849
 30
0.0
 10
241.387088
 20
305.853162
 30
0.0
 10
242.583152
 20
306.255816
 30
0.0
  0
SPLINE
  5
2a5
100
AcDbEntity
  8
Layer_1
 62
7
100
AcDbSpline
 70
8
 71
3
 72
8
 73
4
 74
0
 40
0
 40
0
 40
0
 40
0
 40
1
 40
1
 40
1
 40
1
 10
242.583152
 20
306.255816
 30
0.0
 10
243.779246
 20
306.658483
 30
0.0
 10
245.002945
 20
307.099936
 30
0.0
 10
245.302439
 20
307.236821
 30
0.0
  0
SPLINE
  5
2a6
100
AcDbEntity
  8
Layer_1
 62
7
100
AcDbSpline
 70
8
 71
3
 72
8
 73
4
 74
0
 40
0
 40
0
 40
0
 40
0
 40
1
 40
1
 40
1
 40
1
 10
245.302439
 20
307.236821
 30
0.0
 10
245.601933
 20
307.373702
 30
0.0
 10
246.893709
 20
307.833070
 30
0.0
 10
248.173054
 20
308.257628
 30
0.0
  0
SPLINE
  5
2a7
100
AcDbEntity
  8
Layer_1
 62
7
100
AcDbSpline
 70
8
 71
3
 72
8
 73
4
 74
0
 40
0
 40
0
 40
0
 40
0
 40
1
 40
1
 40
1
 40
1
 10
248.173054
 20
308.257628
 30
0.0
 10
250.744925
 20
309.111123
 30
0.0
 10
253.176930
 20
309.985566
 30
0.0
 10
253.978639
 20
310.345051
 30
0.0
  0
SPLINE
  5
2a8
100
AcDbEntity
  8
Layer_1
 62
7
100
AcDbSpline
 70
8
 71
3
 72
8
 73
4
 74
0
 40
0
 40
0
 40
0
 40
0
 40
1
 40
1
 40
1
 40
1
 10
253.978639
 20
310.345051
 30
0.0
 10
254.265707
 20
310.473758
 30
0.0
 10
254.931175
 20
310.716249
 30
0.0
 10
255.457458
 20
310.883913
 30
0.0
  0
SPLINE
  5
2a9
100
AcDbEntity
  8
Layer_1
 62
7
100
AcDbSpline
 70
8
 71
3
 72
8
 73
4
 74
0
 40
0
 40
0
 40
0
 40
0
 40
1
 40
1
 40
1
 40
1
 10
255.457458
 20
310.883913
 30
0.0
 10
255.983743
 20
311.051568
 30
0.0
 10
256.492609
 20
311.247239
 30
0.0
 10
256.588285
 20
311.318763
 30
0.0
  0
SPLINE
  5
2aa
100
AcDbEntity
  8
Layer_1
 62
7
100
AcDbSpline
 70
8
 71
3
 72
8
 73
4
 74
0
 40
0
 40
0
 40
0
 40
0
 40
1
 40
1
 40
1
 40
1
 10
256.588285
 20
311.318763
 30
0.0
 10
256.683967
 20
311.390268
 30
0.0
 10
257.466869
 20
311.664544
 30
0.0
 10
258.328075
 20
311.928241
 30
0.0
  0
SPLINE
  5
2ab
100
AcDbEntity
  8
Layer_1
 62
7
100
AcDbSpline
 70
8
 71
3
 72
8
 73
4
 74
0
 40
0
 40
0
 40
0
 40
0
 40
1
 40
1
 40
1
 40
1
 10
258.328075
 20
311.928241
 30
0.0
 10
259.189248
 20
312.191955
 30
0.0
 10
260.285289
 20
312.586827
 30
0.0
 10
260.763749
 20
312.805744
 30
0.0
  0
SPLINE
  5
2ac
100
AcDbEntity
  8
Layer_1
 62
7
100
AcDbSpline
 70
8
 71
3
 72
8
 73
4
 74
0
 40
0
 40
0
 40
0
 40
0
 40
1
 40
1
 40
1
 40
1
 10
260.763749
 20
312.805744
 30
0.0
 10
261.242169
 20
313.024674
 30
0.0
 10
261.907644
 20
313.257181
 30
0.0
 10
262.242534
 20
313.322435
 30
0.0
  0
SPLINE
  5
2ad
100
AcDbEntity
  8
Layer_1
 62
7
100
AcDbSpline
 70
8
 71
3
 72
8
 73
4
 74
0
 40
0
 40
0
 40
0
 40
0
 40
1
 40
1
 40
1
 40
1
 10
262.242534
 20
313.322435
 30
0.0
 10
262.577456
 20
313.387666
 30
0.0
 10
263.086328
 20
313.545820
 30
0.0
 10
263.373399
 20
313.673804
 30
0.0
  0
SPLINE
  5
2ae
100
AcDbEntity
  8
Layer_1
 62
7
100
AcDbSpline
 70
8
 71
3
 72
8
 73
4
 74
0
 40
0
 40
0
 40
0
 40
0
 40
1
 40
1
 40
1
 40
1
 10
263.373399
 20
313.673804
 30
0.0
 10
264.205150
 20
314.044664
 30
0.0
 10
266.939149
 20
315.071889
 30
0.0
 10
267.983778
 20
315.406048
 30
0.0
  0
SPLINE
  5
2af
100
AcDbEntity
  8
Layer_1
 62
7
100
AcDbSpline
 70
8
 71
3
 72
8
 73
4
 74
0
 40
0
 40
0
 40
0
 40
0
 40
1
 40
1
 40
1
 40
1
 10
267.983778
 20
315.406048
 30
0.0
 10
268.510052
 20
315.574389
 30
0.0
 10
269.018907
 20
315.769645
 30
0.0
 10
269.114586
 20
315.839927
 30
0.0
  0
SPLINE
  5
2b0
100
AcDbEntity
  8
Layer_1
 62
7
100
AcDbSpline
 70
8
 71
3
 72
8
 73
4
 74
0
 40
0
 40
0
 40
0
 40
0
 40
1
 40
1
 40
1
 40
1
 10
269.114586
 20
315.839927
 30
0.0
 10
269.210322
 20
315.910218
 30
0.0
 10
269.836604
 20
316.144864
 30
0.0
 10
270.506436
 20
316.361344
 30
0.0
  0
SPLINE
  5
2b1
100
AcDbEntity
  8
Layer_1
 62
7
100
AcDbSpline
 70
8
 71
3
 72
8
 73
4
 74
0
 40
0
 40
0
 40
0
 40
0
 40
1
 40
1
 40
1
 40
1
 10
270.506436
 20
316.361344
 30
0.0
 10
272.150851
 20
316.892826
 30
0.0
 10
272.279866
 20
317.030993
 30
0.0
 10
272.363901
 20
318.350992
 30
0.0
  0
SPLINE
  5
2b2
100
AcDbEntity
  8
Layer_1
 62
7
100
AcDbSpline
 70
8
 71
3
 72
8
 73
4
 74
0
 40
0
 40
0
 40
0
 40
0
 40
1
 40
1
 40
1
 40
1
 10
272.363901
 20
318.350992
 30
0.0
 10
272.421048
 20
319.248206
 30
0.0
 10
272.529263
 20
319.571171
 30
0.0
 10
272.949010
 20
320.097160
 30
0.0
  0
SPLINE
  5
2b3
100
AcDbEntity
  8
Layer_1
 62
7
100
AcDbSpline
 70
8
 71
3
 72
8
 73
4
 74
0
 40
0
 40
0
 40
0
 40
0
 40
1
 40
1
 40
1
 40
1
 10
272.949010
 20
320.097160
 30
0.0
 10
273.232273
 20
320.452091
 30
0.0
 10
273.717873
 20
321.107373
 30
0.0
 10
274.028086
 20
321.553340
 30
0.0
  0
SPLINE
  5
2b4
100
AcDbEntity
  8
Layer_1
 62
7
100
AcDbSpline
 70
8
 71
3
 72
8
 73
4
 74
0
 40
0
 40
0
 40
0
 40
0
 40
1
 40
1
 40
1
 40
1
 10
274.028086
 20
321.553340
 30
0.0
 10
274.338350
 20
321.999311
 30
0.0
 10
274.679046
 20
322.442488
 30
0.0
 10
274.785257
 20
322.538173
 30
0.0
  0
SPLINE
  5
2b5
100
AcDbEntity
  8
Layer_1
 62
7
100
AcDbSpline
 70
8
 71
3
 72
8
 73
4
 74
0
 40
0
 40
0
 40
0
 40
0
 40
1
 40
1
 40
1
 40
1
 10
274.785257
 20
322.538173
 30
0.0
 10
276.101274
 20
323.723963
 30
0.0
 10
277.078494
 20
324.855002
 30
0.0
 10
277.408558
 20
325.574483
 30
0.0
  0
SPLINE
  5
2b6
100
AcDbEntity
  8
Layer_1
 62
7
100
AcDbSpline
 70
8
 71
3
 72
8
 73
4
 74
0
 40
0
 40
0
 40
0
 40
0
 40
1
 40
1
 40
1
 40
1
 10
277.408558
 20
325.574483
 30
0.0
 10
277.630134
 20
326.057478
 30
0.0
 10
277.868606
 20
326.452649
 30
0.0
 10
277.938473
 20
326.452649
 30
0.0
  0
SPLINE
  5
2b7
100
AcDbEntity
  8
Layer_1
 62
7
100
AcDbSpline
 70
8
 71
3
 72
8
 73
4
 74
0
 40
0
 40
0
 40
0
 40
0
 40
1
 40
1
 40
1
 40
1
 10
277.938473
 20
326.452649
 30
0.0
 10
278.008314
 20
326.452649
 30
0.0
 10
278.595955
 20
326.907859
 30
0.0
 10
279.244298
 20
327.464221
 30
0.0
  0
SPLINE
  5
2b8
100
AcDbEntity
  8
Layer_1
 62
7
100
AcDbSpline
 70
8
 71
3
 72
8
 73
4
 74
0
 40
0
 40
0
 40
0
 40
0
 40
1
 40
1
 40
1
 40
1
 10
279.244298
 20
327.464221
 30
0.0
 10
279.892650
 20
328.020582
 30
0.0
 10
280.834107
 20
328.698477
 30
0.0
 10
281.336465
 20
328.970669
 30
0.0
  0
SPLINE
  5
2b9
100
AcDbEntity
  8
Layer_1
 62
7
100
AcDbSpline
 70
8
 71
3
 72
8
 73
4
 74
0
 40
0
 40
0
 40
0
 40
0
 40
1
 40
1
 40
1
 40
1
 10
281.336465
 20
328.970669
 30
0.0
 10
281.838852
 20
329.242850
 30
0.0
 10
282.249880
 20
329.513597
 30
0.0
 10
282.249880
 20
329.572319
 30
0.0
  0
SPLINE
  5
2ba
100
AcDbEntity
  8
Layer_1
 62
7
100
AcDbSpline
 70
8
 71
3
 72
8
 73
4
 74
0
 40
0
 40
0
 40
0
 40
0
 40
1
 40
1
 40
1
 40
1
 10
282.249880
 20
329.572319
 30
0.0
 10
282.249880
 20
329.631024
 30
0.0
 10
282.543476
 20
329.833894
 30
0.0
 10
282.902293
 20
330.023104
 30
0.0
  0
SPLINE
  5
2bb
100
AcDbEntity
  8
Layer_1
 62
7
100
AcDbSpline
 70
8
 71
3
 72
8
 73
4
 74
0
 40
0
 40
0
 40
0
 40
0
 40
1
 40
1
 40
1
 40
1
 10
282.902293
 20
330.023104
 30
0.0
 10
283.261110
 20
330.212329
 30
0.0
 10
283.750427
 20
330.546601
 30
0.0
 10
283.989639
 20
330.765972
 30
0.0
  0
SPLINE
  5
2bc
100
AcDbEntity
  8
Layer_1
 62
7
100
AcDbSpline
 70
8
 71
3
 72
8
 73
4
 74
0
 40
0
 40
0
 40
0
 40
0
 40
1
 40
1
 40
1
 40
1
 10
283.989639
 20
330.765972
 30
0.0
 10
284.228850
 20
330.985335
 30
0.0
 10
284.767274
 20
331.318064
 30
0.0
 10
285.186092
 20
331.505366
 30
0.0
  0
SPLINE
  5
2bd
100
AcDbEntity
  8
Layer_1
 62
7
100
AcDbSpline
 70
8
 71
3
 72
8
 73
4
 74
0
 40
0
 40
0
 40
0
 40
0
 40
1
 40
1
 40
1
 40
1
 10
285.186092
 20
331.505366
 30
0.0
 10
286.717147
 20
332.190074
 30
0.0
 10
289.754225
 20
331.813085
 30
0.0
 10
291.481651
 20
330.723901
 30
0.0
  0
SPLINE
  5
2be
100
AcDbEntity
  8
Layer_1
 62
7
100
AcDbSpline
 70
8
 71
3
 72
8
 73
4
 74
0
 40
0
 40
0
 40
0
 40
0
 40
1
 40
1
 40
1
 40
1
 10
291.481651
 20
330.723901
 30
0.0
 10
293.218503
 20
329.628769
 30
0.0
 10
295.898344
 20
326.684438
 30
0.0
 10
296.635960
 20
325.060842
 30
0.0
  0
SPLINE
  5
2bf
100
AcDbEntity
  8
Layer_1
 62
7
100
AcDbSpline
 70
8
 71
3
 72
8
 73
4
 74
0
 40
0
 40
0
 40
0
 40
0
 40
1
 40
1
 40
1
 40
1
 10
296.635960
 20
325.060842
 30
0.0
 10
296.744616
 20
324.821615
 30
0.0
 10
297.067083
 20
324.117011
 30
0.0
 10
297.352522
 20
323.495044
 30
0.0
  0
SPLINE
  5
2c0
100
AcDbEntity
  8
Layer_1
 62
7
100
AcDbSpline
 70
8
 71
3
 72
8
 73
4
 74
0
 40
0
 40
0
 40
0
 40
0
 40
1
 40
1
 40
1
 40
1
 10
297.352522
 20
323.495044
 30
0.0
 10
298.129904
 20
321.800999
 30
0.0
 10
298.664799
 20
319.845343
 30
0.0
 10
299.282443
 20
316.438518
 30
0.0
  0
SPLINE
  5
2c1
100
AcDbEntity
  8
Layer_1
 62
7
100
AcDbSpline
 70
8
 71
3
 72
8
 73
4
 74
0
 40
0
 40
0
 40
0
 40
0
 40
1
 40
1
 40
1
 40
1
 10
299.282443
 20
316.438518
 30
0.0
 10
299.658560
 20
314.363756
 30
0.0
 10
299.518747
 20
311.510990
 30
0.0
 10
298.924811
 20
309.141965
 30
0.0
  0
SPLINE
  5
2c2
100
AcDbEntity
  8
Layer_1
 62
7
100
AcDbSpline
 70
8
 71
3
 72
8
 73
4
 74
0
 40
0
 40
0
 40
0
 40
0
 40
1
 40
1
 40
1
 40
1
 10
298.924811
 20
309.141965
 30
0.0
 10
298.368240
 20
306.921967
 30
0.0
 10
296.626675
 20
304.619108
 30
0.0
 10
294.845204
 20
303.747518
 30
0.0
  0
SPLINE
  5
2c3
100
AcDbEntity
  8
Layer_1
 62
7
100
AcDbSpline
 70
8
 71
3
 72
8
 73
4
 74
0
 40
0
 40
0
 40
0
 40
0
 40
1
 40
1
 40
1
 40
1
 10
294.845204
 20
303.747518
 30
0.0
 10
293.982874
 20
303.325609
 30
0.0
 10
293.780774
 20
303.296681
 30
0.0
 10
292.212494
 20
303.370687
 30
0.0
  0
SPLINE
  5
2c4
100
AcDbEntity
  8
Layer_1
 62
7
100
AcDbSpline
 70
8
 71
3
 72
8
 73
4
 74
0
 40
0
 40
0
 40
0
 40
0
 40
1
 40
1
 40
1
 40
1
 10
292.212494
 20
303.370687
 30
0.0
 10
290.249525
 20
303.463334
 30
0.0
 10
287.593842
 20
303.753278
 30
0.0
 10
286.338320
 20
304.012036
 30
0.0
  0
SPLINE
  5
2c5
100
AcDbEntity
  8
Layer_1
 62
7
100
AcDbSpline
 70
8
 71
3
 72
8
 73
4
 74
0
 40
0
 40
0
 40
0
 40
0
 40
1
 40
1
 40
1
 40
1
 10
286.338320
 20
304.012036
 30
0.0
 10
285.859897
 20
304.110628
 30
0.0
 10
284.842119
 20
304.261501
 30
0.0
 10
284.076620
 20
304.347310
 30
0.0
  0
SPLINE
  5
2c6
100
AcDbEntity
  8
Layer_1
 62
7
100
AcDbSpline
 70
8
 71
3
 72
8
 73
4
 74
0
 40
0
 40
0
 40
0
 40
0
 40
1
 40
1
 40
1
 40
1
 10
284.076620
 20
304.347310
 30
0.0
 10
283.311148
 20
304.433096
 30
0.0
 10
282.418734
 20
304.638612
 30
0.0
 10
282.093585
 20
304.804014
 30
0.0
  0
SPLINE
  5
2c7
100
AcDbEntity
  8
Layer_1
 62
7
100
AcDbSpline
 70
8
 71
3
 72
8
 73
4
 74
0
 40
0
 40
0
 40
0
 40
0
 40
1
 40
1
 40
1
 40
1
 10
282.093585
 20
304.804014
 30
0.0
 10
281.605688
 20
305.052170
 30
0.0
 10
281.405832
 20
305.069850
 30
0.0
 10
280.950374
 20
304.905147
 30
0.0
  0
SPLINE
  5
2c8
100
AcDbEntity
  8
Layer_1
 62
7
100
AcDbSpline
 70
8
 71
3
 72
8
 73
4
 74
0
 40
0
 40
0
 40
0
 40
0
 40
1
 40
1
 40
1
 40
1
 10
280.950374
 20
304.905147
 30
0.0
 10
280.646784
 20
304.795384
 30
0.0
 10
280.223505
 20
304.705558
 30
0.0
 10
280.009761
 20
304.705558
 30
0.0
  0
SPLINE
  5
2c9
100
AcDbEntity
  8
Layer_1
 62
7
100
AcDbSpline
 70
8
 71
3
 72
8
 73
4
 74
0
 40
0
 40
0
 40
0
 40
0
 40
1
 40
1
 40
1
 40
1
 10
280.009761
 20
304.705558
 30
0.0
 10
279.156487
 20
304.705558
 30
0.0
 10
277.272891
 20
305.848324
 30
0.0
 10
275.785941
 20
307.268128
 30
0.0
  0
SPLINE
  5
2ca
100
AcDbEntity
  8
Layer_1
 62
7
100
AcDbSpline
 70
8
 71
3
 72
8
 73
4
 74
0
 40
0
 40
0
 40
0
 40
0
 40
1
 40
1
 40
1
 40
1
 10
275.785941
 20
307.268128
 30
0.0
 10
275.169399
 20
307.856834
 30
0.0
 10
275.130023
 20
307.868705
 30
0.0
 10
274.481090
 20
307.661614
 30
0.0
  0
SPLINE
  5
2cb
100
AcDbEntity
  8
Layer_1
 62
7
100
AcDbSpline
 70
8
 71
3
 72
8
 73
4
 74
0
 40
0
 40
0
 40
0
 40
0
 40
1
 40
1
 40
1
 40
1
 10
274.481090
 20
307.661614
 30
0.0
 10
274.113103
 20
307.544178
 30
0.0
 10
273.577115
 20
307.346246
 30
0.0
 10
273.290053
 20
307.221751
 30
0.0
  0
SPLINE
  5
2cc
100
AcDbEntity
  8
Layer_1
 62
7
100
AcDbSpline
 70
8
 71
3
 72
8
 73
4
 74
0
 40
0
 40
0
 40
0
 40
0
 40
1
 40
1
 40
1
 40
1
 10
273.290053
 20
307.221751
 30
0.0
 10
273.002987
 20
307.097273
 30
0.0
 10
272.376677
 20
306.879223
 30
0.0
 10
271.898254
 20
306.737228
 30
0.0
  0
SPLINE
  5
2cd
100
AcDbEntity
  8
Layer_1
 62
7
100
AcDbSpline
 70
8
 71
3
 72
8
 73
4
 74
0
 40
0
 40
0
 40
0
 40
0
 40
1
 40
1
 40
1
 40
1
 10
271.898254
 20
306.737228
 30
0.0
 10
271.157844
 20
306.517477
 30
0.0
 10
269.810656
 20
306.058890
 30
0.0
 10
267.374838
 20
305.197532
 30
0.0
  0
SPLINE
  5
2ce
100
AcDbEntity
  8
Layer_1
 62
7
100
AcDbSpline
 70
8
 71
3
 72
8
 73
4
 74
0
 40
0
 40
0
 40
0
 40
0
 40
1
 40
1
 40
1
 40
1
 10
267.374838
 20
305.197532
 30
0.0
 10
267.087802
 20
305.096011
 30
0.0
 10
266.070038
 20
304.747729
 30
0.0
 10
265.113138
 20
304.423563
 30
0.0
  0
SPLINE
  5
2cf
100
AcDbEntity
  8
Layer_1
 62
7
100
AcDbSpline
 70
8
 71
3
 72
8
 73
4
 74
0
 40
0
 40
0
 40
0
 40
0
 40
1
 40
1
 40
1
 40
1
 10
265.113138
 20
304.423563
 30
0.0
 10
264.156272
 20
304.099389
 30
0.0
 10
263.216796
 20
303.760170
 30
0.0
 10
263.025441
 20
303.669707
 30
0.0
  0
SPLINE
  5
2d0
100
AcDbEntity
  8
Layer_1
 62
7
100
AcDbSpline
 70
8
 71
3
 72
8
 73
4
 74
0
 40
0
 40
0
 40
0
 40
0
 40
1
 40
1
 40
1
 40
1
 10
263.025441
 20
303.669707
 30
0.0
 10
262.548545
 20
303.444300
 30
0.0
 10
261.054379
 20
302.965790
 30
0.0
 10
260.827452
 20
302.965790
 30
0.0
  0
SPLINE
  5
2d1
100
AcDbEntity
  8
Layer_1
 62
7
100
AcDbSpline
 70
8
 71
3
 72
8
 73
4
 74
0
 40
0
 40
0
 40
0
 40
0
 40
1
 40
1
 40
1
 40
1
 10
260.827452
 20
302.965790
 30
0.0
 10
260.725649
 20
302.965790
 30
0.0
 10
260.395672
 20
302.853558
 30
0.0
 10
260.094109
 20
302.716384
 30
0.0
  0
SPLINE
  5
2d2
100
AcDbEntity
  8
Layer_1
 62
7
100
AcDbSpline
 70
8
 71
3
 72
8
 73
4
 74
0
 40
0
 40
0
 40
0
 40
0
 40
1
 40
1
 40
1
 40
1
 10
260.094109
 20
302.716384
 30
0.0
 10
259.431415
 20
302.414877
 30
0.0
 10
256.363419
 20
301.346659
 30
0.0
 10
253.282721
 20
300.344831
 30
0.0
  0
SPLINE
  5
2d3
100
AcDbEntity
  8
Layer_1
 62
7
100
AcDbSpline
 70
8
 71
3
 72
8
 73
4
 74
0
 40
0
 40
0
 40
0
 40
0
 40
1
 40
1
 40
1
 40
1
 10
253.282721
 20
300.344831
 30
0.0
 10
252.038804
 20
299.940296
 30
0.0
 10
250.942763
 20
299.556175
 30
0.0
 10
250.847050
 20
299.491233
 30
0.0
  0
SPLINE
  5
2d4
100
AcDbEntity
  8
Layer_1
 62
7
100
AcDbSpline
 70
8
 71
3
 72
8
 73
4
 74
0
 40
0
 40
0
 40
0
 40
0
 40
1
 40
1
 40
1
 40
1
 10
250.847050
 20
299.491233
 30
0.0
 10
250.751371
 20
299.426263
 30
0.0
 10
249.968464
 20
299.152917
 30
0.0
 10
249.107297
 20
298.883772
 30
0.0
  0
SPLINE
  5
2d5
100
AcDbEntity
  8
Layer_1
 62
7
100
AcDbSpline
 70
8
 71
3
 72
8
 73
4
 74
0
 40
0
 40
0
 40
0
 40
0
 40
1
 40
1
 40
1
 40
1
 10
249.107297
 20
298.883772
 30
0.0
 10
248.246124
 20
298.614637
 30
0.0
 10
247.110919
 20
298.241006
 30
0.0
 10
246.584637
 20
298.053459
 30
0.0
  0
SPLINE
  5
2d6
100
AcDbEntity
  8
Layer_1
 62
7
100
AcDbSpline
 70
8
 71
3
 72
8
 73
4
 74
0
 40
0
 40
0
 40
0
 40
0
 40
1
 40
1
 40
1
 40
1
 10
246.584637
 20
298.053459
 30
0.0
 10
246.058354
 20
297.865922
 30
0.0
 10
245.275447
 20
297.603047
 30
0.0
 10
244.844878
 20
297.469312
 30
0.0
  0
SPLINE
  5
2d7
100
AcDbEntity
  8
Layer_1
 62
7
100
AcDbSpline
 70
8
 71
3
 72
8
 73
4
 74
0
 40
0
 40
0
 40
0
 40
0
 40
1
 40
1
 40
1
 40
1
 10
244.844878
 20
297.469312
 30
0.0
 10
243.115485
 20
296.932125
 30
0.0
 10
236.911281
 20
294.786151
 30
0.0
 10
236.655791
 20
294.636776
 30
0.0
  0
SPLINE
  5
2d8
100
AcDbEntity
  8
Layer_1
 62
7
100
AcDbSpline
 70
8
 71
3
 72
8
 73
4
 74
0
 40
0
 40
0
 40
0
 40
0
 40
1
 40
1
 40
1
 40
1
 10
236.655791
 20
294.636776
 30
0.0
 10
236.505567
 20
294.548954
 30
0.0
 10
235.889411
 20
294.350742
 30
0.0
 10
235.286570
 20
294.196303
 30
0.0
  0
SPLINE
  5
2d9
100
AcDbEntity
  8
Layer_1
 62
7
100
AcDbSpline
 70
8
 71
3
 72
8
 73
4
 74
0
 40
0
 40
0
 40
0
 40
0
 40
1
 40
1
 40
1
 40
1
 10
235.286570
 20
294.196303
 30
0.0
 10
234.683732
 20
294.041850
 30
0.0
 10
233.945444
 20
293.804319
 30
0.0
 10
233.645950
 20
293.668458
 30
0.0
  0
SPLINE
  5
2da
100
AcDbEntity
  8
Layer_1
 62
7
100
AcDbSpline
 70
8
 71
3
 72
8
 73
4
 74
0
 40
0
 40
0
 40
0
 40
0
 40
1
 40
1
 40
1
 40
1
 10
233.645950
 20
293.668458
 30
0.0
 10
233.346456
 20
293.532584
 30
0.0
 10
232.670835
 20
293.285191
 30
0.0
 10
232.144553
 20
293.118696
 30
0.0
  0
SPLINE
  5
2db
100
AcDbEntity
  8
Layer_1
 62
7
100
AcDbSpline
 70
8
 71
3
 72
8
 73
4
 74
0
 40
0
 40
0
 40
0
 40
0
 40
1
 40
1
 40
1
 40
1
 10
232.144553
 20
293.118696
 30
0.0
 10
231.618271
 20
292.952210
 30
0.0
 10
230.757101
 20
292.666564
 30
0.0
 10
230.230818
 20
292.483937
 30
0.0
  0
SPLINE
  5
2dc
100
AcDbEntity
  8
Layer_1
 62
7
100
AcDbSpline
 70
8
 71
3
 72
8
 73
4
 74
0
 40
0
 40
0
 40
0
 40
0
 40
1
 40
1
 40
1
 40
1
 10
230.230818
 20
292.483937
 30
0.0
 10
225.909367
 20
290.984295
 30
0.0
 10
214.807608
 20
287.306687
 30
0.0
 10
214.587876
 20
287.301984
 30
0.0
  0
SPLINE
  5
2dd
100
AcDbEntity
  8
Layer_1
 62
7
100
AcDbSpline
 70
8
 71
3
 72
8
 73
4
 74
0
 40
0
 40
0
 40
0
 40
0
 40
1
 40
1
 40
1
 40
1
 10
214.587876
 20
287.301984
 30
0.0
 10
214.436116
 20
287.298823
 30
0.0
 10
213.998779
 20
287.144818
 30
0.0
 10
213.616032
 20
286.959935
 30
0.0
  0
SPLINE
  5
2de
100
AcDbEntity
  8
Layer_1
 62
7
100
AcDbSpline
 70
8
 71
3
 72
8
 73
4
 74
0
 40
0
 40
0
 40
0
 40
0
 40
1
 40
1
 40
1
 40
1
 10
213.616032
 20
286.959935
 30
0.0
 10
213.233288
 20
286.775051
 30
0.0
 10
212.763552
 20
286.620648
 30
0.0
 10
212.572196
 20
286.616816
 30
0.0
  0
SPLINE
  5
2df
100
AcDbEntity
  8
Layer_1
 62
7
100
AcDbSpline
 70
8
 71
3
 72
8
 73
4
 74
0
 40
0
 40
0
 40
0
 40
0
 40
1
 40
1
 40
1
 40
1
 10
212.572196
 20
286.616816
 30
0.0
 10
212.380805
 20
286.612755
 30
0.0
 10
212.016504
 20
286.501452
 30
0.0
 10
211.762619
 20
286.368990
 30
0.0
  0
SPLINE
  5
2e0
100
AcDbEntity
  8
Layer_1
 62
7
100
AcDbSpline
 70
8
 71
3
 72
8
 73
4
 74
0
 40
0
 40
0
 40
0
 40
0
 40
1
 40
1
 40
1
 40
1
 10
211.762619
 20
286.368990
 30
0.0
 10
211.508698
 20
286.236519
 30
0.0
 10
210.999829
 20
286.030773
 30
0.0
 10
210.631755
 20
285.911775
 30
0.0
  0
SPLINE
  5
2e1
100
AcDbEntity
  8
Layer_1
 62
7
100
AcDbSpline
 70
8
 71
3
 72
8
 73
4
 74
0
 40
0
 40
0
 40
0
 40
0
 40
1
 40
1
 40
1
 40
1
 10
210.631755
 20
285.911775
 30
0.0
 10
208.538631
 20
285.235057
 30
0.0
 10
208.135762
 20
285.026739
 30
0.0
 10
208.135762
 20
284.621061
 30
0.0
  0
SPLINE
  5
2e2
100
AcDbEntity
  8
Layer_1
 62
7
100
AcDbSpline
 70
8
 71
3
 72
8
 73
4
 74
0
 40
0
 40
0
 40
0
 40
0
 40
1
 40
1
 40
1
 40
1
 10
208.135762
 20
284.621061
 30
0.0
 10
208.135762
 20
284.400980
 30
0.0
 10
208.331500
 20
283.449359
 30
0.0
 10
208.570711
 20
282.506335
 30
0.0
  0
SPLINE
  5
2e3
100
AcDbEntity
  8
Layer_1
 62
7
100
AcDbSpline
 70
8
 71
3
 72
8
 73
4
 74
0
 40
0
 40
0
 40
0
 40
0
 40
1
 40
1
 40
1
 40
1
 10
208.570711
 20
282.506335
 30
0.0
 10
208.809926
 20
281.563299
 30
0.0
 10
209.006192
 20
280.555067
 30
0.0
 10
209.006801
 20
280.265814
 30
0.0
  0
SPLINE
  5
2e4
100
AcDbEntity
  8
Layer_1
 62
7
100
AcDbSpline
 70
8
 71
3
 72
8
 73
4
 74
0
 40
0
 40
0
 40
0
 40
0
 40
1
 40
1
 40
1
 40
1
 10
209.006801
 20
280.265814
 30
0.0
 10
209.006801
 20
279.976561
 30
0.0
 10
209.163474
 20
279.505034
 30
0.0
 10
209.353616
 20
279.217966
 30
0.0
  0
SPLINE
  5
2e5
100
AcDbEntity
  8
Layer_1
 62
7
100
AcDbSpline
 70
8
 71
3
 72
8
 73
4
 74
0
 40
0
 40
0
 40
0
 40
0
 40
1
 40
1
 40
1
 40
1
 10
209.353616
 20
279.217966
 30
0.0
 10
209.543726
 20
278.930902
 30
0.0
 10
209.699795
 20
278.406137
 30
0.0
 10
209.700402
 20
278.051820
 30
0.0
  0
SPLINE
  5
2e6
100
AcDbEntity
  8
Layer_1
 62
7
100
AcDbSpline
 70
8
 71
3
 72
8
 73
4
 74
0
 40
0
 40
0
 40
0
 40
0
 40
1
 40
1
 40
1
 40
1
 10
209.700402
 20
278.051820
 30
0.0
 10
209.704014
 20
277.395476
 30
0.0
 10
210.004242
 20
276.521323
 30
0.0
 10
210.230311
 20
276.521323
 30
0.0
  0
SPLINE
  5
2e7
100
AcDbEntity
  8
Layer_1
 62
7
100
AcDbSpline
 70
8
 71
3
 72
8
 73
4
 74
0
 40
0
 40
0
 40
0
 40
0
 40
1
 40
1
 40
1
 40
1
 10
210.230311
 20
276.521323
 30
0.0
 10
210.826886
 20
276.521323
 30
0.0
 10
210.932889
 20
272.684947
 30
0.0
 10
210.353981
 20
272.045742
 30
0.0
  0
SPLINE
  5
2e8
100
AcDbEntity
  8
Layer_1
 62
7
100
AcDbSpline
 70
8
 71
3
 72
8
 73
4
 74
0
 40
0
 40
0
 40
0
 40
0
 40
1
 40
1
 40
1
 40
1
 10
210.353981
 20
272.045742
 30
0.0
 10
210.186516
 20
271.860840
 30
0.0
 10
210.049536
 20
271.461301
 30
0.0
 10
210.049536
 20
271.157857
 30
0.0
  0
SPLINE
  5
2e9
100
AcDbEntity
  8
Layer_1
 62
7
100
AcDbSpline
 70
8
 71
3
 72
8
 73
4
 74
0
 40
0
 40
0
 40
0
 40
0
 40
1
 40
1
 40
1
 40
1
 10
210.049536
 20
271.157857
 30
0.0
 10
210.049536
 20
270.735678
 30
0.0
 10
209.973443
 20
270.606118
 30
0.0
 10
209.725506
 20
270.606118
 30
0.0
  0
SPLINE
  5
2ea
100
AcDbEntity
  8
Layer_1
 62
7
100
AcDbSpline
 70
8
 71
3
 72
8
 73
4
 74
0
 40
0
 40
0
 40
0
 40
0
 40
1
 40
1
 40
1
 40
1
 10
209.725506
 20
270.606118
 30
0.0
 10
209.547251
 20
270.606118
 30
0.0
 10
209.105932
 20
270.371250
 30
0.0
 10
208.744693
 20
270.084191
 30
0.0
  0
SPLINE
  5
2eb
100
AcDbEntity
  8
Layer_1
 62
7
100
AcDbSpline
 70
8
 71
3
 72
8
 73
4
 74
0
 40
0
 40
0
 40
0
 40
0
 40
1
 40
1
 40
1
 40
1
 10
208.744693
 20
270.084191
 30
0.0
 10
208.315901
 20
269.743419
 30
0.0
 10
207.889503
 20
269.562255
 30
0.0
 10
207.516259
 20
269.562255
 30
0.0
  0
SPLINE
  5
2ec
100
AcDbEntity
  8
Layer_1
 62
7
100
AcDbSpline
 70
8
 71
3
 72
8
 73
4
 74
0
 40
0
 40
0
 40
0
 40
0
 40
1
 40
1
 40
1
 40
1
 10
207.516259
 20
269.562255
 30
0.0
 10
207.154884
 20
269.562255
 30
0.0
 10
206.747423
 20
269.396333
 30
0.0
 10
206.408469
 20
269.111120
 30
0.0
  0
SPLINE
  5
2ed
100
AcDbEntity
  8
Layer_1
 62
7
100
AcDbSpline
 70
8
 71
3
 72
8
 73
4
 74
0
 40
0
 40
0
 40
0
 40
0
 40
1
 40
1
 40
1
 40
1
 10
206.408469
 20
269.111120
 30
0.0
 10
205.940733
 20
268.717532
 30
0.0
 10
205.767000
 20
268.673530
 30
0.0
 10
205.046800
 20
268.766263
 30
0.0
  0
SPLINE
  5
2ee
100
AcDbEntity
  8
Layer_1
 62
7
100
AcDbSpline
 70
8
 71
3
 72
8
 73
4
 74
0
 40
0
 40
0
 40
0
 40
0
 40
1
 40
1
 40
1
 40
1
 10
205.046800
 20
268.766263
 30
0.0
 10
203.962195
 20
268.905934
 30
0.0
 10
203.361346
 20
268.604981
 30
0.0
 10
203.323918
 20
267.903357
 30
0.0
  0
SPLINE
  5
2ef
100
AcDbEntity
  8
Layer_1
 62
7
100
AcDbSpline
 70
8
 71
3
 72
8
 73
4
 74
0
 40
0
 40
0
 40
0
 40
0
 40
1
 40
1
 40
1
 40
1
 10
203.323918
 20
267.903357
 30
0.0
 10
203.308622
 20
267.619670
 30
0.0
 10
203.289030
 20
267.291497
 30
0.0
 10
203.280408
 20
267.174098
 30
0.0
  0
SPLINE
  5
2f0
100
AcDbEntity
  8
Layer_1
 62
7
100
AcDbSpline
 70
8
 71
3
 72
8
 73
4
 74
0
 40
0
 40
0
 40
0
 40
0
 40
1
 40
1
 40
1
 40
1
 10
203.280408
 20
267.174098
 30
0.0
 10
203.271885
 20
267.056685
 30
0.0
 10
203.066190
 20
266.830735
 30
0.0
 10
202.823880
 20
266.671979
 30
0.0
  0
SPLINE
  5
2f1
100
AcDbEntity
  8
Layer_1
 62
7
100
AcDbSpline
 70
8
 71
3
 72
8
 73
4
 74
0
 40
0
 40
0
 40
0
 40
0
 40
1
 40
1
 40
1
 40
1
 10
202.823880
 20
266.671979
 30
0.0
 10
202.340368
 20
266.355131
 30
0.0
 10
200.275478
 20
265.747871
 30
0.0
 10
199.654408
 20
265.739836
 30
0.0
  0
SPLINE
  5
2f2
100
AcDbEntity
  8
Layer_1
 62
7
100
AcDbSpline
 70
8
 71
3
 72
8
 73
4
 74
0
 40
0
 40
0
 40
0
 40
0
 40
1
 40
1
 40
1
 40
1
 10
199.654408
 20
265.739836
 30
0.0
 10
199.317633
 20
265.735236
 30
0.0
 10
199.262972
 20
265.641910
 30
0.0
 10
199.262972
 20
265.069846
 30
0.0
  0
SPLINE
  5
2f3
100
AcDbEntity
  8
Layer_1
 62
7
100
AcDbSpline
 70
8
 71
3
 72
8
 73
4
 74
0
 40
0
 40
0
 40
0
 40
0
 40
1
 40
1
 40
1
 40
1
 10
199.262972
 20
265.069846
 30
0.0
 10
199.262972
 20
264.434507
 30
0.0
 10
199.689339
 20
262.883188
 30
0.0
 10
199.964799
 20
262.516201
 30
0.0
  0
SPLINE
  5
2f4
100
AcDbEntity
  8
Layer_1
 62
7
100
AcDbSpline
 70
8
 71
3
 72
8
 73
4
 74
0
 40
0
 40
0
 40
0
 40
0
 40
1
 40
1
 40
1
 40
1
 10
199.964799
 20
262.516201
 30
0.0
 10
200.036619
 20
262.420516
 30
0.0
 10
200.220072
 20
261.851229
 30
0.0
 10
200.372435
 20
261.251111
 30
0.0
  0
SPLINE
  5
2f5
100
AcDbEntity
  8
Layer_1
 62
7
100
AcDbSpline
 70
8
 71
3
 72
8
 73
4
 74
0
 40
0
 40
0
 40
0
 40
0
 40
1
 40
1
 40
1
 40
1
 10
200.372435
 20
261.251111
 30
0.0
 10
200.524838
 20
260.651016
 30
0.0
 10
200.807275
 20
259.813686
 30
0.0
 10
201.000095
 20
259.390412
 30
0.0
  0
SPLINE
  5
2f6
100
AcDbEntity
  8
Layer_1
 62
7
100
AcDbSpline
 70
8
 71
3
 72
8
 73
4
 74
0
 40
0
 40
0
 40
0
 40
0
 40
1
 40
1
 40
1
 40
1
 10
201.000095
 20
259.390412
 30
0.0
 10
201.192909
 20
258.967126
 30
0.0
 10
201.350682
 20
258.517495
 30
0.0
 10
201.350682
 20
258.391232
 30
0.0
  0
SPLINE
  5
2f7
100
AcDbEntity
  8
Layer_1
 62
7
100
AcDbSpline
 70
8
 71
3
 72
8
 73
4
 74
0
 40
0
 40
0
 40
0
 40
0
 40
1
 40
1
 40
1
 40
1
 10
201.350682
 20
258.391232
 30
0.0
 10
201.350682
 20
258.264940
 30
0.0
 10
201.507251
 20
257.869494
 30
0.0
 10
201.698640
 20
257.512423
 30
0.0
  0
SPLINE
  5
2f8
100
AcDbEntity
  8
Layer_1
 62
7
100
AcDbSpline
 70
8
 71
3
 72
8
 73
4
 74
0
 40
0
 40
0
 40
0
 40
0
 40
1
 40
1
 40
1
 40
1
 10
201.698640
 20
257.512423
 30
0.0
 10
202.108774
 20
256.747147
 30
0.0
 10
202.171015
 20
255.268040
 30
0.0
 10
201.805749
 20
254.964933
 30
0.0
  0
SPLINE
  5
2f9
100
AcDbEntity
  8
Layer_1
 62
7
100
AcDbSpline
 70
8
 71
3
 72
8
 73
4
 74
0
 40
0
 40
0
 40
0
 40
0
 40
1
 40
1
 40
1
 40
1
 10
201.805749
 20
254.964933
 30
0.0
 10
201.381950
 20
254.613171
 30
0.0
 10
198.700015
 20
253.935843
 30
0.0
 10
197.262248
 20
253.817437
 30
0.0
  0
SPLINE
  5
2fa
100
AcDbEntity
  8
Layer_1
 62
7
100
AcDbSpline
 70
8
 71
3
 72
8
 73
4
 74
0
 40
0
 40
0
 40
0
 40
0
 40
1
 40
1
 40
1
 40
1
 10
197.262248
 20
253.817437
 30
0.0
 10
195.442095
 20
253.667518
 30
0.0
 10
195.260708
 20
253.607182
 30
0.0
 10
195.265548
 20
253.153227
 30
0.0
  0
SPLINE
  5
2fb
100
AcDbEntity
  8
Layer_1
 62
7
100
AcDbSpline
 70
8
 71
3
 72
8
 73
4
 74
0
 40
0
 40
0
 40
0
 40
0
 40
1
 40
1
 40
1
 40
1
 10
195.265548
 20
253.153227
 30
0.0
 10
195.269160
 20
252.944380
 30
0.0
 10
195.548662
 20
251.716600
 30
0.0
 10
195.889821
 20
250.424821
 30
0.0
  0
SPLINE
  5
2fc
100
AcDbEntity
  8
Layer_1
 62
7
100
AcDbSpline
 70
8
 71
3
 72
8
 73
4
 74
0
 40
0
 40
0
 40
0
 40
0
 40
1
 40
1
 40
1
 40
1
 10
195.889821
 20
250.424821
 30
0.0
 10
196.230940
 20
249.133045
 30
0.0
 10
196.623841
 20
247.567256
 30
0.0
 10
196.762923
 20
246.945287
 30
0.0
  0
SPLINE
  5
2fd
100
AcDbEntity
  8
Layer_1
 62
7
100
AcDbSpline
 70
8
 71
3
 72
8
 73
4
 74
0
 40
0
 40
0
 40
0
 40
0
 40
1
 40
1
 40
1
 40
1
 10
196.762923
 20
246.945287
 30
0.0
 10
196.902008
 20
246.323317
 30
0.0
 10
197.164757
 20
245.383847
 30
0.0
 10
197.346849
 20
244.857559
 30
0.0
  0
SPLINE
  5
2fe
100
AcDbEntity
  8
Layer_1
 62
7
100
AcDbSpline
 70
8
 71
3
 72
8
 73
4
 74
0
 40
0
 40
0
 40
0
 40
0
 40
1
 40
1
 40
1
 40
1
 10
197.346849
 20
244.857559
 30
0.0
 10
197.528984
 20
244.331288
 30
0.0
 10
197.844828
 20
243.235233
 30
0.0
 10
198.048787
 20
242.421891
 30
0.0
  0
SPLINE
  5
2ff
100
AcDbEntity
  8
Layer_1
 62
7
100
AcDbSpline
 70
8
 71
3
 72
8
 73
4
 74
0
 40
0
 40
0
 40
0
 40
0
 40
1
 40
1
 40
1
 40
1
 10
198.048787
 20
242.421891
 30
0.0
 10
198.256629
 20
241.593086
 30
0.0
 10
198.578024
 20
240.773168
 30
0.0
 10
198.780064
 20
240.556495
 30
0.0
  0
SPLINE
  5
300
100
AcDbEntity
  8
Layer_1
 62
7
100
AcDbSpline
 70
8
 71
3
 72
8
 73
4
 74
0
 40
0
 40
0
 40
0
 40
0
 40
1
 40
1
 40
1
 40
1
 10
198.780064
 20
240.556495
 30
0.0
 10
199.184920
 20
240.122262
 30
0.0
 10
200.657584
 20
239.638265
 30
0.0
 10
201.573909
 20
239.638265
 30
0.0
  0
SPLINE
  5
301
100
AcDbEntity
  8
Layer_1
 62
7
100
AcDbSpline
 70
8
 71
3
 72
8
 73
4
 74
0
 40
0
 40
0
 40
0
 40
0
 40
1
 40
1
 40
1
 40
1
 10
201.573909
 20
239.638265
 30
0.0
 10
201.906449
 20
239.638265
 30
0.0
 10
202.619099
 20
239.436550
 30
0.0
 10
203.157559
 20
239.190029
 30
0.0
  0
SPLINE
  5
302
100
AcDbEntity
  8
Layer_1
 62
7
100
AcDbSpline
 70
8
 71
3
 72
8
 73
4
 74
0
 40
0
 40
0
 40
0
 40
0
 40
1
 40
1
 40
1
 40
1
 10
203.157559
 20
239.190029
 30
0.0
 10
203.696056
 20
238.943505
 30
0.0
 10
204.625417
 20
238.669921
 30
0.0
 10
205.222839
 20
238.582066
 30
0.0
  0
SPLINE
  5
303
100
AcDbEntity
  8
Layer_1
 62
7
100
AcDbSpline
 70
8
 71
3
 72
8
 73
4
 74
0
 40
0
 40
0
 40
0
 40
0
 40
1
 40
1
 40
1
 40
1
 10
205.222839
 20
238.582066
 30
0.0
 10
205.820233
 20
238.494196
 30
0.0
 10
206.583018
 20
238.320423
 30
0.0
 10
206.917945
 20
238.195892
 30
0.0
  0
SPLINE
  5
304
100
AcDbEntity
  8
Layer_1
 62
7
100
AcDbSpline
 70
8
 71
3
 72
8
 73
4
 74
0
 40
0
 40
0
 40
0
 40
0
 40
1
 40
1
 40
1
 40
1
 10
206.917945
 20
238.195892
 30
0.0
 10
208.070780
 20
237.767228
 30
0.0
 10
210.919387
 20
236.317656
 30
0.0
 10
210.919387
 20
236.159687
 30
0.0
  0
SPLINE
  5
305
100
AcDbEntity
  8
Layer_1
 62
7
100
AcDbSpline
 70
8
 71
3
 72
8
 73
4
 74
0
 40
0
 40
0
 40
0
 40
0
 40
1
 40
1
 40
1
 40
1
 10
210.919387
 20
236.159687
 30
0.0
 10
210.919387
 20
236.072658
 30
0.0
 10
211.447843
 20
235.458910
 30
0.0
 10
212.093728
 20
234.795775
 30
0.0
  0
SPLINE
  5
306
100
AcDbEntity
  8
Layer_1
 62
7
100
AcDbSpline
 70
8
 71
3
 72
8
 73
4
 74
0
 40
0
 40
0
 40
0
 40
0
 40
1
 40
1
 40
1
 40
1
 10
212.093728
 20
234.795775
 30
0.0
 10
213.454832
 20
233.398394
 30
0.0
 10
213.444969
 20
233.410626
 30
0.0
 10
214.204268
 20
232.169480
 30
0.0
  0
SPLINE
  5
307
100
AcDbEntity
  8
Layer_1
 62
7
100
AcDbSpline
 70
8
 71
3
 72
8
 73
4
 74
0
 40
0
 40
0
 40
0
 40
0
 40
1
 40
1
 40
1
 40
1
 10
214.204268
 20
232.169480
 30
0.0
 10
214.568854
 20
231.573511
 30
0.0
 10
214.833423
 20
230.862232
 30
0.0
 10
214.921013
 20
230.242486
 30
0.0
  0
SPLINE
  5
308
100
AcDbEntity
  8
Layer_1
 62
7
100
AcDbSpline
 70
8
 71
3
 72
8
 73
4
 74
0
 40
0
 40
0
 40
0
 40
0
 40
1
 40
1
 40
1
 40
1
 10
214.921013
 20
230.242486
 30
0.0
 10
214.997394
 20
229.702226
 30
0.0
 10
215.195370
 20
228.777152
 30
0.0
 10
215.361018
 20
228.186822
 30
0.0
  0
SPLINE
  5
309
100
AcDbEntity
  8
Layer_1
 62
7
100
AcDbSpline
 70
8
 71
3
 72
8
 73
4
 74
0
 40
0
 40
0
 40
0
 40
0
 40
1
 40
1
 40
1
 40
1
 10
215.361018
 20
228.186822
 30
0.0
 10
215.662149
 20
227.113570
 30
0.0
 10
215.649409
 20
226.577633
 30
0.0
 10
215.281648
 20
224.850241
 30
0.0
  0
SPLINE
  5
30a
100
AcDbEntity
  8
Layer_1
 62
7
100
AcDbSpline
 70
8
 71
3
 72
8
 73
4
 74
0
 40
0
 40
0
 40
0
 40
0
 40
1
 40
1
 40
1
 40
1
 10
215.281648
 20
224.850241
 30
0.0
 10
214.832280
 20
222.739434
 30
0.0
 10
214.747997
 20
222.409409
 30
0.0
 10
214.584170
 20
222.118734
 30
0.0
  0
SPLINE
  5
30b
100
AcDbEntity
  8
Layer_1
 62
7
100
AcDbSpline
 70
8
 71
3
 72
8
 73
4
 74
0
 40
0
 40
0
 40
0
 40
0
 40
1
 40
1
 40
1
 40
1
 10
214.584170
 20
222.118734
 30
0.0
 10
214.487133
 20
221.946536
 30
0.0
 10
214.298522
 20
221.531630
 30
0.0
 10
214.165064
 20
221.196728
 30
0.0
  0
SPLINE
  5
30c
100
AcDbEntity
  8
Layer_1
 62
7
100
AcDbSpline
 70
8
 71
3
 72
8
 73
4
 74
0
 40
0
 40
0
 40
0
 40
0
 40
1
 40
1
 40
1
 40
1
 10
214.165064
 20
221.196728
 30
0.0
 10
213.546631
 20
219.644853
 30
0.0
 10
210.596855
 20
216.329938
 30
0.0
 10
209.156670
 20
215.568342
 30
0.0
  0
SPLINE
  5
30d
100
AcDbEntity
  8
Layer_1
 62
7
100
AcDbSpline
 70
8
 71
3
 72
8
 73
4
 74
0
 40
0
 40
0
 40
0
 40
0
 40
1
 40
1
 40
1
 40
1
 10
209.156670
 20
215.568342
 30
0.0
 10
208.617459
 20
215.283193
 30
0.0
 10
208.358235
 20
215.014862
 30
0.0
 10
208.246893
 20
214.626600
 30
0.0
  0
SPLINE
  5
30e
100
AcDbEntity
  8
Layer_1
 62
7
100
AcDbSpline
 70
8
 71
3
 72
8
 73
4
 74
0
 40
0
 40
0
 40
0
 40
0
 40
1
 40
1
 40
1
 40
1
 10
208.246893
 20
214.626600
 30
0.0
 10
208.130634
 20
214.221259
 30
0.0
 10
207.919512
 20
214.014934
 30
0.0
 10
207.414027
 20
213.812683
 30
0.0
  0
SPLINE
  5
30f
100
AcDbEntity
  8
Layer_1
 62
7
100
AcDbSpline
 70
8
 71
3
 72
8
 73
4
 74
0
 40
0
 40
0
 40
0
 40
0
 40
1
 40
1
 40
1
 40
1
 10
207.414027
 20
213.812683
 30
0.0
 10
207.041609
 20
213.663678
 30
0.0
 10
206.610365
 20
213.541755
 30
0.0
 10
206.455687
 20
213.541755
 30
0.0
  0
SPLINE
  5
310
100
AcDbEntity
  8
Layer_1
 62
7
100
AcDbSpline
 70
8
 71
3
 72
8
 73
4
 74
0
 40
0
 40
0
 40
0
 40
0
 40
1
 40
1
 40
1
 40
1
 10
206.455687
 20
213.541755
 30
0.0
 10
206.050470
 20
213.541755
 30
0.0
 10
206.224341
 20
211.746452
 30
0.0
 10
206.792678
 20
210.062217
 30
0.0
  0
SPLINE
  5
311
100
AcDbEntity
  8
Layer_1
 62
7
100
AcDbSpline
 70
8
 71
3
 72
8
 73
4
 74
0
 40
0
 40
0
 40
0
 40
0
 40
1
 40
1
 40
1
 40
1
 10
206.792678
 20
210.062217
 30
0.0
 10
207.034807
 20
209.344557
 30
0.0
 10
207.286696
 20
208.444229
 30
0.0
 10
207.352355
 20
208.061485
 30
0.0
  0
SPLINE
  5
312
100
AcDbEntity
  8
Layer_1
 62
7
100
AcDbSpline
 70
8
 71
3
 72
8
 73
4
 74
0
 40
0
 40
0
 40
0
 40
0
 40
1
 40
1
 40
1
 40
1
 10
207.352355
 20
208.061485
 30
0.0
 10
207.653241
 20
206.307832
 30
0.0
 10
208.435186
 20
205.540634
 30
0.0
 10
209.922765
 20
205.539465
 30
0.0
  0
SPLINE
  5
313
100
AcDbEntity
  8
Layer_1
 62
7
100
AcDbSpline
 70
8
 71
3
 72
8
 73
4
 74
0
 40
0
 40
0
 40
0
 40
0
 40
1
 40
1
 40
1
 40
1
 10
209.922765
 20
205.539465
 30
0.0
 10
210.801032
 20
205.539465
 30
0.0
 10
213.513410
 20
204.584564
 30
0.0
 10
214.483857
 20
203.934877
 30
0.0
  0
SPLINE
  5
314
100
AcDbEntity
  8
Layer_1
 62
7
100
AcDbSpline
 70
8
 71
3
 72
8
 73
4
 74
0
 40
0
 40
0
 40
0
 40
0
 40
1
 40
1
 40
1
 40
1
 10
214.483857
 20
203.934877
 30
0.0
 10
214.772068
 20
203.741941
 30
0.0
 10
215.908201
 20
202.668102
 30
0.0
 10
217.008586
 20
201.548583
 30
0.0
  0
SPLINE
  5
315
100
AcDbEntity
  8
Layer_1
 62
7
100
AcDbSpline
 70
8
 71
3
 72
8
 73
4
 74
0
 40
0
 40
0
 40
0
 40
0
 40
1
 40
1
 40
1
 40
1
 10
217.008586
 20
201.548583
 30
0.0
 10
218.109004
 20
200.429059
 30
0.0
 10
219.400778
 20
199.231302
 30
0.0
 10
219.879206
 20
198.886906
 30
0.0
  0
SPLINE
  5
316
100
AcDbEntity
  8
Layer_1
 62
7
100
AcDbSpline
 70
8
 71
3
 72
8
 73
4
 74
0
 40
0
 40
0
 40
0
 40
0
 40
1
 40
1
 40
1
 40
1
 10
219.879206
 20
198.886906
 30
0.0
 10
221.880351
 20
197.446452
 30
0.0
 10
223.485865
 20
195.013993
 30
0.0
 10
224.055271
 20
192.559950
 30
0.0
  0
SPLINE
  5
317
100
AcDbEntity
  8
Layer_1
 62
7
100
AcDbSpline
 70
8
 71
3
 72
8
 73
4
 74
0
 40
0
 40
0
 40
0
 40
0
 40
1
 40
1
 40
1
 40
1
 10
224.055271
 20
192.559950
 30
0.0
 10
224.208456
 20
191.899829
 30
0.0
 10
224.407964
 20
191.076629
 30
0.0
 10
224.498656
 20
190.730622
 30
0.0
  0
SPLINE
  5
318
100
AcDbEntity
  8
Layer_1
 62
7
100
AcDbSpline
 70
8
 71
3
 72
8
 73
4
 74
0
 40
0
 40
0
 40
0
 40
0
 40
1
 40
1
 40
1
 40
1
 10
224.498656
 20
190.730622
 30
0.0
 10
224.864631
 20
189.334437
 30
0.0
 10
224.670324
 20
187.719991
 30
0.0
 10
223.791416
 20
184.854744
 30
0.0
  0
SPLINE
  5
319
100
AcDbEntity
  8
Layer_1
 62
7
100
AcDbSpline
 70
8
 71
3
 72
8
 73
4
 74
0
 40
0
 40
0
 40
0
 40
0
 40
1
 40
1
 40
1
 40
1
 10
223.791416
 20
184.854744
 30
0.0
 10
223.131112
 20
182.702099
 30
0.0
 10
221.032462
 20
179.868851
 30
0.0
 10
219.175096
 20
178.622501
 30
0.0
  0
SPLINE
  5
31a
100
AcDbEntity
  8
Layer_1
 62
7
100
AcDbSpline
 70
8
 71
3
 72
8
 73
4
 74
0
 40
0
 40
0
 40
0
 40
0
 40
1
 40
1
 40
1
 40
1
 10
219.175096
 20
178.622501
 30
0.0
 10
218.344372
 20
178.065061
 30
0.0
 10
218.054597
 20
177.760374
 30
0.0
 10
217.964329
 20
177.349408
 30
0.0
  0
SPLINE
  5
31b
100
AcDbEntity
  8
Layer_1
 62
7
100
AcDbSpline
 70
8
 71
3
 72
8
 73
4
 74
0
 40
0
 40
0
 40
0
 40
0
 40
1
 40
1
 40
1
 40
1
 10
217.964329
 20
177.349408
 30
0.0
 10
217.899028
 20
177.052273
 30
0.0
 10
217.716035
 20
176.770308
 30
0.0
 10
217.557621
 20
176.722827
 30
0.0
  0
SPLINE
  5
31c
100
AcDbEntity
  8
Layer_1
 62
7
100
AcDbSpline
 70
8
 71
3
 72
8
 73
4
 74
0
 40
0
 40
0
 40
0
 40
0
 40
1
 40
1
 40
1
 40
1
 10
217.557621
 20
176.722827
 30
0.0
 10
217.399201
 20
176.675388
 30
0.0
 10
217.015102
 20
176.511727
 30
0.0
 10
216.704139
 20
176.359240
 30
0.0
  0
SPLINE
  5
31d
100
AcDbEntity
  8
Layer_1
 62
7
100
AcDbSpline
 70
8
 71
3
 72
8
 73
4
 74
0
 40
0
 40
0
 40
0
 40
0
 40
1
 40
1
 40
1
 40
1
 10
216.704139
 20
176.359240
 30
0.0
 10
216.244980
 20
176.134077
 30
0.0
 10
216.138723
 20
175.979205
 30
0.0
 10
216.138723
 20
175.535227
 30
0.0
  0
SPLINE
  5
31e
100
AcDbEntity
  8
Layer_1
 62
7
100
AcDbSpline
 70
8
 71
3
 72
8
 73
4
 74
0
 40
0
 40
0
 40
0
 40
0
 40
1
 40
1
 40
1
 40
1
 10
216.138723
 20
175.535227
 30
0.0
 10
216.138723
 20
175.234528
 30
0.0
 10
216.215818
 20
174.911383
 30
0.0
 10
216.310103
 20
174.817124
 30
0.0
  0
SPLINE
  5
31f
100
AcDbEntity
  8
Layer_1
 62
7
100
AcDbSpline
 70
8
 71
3
 72
8
 73
4
 74
0
 40
0
 40
0
 40
0
 40
0
 40
1
 40
1
 40
1
 40
1
 10
216.310103
 20
174.817124
 30
0.0
 10
216.404362
 20
174.722848
 30
0.0
 10
216.561283
 20
174.225010
 30
0.0
 10
216.658774
 20
173.710807
 30
0.0
  0
SPLINE
  5
320
100
AcDbEntity
  8
Layer_1
 62
7
100
AcDbSpline
 70
8
 71
3
 72
8
 73
4
 74
0
 40
0
 40
0
 40
0
 40
0
 40
1
 40
1
 40
1
 40
1
 10
216.658774
 20
173.710807
 30
0.0
 10
217.040028
 20
171.700561
 30
0.0
 10
217.155711
 20
171.439697
 30
0.0
 10
217.667688
 20
171.435678
 30
0.0
  0
SPLINE
  5
321
100
AcDbEntity
  8
Layer_1
 62
7
100
AcDbSpline
 70
8
 71
3
 72
8
 73
4
 74
0
 40
0
 40
0
 40
0
 40
0
 40
1
 40
1
 40
1
 40
1
 10
217.667688
 20
171.435678
 30
0.0
 10
218.428051
 20
171.429752
 30
0.0
 10
220.843173
 20
170.539332
 30
0.0
 10
222.140856
 20
169.786609
 30
0.0
  0
SPLINE
  5
322
100
AcDbEntity
  8
Layer_1
 62
7
100
AcDbSpline
 70
8
 71
3
 72
8
 73
4
 74
0
 40
0
 40
0
 40
0
 40
0
 40
1
 40
1
 40
1
 40
1
 10
222.140856
 20
169.786609
 30
0.0
 10
224.449163
 20
168.447642
 30
0.0
 10
227.242404
 20
165.346093
 30
0.0
 10
227.438856
 20
163.903861
 30
0.0
  0
SPLINE
  5
323
100
AcDbEntity
  8
Layer_1
 62
7
100
AcDbSpline
 70
8
 71
3
 72
8
 73
4
 74
0
 40
0
 40
0
 40
0
 40
0
 40
1
 40
1
 40
1
 40
1
 10
227.438856
 20
163.903861
 30
0.0
 10
227.518934
 20
163.315905
 30
0.0
 10
227.617745
 20
163.176792
 30
0.0
 10
228.056113
 20
163.035091
 30
0.0
  0
SPLINE
  5
324
100
AcDbEntity
  8
Layer_1
 62
7
100
AcDbSpline
 70
8
 71
3
 72
8
 73
4
 74
0
 40
0
 40
0
 40
0
 40
0
 40
1
 40
1
 40
1
 40
1
 10
228.056113
 20
163.035091
 30
0.0
 10
228.805082
 20
162.793001
 30
0.0
 10
230.984769
 20
161.496145
 30
0.0
 10
231.172885
 20
161.180705
 30
0.0
  0
SPLINE
  5
325
100
AcDbEntity
  8
Layer_1
 62
7
100
AcDbSpline
 70
8
 71
3
 72
8
 73
4
 74
0
 40
0
 40
0
 40
0
 40
0
 40
1
 40
1
 40
1
 40
1
 10
231.172885
 20
161.180705
 30
0.0
 10
231.260447
 20
161.033907
 30
0.0
 10
231.736166
 20
160.522343
 30
0.0
 10
232.230004
 20
160.043911
 30
0.0
  0
SPLINE
  5
326
100
AcDbEntity
  8
Layer_1
 62
7
100
AcDbSpline
 70
8
 71
3
 72
8
 73
4
 74
0
 40
0
 40
0
 40
0
 40
0
 40
1
 40
1
 40
1
 40
1
 10
232.230004
 20
160.043911
 30
0.0
 10
233.890143
 20
158.435665
 30
0.0
 10
234.484153
 20
157.247577
 30
0.0
 10
235.253919
 20
153.995711
 30
0.0
  0
SPLINE
  5
327
100
AcDbEntity
  8
Layer_1
 62
7
100
AcDbSpline
 70
8
 71
3
 72
8
 73
4
 74
0
 40
0
 40
0
 40
0
 40
0
 40
1
 40
1
 40
1
 40
1
 10
235.253919
 20
153.995711
 30
0.0
 10
235.572354
 20
152.650521
 30
0.0
 10
235.496758
 20
150.207857
 30
0.0
 10
235.089694
 20
148.688728
 30
0.0
  0
SPLINE
  5
328
100
AcDbEntity
  8
Layer_1
 62
7
100
AcDbSpline
 70
8
 71
3
 72
8
 73
4
 74
0
 40
0
 40
0
 40
0
 40
0
 40
1
 40
1
 40
1
 40
1
 10
235.089694
 20
148.688728
 30
0.0
 10
234.743159
 20
147.395606
 30
0.0
 10
234.613760
 20
147.052855
 30
0.0
 10
233.832640
 20
145.359282
 30
0.0
  0
SPLINE
  5
329
100
AcDbEntity
  8
Layer_1
 62
7
100
AcDbSpline
 70
8
 71
3
 72
8
 73
4
 74
0
 40
0
 40
0
 40
0
 40
0
 40
1
 40
1
 40
1
 40
1
 10
233.832640
 20
145.359282
 30
0.0
 10
233.376112
 20
144.369419
 30
0.0
 10
231.551040
 20
142.438784
 30
0.0
 10
229.839376
 20
141.134971
 30
0.0
  0
SPLINE
  5
32a
100
AcDbEntity
  8
Layer_1
 62
7
100
AcDbSpline
 70
8
 71
3
 72
8
 73
4
 74
0
 40
0
 40
0
 40
0
 40
0
 40
1
 40
1
 40
1
 40
1
 10
229.839376
 20
141.134971
 30
0.0
 10
228.604005
 20
140.193977
 30
0.0
 10
228.491059
 20
140.056228
 30
0.0
 10
228.491059
 20
139.490784
 30
0.0
  0
SPLINE
  5
32b
100
AcDbEntity
  8
Layer_1
 62
7
100
AcDbSpline
 70
8
 71
3
 72
8
 73
4
 74
0
 40
0
 40
0
 40
0
 40
0
 40
1
 40
1
 40
1
 40
1
 10
228.491059
 20
139.490784
 30
0.0
 10
228.491059
 20
139.137072
 30
0.0
 10
228.342537
 20
138.684803
 30
0.0
 10
228.143099
 20
138.431282
 30
0.0
  0
SPLINE
  5
32c
100
AcDbEntity
  8
Layer_1
 62
7
100
AcDbSpline
 70
8
 71
3
 72
8
 73
4
 74
0
 40
0
 40
0
 40
0
 40
0
 40
1
 40
1
 40
1
 40
1
 10
228.143099
 20
138.431282
 30
0.0
 10
227.418700
 20
137.510335
 30
0.0
 10
227.741943
 20
136.956186
 30
0.0
 10
229.442177
 20
136.204261
 30
0.0
  0
SPLINE
  5
32d
100
AcDbEntity
  8
Layer_1
 62
7
100
AcDbSpline
 70
8
 71
3
 72
8
 73
4
 74
0
 40
0
 40
0
 40
0
 40
0
 40
1
 40
1
 40
1
 40
1
 10
229.442177
 20
136.204261
 30
0.0
 10
231.519846
 20
135.285413
 30
0.0
 10
233.964565
 20
133.047120
 30
0.0
 10
235.015165
 20
131.101816
 30
0.0
  0
SPLINE
  5
32e
100
AcDbEntity
  8
Layer_1
 62
7
100
AcDbSpline
 70
8
 71
3
 72
8
 73
4
 74
0
 40
0
 40
0
 40
0
 40
0
 40
1
 40
1
 40
1
 40
1
 10
235.015165
 20
131.101816
 30
0.0
 10
235.881503
 20
129.497735
 30
0.0
 10
236.493984
 20
127.568868
 30
0.0
 10
236.493984
 20
126.444531
 30
0.0
  0
SPLINE
  5
32f
100
AcDbEntity
  8
Layer_1
 62
7
100
AcDbSpline
 70
8
 71
3
 72
8
 73
4
 74
0
 40
0
 40
0
 40
0
 40
0
 40
1
 40
1
 40
1
 40
1
 10
236.493984
 20
126.444531
 30
0.0
 10
236.493984
 20
125.639292
 30
0.0
 10
237.215827
 20
124.898693
 30
0.0
 10
238.155762
 20
124.739579
 30
0.0
  0
SPLINE
  5
330
100
AcDbEntity
  8
Layer_1
 62
7
100
AcDbSpline
 70
8
 71
3
 72
8
 73
4
 74
0
 40
0
 40
0
 40
0
 40
0
 40
1
 40
1
 40
1
 40
1
 10
238.155762
 20
124.739579
 30
0.0
 10
240.022778
 20
124.423510
 30
0.0
 10
243.370255
 20
121.893371
 30
0.0
 10
244.815783
 20
119.705663
 30
0.0
  0
SPLINE
  5
331
100
AcDbEntity
  8
Layer_1
 62
7
100
AcDbSpline
 70
8
 71
3
 72
8
 73
4
 74
0
 40
0
 40
0
 40
0
 40
0
 40
1
 40
1
 40
1
 40
1
 10
244.815783
 20
119.705663
 30
0.0
 10
245.587684
 20
118.537494
 30
0.0
 10
246.236671
 20
116.978019
 30
0.0
 10
246.236671
 20
116.291440
 30
0.0
  0
SPLINE
  5
332
100
AcDbEntity
  8
Layer_1
 62
7
100
AcDbSpline
 70
8
 71
3
 72
8
 73
4
 74
0
 40
0
 40
0
 40
0
 40
0
 40
1
 40
1
 40
1
 40
1
 10
246.236671
 20
116.291440
 30
0.0
 10
246.236671
 20
116.123515
 30
0.0
 10
246.398759
 20
115.486624
 30
0.0
 10
246.596809
 20
114.876118
 30
0.0
  0
SPLINE
  5
333
100
AcDbEntity
  8
Layer_1
 62
7
100
AcDbSpline
 70
8
 71
3
 72
8
 73
4
 74
0
 40
0
 40
0
 40
0
 40
0
 40
1
 40
1
 40
1
 40
1
 10
246.596809
 20
114.876118
 30
0.0
 10
246.874228
 20
114.020962
 30
0.0
 10
246.934476
 20
113.506460
 30
0.0
 10
246.859165
 20
112.635248
 30
0.0
  0
SPLINE
  5
334
100
AcDbEntity
  8
Layer_1
 62
7
100
AcDbSpline
 70
8
 71
3
 72
8
 73
4
 74
0
 40
0
 40
0
 40
0
 40
0
 40
1
 40
1
 40
1
 40
1
 10
246.859165
 20
112.635248
 30
0.0
 10
246.450640
 20
107.909522
 30
0.0
 10
245.968012
 20
106.336573
 30
0.0
 10
244.384613
 20
104.569998
 30
0.0
  0
SPLINE
  5
335
100
AcDbEntity
  8
Layer_1
 62
7
100
AcDbSpline
 70
8
 71
3
 72
8
 73
4
 74
0
 40
0
 40
0
 40
0
 40
0
 40
1
 40
1
 40
1
 40
1
 10
244.384613
 20
104.569998
 30
0.0
 10
243.311790
 20
103.373110
 30
0.0
 10
243.361673
 20
103.041112
 30
0.0
 10
244.714375
 20
102.374424
 30
0.0
  0
SPLINE
  5
336
100
AcDbEntity
  8
Layer_1
 62
7
100
AcDbSpline
 70
8
 71
3
 72
8
 73
4
 74
0
 40
0
 40
0
 40
0
 40
0
 40
1
 40
1
 40
1
 40
1
 10
244.714375
 20
102.374424
 30
0.0
 10
245.906126
 20
101.787109
 30
0.0
 10
246.663964
 20
101.368810
 30
0.0
 10
247.346061
 20
100.921886
 30
0.0
  0
SPLINE
  5
337
100
AcDbEntity
  8
Layer_1
 62
7
100
AcDbSpline
 70
8
 71
3
 72
8
 73
4
 74
0
 40
0
 40
0
 40
0
 40
0
 40
1
 40
1
 40
1
 40
1
 10
247.346061
 20
100.921886
 30
0.0
 10
247.794295
 20
100.628197
 30
0.0
 10
248.599737
 20
100.169417
 30
0.0
 10
250.168469
 20
99.314252
 30
0.0
  0
SPLINE
  5
338
100
AcDbEntity
  8
Layer_1
 62
7
100
AcDbSpline
 70
8
 71
3
 72
8
 73
4
 74
0
 40
0
 40
0
 40
0
 40
0
 40
1
 40
1
 40
1
 40
1
 10
250.168469
 20
99.314252
 30
0.0
 10
250.637387
 20
99.058641
 30
0.0
 10
251.451626
 20
98.611697
 30
0.0
 10
251.977909
 20
98.321028
 30
0.0
  0
SPLINE
  5
339
100
AcDbEntity
  8
Layer_1
 62
7
100
AcDbSpline
 70
8
 71
3
 72
8
 73
4
 74
0
 40
0
 40
0
 40
0
 40
0
 40
1
 40
1
 40
1
 40
1
 10
251.977909
 20
98.321028
 30
0.0
 10
252.504191
 20
98.030361
 30
0.0
 10
253.208796
 20
97.647654
 30
0.0
 10
253.543717
 20
97.470576
 30
0.0
  0
SPLINE
  5
33a
100
AcDbEntity
  8
Layer_1
 62
7
100
AcDbSpline
 70
8
 71
3
 72
8
 73
4
 74
0
 40
0
 40
0
 40
0
 40
0
 40
1
 40
1
 40
1
 40
1
 10
253.543717
 20
97.470576
 30
0.0
 10
253.878608
 20
97.293502
 30
0.0
 10
255.749719
 20
95.603027
 30
0.0
 10
257.701737
 20
93.713928
 30
0.0
  0
SPLINE
  5
33b
100
AcDbEntity
  8
Layer_1
 62
7
100
AcDbSpline
 70
8
 71
3
 72
8
 73
4
 74
0
 40
0
 40
0
 40
0
 40
0
 40
1
 40
1
 40
1
 40
1
 10
257.701737
 20
93.713928
 30
0.0
 10
259.653749
 20
91.824836
 30
0.0
 10
261.415253
 20
90.167193
 30
0.0
 10
261.616190
 20
90.030250
 30
0.0
  0
SPLINE
  5
33c
100
AcDbEntity
  8
Layer_1
 62
7
100
AcDbSpline
 70
8
 71
3
 72
8
 73
4
 74
0
 40
0
 40
0
 40
0
 40
0
 40
1
 40
1
 40
1
 40
1
 10
261.616190
 20
90.030250
 30
0.0
 10
261.817158
 20
89.893336
 30
0.0
 10
262.647035
 20
89.133650
 30
0.0
 10
263.460385
 20
88.342090
 30
0.0
  0
SPLINE
  5
33d
100
AcDbEntity
  8
Layer_1
 62
7
100
AcDbSpline
 70
8
 71
3
 72
8
 73
4
 74
0
 40
0
 40
0
 40
0
 40
0
 40
1
 40
1
 40
1
 40
1
 10
263.460385
 20
88.342090
 30
0.0
 10
264.273721
 20
87.550572
 30
0.0
 10
265.310298
 20
86.622242
 30
0.0
 10
265.763939
 20
86.279164
 30
0.0
  0
SPLINE
  5
33e
100
AcDbEntity
  8
Layer_1
 62
7
100
AcDbSpline
 70
8
 71
3
 72
8
 73
4
 74
0
 40
0
 40
0
 40
0
 40
0
 40
1
 40
1
 40
1
 40
1
 10
265.763939
 20
86.279164
 30
0.0
 10
266.263052
 20
85.901681
 30
0.0
 10
266.630644
 20
85.469158
 30
0.0
 10
266.694943
 20
85.183690
 30
0.0
  0
SPLINE
  5
33f
100
AcDbEntity
  8
Layer_1
 62
7
100
AcDbSpline
 70
8
 71
3
 72
8
 73
4
 74
0
 40
0
 40
0
 40
0
 40
0
 40
1
 40
1
 40
1
 40
1
 10
266.694943
 20
85.183690
 30
0.0
 10
266.753380
 20
84.924255
 30
0.0
 10
267.106403
 20
83.756287
 30
0.0
 10
267.479458
 20
82.588177
 30
0.0
  0
SPLINE
  5
340
100
AcDbEntity
  8
Layer_1
 62
7
100
AcDbSpline
 70
8
 71
3
 72
8
 73
4
 74
0
 40
0
 40
0
 40
0
 40
0
 40
1
 40
1
 40
1
 40
1
 10
267.479458
 20
82.588177
 30
0.0
 10
267.852517
 20
81.420071
 30
0.0
 10
268.157740
 20
80.376551
 30
0.0
 10
268.157740
 20
80.269157
 30
0.0
  0
SPLINE
  5
341
100
AcDbEntity
  8
Layer_1
 62
7
100
AcDbSpline
 70
8
 71
3
 72
8
 73
4
 74
0
 40
0
 40
0
 40
0
 40
0
 40
1
 40
1
 40
1
 40
1
 10
268.157740
 20
80.269157
 30
0.0
 10
268.157740
 20
80.161800
 30
0.0
 10
268.343716
 20
79.590870
 30
0.0
 10
268.570989
 20
79.000422
 30
0.0
  0
SPLINE
  5
342
100
AcDbEntity
  8
Layer_1
 62
7
100
AcDbSpline
 70
8
 71
3
 72
8
 73
4
 74
0
 40
0
 40
0
 40
0
 40
0
 40
1
 40
1
 40
1
 40
1
 10
268.570989
 20
79.000422
 30
0.0
 10
268.798297
 20
78.409976
 30
0.0
 10
269.236972
 20
77.104845
 30
0.0
 10
269.545861
 20
76.100140
 30
0.0
  0
SPLINE
  5
343
100
AcDbEntity
  8
Layer_1
 62
7
100
AcDbSpline
 70
8
 71
3
 72
8
 73
4
 74
0
 40
0
 40
0
 40
0
 40
0
 40
1
 40
1
 40
1
 40
1
 10
269.545861
 20
76.100140
 30
0.0
 10
269.854753
 20
75.095437
 30
0.0
 10
270.169248
 20
74.195094
 30
0.0
 10
270.244728
 20
74.099418
 30
0.0
  0
SPLINE
  5
344
100
AcDbEntity
  8
Layer_1
 62
7
100
AcDbSpline
 70
8
 71
3
 72
8
 73
4
 74
0
 40
0
 40
0
 40
0
 40
0
 40
1
 40
1
 40
1
 40
1
 10
270.244728
 20
74.099418
 30
0.0
 10
270.320220
 20
74.003703
 30
0.0
 10
270.508623
 20
73.426719
 30
0.0
 10
270.663450
 20
72.817187
 30
0.0
  0
SPLINE
  5
345
100
AcDbEntity
  8
Layer_1
 62
7
100
AcDbSpline
 70
8
 71
3
 72
8
 73
4
 74
0
 40
0
 40
0
 40
0
 40
0
 40
1
 40
1
 40
1
 40
1
 10
270.663450
 20
72.817187
 30
0.0
 10
270.818252
 20
72.207654
 30
0.0
 10
271.060443
 20
71.463883
 30
0.0
 10
271.201707
 20
71.164389
 30
0.0
  0
SPLINE
  5
346
100
AcDbEntity
  8
Layer_1
 62
7
100
AcDbSpline
 70
8
 71
3
 72
8
 73
4
 74
0
 40
0
 40
0
 40
0
 40
0
 40
1
 40
1
 40
1
 40
1
 10
271.201707
 20
71.164389
 30
0.0
 10
271.342917
 20
70.864895
 30
0.0
 10
271.532243
 20
70.228438
 30
0.0
 10
271.622379
 20
69.749976
 30
0.0
  0
SPLINE
  5
347
100
AcDbEntity
  8
Layer_1
 62
7
100
AcDbSpline
 70
8
 71
3
 72
8
 73
4
 74
0
 40
0
 40
0
 40
0
 40
0
 40
1
 40
1
 40
1
 40
1
 10
271.622379
 20
69.749976
 30
0.0
 10
271.712490
 20
69.271558
 30
0.0
 10
271.908806
 20
68.645254
 30
0.0
 10
272.058624
 20
68.358186
 30
0.0
  0
SPLINE
  5
348
100
AcDbEntity
  8
Layer_1
 62
7
100
AcDbSpline
 70
8
 71
3
 72
8
 73
4
 74
0
 40
0
 40
0
 40
0
 40
0
 40
1
 40
1
 40
1
 40
1
 10
272.058624
 20
68.358186
 30
0.0
 10
272.208464
 20
68.071112
 30
0.0
 10
272.331541
 20
67.694168
 30
0.0
 10
272.332092
 20
67.520547
 30
0.0
  0
SPLINE
  5
349
100
AcDbEntity
  8
Layer_1
 62
7
100
AcDbSpline
 70
8
 71
3
 72
8
 73
4
 74
0
 40
0
 40
0
 40
0
 40
0
 40
1
 40
1
 40
1
 40
1
 10
272.332092
 20
67.520547
 30
0.0
 10
272.332092
 20
67.346888
 30
0.0
 10
272.477761
 20
66.838018
 30
0.0
 10
272.654497
 20
66.389683
 30
0.0
  0
SPLINE
  5
34a
100
AcDbEntity
  8
Layer_1
 62
7
100
AcDbSpline
 70
8
 71
3
 72
8
 73
4
 74
0
 40
0
 40
0
 40
0
 40
0
 40
1
 40
1
 40
1
 40
1
 10
272.654497
 20
66.389683
 30
0.0
 10
273.553753
 20
64.108371
 30
0.0
 10
273.746747
 20
63.148711
 30
0.0
 10
274.078124
 20
59.311377
 30
0.0
  0
SPLINE
  5
34b
100
AcDbEntity
  8
Layer_1
 62
7
100
AcDbSpline
 70
8
 71
3
 72
8
 73
4
 74
0
 40
0
 40
0
 40
0
 40
0
 40
1
 40
1
 40
1
 40
1
 10
274.078124
 20
59.311377
 30
0.0
 10
274.160739
 20
58.354531
 30
0.0
 10
274.314274
 20
56.671282
 30
0.0
 10
274.419272
 20
55.570863
 30
0.0
  0
SPLINE
  5
34c
100
AcDbEntity
  8
Layer_1
 62
7
100
AcDbSpline
 70
8
 71
3
 72
8
 73
4
 74
0
 40
0
 40
0
 40
0
 40
0
 40
1
 40
1
 40
1
 40
1
 10
274.419272
 20
55.570863
 30
0.0
 10
274.524241
 20
54.470482
 30
0.0
 10
274.680522
 20
52.513237
 30
0.0
 10
274.766484
 20
51.221460
 30
0.0
  0
SPLINE
  5
34d
100
AcDbEntity
  8
Layer_1
 62
7
100
AcDbSpline
 70
8
 71
3
 72
8
 73
4
 74
0
 40
0
 40
0
 40
0
 40
0
 40
1
 40
1
 40
1
 40
1
 10
274.766484
 20
51.221460
 30
0.0
 10
274.852455
 20
49.929687
 30
0.0
 10
275.015254
 20
47.855007
 30
0.0
 10
275.128270
 20
46.611084
 30
0.0
  0
SPLINE
  5
34e
100
AcDbEntity
  8
Layer_1
 62
7
100
AcDbSpline
 70
8
 71
3
 72
8
 73
4
 74
0
 40
0
 40
0
 40
0
 40
0
 40
1
 40
1
 40
1
 40
1
 10
275.128270
 20
46.611084
 30
0.0
 10
275.523291
 20
42.263072
 30
0.0
 10
275.379759
 20
39.474883
 30
0.0
 10
274.708104
 20
38.449776
 30
0.0
  0
SPLINE
  5
34f
100
AcDbEntity
  8
Layer_1
 62
7
100
AcDbSpline
 70
8
 71
3
 72
8
 73
4
 74
0
 40
0
 40
0
 40
0
 40
0
 40
1
 40
1
 40
1
 40
1
 10
274.708104
 20
38.449776
 30
0.0
 10
274.548312
 20
38.205936
 30
0.0
 10
274.078522
 20
37.851956
 30
0.0
 10
273.664079
 20
37.663169
 30
0.0
  0
SPLINE
  5
350
100
AcDbEntity
  8
Layer_1
 62
7
100
AcDbSpline
 70
8
 71
3
 72
8
 73
4
 74
0
 40
0
 40
0
 40
0
 40
0
 40
1
 40
1
 40
1
 40
1
 10
273.664079
 20
37.663169
 30
0.0
 10
273.249636
 20
37.474376
 30
0.0
 10
272.624093
 20
37.002786
 30
0.0
 10
272.273920
 20
36.615199
 30
0.0
  0
SPLINE
  5
351
100
AcDbEntity
  8
Layer_1
 62
7
100
AcDbSpline
 70
8
 71
3
 72
8
 73
4
 74
0
 40
0
 40
0
 40
0
 40
0
 40
1
 40
1
 40
1
 40
1
 10
272.273920
 20
36.615199
 30
0.0
 10
271.685171
 20
35.963505
 30
0.0
 10
271.637294
 20
35.829300
 30
0.0
 10
271.637294
 20
34.831038
 30
0.0
  0
SPLINE
  5
352
100
AcDbEntity
  8
Layer_1
 62
7
100
AcDbSpline
 70
8
 71
3
 72
8
 73
4
 74
0
 40
0
 40
0
 40
0
 40
0
 40
1
 40
1
 40
1
 40
1
 10
271.637294
 20
34.831038
 30
0.0
 10
271.637294
 20
33.751625
 30
0.0
 10
271.637266
 20
33.751524
 30
0.0
 10
270.748094
 20
32.961282
 30
0.0
  0
SPLINE
  5
353
100
AcDbEntity
  8
Layer_1
 62
7
100
AcDbSpline
 70
8
 71
3
 72
8
 73
4
 74
0
 40
0
 40
0
 40
0
 40
0
 40
1
 40
1
 40
1
 40
1
 10
270.748094
 20
32.961282
 30
0.0
 10
269.619185
 20
31.957925
 30
0.0
 10
265.762805
 20
28.094391
 30
0.0
 10
263.721350
 20
25.921435
 30
0.0
  0
SPLINE
  5
354
100
AcDbEntity
  8
Layer_1
 62
7
100
AcDbSpline
 70
8
 71
3
 72
8
 73
4
 74
0
 40
0
 40
0
 40
0
 40
0
 40
1
 40
1
 40
1
 40
1
 10
263.721350
 20
25.921435
 30
0.0
 10
262.593334
 20
24.720740
 30
0.0
 10
262.039854
 20
24.254797
 30
0.0
 10
261.741708
 20
24.254932
 30
0.0
  0
SPLINE
  5
355
100
AcDbEntity
  8
Layer_1
 62
7
100
AcDbSpline
 70
8
 71
3
 72
8
 73
4
 74
0
 40
0
 40
0
 40
0
 40
0
 40
1
 40
1
 40
1
 40
1
 10
261.741708
 20
24.254932
 30
0.0
 10
261.512931
 20
24.254978
 30
0.0
 10
261.026385
 20
23.982712
 30
0.0
 10
260.653821
 20
23.646176
 30
0.0
  0
SPLINE
  5
356
100
AcDbEntity
  8
Layer_1
 62
7
100
AcDbSpline
 70
8
 71
3
 72
8
 73
4
 74
0
 40
0
 40
0
 40
0
 40
0
 40
1
 40
1
 40
1
 40
1
 10
260.653821
 20
23.646176
 30
0.0
 10
260.283144
 20
23.311218
 30
0.0
 10
259.909516
 20
23.037239
 30
0.0
 10
259.823557
 20
23.037239
 30
0.0
  0
SPLINE
  5
357
100
AcDbEntity
  8
Layer_1
 62
7
100
AcDbSpline
 70
8
 71
3
 72
8
 73
4
 74
0
 40
0
 40
0
 40
0
 40
0
 40
1
 40
1
 40
1
 40
1
 10
259.823557
 20
23.037239
 30
0.0
 10
259.666243
 20
23.037239
 30
0.0
 10
258.977875
 20
22.017201
 30
0.0
 10
258.719402
 20
21.401087
 30
0.0
  0
SPLINE
  5
358
100
AcDbEntity
  8
Layer_1
 62
7
100
AcDbSpline
 70
8
 71
3
 72
8
 73
4
 74
0
 40
0
 40
0
 40
0
 40
0
 40
1
 40
1
 40
1
 40
1
 10
258.719402
 20
21.401087
 30
0.0
 10
258.642948
 20
21.218916
 30
0.0
 10
258.024729
 20
20.553469
 30
0.0
 10
257.345586
 20
19.922325
 30
0.0
  0
SPLINE
  5
359
100
AcDbEntity
  8
Layer_1
 62
7
100
AcDbSpline
 70
8
 71
3
 72
8
 73
4
 74
0
 40
0
 40
0
 40
0
 40
0
 40
1
 40
1
 40
1
 40
1
 10
257.345586
 20
19.922325
 30
0.0
 10
256.666441
 20
19.291183
 30
0.0
 10
255.475861
 20
18.148507
 30
0.0
 10
254.699903
 20
17.382991
 30
0.0
  0
SPLINE
  5
35a
100
AcDbEntity
  8
Layer_1
 62
7
100
AcDbSpline
 70
8
 71
3
 72
8
 73
4
 74
0
 40
0
 40
0
 40
0
 40
0
 40
1
 40
1
 40
1
 40
1
 10
254.699903
 20
17.382991
 30
0.0
 10
253.412825
 20
16.113256
 30
0.0
 10
252.090431
 20
15.208271
 30
0.0
 10
251.522202
 20
15.208271
 30
0.0
  0
SPLINE
  5
35b
100
AcDbEntity
  8
Layer_1
 62
7
100
AcDbSpline
 70
8
 71
3
 72
8
 73
4
 74
0
 40
0
 40
0
 40
0
 40
0
 40
1
 40
1
 40
1
 40
1
 10
251.522202
 20
15.208271
 30
0.0
 10
251.124785
 20
15.208271
 30
0.0
 10
249.803310
 20
14.207519
 30
0.0
 10
248.951188
 20
13.261228
 30
0.0
  0
SPLINE
  5
35c
100
AcDbEntity
  8
Layer_1
 62
7
100
AcDbSpline
 70
8
 71
3
 72
8
 73
4
 74
0
 40
0
 40
0
 40
0
 40
0
 40
1
 40
1
 40
1
 40
1
 10
248.951188
 20
13.261228
 30
0.0
 10
247.152146
 20
11.263264
 30
0.0
 10
245.777619
 20
9.940856
 30
0.0
 10
245.272667
 20
9.722077
 30
0.0
  0
SPLINE
  5
35d
100
AcDbEntity
  8
Layer_1
 62
7
100
AcDbSpline
 70
8
 71
3
 72
8
 73
4
 74
0
 40
0
 40
0
 40
0
 40
0
 40
1
 40
1
 40
1
 40
1
 10
245.272667
 20
9.722077
 30
0.0
 10
244.981682
 20
9.595924
 30
0.0
 10
244.254536
 20
9.056343
 30
0.0
 10
243.656821
 20
8.523028
 30
0.0
  0
SPLINE
  5
35e
100
AcDbEntity
  8
Layer_1
 62
7
100
AcDbSpline
 70
8
 71
3
 72
8
 73
4
 74
0
 40
0
 40
0
 40
0
 40
0
 40
1
 40
1
 40
1
 40
1
 10
243.656821
 20
8.523028
 30
0.0
 10
243.059080
 20
7.989684
 30
0.0
 10
242.410099
 20
7.553312
 30
0.0
 10
242.214643
 20
7.553312
 30
0.0
  0
SPLINE
  5
35f
100
AcDbEntity
  8
Layer_1
 62
7
100
AcDbSpline
 70
8
 71
3
 72
8
 73
4
 74
0
 40
0
 40
0
 40
0
 40
0
 40
1
 40
1
 40
1
 40
1
 10
242.214643
 20
7.553312
 30
0.0
 10
242.019156
 20
7.553312
 30
0.0
 10
241.443202
 20
7.277101
 30
0.0
 10
240.934725
 20
6.939620
 30
0.0
  0
SPLINE
  5
360
100
AcDbEntity
  8
Layer_1
 62
7
100
AcDbSpline
 70
8
 71
3
 72
8
 73
4
 74
0
 40
0
 40
0
 40
0
 40
0
 40
1
 40
1
 40
1
 40
1
 10
240.934725
 20
6.939620
 30
0.0
 10
239.477412
 20
5.972303
 30
0.0
 10
236.902444
 20
5.489562
 30
0.0
 10
235.941926
 20
6.003602
 30
0.0
  0
SPLINE
  5
361
100
AcDbEntity
  8
Layer_1
 62
7
100
AcDbSpline
 70
8
 71
3
 72
8
 73
4
 74
0
 40
0
 40
0
 40
0
 40
0
 40
1
 40
1
 40
1
 40
1
 10
235.941926
 20
6.003602
 30
0.0
 10
235.685053
 20
6.141072
 30
0.0
 10
235.534113
 20
6.141072
 30
0.0
 10
235.396631
 20
6.003602
 30
0.0
  0
SPLINE
  5
362
100
AcDbEntity
  8
Layer_1
 62
7
100
AcDbSpline
 70
8
 71
3
 72
8
 73
4
 74
0
 40
0
 40
0
 40
0
 40
0
 40
1
 40
1
 40
1
 40
1
 10
235.396631
 20
6.003602
 30
0.0
 10
235.292087
 20
5.899038
 30
0.0
 10
234.796254
 20
5.813525
 30
0.0
 10
234.294751
 20
5.813525
 30
0.0
  0
SPLINE
  5
363
100
AcDbEntity
  8
Layer_1
 62
7
100
AcDbSpline
 70
8
 71
3
 72
8
 73
4
 74
0
 40
0
 40
0
 40
0
 40
0
 40
1
 40
1
 40
1
 40
1
 10
234.294751
 20
5.813525
 30
0.0
 10
233.793253
 20
5.813525
 30
0.0
 10
233.340145
 20
5.744268
 30
0.0
 10
233.287801
 20
5.659601
 30
0.0
  0
SPLINE
  5
364
100
AcDbEntity
  8
Layer_1
 62
7
100
AcDbSpline
 70
8
 71
3
 72
8
 73
4
 74
0
 40
0
 40
0
 40
0
 40
0
 40
1
 40
1
 40
1
 40
1
 10
233.287801
 20
5.659601
 30
0.0
 10
233.126181
 20
5.398094
 30
0.0
 10
230.796764
 20
4.998806
 30
0.0
 10
228.317078
 20
4.807572
 30
0.0
  0
SPLINE
  5
365
100
AcDbEntity
  8
Layer_1
 62
7
100
AcDbSpline
 70
8
 71
3
 72
8
 73
4
 74
0
 40
0
 40
0
 40
0
 40
0
 40
1
 40
1
 40
1
 40
1
 10
228.317078
 20
4.807572
 30
0.0
 10
227.408051
 20
4.737468
 30
0.0
 10
226.510844
 20
4.590035
 30
0.0
 10
226.323263
 20
4.479997
 30
0.0
  0
SPLINE
  5
366
100
AcDbEntity
  8
Layer_1
 62
7
100
AcDbSpline
 70
8
 71
3
 72
8
 73
4
 74
0
 40
0
 40
0
 40
0
 40
0
 40
1
 40
1
 40
1
 40
1
 10
226.323263
 20
4.479997
 30
0.0
 10
226.086187
 20
4.340974
 30
0.0
 10
225.181075
 20
4.309196
 30
0.0
 10
223.354262
 20
4.375885
 30
0.0
  0
SPLINE
  5
367
100
AcDbEntity
  8
Layer_1
 62
7
100
AcDbSpline
 70
8
 71
3
 72
8
 73
4
 74
0
 40
0
 40
0
 40
0
 40
0
 40
1
 40
1
 40
1
 40
1
 10
223.354262
 20
4.375885
 30
0.0
 10
221.008535
 20
4.461511
 30
0.0
 10
220.674500
 20
4.437861
 30
0.0
 10
220.244218
 20
4.155921
 30
0.0
  0
SPLINE
  5
368
100
AcDbEntity
  8
Layer_1
 62
7
100
AcDbSpline
 70
8
 71
3
 72
8
 73
4
 74
0
 40
0
 40
0
 40
0
 40
0
 40
1
 40
1
 40
1
 40
1
 10
220.244218
 20
4.155921
 30
0.0
 10
219.481075
 20
3.655908
 30
0.0
 10
218.411919
 20
3.518381
 30
0.0
 10
214.137968
 20
3.370496
 30
0.0
  0
SPLINE
  5
369
100
AcDbEntity
  8
Layer_1
 62
7
100
AcDbSpline
 70
8
 71
3
 72
8
 73
4
 74
0
 40
0
 40
0
 40
0
 40
0
 40
1
 40
1
 40
1
 40
1
 10
214.137968
 20
3.370496
 30
0.0
 10
211.937163
 20
3.294409
 30
0.0
 10
209.549348
 20
3.144832
 30
0.0
 10
208.831677
 20
3.038180
 30
0.0
  0
SPLINE
  5
36a
100
AcDbEntity
  8
Layer_1
 62
7
100
AcDbSpline
 70
8
 71
3
 72
8
 73
4
 74
0
 40
0
 40
0
 40
0
 40
0
 40
1
 40
1
 40
1
 40
1
 10
208.831677
 20
3.038180
 30
0.0
 10
208.114039
 20
2.931472
 30
0.0
 10
207.096270
 20
2.800803
 30
0.0
 10
206.569987
 20
2.747745
 30
0.0
  0
SPLINE
  5
36b
100
AcDbEntity
  8
Layer_1
 62
7
100
AcDbSpline
 70
8
 71
3
 72
8
 73
4
 74
0
 40
0
 40
0
 40
0
 40
0
 40
1
 40
1
 40
1
 40
1
 10
206.569987
 20
2.747745
 30
0.0
 10
206.043705
 20
2.694687
 30
0.0
 10
205.538753
 20
2.579907
 30
0.0
 10
205.447844
 20
2.492588
 30
0.0
  0
SPLINE
  5
36c
100
AcDbEntity
  8
Layer_1
 62
7
100
AcDbSpline
 70
8
 71
3
 72
8
 73
4
 74
0
 40
0
 40
0
 40
0
 40
0
 40
1
 40
1
 40
1
 40
1
 10
205.447844
 20
2.492588
 30
0.0
 10
205.356940
 20
2.405409
 30
0.0
 10
204.373455
 20
2.333979
 30
0.0
 10
203.262317
 20
2.333979
 30
0.0
  0
SPLINE
  5
36d
100
AcDbEntity
  8
Layer_1
 62
7
100
AcDbSpline
 70
8
 71
3
 72
8
 73
4
 74
0
 40
0
 40
0
 40
0
 40
0
 40
1
 40
1
 40
1
 40
1
 10
203.262317
 20
2.333979
 30
0.0
 10
201.598121
 20
2.333979
 30
0.0
 10
201.115137
 20
2.272652
 30
0.0
 10
200.521880
 20
1.986027
 30
0.0
  0
SPLINE
  5
36e
100
AcDbEntity
  8
Layer_1
 62
7
100
AcDbSpline
 70
8
 71
3
 72
8
 73
4
 74
0
 40
0
 40
0
 40
0
 40
0
 40
1
 40
1
 40
1
 40
1
 10
200.521880
 20
1.986027
 30
0.0
 10
199.984527
 20
1.726411
 30
0.0
 10
199.445637
 20
1.638075
 30
0.0
 10
198.399132
 20
1.638075
 30
0.0
  0
SPLINE
  5
36f
100
AcDbEntity
  8
Layer_1
 62
7
100
AcDbSpline
 70
8
 71
3
 72
8
 73
4
 74
0
 40
0
 40
0
 40
0
 40
0
 40
1
 40
1
 40
1
 40
1
 10
198.399132
 20
1.638075
 30
0.0
 10
197.617865
 20
1.638075
 30
0.0
 10
196.849946
 20
1.546551
 30
0.0
 10
196.665641
 20
1.431432
 30
0.0
  0
SPLINE
  5
370
100
AcDbEntity
  8
Layer_1
 62
7
100
AcDbSpline
 70
8
 71
3
 72
8
 73
4
 74
0
 40
0
 40
0
 40
0
 40
0
 40
1
 40
1
 40
1
 40
1
 10
196.665641
 20
1.431432
 30
0.0
 10
196.407631
 20
1.270312
 30
0.0
 10
196.180916
 20
1.275504
 30
0.0
 10
195.637079
 20
1.454857
 30
0.0
  0
SPLINE
  5
371
100
AcDbEntity
  8
Layer_1
 62
7
100
AcDbSpline
 70
8
 71
3
 72
8
 73
4
 74
0
 40
0
 40
0
 40
0
 40
0
 40
1
 40
1
 40
1
 40
1
 10
195.637079
 20
1.454857
 30
0.0
 10
195.253370
 20
1.581462
 30
0.0
 10
194.796599
 20
1.626363
 30
0.0
 10
194.622011
 20
1.554481
 30
0.0
  0
SPLINE
  5
372
100
AcDbEntity
  8
Layer_1
 62
7
100
AcDbSpline
 70
8
 71
3
 72
8
 73
4
 74
0
 40
0
 40
0
 40
0
 40
0
 40
1
 40
1
 40
1
 40
1
 10
194.622011
 20
1.554481
 30
0.0
 10
193.699347
 20
1.174779
 30
0.0
 10
192.850462
 20
1.050432
 30
0.0
 10
190.477134
 20
0.947308
 30
0.0
  0
SPLINE
  5
373
100
AcDbEntity
  8
Layer_1
 62
7
100
AcDbSpline
 70
8
 71
3
 72
8
 73
4
 74
0
 40
0
 40
0
 40
0
 40
0
 40
1
 40
1
 40
1
 40
1
 10
190.477134
 20
0.947308
 30
0.0
 10
188.864788
 20
0.877232
 30
0.0
 10
187.481964
 20
0.721615
 30
0.0
 10
186.858614
 20
0.540033
 30
0.0
  0
SPLINE
  5
374
100
AcDbEntity
  8
Layer_1
 62
7
100
AcDbSpline
 70
8
 71
3
 72
8
 73
4
 74
0
 40
0
 40
0
 40
0
 40
0
 40
1
 40
1
 40
1
 40
1
 10
186.858614
 20
0.540033
 30
0.0
 10
186.229038
 20
0.356589
 30
0.0
 10
185.235511
 20
0.246099
 30
0.0
 10
184.215744
 20
0.246099
 30
0.0
  0
SPLINE
  5
375
100
AcDbEntity
  8
Layer_1
 62
7
100
AcDbSpline
 70
8
 71
3
 72
8
 73
4
 74
0
 40
0
 40
0
 40
0
 40
0
 40
1
 40
1
 40
1
 40
1
 10
184.215744
 20
0.246099
 30
0.0
 10
183.314086
 20
0.246099
 30
0.0
 10
182.533533
 20
0.168093
 30
0.0
 10
182.474210
 20
0.072137
 30
0.0
  0
SPLINE
  5
376
100
AcDbEntity
  8
Layer_1
 62
7
100
AcDbSpline
 70
8
 71
3
 72
8
 73
4
 74
0
 40
0
 40
0
 40
0
 40
0
 40
1
 40
1
 40
1
 40
1
 10
182.474210
 20
0.072137
 30
0.0
 10
182.413140
 20
-0.026669
 30
0.0
 10
181.545916
 20
-0.101796
 30
0.0
 10
180.467429
 20
-0.101796
 30
0.0
  0
SPLINE
  5
377
100
AcDbEntity
  8
Layer_1
 62
7
100
AcDbSpline
 70
8
 71
3
 72
8
 73
4
 74
0
 40
0
 40
0
 40
0
 40
0
 40
1
 40
1
 40
1
 40
1
 10
180.467429
 20
-0.101796
 30
0.0
 10
178.875555
 20
-0.101796
 30
0.0
 10
178.475928
 20
-0.158015
 30
0.0
 10
177.998501
 20
-0.449127
 30
0.0
  0
SPLINE
  5
378
100
AcDbEntity
  8
Layer_1
 62
7
100
AcDbSpline
 70
8
 71
3
 72
8
 73
4
 74
0
 40
0
 40
0
 40
0
 40
0
 40
1
 40
1
 40
1
 40
1
 10
177.998501
 20
-0.449127
 30
0.0
 10
177.496007
 20
-0.755536
 30
0.0
 10
177.120350
 20
-0.796515
 30
0.0
 10
174.810547
 20
-0.797079
 30
0.0
  0
SPLINE
  5
379
100
AcDbEntity
  8
Layer_1
 62
7
100
AcDbSpline
 70
8
 71
3
 72
8
 73
4
 74
0
 40
0
 40
0
 40
0
 40
0
 40
1
 40
1
 40
1
 40
1
 10
174.810547
 20
-0.797079
 30
0.0
 10
173.370432
 20
-0.797079
 30
0.0
 10
172.117794
 20
-0.870542
 30
0.0
 10
172.026921
 20
-0.959442
 30
0.0
  0
SPLINE
  5
37a
100
AcDbEntity
  8
Layer_1
 62
7
100
AcDbSpline
 70
8
 71
3
 72
8
 73
4
 74
0
 40
0
 40
0
 40
0
 40
0
 40
1
 40
1
 40
1
 40
1
 10
172.026921
 20
-0.959442
 30
0.0
 10
171.936012
 20
-1.048370
 30
0.0
 10
171.196158
 20
-1.164956
 30
0.0
 10
170.382844
 20
-1.218493
 30
0.0
  0
SPLINE
  5
37b
100
AcDbEntity
  8
Layer_1
 62
7
100
AcDbSpline
 70
8
 71
3
 72
8
 73
4
 74
0
 40
0
 40
0
 40
0
 40
0
 40
1
 40
1
 40
1
 40
1
 10
170.382844
 20
-1.218493
 30
0.0
 10
166.482770
 20
-1.475005
 30
0.0
 10
165.935093
 20
-1.529982
 30
0.0
 10
165.781124
 20
-1.680265
 30
0.0
  0
SPLINE
  5
37c
100
AcDbEntity
  8
Layer_1
 62
7
100
AcDbSpline
 70
8
 71
3
 72
8
 73
4
 74
0
 40
0
 40
0
 40
0
 40
0
 40
1
 40
1
 40
1
 40
1
 10
165.781124
 20
-1.680265
 30
0.0
 10
165.562565
 20
-1.893597
 30
0.0
 10
154.325924
 20
-1.893625
 30
0.0
 10
154.107292
 20
-1.680265
 30
0.0
  0
LWPOLYLINE
  5
37d
100
AcDbEntity
  8
Layer_1
 62
7
100
AcDbPolyline
 90
3
 70
1
 10
164.156847
 20
365.988866
 30
0.0
 10
164.206665
 20
364.292587
 30
0.0
 10
165.337490
 20
364.205603
 30
0.0
  0
SPLINE
  5
37e
100
AcDbEntity
  8
Layer_1
 62
7
100
AcDbSpline
 70
8
 71
3
 72
8
 73
4
 74
0
 40
0
 40
0
 40
0
 40
0
 40
1
 40
1
 40
1
 40
1
 10
62.039125
 20
438.793296
 30
0.0
 10
61.919519
 20
438.835996
 30
0.0
 10
61.815480
 20
439.001449
 30
0.0
 10
61.807928
 20
439.160921
 30
0.0
  0
SPLINE
  5
37f
100
AcDbEntity
  8
Layer_1
 62
7
100
AcDbSpline
 70
8
 71
3
 72
8
 73
4
 74
0
 40
0
 40
0
 40
0
 40
0
 40
1
 40
1
 40
1
 40
1
 10
61.807928
 20
439.160921
 30
0.0
 10
61.798841
 20
439.350828
 30
0.0
 10
61.763244
 20
439.373827
 30
0.0
 10
61.704480
 20
439.227562
 30
0.0
  0
SPLINE
  5
380
100
AcDbEntity
  8
Layer_1
 62
7
100
AcDbSpline
 70
8
 71
3
 72
8
 73
4
 74
0
 40
0
 40
0
 40
0
 40
0
 40
1
 40
1
 40
1
 40
1
 10
61.704480
 20
439.227562
 30
0.0
 10
61.601906
 20
438.972199
 30
0.0
 10
61.990659
 20
438.426240
 30
0.0
 10
62.150907
 20
438.600614
 30
0.0
  0
SPLINE
  5
381
100
AcDbEntity
  8
Layer_1
 62
7
100
AcDbSpline
 70
8
 71
3
 72
8
 73
4
 74
0
 40
0
 40
0
 40
0
 40
0
 40
1
 40
1
 40
1
 40
1
 10
62.150907
 20
438.600614
 30
0.0
 10
62.209020
 20
438.663868
 30
0.0
 10
62.158753
 20
438.750581
 30
0.0
 10
62.039125
 20
438.793296
 30
0.0
  0
LWPOLYLINE
  5
382
100
AcDbEntity
  8
Layer_1
 62
7
100
AcDbPolyline
 90
2
 70
1
 10
154.107292
 20
-1.680265
 30
0.0
 10
154.107597
 20
-1.679842
 30
0.0
  0
LWPOLYLINE
  5
383
100
AcDbEntity
  8
Layer_1
 62
7
100
AcDbPolyline
 90
2
 70
1
 10
62.039125
 20
438.793296
 30
0.0
 10
62.039125
 20
438.793296
 30
0.0
  0
ENDSEC
  0
SECTION
  2
OBJECTS
  0
DICTIONARY
  5
C
330
0
100
AcDbDictionary
  3
ACAD_GROUP
350
D
  3
ACAD_MLINESTYLE
350
17
  0
DICTIONARY
  5
D
330
C
100
AcDbDictionary
  0
DICTIONARY
  5
1A
330
C
100
AcDbDictionary
  0
DICTIONARY
  5
17
330
C
100
AcDbDictionary
  3
STANDARD
350
18
  0
DICTIONARY
  5
19
330
C
100
AcDbDictionary
  0
ENDSEC
  0
EOF
